999
DXF file: IAK-RG-2-6_7903051_M34547-P-1.dxf
999
Pro/ENGINEER 2010140 by Parametric Technology Corporation
  0
SECTION
  2
HEADER
  9
$ACADVER
  1
AC1015
  9
$DWGCODEPAGE
  3
ANSI_1252
  9
$EXTMAX
 10
420.0
 20
297.0
 30
0.0
  9
$EXTMIN
 10
0.0
 20
0.0
 30
0.0
  9
$LIMMIN
 10
0.0
 20
0.0
  9
$LIMMAX
 10
420.0
 20
297.0
  9
$VIEWCTR
 10
210.0
 20
148.5
  9
$VIEWSIZE
 40
297.0
  9
$CLAYER
  8
0
  9
$LTSCALE
 40
23.1
  9
$CELTYPE
  6
BYLAYER
  9
$DIMSCALE
 40
1.0
  9
$DIMASZ
 40
3.5
  9
$DIMEXO
 40
2.625
  9
$DIMDLI
 40
15.96
  9
$DIMEXE
 40
7.56
  9
$DIMCEN
 40
3.78
  9
$DIMLFAC
 40
1.0
  9
$DIMBLK
  1
_FILLED
  9
$DIMTXT
 40
3.5
  9
$DIMTOL
 70
1
  9
$DIMLIM
 70
0
  9
$DIMTFAC
 40
1.0
  9
$DIMTP
 40
0.005
  9
$DIMTM
 40
0.005
  9
$PDMODE
 70
3
  9
$PDSIZE
 40
0.3125
  9
$HANDSEED
  5
5B5
  9
$TILEMODE
 70
1
  9
$MEASUREMENT
 70
1
  9
$INSUNITS
 70
4
  0
ENDSEC
  0
SECTION
  2
CLASSES
  0
CLASS
  1
ACDBDICTIONARYWDFLT
  2
AcDbDictionaryWithDefault
  3
AutoCAD 2000
 90
0
280
0
281
0
  0
CLASS
  1
ACDBPLACEHOLDER
  2
AcDbPlaceHolder
  3
AutoCAD 2000
 90
0
280
0
281
0
  0
CLASS
  1
LAYOUT
  2
AcDbLayout
  3
AutoCAD 2000
 90
0
280
0
281
0
  0
ENDSEC
  0
SECTION
  2
TABLES
  0
TABLE
  2
VPORT
  5
8
100
AcDbSymbolTable
 70
2
  0
VPORT
  5
1F4
100
AcDbSymbolTableRecord
100
AcDbViewportTableRecord
  2
*ACTIVE
 70
0
 10
0.0
 20
0.0
 11
1.0
 21
1.0
 12
210.0
 22
148.5
 13
0.0
 23
0.0
 14
1.0
 24
1.0
 15
0.0
 25
0.0
 16
0.0
 26
0.0
 36
1.0
 17
0.0
 27
0.0
 37
0.0
 40
297.0
 41
1.4141414141
 42
50.0
 43
0.0
 44
0.0
 50
0.0
 51
0.0
 71
0
 72
100
 73
1
 74
1
 75
0
 76
0
 77
0
 78
0
  0
ENDTAB
  0
TABLE
  2
LTYPE
  5
5
100
AcDbSymbolTable
 70
6
  0
LTYPE
  5
14
100
AcDbSymbolTableRecord
100
AcDbLinetypeTableRecord
  2
BYBLOCK
 70
0
  3

 72
65
 73
0
 40
0.0
  0
LTYPE
  5
15
100
AcDbSymbolTableRecord
100
AcDbLinetypeTableRecord
  2
BYLAYER
 70
0
  3

 72
65
 73
0
 40
0.0
  0
LTYPE
  5
16
100
AcDbSymbolTableRecord
100
AcDbLinetypeTableRecord
  2
CONTINUOUS
 70
64
  3
Solid line
 72
65
 73
0
 40
0.0
  0
LTYPE
  5
1F5
100
AcDbSymbolTableRecord
100
AcDbLinetypeTableRecord
  2
CENTER
 70
64
  3
____ _ ____ _ ____ _ ____ _ ____ _ ____ _ ____
 72
65
 73
4
 40
0.6
 49
0.375
 74
0
 49
-0.075
 74
0
 49
0.075
 74
0
 49
-0.075
 74
0
  0
LTYPE
  5
1F6
100
AcDbSymbolTableRecord
100
AcDbLinetypeTableRecord
  2
HIDDEN
 70
64
  3
- - - - - - - - - - - - - - - - - - - -
 72
65
 73
2
 40
0.2
 49
0.1
 74
0
 49
-0.1
 74
0
  0
LTYPE
  5
1F7
100
AcDbSymbolTableRecord
100
AcDbLinetypeTableRecord
  2
PHANTOM
 70
64
  3
_____ _ _ _____ _ _ _____ _ _ _____
 72
65
 73
6
 40
0.8
 49
0.45
 74
0
 49
-0.05
 74
0
 49
0.1
 74
0
 49
-0.05
 74
0
 49
0.1
 74
0
 49
-0.05
 74
0
  0
LTYPE
  5
1F8
100
AcDbSymbolTableRecord
100
AcDbLinetypeTableRecord
  2
DOT
 70
64
  3
. . . . . . . . . . . . . . . . . . . .
 72
65
 73
2
 40
0.2
 49
0.1
 74
0
 49
-0.1
 74
0
  0
LTYPE
  5
1F9
100
AcDbSymbolTableRecord
100
AcDbLinetypeTableRecord
  2
DASHED
 70
64
  3
- - - - - - - - - - - - - - - - - - - -
 72
65
 73
2
 40
0.2
 49
0.1
 74
0
 49
-0.1
 74
0
  0
ENDTAB
  0
TABLE
  2
LAYER
  5
2
100
AcDbSymbolTable
 70
36
  0
LAYER
  5
10
100
AcDbSymbolTableRecord
100
AcDbLayerTableRecord
  2
0
 70
0
 62
7
  6
CONTINUOUS
370
-3
390
F
  0
LAYER
  5
1FA
100
AcDbSymbolTableRecord
100
AcDbLayerTableRecord
  2
DEFAULT_1
 70
0
 62
7
  6
CENTER
370
-3
390
F
  0
LAYER
  5
1FB
100
AcDbSymbolTableRecord
100
AcDbLayerTableRecord
  2
DEFAULT_2
 70
0
 62
8
  6
HIDDEN
370
-3
390
F
  0
LAYER
  5
1FC
100
AcDbSymbolTableRecord
100
AcDbLayerTableRecord
  2
DEFAULT_3
 70
0
 62
7
  6
PHANTOM
370
-3
390
F
  0
LAYER
  5
1FD
100
AcDbSymbolTableRecord
100
AcDbLayerTableRecord
  2
BEZUGSACHSEN
 70
0
 62
7
  6
CONTINUOUS
370
-3
390
F
  0
LAYER
  5
1FE
100
AcDbSymbolTableRecord
100
AcDbLayerTableRecord
  2
BEZUGSEBENEN
 70
0
 62
7
  6
CONTINUOUS
370
-3
390
F
  0
LAYER
  5
1FF
100
AcDbSymbolTableRecord
100
AcDbLayerTableRecord
  2
BG_STARTBEZUEGE
 70
0
 62
7
  6
CONTINUOUS
370
-3
390
F
  0
LAYER
  5
200
100
AcDbSymbolTableRecord
100
AcDbLayerTableRecord
  2
FASEN
 70
0
 62
7
  6
CONTINUOUS
370
-3
390
F
  0
LAYER
  5
201
100
AcDbSymbolTableRecord
100
AcDbLayerTableRecord
  2
HILFEN
 70
0
 62
7
  6
CONTINUOUS
370
-3
390
F
  0
LAYER
  5
202
100
AcDbSymbolTableRecord
100
AcDbLayerTableRecord
  2
KONSTRUKTIONSELEMENTE
 70
0
 62
7
  6
CONTINUOUS
370
-3
390
F
  0
LAYER
  5
203
100
AcDbSymbolTableRecord
100
AcDbLayerTableRecord
  2
NORM
 70
0
 62
7
  6
CONTINUOUS
370
-3
390
F
  0
LAYER
  5
204
100
AcDbSymbolTableRecord
100
AcDbLayerTableRecord
  2
PLATZIERUNG
 70
0
 62
7
  6
CONTINUOUS
370
-3
390
F
  0
LAYER
  5
205
100
AcDbSymbolTableRecord
100
AcDbLayerTableRecord
  2
RUNDUNGEN
 70
0
 62
7
  6
CONTINUOUS
370
-3
390
F
  0
LAYER
  5
206
100
AcDbSymbolTableRecord
100
AcDbLayerTableRecord
  2
TEIL_STARTBEZUEGE
 70
0
 62
7
  6
CONTINUOUS
370
-3
390
F
  0
LAYER
  5
207
100
AcDbSymbolTableRecord
100
AcDbLayerTableRecord
  2
T_STARTBEZUEGE
 70
0
 62
7
  6
CONTINUOUS
370
-3
390
F
  0
ENDTAB
  0
TABLE
  2
STYLE
  5
3
100
AcDbSymbolTable
 70
1
  0
STYLE
  5
11
100
AcDbSymbolTableRecord
100
AcDbTextStyleTableRecord
  2
STANDARD
 70
0
 40
0.0
 41
0.7
 50
0.0
 71
0
 42
0.2
  3
txt
  4

  0
STYLE
  5
208
100
AcDbSymbolTableRecord
100
AcDbTextStyleTableRecord
  2
TEXTSTYLE_1
 70
0
 40
0.0
 41
0.8
 50
0.0
 71
0
 42
0.2
  3
gdt
  4

  0
ENDTAB
  0
TABLE
  2
VIEW
  5
6
100
AcDbSymbolTable
 70
0
  0
ENDTAB
  0
TABLE
  2
UCS
  5
7
100
AcDbSymbolTable
 70
0
  0
ENDTAB
  0
TABLE
  2
APPID
  5
9
100
AcDbSymbolTable
 70
1
  0
APPID
  5
209
100
AcDbSymbolTableRecord
100
AcDbRegAppTableRecord
  2
ACAD
 70
0
  0
ENDTAB
  0
TABLE
  2
BLOCK_RECORD
  5
1
100
AcDbSymbolTable
 70
0
  0
BLOCK_RECORD
  5
20A
100
AcDbSymbolTableRecord
100
AcDbBlockTableRecord
  2
*Model_Space
  0
BLOCK_RECORD
  5
20B
100
AcDbSymbolTableRecord
100
AcDbBlockTableRecord
  2
*Paper_Space
  0
ENDTAB
  0
TABLE
  2
DIMSTYLE
  5
A
100
AcDbSymbolTable
 70
1
100
AcDbDimStyleTable
 71
0
  0
DIMSTYLE
105
20C
100
AcDbSymbolTableRecord
100
AcDbDimStyleTableRecord
  2
STANDARD
 70
0
  3

  4

 40
1.0
 41
3.5
 42
0.0625
 43
0.38
 44
0.18
 45
0.0
 46
0.0
 47
0.005
 48
0.005
140
3.5
141
0.09
142
0.0
143
25.4
144
1.0
145
0.0
146
1.0
147
0.09
 71
1.0
 72
0.0
 73
0
 74
0
 75
0
 76
0
 77
1
 78
8
170
0
171
2
172
0
173
0
174
0
175
0
176
0
177
0
178
5
270
2
271
3
272
3
273
2
274
2
275
0
280
0
281
0
282
0
283
1
284
8
285
0
286
0
287
3
288
0
340
11
  0
ENDTAB
  0
ENDSEC
  0
SECTION
  2
BLOCKS
  0
BLOCK
  5
20
100
AcDbEntity
  8
0
100
AcDbBlockBegin
  2
*Model_Space
 70
0
 10
0.0
 20
0.0
 30
0.0
  3
*Model_Space
  1

  0
ENDBLK
  5
21
100
AcDbEntity
  8
0
100
AcDbBlockEnd
  0
BLOCK
  5
1C
100
AcDbEntity
  8
0
100
AcDbBlockBegin
  2
*Paper_Space
 70
0
 10
0.0
 20
0.0
 30
0.0
  3
*Paper_Space
  1

  0
ENDBLK
  5
1D
100
AcDbEntity
  8
0
100
AcDbBlockEnd
  0
ENDSEC
  0
SECTION
  2
ENTITIES
  0
MTEXT
  5
20D
100
AcDbEntity
  8
0
100
AcDbMText
 62
5
  6
CONTINUOUS
  7
STANDARD
 71
1
 72
1
 10
293.5631190226
 20
191.3805148308
 30
0.0
 11
0.0
 21
1.0
 31
0.0
 44
0.9
  1
RUD
 40
6.0
 41
16.0
  0
MTEXT
  5
20E
100
AcDbEntity
  8
0
100
AcDbMText
 62
5
  6
CONTINUOUS
  7
STANDARD
 71
1
 72
1
 10
384.4837158271
 20
175.0453879511
 30
0.0
 11
0.0
 21
1.0
 31
0.0
 44
0.9
  1
IAK-RG 2-6
 40
6.0
 41
47.0
  0
MTEXT
  5
20F
100
AcDbEntity
  8
0
100
AcDbMText
 62
5
  6
CONTINUOUS
  7
STANDARD
 71
1
 72
1
 10
91.5566176128
 20
171.2056910526
 30
0.0
 11
0.0
 21
1.0
 31
0.0
 44
0.9
  1
RUD IAK-RG 2-6
 40
6.0
 41
66.5714285714
  0
LINE
  5
210
100
AcDbEntity
  8
0
100
AcDbLine
 62
7
  6
CONTINUOUS
 10
0.0
 20
0.0
 11
0.0
 21
297.0
  0
LINE
  5
211
100
AcDbEntity
  8
0
100
AcDbLine
 62
7
  6
CONTINUOUS
 10
0.0
 20
0.0
 11
420.0
 21
0.0
  0
LINE
  5
212
100
AcDbEntity
  8
0
100
AcDbLine
 62
7
  6
CONTINUOUS
 10
0.0
 20
297.0
 11
420.0
 21
297.0
  0
LINE
  5
213
100
AcDbEntity
  8
0
100
AcDbLine
 62
7
  6
CONTINUOUS
 10
420.0
 20
0.0
 11
420.0
 21
297.0
  0
LINE
  5
214
100
AcDbEntity
  8
RUNDUNGEN
100
AcDbLine
 62
7
  6
CONTINUOUS
 10
178.6427644012
 20
5.3858959088
 11
175.1072304953
 21
8.9214298147
  0
LINE
  5
215
100
AcDbEntity
  8
RUNDUNGEN
100
AcDbLine
 62
7
  6
CONTINUOUS
 10
210.9007531312
 20
44.7149524507
 11
214.4362870371
 21
41.1794185447
  0
LINE
  5
216
100
AcDbEntity
  8
RUNDUNGEN
100
AcDbLine
 62
7
  6
CONTINUOUS
 10
220.6546104112
 20
47.3977419188
 11
217.1190765053
 21
50.9332758247
  0
LINE
  5
217
100
AcDbEntity
  8
RUNDUNGEN
100
AcDbLine
 62
7
  6
CONTINUOUS
 10
217.2378742635
 20
51.052073583
 11
220.7734081695
 21
47.5165396771
  0
LINE
  5
218
100
AcDbEntity
  8
KONSTRUKTIONSELEMENTE
100
AcDbLine
 62
7
  6
CONTINUOUS
 10
215.3416063448
 20
59.126011279
 11
218.8771402507
 21
55.590477373
  0
LINE
  5
219
100
AcDbEntity
  8
KONSTRUKTIONSELEMENTE
100
AcDbLine
 62
7
  6
CONTINUOUS
 10
215.6951597354
 20
59.4795646696
 11
219.2306936413
 21
55.9440307636
  0
LINE
  5
21A
100
AcDbEntity
  8
0
100
AcDbLine
 62
7
  6
CONTINUOUS
 10
313.2327515534
 20
89.8051911486
 11
311.1654277877
 21
90.5576354639
  0
LINE
  5
21B
100
AcDbEntity
  8
0
100
AcDbLine
 62
7
  6
CONTINUOUS
 10
311.1686451707
 20
90.5664751512
 11
313.2359689364
 21
89.8140308359
  0
LINE
  5
21C
100
AcDbEntity
  8
0
100
AcDbLine
 62
7
  6
CONTINUOUS
 10
309.1956581879
 20
96.0619363027
 11
318.2797789886
 21
92.7555867268
  0
LINE
  5
21D
100
AcDbEntity
  8
0
100
AcDbLine
 62
7
  6
CONTINUOUS
 10
316.2824710653
 20
105.2379047588
 11
318.7491641949
 21
104.3401018826
  0
LINE
  5
21E
100
AcDbEntity
  8
KONSTRUKTIONSELEMENTE
100
AcDbLine
 62
7
  6
CONTINUOUS
 10
276.5063429174
 20
120.2907478516
 11
280.0418768233
 21
116.7552139457
  0
LINE
  5
21F
100
AcDbEntity
  8
KONSTRUKTIONSELEMENTE
100
AcDbLine
 62
7
  6
CONTINUOUS
 10
276.859896308
 20
120.6443012422
 11
280.3954302139
 21
117.1087673363
  0
LINE
  5
220
100
AcDbEntity
  8
0
100
AcDbLine
 62
7
  6
CONTINUOUS
 10
321.5175605379
 20
111.946208323
 11
319.0508674083
 21
112.8440111992
  0
LINE
  5
221
100
AcDbEntity
  8
0
100
AcDbLine
 62
7
  6
CONTINUOUS
 10
323.721789553
 20
115.9036186482
 11
319.9061043434
 21
117.2924144879
  0
LINE
  5
222
100
AcDbEntity
  8
0
100
AcDbLine
 62
7
  6
CONTINUOUS
 10
327.3156308652
 20
126.7144642792
 11
324.1021397986
 21
127.8840793755
  0
LINE
  5
223
100
AcDbEntity
  8
0
100
AcDbLine
 62
7
  6
CONTINUOUS
 10
288.6258522115
 20
172.404517625
 11
288.6258522115
 21
232.404517625
  0
LINE
  5
224
100
AcDbEntity
  8
KONSTRUKTIONSELEMENTE
100
AcDbLine
 62
7
  6
CONTINUOUS
 10
211.311097692
 20
55.0955026262
 11
215.3416063448
 21
59.126011279
  0
LINE
  5
225
100
AcDbEntity
  8
KONSTRUKTIONSELEMENTE
100
AcDbLine
 62
7
  6
CONTINUOUS
 10
215.6951597354
 20
59.4795646696
 11
219.7256683881
 21
63.5100733223
  0
LINE
  5
226
100
AcDbEntity
  8
KONSTRUKTIONSELEMENTE
100
AcDbLine
 62
7
  6
CONTINUOUS
 10
272.4758342646
 20
116.2602391988
 11
276.5063429174
 21
120.2907478516
  0
LINE
  5
227
100
AcDbEntity
  8
KONSTRUKTIONSELEMENTE
100
AcDbLine
 62
7
  6
CONTINUOUS
 10
276.859896308
 20
120.6443012422
 11
280.8904049608
 21
124.674809895
  0
LINE
  5
228
100
AcDbEntity
  8
KONSTRUKTIONSELEMENTE
100
AcDbLine
 62
7
  6
CONTINUOUS
 10
252.3232910008
 20
93.9156649133
 11
241.716689283
 21
83.3090631955
  0
LINE
  5
229
100
AcDbEntity
  8
0
100
AcDbLine
 62
7
  6
CONTINUOUS
 10
331.2105692488
 20
137.4157195384
 11
327.9970781822
 21
138.5853346348
  0
LINE
  5
22A
100
AcDbEntity
  8
0
100
AcDbLine
 62
7
  6
CONTINUOUS
 10
304.6258522115
 20
172.404517625
 11
304.6258522115
 21
232.404517625
  0
LINE
  5
22B
100
AcDbEntity
  8
KONSTRUKTIONSELEMENTE
100
AcDbLine
 62
7
  6
CONTINUOUS
 10
214.8466315979
 20
51.5599687203
 11
218.8771402507
 21
55.590477373
  0
LINE
  5
22C
100
AcDbEntity
  8
KONSTRUKTIONSELEMENTE
100
AcDbLine
 62
7
  6
CONTINUOUS
 10
219.2306936413
 20
55.9440307636
 11
223.2612022941
 21
59.9745394164
  0
LINE
  5
22D
100
AcDbEntity
  8
KONSTRUKTIONSELEMENTE
100
AcDbLine
 62
7
  6
CONTINUOUS
 10
276.0113681706
 20
112.7247052929
 11
280.0418768233
 21
116.7552139457
  0
LINE
  5
22E
100
AcDbEntity
  8
KONSTRUKTIONSELEMENTE
100
AcDbLine
 62
7
  6
CONTINUOUS
 10
280.3954302139
 20
117.1087673363
 11
284.4259388667
 21
121.139275989
  0
LINE
  5
22F
100
AcDbEntity
  8
KONSTRUKTIONSELEMENTE
100
AcDbLine
 62
7
  6
CONTINUOUS
 10
255.5052715162
 20
90.733684398
 11
244.8986697984
 21
80.1270826802
  0
LINE
  5
230
100
AcDbEntity
  8
KONSTRUKTIONSELEMENTE
100
AcDbLine
 62
7
  6
CONTINUOUS
 10
315.609347917
 20
150.1306540177
 11
286.6179698884
 21
121.139275989
  0
LINE
  5
231
100
AcDbEntity
  8
RUNDUNGEN
100
AcDbLine
 62
7
  6
CONTINUOUS
 10
175.1072304953
 20
8.9214298147
 11
217.23778642
 21
51.0519857394
  0
LINE
  5
232
100
AcDbEntity
  8
KONSTRUKTIONSELEMENTE
100
AcDbLine
 62
7
  6
CONTINUOUS
 10
226.1603400969
 20
59.6209860258
 11
244.8690250721
 21
78.329671001
  0
LINE
  5
233
100
AcDbEntity
  8
KONSTRUKTIONSELEMENTE
100
AcDbLine
 62
7
  6
CONTINUOUS
 10
257.2730384691
 20
90.733684398
 11
275.9817234443
 21
109.4423693732
  0
LINE
  5
234
100
AcDbEntity
  8
KONSTRUKTIONSELEMENTE
100
AcDbLine
 62
7
  6
CONTINUOUS
 10
229.3423206123
 20
56.4390055105
 11
248.0510055874
 21
75.1476904856
  0
LINE
  5
235
100
AcDbEntity
  8
KONSTRUKTIONSELEMENTE
100
AcDbLine
 62
7
  6
CONTINUOUS
 10
260.4550189845
 20
87.5517038827
 11
279.1637039596
 21
106.2603888578
  0
LINE
  5
236
100
AcDbEntity
  8
RUNDUNGEN
100
AcDbLine
 62
7
  6
CONTINUOUS
 10
178.6427644012
 20
5.3858959088
 11
220.7733080815
 21
47.5164395891
  0
LINE
  5
237
100
AcDbEntity
  8
KONSTRUKTIONSELEMENTE
100
AcDbLine
 62
7
  6
CONTINUOUS
 10
319.8519886041
 20
145.8880133306
 11
290.9101207027
 21
116.9461454291
  0
LINE
  5
238
100
AcDbEntity
  8
KONSTRUKTIONSELEMENTE
100
AcDbLine
 62
7
  6
CONTINUOUS
 10
249.8484172667
 20
75.1773352119
 11
260.4550189845
 21
85.7839369297
  0
LINE
  5
239
100
AcDbEntity
  8
0
100
AcDbLine
 62
7
  6
CONTINUOUS
 10
352.3596878571
 20
149.286589894
 11
349.1461967905
 21
148.1169747977
  0
LINE
  5
23A
100
AcDbEntity
  8
0
100
AcDbLine
 62
7
  6
CONTINUOUS
 10
350.189842385
 20
145.249582093
 11
353.4033334516
 21
146.4191971893
  0
LINE
  5
23B
100
AcDbEntity
  8
0
100
AcDbLine
 62
7
  6
CONTINUOUS
 10
334.061862038
 20
145.249582093
 11
330.8483709714
 21
146.4191971893
  0
LINE
  5
23C
100
AcDbEntity
  8
0
100
AcDbLine
 62
7
  6
CONTINUOUS
 10
331.8920165659
 20
149.286589894
 11
335.1055076325
 21
148.1169747977
  0
LINE
  5
23D
100
AcDbEntity
  8
RUNDUNGEN
100
AcDbLine
 62
7
  6
CONTINUOUS
 10
306.144978977
 20
101.3240226825
 11
308.7443320663
 21
108.4656866004
  0
LINE
  5
23E
100
AcDbEntity
  8
RUNDUNGEN
100
AcDbLine
 62
7
  6
CONTINUOUS
 10
312.5745542819
 20
111.6796246489
 11
314.5137650499
 21
117.0075624456
  0
LINE
  5
23F
100
AcDbEntity
  8
KONSTRUKTIONSELEMENTE
100
AcDbLine
 62
7
  6
CONTINUOUS
 10
290.8606105755
 20
114.7046042802
 11
282.4460398794
 21
106.2900335841
  0
LINE
  5
240
100
AcDbEntity
  8
KONSTRUKTIONSELEMENTE
100
AcDbLine
 62
7
  6
CONTINUOUS
 10
229.6958740029
 20
53.5398677076
 11
221.2813033067
 21
45.1252970115
  0
LINE
  5
241
100
AcDbEntity
  8
KONSTRUKTIONSELEMENTE
100
AcDbLine
 62
7
  6
CONTINUOUS
 10
253.030397782
 20
71.9953546966
 11
263.6369994998
 21
82.6019564144
  0
LINE
  5
242
100
AcDbEntity
  8
KONSTRUKTIONSELEMENTE
100
AcDbLine
 62
7
  6
CONTINUOUS
 10
294.3961444814
 20
111.1690703743
 11
285.9815737853
 21
102.7544996782
  0
LINE
  5
243
100
AcDbEntity
  8
KONSTRUKTIONSELEMENTE
100
AcDbLine
 62
7
  6
CONTINUOUS
 10
233.2314079088
 20
50.0043338017
 11
224.8168372127
 21
41.5897631055
  0
LINE
  5
244
100
AcDbEntity
  8
KONSTRUKTIONSELEMENTE
100
AcDbLine
 62
7
  6
CONTINUOUS
 10
331.8920165659
 20
149.286589894
 11
327.714284946
 21
145.6244223533
  0
LINE
  5
245
100
AcDbEntity
  8
0
100
AcDbLine
 62
7
  6
CONTINUOUS
 10
353.0411351742
 20
137.4157195384
 11
356.2546262408
 21
138.5853346348
  0
LINE
  5
246
100
AcDbEntity
  8
RUNDUNGEN
100
AcDbLine
 62
7
  6
CONTINUOUS
 10
375.5073723568
 20
108.4656866004
 11
371.6771501412
 21
111.6796246489
  0
LINE
  5
247
100
AcDbEntity
  8
0
100
AcDbLine
 62
7
  6
CONTINUOUS
 10
325.7302509729
 20
106.8913426423
 11
326.5984918612
 21
101.9673038773
  0
LINE
  5
248
100
AcDbEntity
  8
RUNDUNGEN
100
AcDbLine
 62
7
  6
CONTINUOUS
 10
316.2824710653
 20
105.2379047588
 11
317.8991820431
 21
113.6470158895
  0
LINE
  5
249
100
AcDbEntity
  8
0
100
AcDbLine
 62
7
  6
CONTINUOUS
 10
319.0508674083
 20
112.8440111992
 11
319.9061043434
 21
117.2924144879
  0
LINE
  5
24A
100
AcDbEntity
  8
0
100
AcDbLine
 62
7
  6
CONTINUOUS
 10
321.5074825522
 20
121.9793047343
 11
319.9061043434
 21
117.2924144879
  0
LINE
  5
24B
100
AcDbEntity
  8
BEZUGSACHSEN
100
AcDbLine
 62
7
  6
CONTINUOUS
 10
326.3117344495
 20
143.5746081661
 11
319.4604685365
 21
124.7509097754
  0
LINE
  5
24C
100
AcDbEntity
  8
RUNDUNGEN
100
AcDbLine
 62
7
  6
CONTINUOUS
 10
319.4603942183
 20
124.7507055878
 11
317.3440291796
 21
118.9360404328
  0
LINE
  5
24D
100
AcDbEntity
  8
KONSTRUKTIONSELEMENTE
100
AcDbLine
 62
7
  6
CONTINUOUS
 10
317.3440291796
 20
118.9360404328
 11
319.4604685365
 21
124.7509097754
  0
LINE
  5
24E
100
AcDbEntity
  8
0
100
AcDbLine
 62
7
  6
CONTINUOUS
 10
319.0508674083
 20
112.8440111992
 11
316.2824710653
 21
105.2379047588
  0
LINE
  5
24F
100
AcDbEntity
  8
0
100
AcDbLine
 62
7
  6
CONTINUOUS
 10
321.5175605379
 20
111.946208323
 11
318.7491641949
 21
104.3401018826
  0
LINE
  5
250
100
AcDbEntity
  8
0
100
AcDbLine
 62
7
  6
CONTINUOUS
 10
325.5077376533
 20
120.523330948
 11
323.721789553
 21
115.9036186482
  0
LINE
  5
251
100
AcDbEntity
  8
0
100
AcDbLine
 62
7
  6
CONTINUOUS
 10
321.5175605379
 20
111.946208323
 11
323.721789553
 21
115.9036186482
  0
LINE
  5
252
100
AcDbEntity
  8
RUNDUNGEN
100
AcDbLine
 62
7
  6
CONTINUOUS
 10
312.5745542819
 20
111.6796246489
 11
308.7443320663
 21
108.4656866004
  0
LINE
  5
253
100
AcDbEntity
  8
0
100
AcDbLine
 62
7
  6
CONTINUOUS
 10
356.9360735578
 20
126.7144642792
 11
360.1495646244
 21
127.8840793755
  0
LINE
  5
254
100
AcDbEntity
  8
KONSTRUKTIONSELEMENTE
100
AcDbLine
 62
7
  6
CONTINUOUS
 10
352.3596878571
 20
149.286589894
 11
356.537419477
 21
145.6244223533
  0
LINE
  5
255
100
AcDbEntity
  8
BEZUGSACHSEN
100
AcDbLine
 62
7
  6
CONTINUOUS
 10
335.7086606574
 20
140.1544067329
 11
328.8573947443
 21
121.3307083422
  0
LINE
  5
256
100
AcDbEntity
  8
0
100
AcDbLine
 62
7
  6
CONTINUOUS
 10
328.8573947443
 20
121.3307083422
 11
326.7409553875
 21
115.5158389995
  0
LINE
  5
257
100
AcDbEntity
  8
0
100
AcDbLine
 62
7
  6
CONTINUOUS
 10
327.6694617409
 20
112.2192804391
 11
325.7302509729
 21
106.8913426423
  0
LINE
  5
258
100
AcDbEntity
  8
0
100
AcDbLine
 62
7
  6
CONTINUOUS
 10
326.5984918612
 20
101.9673038773
 11
323.9991387719
 21
94.8256399593
  0
LINE
  5
259
100
AcDbEntity
  8
0
100
AcDbLine
 62
7
  6
CONTINUOUS
 10
318.7491641949
 20
104.3401018826
 11
322.9159641776
 21
111.8210565208
  0
LINE
  5
25A
100
AcDbEntity
  8
0
100
AcDbLine
 62
7
  6
CONTINUOUS
 10
360.52991487
 20
115.9036186482
 11
364.3456000796
 21
117.2924144879
  0
LINE
  5
25B
100
AcDbEntity
  8
0
100
AcDbLine
 62
7
  6
CONTINUOUS
 10
365.2008370147
 20
112.8440111992
 11
362.7341438852
 21
111.946208323
  0
LINE
  5
25C
100
AcDbEntity
  8
0
100
AcDbLine
 62
7
  6
CONTINUOUS
 10
365.5025402281
 20
104.3401018826
 11
361.3357402455
 21
111.8210565208
  0
LINE
  5
25D
100
AcDbEntity
  8
0
100
AcDbLine
 62
7
  6
CONTINUOUS
 10
362.7341438852
 20
111.946208323
 11
360.52991487
 21
115.9036186482
  0
LINE
  5
25E
100
AcDbEntity
  8
0
100
AcDbLine
 62
7
  6
CONTINUOUS
 10
358.7439667698
 20
120.523330948
 11
360.52991487
 21
115.9036186482
  0
LINE
  5
25F
100
AcDbEntity
  8
0
100
AcDbLine
 62
7
  6
CONTINUOUS
 10
360.2525656511
 20
94.8256399593
 11
357.6532125618
 21
101.9673038773
  0
LINE
  5
260
100
AcDbEntity
  8
0
100
AcDbLine
 62
7
  6
CONTINUOUS
 10
356.5822426805
 20
112.2192804434
 11
358.5214534502
 21
106.8913426423
  0
LINE
  5
261
100
AcDbEntity
  8
0
100
AcDbLine
 62
7
  6
CONTINUOUS
 10
355.3943840272
 20
121.3305040714
 11
357.5107490566
 21
115.5158389416
  0
LINE
  5
262
100
AcDbEntity
  8
BEZUGSACHSEN
100
AcDbLine
 62
7
  6
CONTINUOUS
 10
355.3943096787
 20
121.3307083422
 11
348.5430437657
 21
140.1544067329
  0
LINE
  5
263
100
AcDbEntity
  8
0
100
AcDbLine
 62
7
  6
CONTINUOUS
 10
335.951839805
 20
142.6261975815
 11
335.1055076325
 21
148.1169747977
  0
LINE
  5
264
100
AcDbEntity
  8
0
100
AcDbLine
 62
7
  6
CONTINUOUS
 10
348.299864618
 20
142.6261975815
 11
349.1461967905
 21
148.1169747977
  0
LINE
  5
265
100
AcDbEntity
  8
0
100
AcDbLine
 62
7
  6
CONTINUOUS
 10
365.5025402281
 20
104.3401018826
 11
367.9692333577
 21
105.2379047588
  0
LINE
  5
266
100
AcDbEntity
  8
0
100
AcDbLine
 62
7
  6
CONTINUOUS
 10
362.7341438852
 20
111.946208323
 11
365.5025402281
 21
104.3401018826
  0
LINE
  5
267
100
AcDbEntity
  8
0
100
AcDbLine
 62
7
  6
CONTINUOUS
 10
365.2008370147
 20
112.8440111992
 11
367.9692333577
 21
105.2379047588
  0
LINE
  5
268
100
AcDbEntity
  8
RUNDUNGEN
100
AcDbLine
 62
7
  6
CONTINUOUS
 10
364.791310235
 20
124.7507055047
 11
366.9076752645
 21
118.9360403749
  0
LINE
  5
269
100
AcDbEntity
  8
BEZUGSACHSEN
100
AcDbLine
 62
7
  6
CONTINUOUS
 10
364.7912358866
 20
124.7509097754
 11
357.9399699735
 21
143.5746081661
  0
LINE
  5
26A
100
AcDbEntity
  8
RUNDUNGEN
100
AcDbLine
 62
7
  6
CONTINUOUS
 10
369.7379393715
 20
117.00756245
 11
371.6771501412
 21
111.6796246489
  0
LINE
  5
26B
100
AcDbEntity
  8
RUNDUNGEN
100
AcDbLine
 62
7
  6
CONTINUOUS
 10
378.106725446
 20
101.3240226825
 11
375.5073723568
 21
108.4656866004
  0
LINE
  5
26C
100
AcDbEntity
  8
0
100
AcDbLine
 62
7
  6
CONTINUOUS
 10
362.7442218709
 20
121.9793047343
 11
364.3456000796
 21
117.2924144879
  0
LINE
  5
26D
100
AcDbEntity
  8
0
100
AcDbLine
 62
7
  6
CONTINUOUS
 10
365.2008370147
 20
112.8440111992
 11
364.3456000796
 21
117.2924144879
  0
LINE
  5
26E
100
AcDbEntity
  8
0
100
AcDbLine
 62
7
  6
CONTINUOUS
 10
357.6532125618
 20
101.9673038773
 11
358.5214534502
 21
106.8913426423
  0
LINE
  5
26F
100
AcDbEntity
  8
0
100
AcDbLine
 62
7
  6
CONTINUOUS
 10
365.9719254344
 20
92.7555867268
 11
375.0560462351
 21
96.0619363027
  0
LINE
  5
270
100
AcDbEntity
  8
0
100
AcDbLine
 62
7
  6
CONTINUOUS
 10
371.0157354866
 20
89.8140308359
 11
373.0830592523
 21
90.5664751512
  0
LINE
  5
271
100
AcDbEntity
  8
0
100
AcDbLine
 62
7
  6
CONTINUOUS
 10
373.0862766354
 20
90.5576354639
 11
371.0189528696
 21
89.8051911486
  0
LINE
  5
272
100
AcDbEntity
  8
RUNDUNGEN
100
AcDbLine
 62
7
  6
CONTINUOUS
 10
367.9692333577
 20
105.2379047588
 11
366.3525223799
 21
113.6470158895
  0
LINE
  5
273
100
AcDbEntity
  8
0
100
AcDbLine
 62
7
  6
CONTINUOUS
 10
379.6258522115
 20
232.404517625
 11
379.6258522115
 21
172.404517625
  0
LINE
  5
274
100
AcDbEntity
  8
0
100
AcDbLine
 62
7
  6
CONTINUOUS
 10
395.6258522115
 20
232.404517625
 11
395.6258522115
 21
172.404517625
  0
LINE
  5
275
100
AcDbEntity
  8
RUNDUNGEN
100
AcDbLine
 62
7
  6
CONTINUOUS
 10
76.9694239729
 20
5.3858959088
 11
78.1694239729
 21
5.3858959088
  0
LINE
  5
276
100
AcDbEntity
  8
RUNDUNGEN
100
AcDbLine
 62
7
  6
CONTINUOUS
 10
110.5694239729
 20
5.3858959088
 11
111.7694239729
 21
5.3858959088
  0
LINE
  5
277
100
AcDbEntity
  8
RUNDUNGEN
100
AcDbLine
 62
7
  6
CONTINUOUS
 10
81.4694239729
 20
10.4770647333
 11
85.7966443176
 21
10.4770647333
  0
LINE
  5
278
100
AcDbEntity
  8
RUNDUNGEN
100
AcDbLine
 62
7
  6
CONTINUOUS
 10
102.9422036282
 20
10.4770647333
 11
107.2694239729
 21
10.4770647333
  0
LINE
  5
279
100
AcDbEntity
  8
0
100
AcDbLine
 62
7
  6
CONTINUOUS
 10
85.9770633317
 20
35.0843807186
 11
88.8570633317
 21
35.0843807186
  0
LINE
  5
27A
100
AcDbEntity
  8
0
100
AcDbLine
 62
7
  6
CONTINUOUS
 10
90.3845441126
 20
35.0843807186
 11
90.9605441126
 21
35.0843807186
  0
LINE
  5
27B
100
AcDbEntity
  8
0
100
AcDbLine
 62
7
  6
CONTINUOUS
 10
93.7043164628
 20
35.0843807186
 11
94.3694239729
 21
35.0843807186
  0
LINE
  5
27C
100
AcDbEntity
  8
0
100
AcDbLine
 62
7
  6
CONTINUOUS
 10
99.381025329
 20
35.0843807186
 11
101.4678055695
 21
35.0843807186
  0
LINE
  5
27D
100
AcDbEntity
  8
0
100
AcDbLine
 62
7
  6
CONTINUOUS
 10
85.9770633317
 20
35.296512753
 11
88.8570633317
 21
35.296512753
  0
LINE
  5
27E
100
AcDbEntity
  8
0
100
AcDbLine
 62
7
  6
CONTINUOUS
 10
90.3845441126
 20
35.296512753
 11
90.9605441126
 21
35.296512753
  0
LINE
  5
27F
100
AcDbEntity
  8
0
100
AcDbLine
 62
7
  6
CONTINUOUS
 10
93.7043164628
 20
35.296512753
 11
94.1962188921
 21
35.296512753
  0
LINE
  5
280
100
AcDbEntity
  8
0
100
AcDbLine
 62
7
  6
CONTINUOUS
 10
99.381025329
 20
35.296512753
 11
101.4678055695
 21
35.296512753
  0
LINE
  5
281
100
AcDbEntity
  8
0
100
AcDbLine
 62
7
  6
CONTINUOUS
 10
101.4804274563
 20
35.5086447873
 11
99.957025329
 21
35.5086447873
  0
LINE
  5
282
100
AcDbEntity
  8
0
100
AcDbLine
 62
7
  6
CONTINUOUS
 10
87.8670633317
 20
35.5934976011
 11
86.9670633317
 21
35.5934976011
  0
LINE
  5
283
100
AcDbEntity
  8
0
100
AcDbLine
 62
7
  6
CONTINUOUS
 10
87.1290633317
 20
35.784416432
 11
87.7050633317
 21
35.784416432
  0
LINE
  5
284
100
AcDbEntity
  8
0
100
AcDbLine
 62
7
  6
CONTINUOUS
 10
87.1290633317
 20
35.9965484664
 11
87.7050633317
 21
35.9965484664
  0
LINE
  5
285
100
AcDbEntity
  8
0
100
AcDbLine
 62
7
  6
CONTINUOUS
 10
87.4800633317
 20
36.2935333145
 11
87.3540633317
 21
36.2935333145
  0
LINE
  5
286
100
AcDbEntity
  8
0
100
AcDbLine
 62
7
  6
CONTINUOUS
 10
87.7050633317
 20
36.4208125351
 11
87.5520633317
 21
36.4208125351
  0
LINE
  5
287
100
AcDbEntity
  8
0
100
AcDbLine
 62
7
  6
CONTINUOUS
 10
87.2820633317
 20
36.4208125351
 11
87.1290633317
 21
36.4208125351
  0
LINE
  5
288
100
AcDbEntity
  8
0
100
AcDbLine
 62
7
  6
CONTINUOUS
 10
86.9670633317
 20
36.611731366
 11
87.2820633317
 21
36.611731366
  0
LINE
  5
289
100
AcDbEntity
  8
0
100
AcDbLine
 62
7
  6
CONTINUOUS
 10
87.5520633317
 20
36.611731366
 11
87.8670633317
 21
36.611731366
  0
LINE
  5
28A
100
AcDbEntity
  8
0
100
AcDbLine
 62
7
  6
CONTINUOUS
 10
90.9605441126
 20
36.6811692179
 11
92.4005441126
 21
36.6811692179
  0
LINE
  5
28B
100
AcDbEntity
  8
0
100
AcDbLine
 62
7
  6
CONTINUOUS
 10
86.9670633317
 20
36.8238634003
 11
87.2820633317
 21
36.8238634003
  0
LINE
  5
28C
100
AcDbEntity
  8
0
100
AcDbLine
 62
7
  6
CONTINUOUS
 10
87.5520633317
 20
36.8238634003
 11
87.8670633317
 21
36.8238634003
  0
LINE
  5
28D
100
AcDbEntity
  8
0
100
AcDbLine
 62
7
  6
CONTINUOUS
 10
87.8670633317
 20
36.8662898072
 11
87.5520633317
 21
36.8662898072
  0
LINE
  5
28E
100
AcDbEntity
  8
0
100
AcDbLine
 62
7
  6
CONTINUOUS
 10
87.2820633317
 20
36.8662898072
 11
86.9670633317
 21
36.8662898072
  0
LINE
  5
28F
100
AcDbEntity
  8
0
100
AcDbLine
 62
7
  6
CONTINUOUS
 10
90.9605441126
 20
36.8933012523
 11
92.4005441126
 21
36.8933012523
  0
LINE
  5
290
100
AcDbEntity
  8
0
100
AcDbLine
 62
7
  6
CONTINUOUS
 10
87.1290633317
 20
37.0572086381
 11
87.2820633317
 21
37.0572086381
  0
LINE
  5
291
100
AcDbEntity
  8
0
100
AcDbLine
 62
7
  6
CONTINUOUS
 10
87.5520633317
 20
37.0572086381
 11
87.7050633317
 21
37.0572086381
  0
LINE
  5
292
100
AcDbEntity
  8
0
100
AcDbLine
 62
7
  6
CONTINUOUS
 10
92.6405441126
 20
37.0884627239
 11
90.9605441126
 21
37.0884627239
  0
LINE
  5
293
100
AcDbEntity
  8
0
100
AcDbLine
 62
7
  6
CONTINUOUS
 10
87.3540633317
 20
37.1844878587
 11
87.4800633317
 21
37.1844878587
  0
LINE
  5
294
100
AcDbEntity
  8
0
100
AcDbLine
 62
7
  6
CONTINUOUS
 10
87.1290633317
 20
37.2693406725
 11
87.2820633317
 21
37.2693406725
  0
LINE
  5
295
100
AcDbEntity
  8
0
100
AcDbLine
 62
7
  6
CONTINUOUS
 10
87.5520633317
 20
37.2693406725
 11
87.7050633317
 21
37.2693406725
  0
LINE
  5
296
100
AcDbEntity
  8
0
100
AcDbLine
 62
7
  6
CONTINUOUS
 10
87.3540633317
 20
37.3966198931
 11
87.4800633317
 21
37.3966198931
  0
LINE
  5
297
100
AcDbEntity
  8
0
100
AcDbLine
 62
7
  6
CONTINUOUS
 10
99.957025329
 20
37.6299651309
 11
99.381025329
 21
37.6299651309
  0
LINE
  5
298
100
AcDbEntity
  8
0
100
AcDbLine
 62
7
  6
CONTINUOUS
 10
90.9605441126
 20
37.6511783343
 11
90.3845441126
 21
37.6511783343
  0
LINE
  5
299
100
AcDbEntity
  8
0
100
AcDbLine
 62
7
  6
CONTINUOUS
 10
87.7050633317
 20
37.6936047412
 11
87.1290633317
 21
37.6936047412
  0
LINE
  5
29A
100
AcDbEntity
  8
0
100
AcDbLine
 62
7
  6
CONTINUOUS
 10
86.9670633317
 20
37.8845235721
 11
87.8670633317
 21
37.8845235721
  0
LINE
  5
29B
100
AcDbEntity
  8
0
100
AcDbLine
 62
7
  6
CONTINUOUS
 10
99.381025329
 20
37.9863469486
 11
101.4804274563
 21
37.9863469486
  0
LINE
  5
29C
100
AcDbEntity
  8
0
100
AcDbLine
 62
7
  6
CONTINUOUS
 10
90.3845441126
 20
38.007560152
 11
92.6405441126
 21
38.007560152
  0
LINE
  5
29D
100
AcDbEntity
  8
0
100
AcDbLine
 62
7
  6
CONTINUOUS
 10
86.9670633317
 20
38.0966556065
 11
87.8670633317
 21
38.0966556065
  0
LINE
  5
29E
100
AcDbEntity
  8
0
100
AcDbLine
 62
7
  6
CONTINUOUS
 10
99.381025329
 20
38.198478983
 11
101.4804274563
 21
38.198478983
  0
LINE
  5
29F
100
AcDbEntity
  8
0
100
AcDbLine
 62
7
  6
CONTINUOUS
 10
90.3845441126
 20
38.2196921864
 11
92.6405441126
 21
38.2196921864
  0
LINE
  5
2A0
100
AcDbEntity
  8
0
100
AcDbLine
 62
7
  6
CONTINUOUS
 10
101.4678055695
 20
38.3936404546
 11
99.381025329
 21
38.3936404546
  0
LINE
  5
2A1
100
AcDbEntity
  8
0
100
AcDbLine
 62
7
  6
CONTINUOUS
 10
98.121025329
 20
38.3936404546
 11
97.545025329
 21
38.3936404546
  0
LINE
  5
2A2
100
AcDbEntity
  8
0
100
AcDbLine
 62
7
  6
CONTINUOUS
 10
95.2805441126
 20
38.3936404546
 11
94.7045441126
 21
38.3936404546
  0
LINE
  5
2A3
100
AcDbEntity
  8
0
100
AcDbLine
 62
7
  6
CONTINUOUS
 10
92.6405441126
 20
38.3936404546
 11
90.3845441126
 21
38.3936404546
  0
LINE
  5
2A4
100
AcDbEntity
  8
0
100
AcDbLine
 62
7
  6
CONTINUOUS
 10
88.8570633317
 20
38.3936404546
 11
85.9770633317
 21
38.3936404546
  0
LINE
  5
2A5
100
AcDbEntity
  8
RUNDUNGEN
100
AcDbLine
 62
7
  6
CONTINUOUS
 10
105.6752522322
 20
41.9188825891
 11
99.5316119
 21
44.9607309966
  0
LINE
  5
2A6
100
AcDbEntity
  8
RUNDUNGEN
100
AcDbLine
 62
7
  6
CONTINUOUS
 10
99.5316119
 20
48.4962649025
 11
105.6752522322
 21
45.454416495
  0
LINE
  5
2A7
100
AcDbEntity
  8
RUNDUNGEN
100
AcDbLine
 62
7
  6
CONTINUOUS
 10
69.1603287505
 20
43.0147083453
 11
70.7089851286
 21
41.4507928389
  0
LINE
  5
2A8
100
AcDbEntity
  8
RUNDUNGEN
100
AcDbLine
 62
7
  6
CONTINUOUS
 10
75.1828813321
 20
36.9328147093
 11
83.43017354
 21
28.6042607757
  0
LINE
  5
2A9
100
AcDbEntity
  8
RUNDUNGEN
100
AcDbLine
 62
7
  6
CONTINUOUS
 10
97.3183713323
 20
14.5792206248
 11
100.4847474953
 21
11.3816457139
  0
LINE
  5
2AA
100
AcDbEntity
  8
RUNDUNGEN
100
AcDbLine
 62
7
  6
CONTINUOUS
 10
77.7382276975
 20
40.2697448069
 11
76.0174983884
 21
42.0074287029
  0
LINE
  5
2AB
100
AcDbEntity
  8
RUNDUNGEN
100
AcDbLine
 62
7
  6
CONTINUOUS
 10
120.48009646
 20
45.157972029
 11
115.9747602165
 21
47.3886608612
  0
LINE
  5
2AC
100
AcDbEntity
  8
RUNDUNGEN
100
AcDbLine
 62
7
  6
CONTINUOUS
 10
120.48009646
 20
48.693505935
 11
115.9747602165
 21
50.9241947672
  0
LINE
  5
2AD
100
AcDbEntity
  8
RUNDUNGEN
100
AcDbLine
 62
7
  6
CONTINUOUS
 10
114.2268801057
 20
12.2977465673
 11
105.3086744057
 21
21.3038245976
  0
LINE
  5
2AE
100
AcDbEntity
  8
RUNDUNGEN
100
AcDbLine
 62
7
  6
CONTINUOUS
 10
82.5715944709
 20
44.2649361666
 11
81.8580354637
 21
44.9855259707
  0
LINE
  5
2AF
100
AcDbEntity
  8
RUNDUNGEN
100
AcDbLine
 62
7
  6
CONTINUOUS
 10
114.2268801057
 20
15.8332804733
 11
105.3086744057
 21
24.8393585036
  0
LINE
  5
2B0
100
AcDbEntity
  8
RUNDUNGEN
100
AcDbLine
 62
7
  6
CONTINUOUS
 10
82.5715944709
 20
47.8004700725
 11
81.8580354637
 21
48.5210598766
  0
LINE
  5
2B1
100
AcDbEntity
  8
0
100
AcDbLine
 62
7
  6
CONTINUOUS
 10
92.4005441126
 20
36.6811692179
 11
93.7043164628
 21
35.0843807186
  0
LINE
  5
2B2
100
AcDbEntity
  8
0
100
AcDbLine
 62
7
  6
CONTINUOUS
 10
92.4005441126
 20
36.8933012523
 11
93.7043164628
 21
35.296512753
  0
LINE
  5
2B3
100
AcDbEntity
  8
0
100
AcDbLine
 62
7
  6
CONTINUOUS
 10
94.3694239729
 20
35.0843807186
 11
93.013833224
 21
36.744633536
  0
LINE
  5
2B4
100
AcDbEntity
  8
0
100
AcDbLine
 62
7
  6
CONTINUOUS
 10
80.1194239729
 20
89.2986091632
 11
83.1654578221
 21
89.2986091632
  0
LINE
  5
2B5
100
AcDbEntity
  8
0
100
AcDbLine
 62
7
  6
CONTINUOUS
 10
105.5733901237
 20
89.2986091632
 11
108.6194239729
 21
89.2986091632
  0
LINE
  5
2B6
100
AcDbEntity
  8
BEZUGSACHSEN
100
AcDbLine
 62
7
  6
CONTINUOUS
 10
90.6694239729
 20
95.7167165625
 11
98.0694239729
 21
95.7167165625
  0
LINE
  5
2B7
100
AcDbEntity
  8
0
100
AcDbLine
 62
7
  6
CONTINUOUS
 10
105.5672278549
 20
89.3033890938
 11
105.5812765189
 21
89.2986092697
  0
LINE
  5
2B8
100
AcDbEntity
  8
BEZUGSACHSEN
100
AcDbLine
 62
7
  6
CONTINUOUS
 10
90.6694239729
 20
99.3824982323
 11
98.0694239729
 21
99.3824982323
  0
LINE
  5
2B9
100
AcDbEntity
  8
BEZUGSACHSEN
100
AcDbLine
 62
7
  6
CONTINUOUS
 10
90.6694239729
 20
103.0910859675
 11
98.0694239729
 21
103.0910859675
  0
LINE
  5
2BA
100
AcDbEntity
  8
BEZUGSACHSEN
100
AcDbLine
 62
7
  6
CONTINUOUS
 10
90.6694239729
 20
104.1917165625
 11
98.0694239729
 21
104.1917165625
  0
LINE
  5
2BB
100
AcDbEntity
  8
RUNDUNGEN
100
AcDbLine
 62
7
  6
CONTINUOUS
 10
80.1194239729
 20
108.4656866004
 11
90.6694239729
 21
108.4656866004
  0
LINE
  5
2BC
100
AcDbEntity
  8
RUNDUNGEN
100
AcDbLine
 62
7
  6
CONTINUOUS
 10
98.0694239729
 20
108.4656866004
 11
108.6194239729
 21
108.4656866004
  0
LINE
  5
2BD
100
AcDbEntity
  8
0
100
AcDbLine
 62
7
  6
CONTINUOUS
 10
102.569633351
 20
113.9623521803
 11
102.3620045388
 21
113.9051572959
  0
LINE
  5
2BE
100
AcDbEntity
  8
0
100
AcDbLine
 62
7
  6
CONTINUOUS
 10
102.569633351
 20
114.0412562274
 11
102.3620045388
 21
113.984061343
  0
LINE
  5
2BF
100
AcDbEntity
  8
0
100
AcDbLine
 62
7
  6
CONTINUOUS
 10
101.6872101566
 20
115.9286876924
 11
101.8948392659
 21
115.9858825768
  0
LINE
  5
2C0
100
AcDbEntity
  8
0
100
AcDbLine
 62
7
  6
CONTINUOUS
 10
88.6781485928
 20
113.9623521803
 11
88.4397588202
 21
113.9051572959
  0
LINE
  5
2C1
100
AcDbEntity
  8
0
100
AcDbLine
 62
7
  6
CONTINUOUS
 10
88.6781485928
 20
114.0412562274
 11
88.4397588202
 21
113.984061343
  0
LINE
  5
2C2
100
AcDbEntity
  8
0
100
AcDbLine
 62
7
  6
CONTINUOUS
 10
85.8174689339
 20
113.9623521803
 11
85.5790788202
 21
113.9051572959
  0
LINE
  5
2C3
100
AcDbEntity
  8
0
100
AcDbLine
 62
7
  6
CONTINUOUS
 10
85.8174689339
 20
114.0412562274
 11
85.5790788202
 21
113.984061343
  0
LINE
  5
2C4
100
AcDbEntity
  8
0
100
AcDbLine
 62
7
  6
CONTINUOUS
 10
107.0855646201
 20
113.6408919966
 11
107.3451004868
 21
113.698086886
  0
LINE
  5
2C5
100
AcDbEntity
  8
0
100
AcDbLine
 62
7
  6
CONTINUOUS
 10
102.3620045388
 20
113.6408919966
 11
102.6215407026
 21
113.698086886
  0
LINE
  5
2C6
100
AcDbEntity
  8
0
100
AcDbLine
 62
7
  6
CONTINUOUS
 10
106.8260281593
 20
115.2778346413
 11
106.5664916986
 21
115.2206397569
  0
LINE
  5
2C7
100
AcDbEntity
  8
0
100
AcDbLine
 62
7
  6
CONTINUOUS
 10
106.8260281593
 20
115.3567386883
 11
106.5664916986
 21
115.299543804
  0
LINE
  5
2C8
100
AcDbEntity
  8
0
100
AcDbLine
 62
7
  6
CONTINUOUS
 10
106.8260281593
 20
116.250147836
 11
106.5664916986
 21
116.1929529516
  0
LINE
  5
2C9
100
AcDbEntity
  8
0
100
AcDbLine
 62
7
  6
CONTINUOUS
 10
106.8260281593
 20
116.3290518831
 11
106.5664916986
 21
116.2718569987
  0
LINE
  5
2CA
100
AcDbEntity
  8
0
100
AcDbLine
 62
7
  6
CONTINUOUS
 10
101.8948392659
 20
116.250147836
 11
101.6353028051
 21
116.1929529516
  0
LINE
  5
2CB
100
AcDbEntity
  8
0
100
AcDbLine
 62
7
  6
CONTINUOUS
 10
101.8948392659
 20
116.3290518831
 11
101.6353028051
 21
116.2718569987
  0
LINE
  5
2CC
100
AcDbEntity
  8
0
100
AcDbLine
 62
7
  6
CONTINUOUS
 10
88.4397588202
 20
113.6408919966
 11
88.7377465475
 21
113.698086886
  0
LINE
  5
2CD
100
AcDbEntity
  8
0
100
AcDbLine
 62
7
  6
CONTINUOUS
 10
85.5790788202
 20
113.6408919966
 11
85.8770662065
 21
113.698086886
  0
LINE
  5
2CE
100
AcDbEntity
  8
RUNDUNGEN
100
AcDbLine
 62
7
  6
CONTINUOUS
 10
108.6194239729
 20
111.6796246489
 11
97.9231316599
 21
111.6796246489
  0
LINE
  5
2CF
100
AcDbEntity
  8
RUNDUNGEN
100
AcDbLine
 62
7
  6
CONTINUOUS
 10
90.8157162858
 20
111.6796246489
 11
80.1194239729
 21
111.6796246489
  0
LINE
  5
2D0
100
AcDbEntity
  8
0
100
AcDbLine
 62
7
  6
CONTINUOUS
 10
81.6456438202
 20
113.6408919966
 11
82.0032288202
 21
113.6408919966
  0
LINE
  5
2D1
100
AcDbEntity
  8
0
100
AcDbLine
 62
7
  6
CONTINUOUS
 10
83.4931662634
 20
113.6408919966
 11
83.910348877
 21
113.6408919966
  0
LINE
  5
2D2
100
AcDbEntity
  8
0
100
AcDbLine
 62
7
  6
CONTINUOUS
 10
85.3406887065
 20
113.6408919966
 11
85.5790788202
 21
113.6408919966
  0
LINE
  5
2D3
100
AcDbEntity
  8
0
100
AcDbLine
 62
7
  6
CONTINUOUS
 10
87.0094188202
 20
113.6408919966
 11
88.4397588202
 21
113.6408919966
  0
LINE
  5
2D4
100
AcDbEntity
  8
0
100
AcDbLine
 62
7
  6
CONTINUOUS
 10
97.9498879729
 20
113.6408919966
 11
98.2613314882
 21
113.6408919966
  0
LINE
  5
2D5
100
AcDbEntity
  8
0
100
AcDbLine
 62
7
  6
CONTINUOUS
 10
98.6765894838
 20
113.6408919966
 11
98.9880329992
 21
113.6408919966
  0
LINE
  5
2D6
100
AcDbEntity
  8
0
100
AcDbLine
 62
7
  6
CONTINUOUS
 10
100.2857143377
 20
113.6408919966
 11
100.6490652046
 21
113.6408919966
  0
LINE
  5
2D7
100
AcDbEntity
  8
0
100
AcDbLine
 62
7
  6
CONTINUOUS
 10
101.8948392659
 20
113.6408919966
 11
102.3620045388
 21
113.6408919966
  0
LINE
  5
2D8
100
AcDbEntity
  8
0
100
AcDbLine
 62
7
  6
CONTINUOUS
 10
106.8260281593
 20
113.6408919966
 11
107.0855646201
 21
113.6408919966
  0
LINE
  5
2D9
100
AcDbEntity
  8
0
100
AcDbLine
 62
7
  6
CONTINUOUS
 10
107.1374716746
 20
113.8479624115
 11
106.7741211048
 21
113.8479624115
  0
LINE
  5
2DA
100
AcDbEntity
  8
0
100
AcDbLine
 62
7
  6
CONTINUOUS
 10
102.3620045388
 20
113.9051572959
 11
101.8948392659
 21
113.9051572959
  0
LINE
  5
2DB
100
AcDbEntity
  8
0
100
AcDbLine
 62
7
  6
CONTINUOUS
 10
88.4397588202
 20
113.9051572959
 11
87.3670038202
 21
113.9051572959
  0
LINE
  5
2DC
100
AcDbEntity
  8
0
100
AcDbLine
 62
7
  6
CONTINUOUS
 10
85.5790788202
 20
113.9051572959
 11
85.3406887065
 21
113.9051572959
  0
LINE
  5
2DD
100
AcDbEntity
  8
0
100
AcDbLine
 62
7
  6
CONTINUOUS
 10
107.1374716746
 20
113.9268664586
 11
106.7741211048
 21
113.9268664586
  0
LINE
  5
2DE
100
AcDbEntity
  8
0
100
AcDbLine
 62
7
  6
CONTINUOUS
 10
102.3620045388
 20
113.984061343
 11
101.8948392659
 21
113.984061343
  0
LINE
  5
2DF
100
AcDbEntity
  8
0
100
AcDbLine
 62
7
  6
CONTINUOUS
 10
88.4397588202
 20
113.984061343
 11
87.3670038202
 21
113.984061343
  0
LINE
  5
2E0
100
AcDbEntity
  8
0
100
AcDbLine
 62
7
  6
CONTINUOUS
 10
85.5790788202
 20
113.984061343
 11
85.3406887065
 21
113.984061343
  0
LINE
  5
2E1
100
AcDbEntity
  8
0
100
AcDbLine
 62
7
  6
CONTINUOUS
 10
102.3100971873
 20
114.7847898445
 11
102.7772624602
 21
114.7847898445
  0
LINE
  5
2E2
100
AcDbEntity
  8
0
100
AcDbLine
 62
7
  6
CONTINUOUS
 10
82.0032288202
 20
114.8419847289
 11
83.0163862918
 21
114.8419847289
  0
LINE
  5
2E3
100
AcDbEntity
  8
0
100
AcDbLine
 62
7
  6
CONTINUOUS
 10
98.9880329992
 20
114.8419847289
 11
99.8704562678
 21
114.8419847289
  0
LINE
  5
2E4
100
AcDbEntity
  8
0
100
AcDbLine
 62
7
  6
CONTINUOUS
 10
103.0887059756
 20
115.0490551037
 11
102.3100971873
 21
115.0490551037
  0
LINE
  5
2E5
100
AcDbEntity
  8
0
100
AcDbLine
 62
7
  6
CONTINUOUS
 10
106.7741211048
 20
115.0707642664
 11
107.1374716746
 21
115.0707642664
  0
LINE
  5
2E6
100
AcDbEntity
  8
0
100
AcDbLine
 62
7
  6
CONTINUOUS
 10
99.9742708224
 20
115.1062499881
 11
98.9880329992
 21
115.1062499881
  0
LINE
  5
2E7
100
AcDbEntity
  8
0
100
AcDbLine
 62
7
  6
CONTINUOUS
 10
83.1355812634
 20
115.1062499881
 11
82.0032288202
 21
115.1062499881
  0
LINE
  5
2E8
100
AcDbEntity
  8
0
100
AcDbLine
 62
7
  6
CONTINUOUS
 10
103.0887059756
 20
115.1279591508
 11
102.3100971873
 21
115.1279591508
  0
LINE
  5
2E9
100
AcDbEntity
  8
0
100
AcDbLine
 62
7
  6
CONTINUOUS
 10
99.9742708224
 20
115.1851540352
 11
98.9880329992
 21
115.1851540352
  0
LINE
  5
2EA
100
AcDbEntity
  8
0
100
AcDbLine
 62
7
  6
CONTINUOUS
 10
83.1355812634
 20
115.1851540352
 11
82.0032288202
 21
115.1851540352
  0
LINE
  5
2EB
100
AcDbEntity
  8
0
100
AcDbLine
 62
7
  6
CONTINUOUS
 10
107.0855646201
 20
115.2778346413
 11
106.8260281593
 21
115.2778346413
  0
LINE
  5
2EC
100
AcDbEntity
  8
0
100
AcDbLine
 62
7
  6
CONTINUOUS
 10
107.0855646201
 20
115.3567386883
 11
106.8260281593
 21
115.3567386883
  0
LINE
  5
2ED
100
AcDbEntity
  8
0
100
AcDbLine
 62
7
  6
CONTINUOUS
 10
102.7772624602
 20
115.6427131103
 11
103.0887059756
 21
115.6427131103
  0
LINE
  5
2EE
100
AcDbEntity
  8
0
100
AcDbLine
 62
7
  6
CONTINUOUS
 10
107.5008222445
 20
115.6999081549
 11
107.7603587053
 21
115.6999081549
  0
LINE
  5
2EF
100
AcDbEntity
  8
0
100
AcDbLine
 62
7
  6
CONTINUOUS
 10
87.3670038202
 20
115.9858825768
 11
88.4397588202
 21
115.9858825768
  0
LINE
  5
2F0
100
AcDbEntity
  8
0
100
AcDbLine
 62
7
  6
CONTINUOUS
 10
101.8948392659
 20
115.9858825768
 11
102.3620045388
 21
115.9858825768
  0
LINE
  5
2F1
100
AcDbEntity
  8
0
100
AcDbLine
 62
7
  6
CONTINUOUS
 10
82.0032288202
 20
116.0430774612
 11
83.1355812634
 21
116.0430774612
  0
LINE
  5
2F2
100
AcDbEntity
  8
0
100
AcDbLine
 62
7
  6
CONTINUOUS
 10
98.9880329992
 20
116.0430774612
 11
99.9742708224
 21
116.0430774612
  0
LINE
  5
2F3
100
AcDbEntity
  8
0
100
AcDbLine
 62
7
  6
CONTINUOUS
 10
106.7741211048
 20
116.0430774612
 11
107.0855646201
 21
116.0430774612
  0
LINE
  5
2F4
100
AcDbEntity
  8
0
100
AcDbLine
 62
7
  6
CONTINUOUS
 10
107.0336569715
 20
116.250147836
 11
106.8260281593
 21
116.250147836
  0
LINE
  5
2F5
100
AcDbEntity
  8
0
100
AcDbLine
 62
7
  6
CONTINUOUS
 10
102.3620045388
 20
116.250147836
 11
101.8948392659
 21
116.250147836
  0
LINE
  5
2F6
100
AcDbEntity
  8
0
100
AcDbLine
 62
7
  6
CONTINUOUS
 10
99.9223636194
 20
116.250147836
 11
98.6765894838
 21
116.250147836
  0
LINE
  5
2F7
100
AcDbEntity
  8
0
100
AcDbLine
 62
7
  6
CONTINUOUS
 10
98.2613314882
 20
116.250147836
 11
97.9498879729
 21
116.250147836
  0
LINE
  5
2F8
100
AcDbEntity
  8
0
100
AcDbLine
 62
7
  6
CONTINUOUS
 10
88.4397588202
 20
116.250147836
 11
87.0094188202
 21
116.250147836
  0
LINE
  5
2F9
100
AcDbEntity
  8
0
100
AcDbLine
 62
7
  6
CONTINUOUS
 10
86.5326389339
 20
116.250147836
 11
86.1750539339
 21
116.250147836
  0
LINE
  5
2FA
100
AcDbEntity
  8
0
100
AcDbLine
 62
7
  6
CONTINUOUS
 10
84.7447139339
 20
116.250147836
 11
84.3871287634
 21
116.250147836
  0
LINE
  5
2FB
100
AcDbEntity
  8
0
100
AcDbLine
 62
7
  6
CONTINUOUS
 10
83.0759838202
 20
116.250147836
 11
81.6456438202
 21
116.250147836
  0
LINE
  5
2FC
100
AcDbEntity
  8
0
100
AcDbLine
 62
7
  6
CONTINUOUS
 10
107.0336569715
 20
116.3290518831
 11
106.8260281593
 21
116.3290518831
  0
LINE
  5
2FD
100
AcDbEntity
  8
0
100
AcDbLine
 62
7
  6
CONTINUOUS
 10
102.3620045388
 20
116.3290518831
 11
101.8948392659
 21
116.3290518831
  0
LINE
  5
2FE
100
AcDbEntity
  8
0
100
AcDbLine
 62
7
  6
CONTINUOUS
 10
99.9223636194
 20
116.3290518831
 11
98.6765894838
 21
116.3290518831
  0
LINE
  5
2FF
100
AcDbEntity
  8
0
100
AcDbLine
 62
7
  6
CONTINUOUS
 10
98.2613314882
 20
116.3290518831
 11
97.9498879729
 21
116.3290518831
  0
LINE
  5
300
100
AcDbEntity
  8
0
100
AcDbLine
 62
7
  6
CONTINUOUS
 10
88.4397588202
 20
116.3290518831
 11
87.0094188202
 21
116.3290518831
  0
LINE
  5
301
100
AcDbEntity
  8
0
100
AcDbLine
 62
7
  6
CONTINUOUS
 10
86.5326389339
 20
116.3290518831
 11
86.1750539339
 21
116.3290518831
  0
LINE
  5
302
100
AcDbEntity
  8
0
100
AcDbLine
 62
7
  6
CONTINUOUS
 10
84.7447139339
 20
116.3290518831
 11
84.3871287634
 21
116.3290518831
  0
LINE
  5
303
100
AcDbEntity
  8
0
100
AcDbLine
 62
7
  6
CONTINUOUS
 10
83.0759838202
 20
116.3290518831
 11
81.6456438202
 21
116.3290518831
  0
LINE
  5
304
100
AcDbEntity
  8
0
100
AcDbLine
 62
7
  6
CONTINUOUS
 10
85.0427013202
 20
113.698086886
 11
85.3406887065
 21
113.6408919966
  0
LINE
  5
305
100
AcDbEntity
  8
0
100
AcDbLine
 62
7
  6
CONTINUOUS
 10
83.373971377
 20
116.1929529516
 11
83.0759838202
 21
116.250147836
  0
LINE
  5
306
100
AcDbEntity
  8
0
100
AcDbLine
 62
7
  6
CONTINUOUS
 10
83.373971377
 20
116.2718569987
 11
83.0759838202
 21
116.3290518831
  0
LINE
  5
307
100
AcDbEntity
  8
0
100
AcDbLine
 62
7
  6
CONTINUOUS
 10
88.7377465475
 20
116.1929529516
 11
88.4397588202
 21
116.250147836
  0
LINE
  5
308
100
AcDbEntity
  8
0
100
AcDbLine
 62
7
  6
CONTINUOUS
 10
88.7377465475
 20
116.2718569987
 11
88.4397588202
 21
116.3290518831
  0
LINE
  5
309
100
AcDbEntity
  8
0
100
AcDbLine
 62
7
  6
CONTINUOUS
 10
101.6353028051
 20
113.698086886
 11
101.8948392659
 21
113.6408919966
  0
LINE
  5
30A
100
AcDbEntity
  8
0
100
AcDbLine
 62
7
  6
CONTINUOUS
 10
106.5664916986
 20
113.698086886
 11
106.8260281593
 21
113.6408919966
  0
LINE
  5
30B
100
AcDbEntity
  8
0
100
AcDbLine
 62
7
  6
CONTINUOUS
 10
100.1818997831
 20
116.1929529516
 11
99.9223636194
 21
116.250147836
  0
LINE
  5
30C
100
AcDbEntity
  8
0
100
AcDbLine
 62
7
  6
CONTINUOUS
 10
100.1818997831
 20
116.2718569987
 11
99.9223636194
 21
116.3290518831
  0
LINE
  5
30D
100
AcDbEntity
  8
0
100
AcDbLine
 62
7
  6
CONTINUOUS
 10
85.3406887065
 20
113.9051572959
 11
85.1022989339
 21
113.9623521803
  0
LINE
  5
30E
100
AcDbEntity
  8
0
100
AcDbLine
 62
7
  6
CONTINUOUS
 10
85.3406887065
 20
113.984061343
 11
85.1022989339
 21
114.0412562274
  0
LINE
  5
30F
100
AcDbEntity
  8
0
100
AcDbLine
 62
7
  6
CONTINUOUS
 10
88.4397588202
 20
115.9858825768
 11
88.6781485928
 21
115.9286876924
  0
LINE
  5
310
100
AcDbEntity
  8
0
100
AcDbLine
 62
7
  6
CONTINUOUS
 10
101.8948392659
 20
113.9051572959
 11
101.6872101566
 21
113.9623521803
  0
LINE
  5
311
100
AcDbEntity
  8
0
100
AcDbLine
 62
7
  6
CONTINUOUS
 10
101.8948392659
 20
113.984061343
 11
101.6872101566
 21
114.0412562274
  0
LINE
  5
312
100
AcDbEntity
  8
0
100
AcDbLine
 62
7
  6
CONTINUOUS
 10
83.1355812634
 20
116.0430774612
 11
83.3143737634
 21
115.9858825768
  0
LINE
  5
313
100
AcDbEntity
  8
0
100
AcDbLine
 62
7
  6
CONTINUOUS
 10
84.8043112065
 20
113.8124766698
 11
85.0427013202
 21
113.698086886
  0
LINE
  5
314
100
AcDbEntity
  8
0
100
AcDbLine
 62
7
  6
CONTINUOUS
 10
88.9761363202
 20
116.0785631829
 11
88.7377465475
 21
116.1929529516
  0
LINE
  5
315
100
AcDbEntity
  8
0
100
AcDbLine
 62
7
  6
CONTINUOUS
 10
88.9761363202
 20
116.1574672299
 11
88.7377465475
 21
116.2718569987
  0
LINE
  5
316
100
AcDbEntity
  8
0
100
AcDbLine
 62
7
  6
CONTINUOUS
 10
85.1022989339
 20
113.9623521803
 11
84.9235064339
 21
114.0767419891
  0
LINE
  5
317
100
AcDbEntity
  8
0
100
AcDbLine
 62
7
  6
CONTINUOUS
 10
85.1022989339
 20
114.0412562274
 11
84.9235064339
 21
114.1556460362
  0
LINE
  5
318
100
AcDbEntity
  8
0
100
AcDbLine
 62
7
  6
CONTINUOUS
 10
88.6781485928
 20
115.9286876924
 11
88.8569410928
 21
115.8142979236
  0
LINE
  5
319
100
AcDbEntity
  8
0
100
AcDbLine
 62
7
  6
CONTINUOUS
 10
83.6123613202
 20
116.0213682985
 11
83.373971377
 21
116.1929529516
  0
LINE
  5
31A
100
AcDbEntity
  8
0
100
AcDbLine
 62
7
  6
CONTINUOUS
 10
83.6123613202
 20
116.1002723455
 11
83.373971377
 21
116.2718569987
  0
LINE
  5
31B
100
AcDbEntity
  8
0
100
AcDbLine
 62
7
  6
CONTINUOUS
 10
84.5659214339
 20
114.0412562274
 11
84.8043112065
 21
113.8124766698
  0
LINE
  5
31C
100
AcDbEntity
  8
0
100
AcDbLine
 62
7
  6
CONTINUOUS
 10
83.3143737634
 20
115.9858825768
 11
83.4335688202
 21
115.871492808
  0
LINE
  5
31D
100
AcDbEntity
  8
0
100
AcDbLine
 62
7
  6
CONTINUOUS
 10
74.6447635852
 20
111.946208323
 11
77.1194239729
 21
104.3401018826
  0
LINE
  5
31E
100
AcDbEntity
  8
0
100
AcDbLine
 62
7
  6
CONTINUOUS
 10
74.6447635852
 20
112.8440111992
 11
77.1194239729
 21
105.2379047588
  0
LINE
  5
31F
100
AcDbEntity
  8
0
100
AcDbLine
 62
7
  6
CONTINUOUS
 10
73.3178953192
 20
120.523330948
 11
74.6447635852
 21
115.9036186482
  0
LINE
  5
320
100
AcDbEntity
  8
RUNDUNGEN
100
AcDbLine
 62
7
  6
CONTINUOUS
 10
68.6177848833
 20
44.2314477083
 11
68.6177848833
 21
47.7669816143
  0
LINE
  5
321
100
AcDbEntity
  8
0
100
AcDbLine
 62
7
  6
CONTINUOUS
 10
71.5933480038
 20
126.7144642792
 11
71.5933480038
 21
127.8840793755
  0
LINE
  5
322
100
AcDbEntity
  8
RUNDUNGEN
100
AcDbLine
 62
7
  6
CONTINUOUS
 10
73.9694239729
 20
7.5072162523
 11
73.9694239729
 21
14.6165411102
  0
LINE
  5
323
100
AcDbEntity
  8
0
100
AcDbLine
 62
7
  6
CONTINUOUS
 10
74.6447635852
 20
111.946208323
 11
74.6447635852
 21
117.2924144879
  0
LINE
  5
324
100
AcDbEntity
  8
RUNDUNGEN
100
AcDbLine
 62
7
  6
CONTINUOUS
 10
75.020118172
 20
37.2978365182
 11
75.020118172
 21
40.8333704241
  0
LINE
  5
325
100
AcDbEntity
  8
RUNDUNGEN
100
AcDbLine
 62
7
  6
CONTINUOUS
 10
82.1194239729
 20
118.98150202
 11
106.6197388151
 21
118.98150202
  0
LINE
  5
326
100
AcDbEntity
  8
0
100
AcDbLine
 62
7
  6
CONTINUOUS
 10
102.6215407026
 20
116.1929529516
 11
102.3620045388
 21
116.250147836
  0
LINE
  5
327
100
AcDbEntity
  8
0
100
AcDbLine
 62
7
  6
CONTINUOUS
 10
107.3451004868
 20
115.2206397569
 11
107.0855646201
 21
115.2778346413
  0
LINE
  5
328
100
AcDbEntity
  8
0
100
AcDbLine
 62
7
  6
CONTINUOUS
 10
102.6215407026
 20
116.2718569987
 11
102.3620045388
 21
116.3290518831
  0
LINE
  5
329
100
AcDbEntity
  8
0
100
AcDbLine
 62
7
  6
CONTINUOUS
 10
107.3451004868
 20
115.299543804
 11
107.0855646201
 21
115.3567386883
  0
LINE
  5
32A
100
AcDbEntity
  8
0
100
AcDbLine
 62
7
  6
CONTINUOUS
 10
107.2931934323
 20
116.1929529516
 11
107.0336569715
 21
116.250147836
  0
LINE
  5
32B
100
AcDbEntity
  8
0
100
AcDbLine
 62
7
  6
CONTINUOUS
 10
107.2931934323
 20
116.2718569987
 11
107.0336569715
 21
116.3290518831
  0
LINE
  5
32C
100
AcDbEntity
  8
0
100
AcDbLine
 62
7
  6
CONTINUOUS
 10
102.3620045388
 20
115.9858825768
 11
102.569633351
 21
115.9286876924
  0
LINE
  5
32D
100
AcDbEntity
  8
0
100
AcDbLine
 62
7
  6
CONTINUOUS
 10
99.9742708224
 20
116.0430774612
 11
100.1299925801
 21
115.9858825768
  0
LINE
  5
32E
100
AcDbEntity
  8
0
100
AcDbLine
 62
7
  6
CONTINUOUS
 10
106.7741211048
 20
113.8479624115
 11
106.6183993471
 21
113.9051572959
  0
LINE
  5
32F
100
AcDbEntity
  8
0
100
AcDbLine
 62
7
  6
CONTINUOUS
 10
106.7741211048
 20
113.9268664586
 11
106.6183993471
 21
113.984061343
  0
LINE
  5
330
100
AcDbEntity
  8
0
100
AcDbLine
 62
7
  6
CONTINUOUS
 10
107.1374716746
 20
115.0707642664
 11
107.2931934323
 21
115.0135693821
  0
LINE
  5
331
100
AcDbEntity
  8
0
100
AcDbLine
 62
7
  6
CONTINUOUS
 10
107.0855646201
 20
116.0430774612
 11
107.2412863778
 21
115.9858825768
  0
LINE
  5
332
100
AcDbEntity
  8
0
100
AcDbLine
 62
7
  6
CONTINUOUS
 10
101.4276739929
 20
113.8124766698
 11
101.6353028051
 21
113.698086886
  0
LINE
  5
333
100
AcDbEntity
  8
0
100
AcDbLine
 62
7
  6
CONTINUOUS
 10
102.8291698118
 20
116.0785631829
 11
102.6215407026
 21
116.1929529516
  0
LINE
  5
334
100
AcDbEntity
  8
0
100
AcDbLine
 62
7
  6
CONTINUOUS
 10
102.8291698118
 20
116.1574672299
 11
102.6215407026
 21
116.2718569987
  0
LINE
  5
335
100
AcDbEntity
  8
0
100
AcDbLine
 62
7
  6
CONTINUOUS
 10
106.3069558318
 20
113.8696715542
 11
106.5664916986
 21
113.698086886
  0
LINE
  5
336
100
AcDbEntity
  8
0
100
AcDbLine
 62
7
  6
CONTINUOUS
 10
107.6046369476
 20
115.0490551037
 11
107.3451004868
 21
115.2206397569
  0
LINE
  5
337
100
AcDbEntity
  8
0
100
AcDbLine
 62
7
  6
CONTINUOUS
 10
107.6046369476
 20
115.1279591508
 11
107.3451004868
 21
115.299543804
  0
LINE
  5
338
100
AcDbEntity
  8
0
100
AcDbLine
 62
7
  6
CONTINUOUS
 10
101.6872101566
 20
113.9623521803
 11
101.531488399
 21
114.0767419891
  0
LINE
  5
339
100
AcDbEntity
  8
0
100
AcDbLine
 62
7
  6
CONTINUOUS
 10
101.6872101566
 20
114.0412562274
 11
101.531488399
 21
114.1556460362
  0
LINE
  5
33A
100
AcDbEntity
  8
0
100
AcDbLine
 62
7
  6
CONTINUOUS
 10
102.569633351
 20
115.9286876924
 11
102.7253551087
 21
115.8142979236
  0
LINE
  5
33B
100
AcDbEntity
  8
0
100
AcDbLine
 62
7
  6
CONTINUOUS
 10
106.6183993471
 20
113.9051572959
 11
106.4626775895
 21
114.0195470647
  0
LINE
  5
33C
100
AcDbEntity
  8
0
100
AcDbLine
 62
7
  6
CONTINUOUS
 10
106.6183993471
 20
113.984061343
 11
106.4626775895
 21
114.0984511118
  0
LINE
  5
33D
100
AcDbEntity
  8
0
100
AcDbLine
 62
7
  6
CONTINUOUS
 10
100.3895288923
 20
116.0213682985
 11
100.1818997831
 21
116.1929529516
  0
LINE
  5
33E
100
AcDbEntity
  8
0
100
AcDbLine
 62
7
  6
CONTINUOUS
 10
100.3895288923
 20
116.1002723455
 11
100.1818997831
 21
116.2718569987
  0
LINE
  5
33F
100
AcDbEntity
  8
0
100
AcDbLine
 62
7
  6
CONTINUOUS
 10
89.2145260928
 20
115.8497836453
 11
88.9761363202
 21
116.0785631829
  0
LINE
  5
340
100
AcDbEntity
  8
0
100
AcDbLine
 62
7
  6
CONTINUOUS
 10
89.2145260928
 20
115.9286876924
 11
88.9761363202
 21
116.1574672299
  0
LINE
  5
341
100
AcDbEntity
  8
0
100
AcDbLine
 62
7
  6
CONTINUOUS
 10
83.7911538202
 20
115.7925887609
 11
83.6123613202
 21
116.0213682985
  0
LINE
  5
342
100
AcDbEntity
  8
0
100
AcDbLine
 62
7
  6
CONTINUOUS
 10
83.7911538202
 20
115.871492808
 11
83.6123613202
 21
116.1002723455
  0
LINE
  5
343
100
AcDbEntity
  8
0
100
AcDbLine
 62
7
  6
CONTINUOUS
 10
84.9235064339
 20
114.0767419891
 11
84.8043112065
 21
114.2483266423
  0
LINE
  5
344
100
AcDbEntity
  8
0
100
AcDbLine
 62
7
  6
CONTINUOUS
 10
84.9235064339
 20
114.1556460362
 11
84.8043112065
 21
114.3272306893
  0
LINE
  5
345
100
AcDbEntity
  8
0
100
AcDbLine
 62
7
  6
CONTINUOUS
 10
88.8569410928
 20
115.8142979236
 11
88.9761363202
 21
115.6427131103
  0
LINE
  5
346
100
AcDbEntity
  8
0
100
AcDbLine
 62
7
  6
CONTINUOUS
 10
84.446726377
 20
114.270035805
 11
84.5659214339
 21
114.0412562274
  0
LINE
  5
347
100
AcDbEntity
  8
0
100
AcDbLine
 62
7
  6
CONTINUOUS
 10
89.3337213202
 20
115.6210041078
 11
89.2145260928
 21
115.8497836453
  0
LINE
  5
348
100
AcDbEntity
  8
0
100
AcDbLine
 62
7
  6
CONTINUOUS
 10
89.3337213202
 20
115.6999081549
 11
89.2145260928
 21
115.9286876924
  0
LINE
  5
349
100
AcDbEntity
  8
0
100
AcDbLine
 62
7
  6
CONTINUOUS
 10
83.878176381
 20
113.6408919966
 11
83.373971377
 21
114.8774704506
  0
LINE
  5
34A
100
AcDbEntity
  8
0
100
AcDbLine
 62
7
  6
CONTINUOUS
 10
83.910348877
 20
113.6408919966
 11
83.373971377
 21
114.9563744977
  0
LINE
  5
34B
100
AcDbEntity
  8
0
100
AcDbLine
 62
7
  6
CONTINUOUS
 10
83.0163862918
 20
114.8419847289
 11
83.4931662634
 21
113.6408919966
  0
LINE
  5
34C
100
AcDbEntity
  8
0
100
AcDbLine
 62
7
  6
CONTINUOUS
 10
83.4335688202
 20
115.871492808
 11
83.4931662634
 21
115.6999081549
  0
LINE
  5
34D
100
AcDbEntity
  8
0
100
AcDbLine
 62
7
  6
CONTINUOUS
 10
83.8507512634
 20
115.6210041078
 11
83.7911538202
 21
115.7925887609
  0
LINE
  5
34E
100
AcDbEntity
  8
0
100
AcDbLine
 62
7
  6
CONTINUOUS
 10
83.8507512634
 20
115.6999081549
 11
83.7911538202
 21
115.871492808
  0
LINE
  5
34F
100
AcDbEntity
  8
0
100
AcDbLine
 62
7
  6
CONTINUOUS
 10
73.3178953192
 20
121.9793047343
 11
74.6447635852
 21
117.2924144879
  0
LINE
  5
350
100
AcDbEntity
  8
0
100
AcDbLine
 62
7
  6
CONTINUOUS
 10
77.1194239729
 20
92.7555867268
 11
77.1194239729
 21
96.0619363027
  0
LINE
  5
351
100
AcDbEntity
  8
RUNDUNGEN
100
AcDbLine
 62
7
  6
CONTINUOUS
 10
77.1194239729
 20
96.0619363027
 11
77.1194239729
 21
114.1021167784
  0
LINE
  5
352
100
AcDbEntity
  8
RUNDUNGEN
100
AcDbLine
 62
7
  6
CONTINUOUS
 10
78.4694239729
 20
5.5980279431
 11
78.4694239729
 21
8.3557443898
  0
LINE
  5
353
100
AcDbEntity
  8
0
100
AcDbLine
 62
7
  6
CONTINUOUS
 10
79.8820350506
 20
89.8140308359
 11
79.8820350506
 21
90.5664751512
  0
LINE
  5
354
100
AcDbEntity
  8
0
100
AcDbLine
 62
7
  6
CONTINUOUS
 10
81.6456438202
 20
116.3290518831
 11
81.6456438202
 21
113.6408919966
  0
LINE
  5
355
100
AcDbEntity
  8
0
100
AcDbLine
 62
7
  6
CONTINUOUS
 10
82.0032288202
 20
113.6408919966
 11
82.0032288202
 21
114.8419847289
  0
LINE
  5
356
100
AcDbEntity
  8
0
100
AcDbLine
 62
7
  6
CONTINUOUS
 10
82.0032288202
 20
115.1062499881
 11
82.0032288202
 21
116.0430774612
  0
LINE
  5
357
100
AcDbEntity
  8
0
100
AcDbLine
 62
7
  6
CONTINUOUS
 10
83.0759838202
 20
116.3290518831
 11
83.0759838202
 21
116.250147836
  0
LINE
  5
358
100
AcDbEntity
  8
0
100
AcDbLine
 62
7
  6
CONTINUOUS
 10
83.1355812634
 20
115.1851540352
 11
83.1355812634
 21
115.1062499881
  0
LINE
  5
359
100
AcDbEntity
  8
0
100
AcDbLine
 62
7
  6
CONTINUOUS
 10
83.3143737634
 20
115.2423489196
 11
83.3143737634
 21
115.1634448725
  0
LINE
  5
35A
100
AcDbEntity
  8
0
100
AcDbLine
 62
7
  6
CONTINUOUS
 10
83.373971377
 20
116.2718569987
 11
83.373971377
 21
116.1929529516
  0
LINE
  5
35B
100
AcDbEntity
  8
0
100
AcDbLine
 62
7
  6
CONTINUOUS
 10
83.373971377
 20
114.9563744977
 11
83.373971377
 21
114.8774704506
  0
LINE
  5
35C
100
AcDbEntity
  8
0
100
AcDbLine
 62
7
  6
CONTINUOUS
 10
83.4335688202
 20
115.3567386883
 11
83.4335688202
 21
115.2778346413
  0
LINE
  5
35D
100
AcDbEntity
  8
0
100
AcDbLine
 62
7
  6
CONTINUOUS
 10
83.4931662634
 20
115.6999081549
 11
83.4931662634
 21
115.4494192944
  0
LINE
  5
35E
100
AcDbEntity
  8
0
100
AcDbLine
 62
7
  6
CONTINUOUS
 10
83.6123613202
 20
116.1002723455
 11
83.6123613202
 21
116.0213682985
  0
LINE
  5
35F
100
AcDbEntity
  8
0
100
AcDbLine
 62
7
  6
CONTINUOUS
 10
83.7911538202
 20
115.871492808
 11
83.7911538202
 21
115.7925887609
  0
LINE
  5
360
100
AcDbEntity
  8
0
100
AcDbLine
 62
7
  6
CONTINUOUS
 10
83.8507512634
 20
115.4711284571
 11
83.8507512634
 21
115.6999081549
  0
LINE
  5
361
100
AcDbEntity
  8
0
100
AcDbLine
 62
7
  6
CONTINUOUS
 10
84.3871287634
 20
116.3290518831
 11
84.3871287634
 21
114.5560102269
  0
LINE
  5
362
100
AcDbEntity
  8
0
100
AcDbLine
 62
7
  6
CONTINUOUS
 10
84.7447139339
 20
114.4771061798
 11
84.7447139339
 21
116.3290518831
  0
LINE
  5
363
100
AcDbEntity
  8
0
100
AcDbLine
 62
7
  6
CONTINUOUS
 10
84.8043112065
 20
114.3272306893
 11
84.8043112065
 21
114.2483266423
  0
LINE
  5
364
100
AcDbEntity
  8
0
100
AcDbLine
 62
7
  6
CONTINUOUS
 10
84.9235064339
 20
114.1556460362
 11
84.9235064339
 21
114.0767419891
  0
LINE
  5
365
100
AcDbEntity
  8
0
100
AcDbLine
 62
7
  6
CONTINUOUS
 10
85.1022989339
 20
114.0412562274
 11
85.1022989339
 21
113.9623521803
  0
LINE
  5
366
100
AcDbEntity
  8
0
100
AcDbLine
 62
7
  6
CONTINUOUS
 10
85.3406887065
 20
113.984061343
 11
85.3406887065
 21
113.9051572959
  0
LINE
  5
367
100
AcDbEntity
  8
0
100
AcDbLine
 62
7
  6
CONTINUOUS
 10
85.5790788202
 20
113.984061343
 11
85.5790788202
 21
113.9051572959
  0
LINE
  5
368
100
AcDbEntity
  8
0
100
AcDbLine
 62
7
  6
CONTINUOUS
 10
85.6170633317
 20
38.1390820133
 11
85.6170633317
 21
35.3389391598
  0
LINE
  5
369
100
AcDbEntity
  8
KONSTRUKTIONSELEMENTE
100
AcDbLine
 62
7
  6
CONTINUOUS
 10
85.7382785101
 20
103.3828892146
 11
85.7382785101
 21
104.6599314863
  0
LINE
  5
36A
100
AcDbEntity
  8
0
100
AcDbLine
 62
7
  6
CONTINUOUS
 10
85.8174689339
 20
114.0412562274
 11
85.8174689339
 21
113.9623521803
  0
LINE
  5
36B
100
AcDbEntity
  8
0
100
AcDbLine
 62
7
  6
CONTINUOUS
 10
85.9962614339
 20
114.1556460362
 11
85.9962614339
 21
114.0767419891
  0
LINE
  5
36C
100
AcDbEntity
  8
0
100
AcDbLine
 62
7
  6
CONTINUOUS
 10
86.1154563202
 20
114.3272306893
 11
86.1154563202
 21
114.2483266423
  0
LINE
  5
36D
100
AcDbEntity
  8
0
100
AcDbLine
 62
7
  6
CONTINUOUS
 10
86.1750539339
 20
116.3290518831
 11
86.1750539339
 21
114.4771061798
  0
LINE
  5
36E
100
AcDbEntity
  8
0
100
AcDbLine
 62
7
  6
CONTINUOUS
 10
86.3694239729
 20
277.904517625
 11
86.3694239729
 21
126.904517625
  0
LINE
  5
36F
100
AcDbEntity
  8
KONSTRUKTIONSELEMENTE
100
AcDbLine
 62
7
  6
CONTINUOUS
 10
86.3694239729
 20
62.0958597599
 11
86.3694239729
 21
72.7024614777
  0
LINE
  5
370
100
AcDbEntity
  8
0
100
AcDbLine
 62
7
  6
CONTINUOUS
 10
107.5527298931
 20
116.0213682985
 11
107.2931934323
 21
116.1929529516
  0
LINE
  5
371
100
AcDbEntity
  8
0
100
AcDbLine
 62
7
  6
CONTINUOUS
 10
107.5527298931
 20
116.1002723455
 11
107.2931934323
 21
116.2718569987
  0
LINE
  5
372
100
AcDbEntity
  8
0
100
AcDbLine
 62
7
  6
CONTINUOUS
 10
107.2931934323
 20
115.0135693821
 11
107.44891519
 21
114.8991796133
  0
LINE
  5
373
100
AcDbEntity
  8
0
100
AcDbLine
 62
7
  6
CONTINUOUS
 10
107.2412863778
 20
115.9858825768
 11
107.3970081354
 21
115.871492808
  0
LINE
  5
374
100
AcDbEntity
  8
0
100
AcDbLine
 62
7
  6
CONTINUOUS
 10
101.2200448837
 20
114.0412562274
 11
101.4276739929
 21
113.8124766698
  0
LINE
  5
375
100
AcDbEntity
  8
0
100
AcDbLine
 62
7
  6
CONTINUOUS
 10
100.1299925801
 20
115.9858825768
 11
100.2338071347
 21
115.871492808
  0
LINE
  5
376
100
AcDbEntity
  8
0
100
AcDbLine
 62
7
  6
CONTINUOUS
 10
103.036798921
 20
115.8497836453
 11
102.8291698118
 21
116.0785631829
  0
LINE
  5
377
100
AcDbEntity
  8
0
100
AcDbLine
 62
7
  6
CONTINUOUS
 10
103.036798921
 20
115.9286876924
 11
102.8291698118
 21
116.1574672299
  0
LINE
  5
378
100
AcDbEntity
  8
0
100
AcDbLine
 62
7
  6
CONTINUOUS
 10
107.44891519
 20
114.8991796133
 11
107.5527298931
 21
114.7847898445
  0
LINE
  5
379
100
AcDbEntity
  8
0
100
AcDbLine
 62
7
  6
CONTINUOUS
 10
107.7603587053
 20
114.8774704506
 11
107.6046369476
 21
115.0490551037
  0
LINE
  5
37A
100
AcDbEntity
  8
0
100
AcDbLine
 62
7
  6
CONTINUOUS
 10
107.7603587053
 20
114.9563744977
 11
107.6046369476
 21
115.1279591508
  0
LINE
  5
37B
100
AcDbEntity
  8
0
100
AcDbLine
 62
7
  6
CONTINUOUS
 10
100.5452505015
 20
115.7925887609
 11
100.3895288923
 21
116.0213682985
  0
LINE
  5
37C
100
AcDbEntity
  8
0
100
AcDbLine
 62
7
  6
CONTINUOUS
 10
100.5452505015
 20
115.871492808
 11
100.3895288923
 21
116.1002723455
  0
LINE
  5
37D
100
AcDbEntity
  8
0
100
AcDbLine
 62
7
  6
CONTINUOUS
 10
106.1512340742
 20
114.0984511118
 11
106.3069558318
 21
113.8696715542
  0
LINE
  5
37E
100
AcDbEntity
  8
0
100
AcDbLine
 62
7
  6
CONTINUOUS
 10
101.531488399
 20
114.0767419891
 11
101.4276739929
 21
114.2483266423
  0
LINE
  5
37F
100
AcDbEntity
  8
0
100
AcDbLine
 62
7
  6
CONTINUOUS
 10
101.531488399
 20
114.1556460362
 11
101.4276739929
 21
114.3272306893
  0
LINE
  5
380
100
AcDbEntity
  8
0
100
AcDbLine
 62
7
  6
CONTINUOUS
 10
84.8043112065
 20
114.2483266423
 11
84.7447139339
 21
114.4771061798
  0
LINE
  5
381
100
AcDbEntity
  8
0
100
AcDbLine
 62
7
  6
CONTINUOUS
 10
84.8043112065
 20
114.3272306893
 11
84.7447139339
 21
114.5560102269
  0
LINE
  5
382
100
AcDbEntity
  8
0
100
AcDbLine
 62
7
  6
CONTINUOUS
 10
88.9761363202
 20
115.6427131103
 11
89.0357335928
 21
115.4139335727
  0
LINE
  5
383
100
AcDbEntity
  8
0
100
AcDbLine
 62
7
  6
CONTINUOUS
 10
84.3871287634
 20
114.5560102269
 11
84.446726377
 21
114.270035805
  0
LINE
  5
384
100
AcDbEntity
  8
0
100
AcDbLine
 62
7
  6
CONTINUOUS
 10
89.3933185928
 20
115.3350295257
 11
89.3337213202
 21
115.6210041078
  0
LINE
  5
385
100
AcDbEntity
  8
0
100
AcDbLine
 62
7
  6
CONTINUOUS
 10
89.3933185928
 20
115.4139335727
 11
89.3337213202
 21
115.6999081549
  0
LINE
  5
386
100
AcDbEntity
  8
0
100
AcDbLine
 62
7
  6
CONTINUOUS
 10
86.5326389339
 20
114.5560102269
 11
86.5326389339
 21
116.3290518831
  0
LINE
  5
387
100
AcDbEntity
  8
0
100
AcDbLine
 62
7
  6
CONTINUOUS
 10
86.7870633317
 20
35.7207768217
 11
86.7870633317
 21
36.6965841797
  0
LINE
  5
388
100
AcDbEntity
  8
0
100
AcDbLine
 62
7
  6
CONTINUOUS
 10
86.7870633317
 20
36.9935690278
 11
86.7870633317
 21
37.9693763859
  0
LINE
  5
389
100
AcDbEntity
  8
0
100
AcDbLine
 62
7
  6
CONTINUOUS
 10
87.0094188202
 20
116.3290518831
 11
87.0094188202
 21
113.6408919966
  0
LINE
  5
38A
100
AcDbEntity
  8
0
100
AcDbLine
 62
7
  6
CONTINUOUS
 10
87.0570633317
 20
37.642693053
 11
87.0570633317
 21
37.1081203264
  0
LINE
  5
38B
100
AcDbEntity
  8
0
100
AcDbLine
 62
7
  6
CONTINUOUS
 10
87.0570633317
 20
36.3699008468
 11
87.0570633317
 21
35.8353281202
  0
LINE
  5
38C
100
AcDbEntity
  8
0
100
AcDbLine
 62
7
  6
CONTINUOUS
 10
87.2820633317
 20
36.3444450027
 11
87.2820633317
 21
36.4208125351
  0
LINE
  5
38D
100
AcDbEntity
  8
0
100
AcDbLine
 62
7
  6
CONTINUOUS
 10
87.2820633317
 20
36.611731366
 11
87.2820633317
 21
36.8662898072
  0
LINE
  5
38E
100
AcDbEntity
  8
0
100
AcDbLine
 62
7
  6
CONTINUOUS
 10
87.2820633317
 20
37.0572086381
 11
87.2820633317
 21
37.3457082049
  0
LINE
  5
38F
100
AcDbEntity
  8
0
100
AcDbLine
 62
7
  6
CONTINUOUS
 10
87.3670038202
 20
113.9051572959
 11
87.3670038202
 21
115.9858825768
  0
LINE
  5
390
100
AcDbEntity
  8
0
100
AcDbLine
 62
7
  6
CONTINUOUS
 10
87.5520633317
 20
36.8662898072
 11
87.5520633317
 21
36.611731366
  0
LINE
  5
391
100
AcDbEntity
  8
0
100
AcDbLine
 62
7
  6
CONTINUOUS
 10
87.5520633317
 20
37.3457082049
 11
87.5520633317
 21
37.0572086381
  0
LINE
  5
392
100
AcDbEntity
  8
0
100
AcDbLine
 62
7
  6
CONTINUOUS
 10
87.5520633317
 20
36.4208125351
 11
87.5520633317
 21
36.3444450027
  0
LINE
  5
393
100
AcDbEntity
  8
0
100
AcDbLine
 62
7
  6
CONTINUOUS
 10
87.7770633317
 20
35.8353281202
 11
87.7770633317
 21
36.3699008468
  0
LINE
  5
394
100
AcDbEntity
  8
0
100
AcDbLine
 62
7
  6
CONTINUOUS
 10
87.7770633317
 20
37.1081203264
 11
87.7770633317
 21
37.642693053
  0
LINE
  5
395
100
AcDbEntity
  8
0
100
AcDbLine
 62
7
  6
CONTINUOUS
 10
88.0470633317
 20
37.9693763859
 11
88.0470633317
 21
36.9935690278
  0
LINE
  5
396
100
AcDbEntity
  8
0
100
AcDbLine
 62
7
  6
CONTINUOUS
 10
88.0470633317
 20
36.6965841797
 11
88.0470633317
 21
35.7207768217
  0
LINE
  5
397
100
AcDbEntity
  8
0
100
AcDbLine
 62
7
  6
CONTINUOUS
 10
88.4397588202
 20
116.3290518831
 11
88.4397588202
 21
116.250147836
  0
LINE
  5
398
100
AcDbEntity
  8
0
100
AcDbLine
 62
7
  6
CONTINUOUS
 10
88.4397588202
 20
113.984061343
 11
88.4397588202
 21
113.9051572959
  0
LINE
  5
399
100
AcDbEntity
  8
0
100
AcDbLine
 62
7
  6
CONTINUOUS
 10
88.6781485928
 20
114.0412562274
 11
88.6781485928
 21
113.9623521803
  0
LINE
  5
39A
100
AcDbEntity
  8
0
100
AcDbLine
 62
7
  6
CONTINUOUS
 10
88.7377465475
 20
116.2718569987
 11
88.7377465475
 21
116.1929529516
  0
LINE
  5
39B
100
AcDbEntity
  8
0
100
AcDbLine
 62
7
  6
CONTINUOUS
 10
88.8569410928
 20
114.1556460362
 11
88.8569410928
 21
114.0767419891
  0
LINE
  5
39C
100
AcDbEntity
  8
0
100
AcDbLine
 62
7
  6
CONTINUOUS
 10
88.9761363202
 20
116.1574672299
 11
88.9761363202
 21
116.0785631829
  0
LINE
  5
39D
100
AcDbEntity
  8
0
100
AcDbLine
 62
7
  6
CONTINUOUS
 10
88.9761363202
 20
114.3272306893
 11
88.9761363202
 21
114.2483266423
  0
LINE
  5
39E
100
AcDbEntity
  8
0
100
AcDbLine
 62
7
  6
CONTINUOUS
 10
89.0357335928
 20
115.4139335727
 11
89.0357335928
 21
114.4771061798
  0
LINE
  5
39F
100
AcDbEntity
  8
0
100
AcDbLine
 62
7
  6
CONTINUOUS
 10
89.2145260928
 20
115.9286876924
 11
89.2145260928
 21
115.8497836453
  0
LINE
  5
3A0
100
AcDbEntity
  8
0
100
AcDbLine
 62
7
  6
CONTINUOUS
 10
89.2170633317
 20
35.3389391598
 11
89.2170633317
 21
38.1390820133
  0
LINE
  5
3A1
100
AcDbEntity
  8
0
100
AcDbLine
 62
7
  6
CONTINUOUS
 10
89.3337213202
 20
115.6999081549
 11
89.3337213202
 21
115.6210041078
  0
LINE
  5
3A2
100
AcDbEntity
  8
0
100
AcDbLine
 62
7
  6
CONTINUOUS
 10
89.3933185928
 20
114.5560102269
 11
89.3933185928
 21
115.4139335727
  0
LINE
  5
3A3
100
AcDbEntity
  8
0
100
AcDbLine
 62
7
  6
CONTINUOUS
 10
90.3845441126
 20
38.3936404546
 11
90.3845441126
 21
38.007560152
  0
LINE
  5
3A4
100
AcDbEntity
  8
0
100
AcDbLine
 62
7
  6
CONTINUOUS
 10
90.3845441126
 20
37.6511783343
 11
90.3845441126
 21
35.0843807186
  0
LINE
  5
3A5
100
AcDbEntity
  8
0
100
AcDbLine
 62
7
  6
CONTINUOUS
 10
90.6694239729
 20
102.8764787228
 11
90.6694239729
 21
92.1143976393
  0
LINE
  5
3A6
100
AcDbEntity
  8
KONSTRUKTIONSELEMENTE
100
AcDbLine
 62
7
  6
CONTINUOUS
 10
90.6694239729
 20
102.8764787228
 11
90.6694239729
 21
110.915036357
  0
LINE
  5
3A7
100
AcDbEntity
  8
KONSTRUKTIONSELEMENTE
100
AcDbLine
 62
7
  6
CONTINUOUS
 10
90.8694239729
 20
62.0958597599
 11
90.8694239729
 21
72.7024614777
  0
LINE
  5
3A8
100
AcDbEntity
  8
KONSTRUKTIONSELEMENTE
100
AcDbLine
 62
7
  6
CONTINUOUS
 10
90.8694239729
 20
93.2085581322
 11
90.8694239729
 21
95.7167165625
  0
LINE
  5
3A9
100
AcDbEntity
  8
0
100
AcDbLine
 62
7
  6
CONTINUOUS
 10
90.9605441126
 20
35.0843807186
 11
90.9605441126
 21
36.8933012523
  0
LINE
  5
3AA
100
AcDbEntity
  8
0
100
AcDbLine
 62
7
  6
CONTINUOUS
 10
90.9605441126
 20
37.0884627239
 11
90.9605441126
 21
37.6511783343
  0
LINE
  5
3AB
100
AcDbEntity
  8
KONSTRUKTIONSELEMENTE
100
AcDbLine
 62
7
  6
CONTINUOUS
 10
91.8694239729
 20
119.3089241767
 11
91.8694239729
 21
118.98150202
  0
LINE
  5
3AC
100
AcDbEntity
  8
KONSTRUKTIONSELEMENTE
100
AcDbLine
 62
7
  6
CONTINUOUS
 10
91.8694239729
 20
108.4852789236
 11
91.8694239729
 21
104.1917165625
  0
LINE
  5
3AD
100
AcDbEntity
  8
KONSTRUKTIONSELEMENTE
100
AcDbLine
 62
7
  6
CONTINUOUS
 10
91.8694239729
 20
63.807203562
 11
91.8694239729
 21
41.3054952086
  0
LINE
  5
3AE
100
AcDbEntity
  8
KONSTRUKTIONSELEMENTE
100
AcDbLine
 62
7
  6
CONTINUOUS
 10
92.1194239729
 20
71.9514009932
 11
92.1194239729
 21
93.9596186167
  0
LINE
  5
3AF
100
AcDbEntity
  8
0
100
AcDbLine
 62
7
  6
CONTINUOUS
 10
92.4005441126
 20
36.6811692179
 11
92.4005441126
 21
36.8933012523
  0
LINE
  5
3B0
100
AcDbEntity
  8
0
100
AcDbLine
 62
7
  6
CONTINUOUS
 10
93.013833224
 20
36.744633536
 11
93.013833224
 21
36.9567655704
  0
LINE
  5
3B1
100
AcDbEntity
  8
0
100
AcDbLine
 62
7
  6
CONTINUOUS
 10
93.2904441366
 20
37.7601434723
 11
93.2904441366
 21
37.548011438
  0
LINE
  5
3B2
100
AcDbEntity
  8
0
100
AcDbLine
 62
7
  6
CONTINUOUS
 10
93.7043164628
 20
35.0843807186
 11
93.7043164628
 21
35.296512753
  0
LINE
  5
3B3
100
AcDbEntity
  8
0
100
AcDbLine
 62
7
  6
CONTINUOUS
 10
94.7045441126
 20
38.3936404546
 11
94.7045441126
 21
36.2998274467
  0
LINE
  5
3B4
100
AcDbEntity
  8
0
100
AcDbLine
 62
7
  6
CONTINUOUS
 10
95.2805441126
 20
36.2998274467
 11
95.2805441126
 21
38.3936404546
  0
LINE
  5
3B5
100
AcDbEntity
  8
0
100
AcDbLine
 62
7
  6
CONTINUOUS
 10
86.4730413202
 20
114.270035805
 11
86.5326389339
 21
114.5560102269
  0
LINE
  5
3B6
100
AcDbEntity
  8
0
100
AcDbLine
 62
7
  6
CONTINUOUS
 10
89.3337213202
 20
114.270035805
 11
89.3933185928
 21
114.5560102269
  0
LINE
  5
3B7
100
AcDbEntity
  8
0
100
AcDbLine
 62
7
  6
CONTINUOUS
 10
86.1750539339
 20
114.5560102269
 11
86.1154563202
 21
114.3272306893
  0
LINE
  5
3B8
100
AcDbEntity
  8
0
100
AcDbLine
 62
7
  6
CONTINUOUS
 10
86.1750539339
 20
114.4771061798
 11
86.1154563202
 21
114.2483266423
  0
LINE
  5
3B9
100
AcDbEntity
  8
0
100
AcDbLine
 62
7
  6
CONTINUOUS
 10
83.4931662634
 20
115.5283233415
 11
83.4335688202
 21
115.3567386883
  0
LINE
  5
3BA
100
AcDbEntity
  8
0
100
AcDbLine
 62
7
  6
CONTINUOUS
 10
83.4931662634
 20
115.4494192944
 11
83.4335688202
 21
115.2778346413
  0
LINE
  5
3BB
100
AcDbEntity
  8
0
100
AcDbLine
 62
7
  6
CONTINUOUS
 10
83.7911538202
 20
115.299543804
 11
83.8507512634
 21
115.4711284571
  0
LINE
  5
3BC
100
AcDbEntity
  8
0
100
AcDbLine
 62
7
  6
CONTINUOUS
 10
107.7084516507
 20
115.7925887609
 11
107.5527298931
 21
116.0213682985
  0
LINE
  5
3BD
100
AcDbEntity
  8
0
100
AcDbLine
 62
7
  6
CONTINUOUS
 10
107.7084516507
 20
115.871492808
 11
107.5527298931
 21
116.1002723455
  0
LINE
  5
3BE
100
AcDbEntity
  8
0
100
AcDbLine
 62
7
  6
CONTINUOUS
 10
106.4626775895
 20
114.0195470647
 11
106.3588628864
 21
114.1911317579
  0
LINE
  5
3BF
100
AcDbEntity
  8
0
100
AcDbLine
 62
7
  6
CONTINUOUS
 10
106.4626775895
 20
114.0984511118
 11
106.3588628864
 21
114.270035805
  0
LINE
  5
3C0
100
AcDbEntity
  8
0
100
AcDbLine
 62
7
  6
CONTINUOUS
 10
107.3970081354
 20
115.871492808
 11
107.5008222445
 21
115.6999081549
  0
LINE
  5
3C1
100
AcDbEntity
  8
0
100
AcDbLine
 62
7
  6
CONTINUOUS
 10
101.1162304776
 20
114.270035805
 11
101.2200448837
 21
114.0412562274
  0
LINE
  5
3C2
100
AcDbEntity
  8
0
100
AcDbLine
 62
7
  6
CONTINUOUS
 10
106.047419371
 20
114.3844255737
 11
106.1512340742
 21
114.0984511118
  0
LINE
  5
3C3
100
AcDbEntity
  8
0
100
AcDbLine
 62
7
  6
CONTINUOUS
 10
100.6210441231
 20
113.6408919966
 11
100.1818997831
 21
114.8774704506
  0
LINE
  5
3C4
100
AcDbEntity
  8
0
100
AcDbLine
 62
7
  6
CONTINUOUS
 10
100.6490652046
 20
113.6408919966
 11
100.1818997831
 21
114.9563744977
  0
LINE
  5
3C5
100
AcDbEntity
  8
0
100
AcDbLine
 62
7
  6
CONTINUOUS
 10
99.8704562678
 20
114.8419847289
 11
100.2857143377
 21
113.6408919966
  0
LINE
  5
3C6
100
AcDbEntity
  8
0
100
AcDbLine
 62
7
  6
CONTINUOUS
 10
100.2338071347
 20
115.871492808
 11
100.2857143377
 21
115.6999081549
  0
LINE
  5
3C7
100
AcDbEntity
  8
0
100
AcDbLine
 62
7
  6
CONTINUOUS
 10
100.597157853
 20
115.6210041078
 11
100.5452505015
 21
115.7925887609
  0
LINE
  5
3C8
100
AcDbEntity
  8
0
100
AcDbLine
 62
7
  6
CONTINUOUS
 10
100.597157853
 20
115.6999081549
 11
100.5452505015
 21
115.871492808
  0
LINE
  5
3C9
100
AcDbEntity
  8
0
100
AcDbLine
 62
7
  6
CONTINUOUS
 10
102.7253551087
 20
115.8142979236
 11
102.7772624602
 21
115.6427131103
  0
LINE
  5
3CA
100
AcDbEntity
  8
0
100
AcDbLine
 62
7
  6
CONTINUOUS
 10
101.4276739929
 20
114.2483266423
 11
101.3757666413
 21
114.4771061798
  0
LINE
  5
3CB
100
AcDbEntity
  8
0
100
AcDbLine
 62
7
  6
CONTINUOUS
 10
101.4276739929
 20
114.3272306893
 11
101.3757666413
 21
114.5560102269
  0
LINE
  5
3CC
100
AcDbEntity
  8
0
100
AcDbLine
 62
7
  6
CONTINUOUS
 10
101.064323126
 20
114.5560102269
 11
101.1162304776
 21
114.270035805
  0
LINE
  5
3CD
100
AcDbEntity
  8
KONSTRUKTIONSELEMENTE
100
AcDbLine
 62
7
  6
CONTINUOUS
 10
96.6194239729
 20
71.9514009932
 11
96.6194239729
 21
93.9596186167
  0
LINE
  5
3CE
100
AcDbEntity
  8
KONSTRUKTIONSELEMENTE
100
AcDbLine
 62
7
  6
CONTINUOUS
 10
96.8694239729
 20
119.3089241767
 11
96.8694239729
 21
118.98150202
  0
LINE
  5
3CF
100
AcDbEntity
  8
KONSTRUKTIONSELEMENTE
100
AcDbLine
 62
7
  6
CONTINUOUS
 10
96.8694239729
 20
108.4852789236
 11
96.8694239729
 21
104.1917165625
  0
LINE
  5
3D0
100
AcDbEntity
  8
KONSTRUKTIONSELEMENTE
100
AcDbLine
 62
7
  6
CONTINUOUS
 10
96.8694239729
 20
63.807203562
 11
96.8694239729
 21
41.3054952086
  0
LINE
  5
3D1
100
AcDbEntity
  8
0
100
AcDbLine
 62
7
  6
CONTINUOUS
 10
97.545025329
 20
38.3936404546
 11
97.545025329
 21
36.2998274467
  0
LINE
  5
3D2
100
AcDbEntity
  8
KONSTRUKTIONSELEMENTE
100
AcDbLine
 62
7
  6
CONTINUOUS
 10
97.8694239729
 20
95.7167165625
 11
97.8694239729
 21
93.2085581322
  0
LINE
  5
3D3
100
AcDbEntity
  8
KONSTRUKTIONSELEMENTE
100
AcDbLine
 62
7
  6
CONTINUOUS
 10
97.8694239729
 20
72.7024614777
 11
97.8694239729
 21
62.0958597599
  0
LINE
  5
3D4
100
AcDbEntity
  8
0
100
AcDbLine
 62
7
  6
CONTINUOUS
 10
97.9498879729
 20
116.3290518831
 11
97.9498879729
 21
113.6408919966
  0
LINE
  5
3D5
100
AcDbEntity
  8
0
100
AcDbLine
 62
7
  6
CONTINUOUS
 10
98.0694239729
 20
92.1143976393
 11
98.0694239729
 21
102.8764787228
  0
LINE
  5
3D6
100
AcDbEntity
  8
KONSTRUKTIONSELEMENTE
100
AcDbLine
 62
7
  6
CONTINUOUS
 10
98.0694239729
 20
102.8764787228
 11
98.0694239729
 21
110.915036357
  0
LINE
  5
3D7
100
AcDbEntity
  8
0
100
AcDbLine
 62
7
  6
CONTINUOUS
 10
98.121025329
 20
36.2998274467
 11
98.121025329
 21
38.3936404546
  0
LINE
  5
3D8
100
AcDbEntity
  8
0
100
AcDbLine
 62
7
  6
CONTINUOUS
 10
98.2613314882
 20
113.6408919966
 11
98.2613314882
 21
116.3290518831
  0
LINE
  5
3D9
100
AcDbEntity
  8
0
100
AcDbLine
 62
7
  6
CONTINUOUS
 10
98.6765894838
 20
116.3290518831
 11
98.6765894838
 21
113.6408919966
  0
LINE
  5
3DA
100
AcDbEntity
  8
0
100
AcDbLine
 62
7
  6
CONTINUOUS
 10
98.9880329992
 20
113.6408919966
 11
98.9880329992
 21
114.8419847289
  0
LINE
  5
3DB
100
AcDbEntity
  8
0
100
AcDbLine
 62
7
  6
CONTINUOUS
 10
98.9880329992
 20
115.1062499881
 11
98.9880329992
 21
116.0430774612
  0
LINE
  5
3DC
100
AcDbEntity
  8
0
100
AcDbLine
 62
7
  6
CONTINUOUS
 10
99.381025329
 20
38.3936404546
 11
99.381025329
 21
37.9863469486
  0
LINE
  5
3DD
100
AcDbEntity
  8
0
100
AcDbLine
 62
7
  6
CONTINUOUS
 10
99.381025329
 20
37.6299651309
 11
99.381025329
 21
35.0843807186
  0
LINE
  5
3DE
100
AcDbEntity
  8
0
100
AcDbLine
 62
7
  6
CONTINUOUS
 10
99.9223636194
 20
116.3290518831
 11
99.9223636194
 21
116.250147836
  0
LINE
  5
3DF
100
AcDbEntity
  8
0
100
AcDbLine
 62
7
  6
CONTINUOUS
 10
99.957025329
 20
35.5086447873
 11
99.957025329
 21
37.6299651309
  0
LINE
  5
3E0
100
AcDbEntity
  8
0
100
AcDbLine
 62
7
  6
CONTINUOUS
 10
99.9742708224
 20
115.1851540352
 11
99.9742708224
 21
115.1062499881
  0
LINE
  5
3E1
100
AcDbEntity
  8
0
100
AcDbLine
 62
7
  6
CONTINUOUS
 10
100.1299925801
 20
115.2423489196
 11
100.1299925801
 21
115.1634448725
  0
LINE
  5
3E2
100
AcDbEntity
  8
0
100
AcDbLine
 62
7
  6
CONTINUOUS
 10
100.1818997831
 20
116.2718569987
 11
100.1818997831
 21
116.1929529516
  0
LINE
  5
3E3
100
AcDbEntity
  8
0
100
AcDbLine
 62
7
  6
CONTINUOUS
 10
100.1818997831
 20
114.9563744977
 11
100.1818997831
 21
114.8774704506
  0
LINE
  5
3E4
100
AcDbEntity
  8
0
100
AcDbLine
 62
7
  6
CONTINUOUS
 10
100.2338071347
 20
115.3567386883
 11
100.2338071347
 21
115.2778346413
  0
LINE
  5
3E5
100
AcDbEntity
  8
0
100
AcDbLine
 62
7
  6
CONTINUOUS
 10
100.2857143377
 20
115.6999081549
 11
100.2857143377
 21
115.4494192944
  0
LINE
  5
3E6
100
AcDbEntity
  8
0
100
AcDbLine
 62
7
  6
CONTINUOUS
 10
100.3895288923
 20
116.1002723455
 11
100.3895288923
 21
116.0213682985
  0
LINE
  5
3E7
100
AcDbEntity
  8
0
100
AcDbLine
 62
7
  6
CONTINUOUS
 10
100.5452505015
 20
115.871492808
 11
100.5452505015
 21
115.7925887609
  0
LINE
  5
3E8
100
AcDbEntity
  8
0
100
AcDbLine
 62
7
  6
CONTINUOUS
 10
100.597157853
 20
115.4711284571
 11
100.597157853
 21
115.6999081549
  0
LINE
  5
3E9
100
AcDbEntity
  8
0
100
AcDbLine
 62
7
  6
CONTINUOUS
 10
101.064323126
 20
115.4139335727
 11
101.064323126
 21
114.5560102269
  0
LINE
  5
3EA
100
AcDbEntity
  8
0
100
AcDbLine
 62
7
  6
CONTINUOUS
 10
101.1162304776
 20
115.6999081549
 11
101.1162304776
 21
115.6210041078
  0
LINE
  5
3EB
100
AcDbEntity
  8
0
100
AcDbLine
 62
7
  6
CONTINUOUS
 10
101.2200448837
 20
115.9286876924
 11
101.2200448837
 21
115.8497836453
  0
LINE
  5
3EC
100
AcDbEntity
  8
0
100
AcDbLine
 62
7
  6
CONTINUOUS
 10
101.3757666413
 20
114.4771061798
 11
101.3757666413
 21
115.4139335727
  0
LINE
  5
3ED
100
AcDbEntity
  8
0
100
AcDbLine
 62
7
  6
CONTINUOUS
 10
101.4276739929
 20
116.1574672299
 11
101.4276739929
 21
116.0785631829
  0
LINE
  5
3EE
100
AcDbEntity
  8
0
100
AcDbLine
 62
7
  6
CONTINUOUS
 10
101.4276739929
 20
114.3272306893
 11
101.4276739929
 21
114.2483266423
  0
LINE
  5
3EF
100
AcDbEntity
  8
0
100
AcDbLine
 62
7
  6
CONTINUOUS
 10
101.531488399
 20
114.1556460362
 11
101.531488399
 21
114.0767419891
  0
LINE
  5
3F0
100
AcDbEntity
  8
0
100
AcDbLine
 62
7
  6
CONTINUOUS
 10
101.6353028051
 20
116.2718569987
 11
101.6353028051
 21
116.1929529516
  0
LINE
  5
3F1
100
AcDbEntity
  8
0
100
AcDbLine
 62
7
  6
CONTINUOUS
 10
101.6872101566
 20
114.0412562274
 11
101.6872101566
 21
113.9623521803
  0
LINE
  5
3F2
100
AcDbEntity
  8
0
100
AcDbLine
 62
7
  6
CONTINUOUS
 10
101.8948392659
 20
116.3290518831
 11
101.8948392659
 21
116.250147836
  0
LINE
  5
3F3
100
AcDbEntity
  8
0
100
AcDbLine
 62
7
  6
CONTINUOUS
 10
101.8948392659
 20
113.984061343
 11
101.8948392659
 21
113.9051572959
  0
LINE
  5
3F4
100
AcDbEntity
  8
0
100
AcDbLine
 62
7
  6
CONTINUOUS
 10
102.3100971873
 20
115.1279591508
 11
102.3100971873
 21
114.7847898445
  0
LINE
  5
3F5
100
AcDbEntity
  8
0
100
AcDbLine
 62
7
  6
CONTINUOUS
 10
102.3620045388
 20
116.3290518831
 11
102.3620045388
 21
116.250147836
  0
LINE
  5
3F6
100
AcDbEntity
  8
0
100
AcDbLine
 62
7
  6
CONTINUOUS
 10
102.3620045388
 20
113.984061343
 11
102.3620045388
 21
113.9051572959
  0
LINE
  5
3F7
100
AcDbEntity
  8
0
100
AcDbLine
 62
7
  6
CONTINUOUS
 10
102.3694239729
 20
277.904517625
 11
102.3694239729
 21
126.904517625
  0
LINE
  5
3F8
100
AcDbEntity
  8
KONSTRUKTIONSELEMENTE
100
AcDbLine
 62
7
  6
CONTINUOUS
 10
102.3694239729
 20
72.7024614777
 11
102.3694239729
 21
62.0958597599
  0
LINE
  5
3F9
100
AcDbEntity
  8
0
100
AcDbLine
 62
7
  6
CONTINUOUS
 10
102.4365935807
 20
36.9596279023
 11
102.4365935807
 21
36.747495868
  0
LINE
  5
3FA
100
AcDbEntity
  8
0
100
AcDbLine
 62
7
  6
CONTINUOUS
 10
102.569633351
 20
114.0412562274
 11
102.569633351
 21
113.9623521803
  0
LINE
  5
3FB
100
AcDbEntity
  8
0
100
AcDbLine
 62
7
  6
CONTINUOUS
 10
102.6215407026
 20
116.2718569987
 11
102.6215407026
 21
116.1929529516
  0
LINE
  5
3FC
100
AcDbEntity
  8
0
100
AcDbLine
 62
7
  6
CONTINUOUS
 10
102.7253551087
 20
114.1556460362
 11
102.7253551087
 21
114.0767419891
  0
LINE
  5
3FD
100
AcDbEntity
  8
0
100
AcDbLine
 62
7
  6
CONTINUOUS
 10
102.7772624602
 20
114.7847898445
 11
102.7772624602
 21
114.2483266423
  0
LINE
  5
3FE
100
AcDbEntity
  8
0
100
AcDbLine
 62
7
  6
CONTINUOUS
 10
102.8291698118
 20
116.1574672299
 11
102.8291698118
 21
116.0785631829
  0
LINE
  5
3FF
100
AcDbEntity
  8
KONSTRUKTIONSELEMENTE
100
AcDbLine
 62
7
  6
CONTINUOUS
 10
103.0005694357
 20
103.3828892146
 11
103.0005694357
 21
104.6599314863
  0
LINE
  5
400
100
AcDbEntity
  8
0
100
AcDbLine
 62
7
  6
CONTINUOUS
 10
103.036798921
 20
115.9286876924
 11
103.036798921
 21
115.8497836453
  0
LINE
  5
401
100
AcDbEntity
  8
0
100
AcDbLine
 62
7
  6
CONTINUOUS
 10
103.0887059756
 20
114.270035805
 11
103.0887059756
 21
115.1279591508
  0
LINE
  5
402
100
AcDbEntity
  8
0
100
AcDbLine
 62
7
  6
CONTINUOUS
 10
89.0357335928
 20
114.5560102269
 11
88.9761363202
 21
114.3272306893
  0
LINE
  5
403
100
AcDbEntity
  8
0
100
AcDbLine
 62
7
  6
CONTINUOUS
 10
89.0357335928
 20
114.4771061798
 11
88.9761363202
 21
114.2483266423
  0
LINE
  5
404
100
AcDbEntity
  8
0
100
AcDbLine
 62
7
  6
CONTINUOUS
 10
86.3538464339
 20
114.0412562274
 11
86.4730413202
 21
114.270035805
  0
LINE
  5
405
100
AcDbEntity
  8
0
100
AcDbLine
 62
7
  6
CONTINUOUS
 10
89.2145260928
 20
114.0412562274
 11
89.3337213202
 21
114.270035805
  0
LINE
  5
406
100
AcDbEntity
  8
0
100
AcDbLine
 62
7
  6
CONTINUOUS
 10
86.1154563202
 20
114.3272306893
 11
85.9962614339
 21
114.1556460362
  0
LINE
  5
407
100
AcDbEntity
  8
0
100
AcDbLine
 62
7
  6
CONTINUOUS
 10
83.6123613202
 20
115.0707642664
 11
83.7911538202
 21
115.299543804
  0
LINE
  5
408
100
AcDbEntity
  8
0
100
AcDbLine
 62
7
  6
CONTINUOUS
 10
107.8641734084
 20
114.5914960287
 11
107.7603587053
 21
114.8774704506
  0
LINE
  5
409
100
AcDbEntity
  8
0
100
AcDbLine
 62
7
  6
CONTINUOUS
 10
107.8641734084
 20
114.6704000758
 11
107.7603587053
 21
114.9563744977
  0
LINE
  5
40A
100
AcDbEntity
  8
0
100
AcDbLine
 62
7
  6
CONTINUOUS
 10
106.3588628864
 20
114.1911317579
 11
106.3069558318
 21
114.362716411
  0
LINE
  5
40B
100
AcDbEntity
  8
0
100
AcDbLine
 62
7
  6
CONTINUOUS
 10
106.3588628864
 20
114.270035805
 11
106.3069558318
 21
114.4416204581
  0
LINE
  5
40C
100
AcDbEntity
  8
0
100
AcDbLine
 62
7
  6
CONTINUOUS
 10
107.5527298931
 20
114.7847898445
 11
107.6046369476
 21
114.6132051113
  0
LINE
  5
40D
100
AcDbEntity
  8
0
100
AcDbLine
 62
7
  6
CONTINUOUS
 10
107.7364889908
 20
115.6999081549
 11
107.7084516507
 21
115.7925887609
  0
LINE
  5
40E
100
AcDbEntity
  8
0
100
AcDbLine
 62
7
  6
CONTINUOUS
 10
107.7603587053
 20
115.6999081549
 11
107.7084516507
 21
115.871492808
  0
LINE
  5
40F
100
AcDbEntity
  8
0
100
AcDbLine
 62
7
  6
CONTINUOUS
 10
103.0748409471
 20
115.6401964782
 11
103.036798921
 21
115.8497836453
  0
LINE
  5
410
100
AcDbEntity
  8
0
100
AcDbLine
 62
7
  6
CONTINUOUS
 10
103.0887059756
 20
115.6427131103
 11
103.036798921
 21
115.9286876924
  0
LINE
  5
411
100
AcDbEntity
  8
0
100
AcDbLine
 62
7
  6
CONTINUOUS
 10
105.9955123165
 20
114.7847898445
 11
106.047419371
 21
114.3844255737
  0
LINE
  5
412
100
AcDbEntity
  8
0
100
AcDbLine
 62
7
  6
CONTINUOUS
 10
105.9955123165
 20
115.1851540352
 11
105.9955123165
 21
114.7847898445
  0
LINE
  5
413
100
AcDbEntity
  8
0
100
AcDbLine
 62
7
  6
CONTINUOUS
 10
106.047419371
 20
115.5855182259
 11
106.047419371
 21
115.5066141788
  0
LINE
  5
414
100
AcDbEntity
  8
0
100
AcDbLine
 62
7
  6
CONTINUOUS
 10
106.1512340742
 20
115.871492808
 11
106.1512340742
 21
115.7925887609
  0
LINE
  5
415
100
AcDbEntity
  8
0
100
AcDbLine
 62
7
  6
CONTINUOUS
 10
106.2550481832
 20
114.9918602194
 11
106.2550481832
 21
115.1851540352
  0
LINE
  5
416
100
AcDbEntity
  8
0
100
AcDbLine
 62
7
  6
CONTINUOUS
 10
106.3069558318
 20
116.1002723455
 11
106.3069558318
 21
116.0213682985
  0
LINE
  5
417
100
AcDbEntity
  8
0
100
AcDbLine
 62
7
  6
CONTINUOUS
 10
106.3069558318
 20
114.362716411
 11
106.3069558318
 21
114.6132051113
  0
LINE
  5
418
100
AcDbEntity
  8
0
100
AcDbLine
 62
7
  6
CONTINUOUS
 10
106.3588628864
 20
114.270035805
 11
106.3588628864
 21
114.1911317579
  0
LINE
  5
419
100
AcDbEntity
  8
0
100
AcDbLine
 62
7
  6
CONTINUOUS
 10
106.4626775895
 20
114.0984511118
 11
106.4626775895
 21
114.0195470647
  0
LINE
  5
41A
100
AcDbEntity
  8
0
100
AcDbLine
 62
7
  6
CONTINUOUS
 10
106.5664916986
 20
116.2718569987
 11
106.5664916986
 21
116.1929529516
  0
LINE
  5
41B
100
AcDbEntity
  8
0
100
AcDbLine
 62
7
  6
CONTINUOUS
 10
106.5664916986
 20
115.299543804
 11
106.5664916986
 21
115.2206397569
  0
LINE
  5
41C
100
AcDbEntity
  8
0
100
AcDbLine
 62
7
  6
CONTINUOUS
 10
106.6183993471
 20
113.984061343
 11
106.6183993471
 21
113.9051572959
  0
LINE
  5
41D
100
AcDbEntity
  8
0
100
AcDbLine
 62
7
  6
CONTINUOUS
 10
106.7741211048
 20
113.9268664586
 11
106.7741211048
 21
113.8479624115
  0
LINE
  5
41E
100
AcDbEntity
  8
0
100
AcDbLine
 62
7
  6
CONTINUOUS
 10
106.8260281593
 20
116.3290518831
 11
106.8260281593
 21
116.250147836
  0
LINE
  5
41F
100
AcDbEntity
  8
0
100
AcDbLine
 62
7
  6
CONTINUOUS
 10
106.8260281593
 20
115.3567386883
 11
106.8260281593
 21
115.2778346413
  0
LINE
  5
420
100
AcDbEntity
  8
0
100
AcDbLine
 62
7
  6
CONTINUOUS
 10
107.0336569715
 20
116.3290518831
 11
107.0336569715
 21
116.250147836
  0
LINE
  5
421
100
AcDbEntity
  8
0
100
AcDbLine
 62
7
  6
CONTINUOUS
 10
107.0855646201
 20
115.3567386883
 11
107.0855646201
 21
115.2778346413
  0
LINE
  5
422
100
AcDbEntity
  8
0
100
AcDbLine
 62
7
  6
CONTINUOUS
 10
107.1374716746
 20
113.9268664586
 11
107.1374716746
 21
113.8479624115
  0
LINE
  5
423
100
AcDbEntity
  8
0
100
AcDbLine
 62
7
  6
CONTINUOUS
 10
107.2931934323
 20
116.2718569987
 11
107.2931934323
 21
116.1929529516
  0
LINE
  5
424
100
AcDbEntity
  8
0
100
AcDbLine
 62
7
  6
CONTINUOUS
 10
107.2931934323
 20
113.984061343
 11
107.2931934323
 21
113.9051572959
  0
LINE
  5
425
100
AcDbEntity
  8
0
100
AcDbLine
 62
7
  6
CONTINUOUS
 10
107.3451004868
 20
115.299543804
 11
107.3451004868
 21
115.2206397569
  0
LINE
  5
426
100
AcDbEntity
  8
0
100
AcDbLine
 62
7
  6
CONTINUOUS
 10
107.44891519
 20
114.0984511118
 11
107.44891519
 21
114.0195470647
  0
LINE
  5
427
100
AcDbEntity
  8
0
100
AcDbLine
 62
7
  6
CONTINUOUS
 10
107.5527298931
 20
116.1002723455
 11
107.5527298931
 21
116.0213682985
  0
LINE
  5
428
100
AcDbEntity
  8
0
100
AcDbLine
 62
7
  6
CONTINUOUS
 10
107.5527298931
 20
114.270035805
 11
107.5527298931
 21
114.1911317579
  0
LINE
  5
429
100
AcDbEntity
  8
0
100
AcDbLine
 62
7
  6
CONTINUOUS
 10
107.6046369476
 20
115.1279591508
 11
107.6046369476
 21
115.0490551037
  0
LINE
  5
42A
100
AcDbEntity
  8
0
100
AcDbLine
 62
7
  6
CONTINUOUS
 10
107.6046369476
 20
114.6132051113
 11
107.6046369476
 21
114.362716411
  0
LINE
  5
42B
100
AcDbEntity
  8
0
100
AcDbLine
 62
7
  6
CONTINUOUS
 10
107.7084516507
 20
115.871492808
 11
107.7084516507
 21
115.7925887609
  0
LINE
  5
42C
100
AcDbEntity
  8
0
100
AcDbLine
 62
7
  6
CONTINUOUS
 10
107.7603587053
 20
114.9563744977
 11
107.7603587053
 21
114.8774704506
  0
LINE
  5
42D
100
AcDbEntity
  8
0
100
AcDbLine
 62
7
  6
CONTINUOUS
 10
107.8641734084
 20
114.3844255737
 11
107.8641734084
 21
114.6704000758
  0
LINE
  5
42E
100
AcDbEntity
  8
0
100
AcDbLine
 62
7
  6
CONTINUOUS
 10
108.8568128951
 20
90.5664751512
 11
108.8568128951
 21
89.8140308359
  0
LINE
  5
42F
100
AcDbEntity
  8
RUNDUNGEN
100
AcDbLine
 62
7
  6
CONTINUOUS
 10
110.2694239729
 20
8.3557443898
 11
110.2694239729
 21
5.5980279431
  0
LINE
  5
430
100
AcDbEntity
  8
0
100
AcDbLine
 62
7
  6
CONTINUOUS
 10
111.6194239729
 20
96.0619363027
 11
111.6194239729
 21
92.7555867268
  0
LINE
  5
431
100
AcDbEntity
  8
RUNDUNGEN
100
AcDbLine
 62
7
  6
CONTINUOUS
 10
111.6194239729
 20
96.0619363027
 11
111.6194239729
 21
114.1021167784
  0
LINE
  5
432
100
AcDbEntity
  8
0
100
AcDbLine
 62
7
  6
CONTINUOUS
 10
114.0940843606
 20
111.946208323
 11
114.0940843606
 21
117.2924144879
  0
LINE
  5
433
100
AcDbEntity
  8
RUNDUNGEN
100
AcDbLine
 62
7
  6
CONTINUOUS
 10
114.7694239729
 20
7.5072162523
 11
114.7694239729
 21
14.6165411102
  0
LINE
  5
434
100
AcDbEntity
  8
0
100
AcDbLine
 62
7
  6
CONTINUOUS
 10
106.047419371
 20
115.5855182259
 11
105.9955123165
 21
115.1851540352
  0
LINE
  5
435
100
AcDbEntity
  8
0
100
AcDbLine
 62
7
  6
CONTINUOUS
 10
106.047419371
 20
115.5066141788
 11
105.9955123165
 21
115.1062499881
  0
LINE
  5
436
100
AcDbEntity
  8
0
100
AcDbLine
 62
7
  6
CONTINUOUS
 10
106.2550481832
 20
115.1851540352
 11
106.3069558318
 21
115.5283233415
  0
LINE
  5
437
100
AcDbEntity
  8
0
100
AcDbLine
 62
7
  6
CONTINUOUS
 10
101.1162304776
 20
115.6999081549
 11
101.064323126
 21
115.4139335727
  0
LINE
  5
438
100
AcDbEntity
  8
0
100
AcDbLine
 62
7
  6
CONTINUOUS
 10
101.1162304776
 20
115.6210041078
 11
101.064323126
 21
115.3350295257
  0
LINE
  5
439
100
AcDbEntity
  8
0
100
AcDbLine
 62
7
  6
CONTINUOUS
 10
101.3757666413
 20
115.4139335727
 11
101.4276739929
 21
115.6427131103
  0
LINE
  5
43A
100
AcDbEntity
  8
0
100
AcDbLine
 62
7
  6
CONTINUOUS
 10
103.036798921
 20
114.0412562274
 11
103.0887059756
 21
114.270035805
  0
LINE
  5
43B
100
AcDbEntity
  8
0
100
AcDbLine
 62
7
  6
CONTINUOUS
 10
100.2857143377
 20
115.5283233415
 11
100.2338071347
 21
115.3567386883
  0
LINE
  5
43C
100
AcDbEntity
  8
0
100
AcDbLine
 62
7
  6
CONTINUOUS
 10
100.2857143377
 20
115.4494192944
 11
100.2338071347
 21
115.2778346413
  0
LINE
  5
43D
100
AcDbEntity
  8
0
100
AcDbLine
 62
7
  6
CONTINUOUS
 10
100.5452505015
 20
115.299543804
 11
100.597157853
 21
115.4711284571
  0
LINE
  5
43E
100
AcDbEntity
  8
0
100
AcDbLine
 62
7
  6
CONTINUOUS
 10
102.7772624602
 20
114.3272306893
 11
102.7253551087
 21
114.1556460362
  0
LINE
  5
43F
100
AcDbEntity
  8
0
100
AcDbLine
 62
7
  6
CONTINUOUS
 10
102.7772624602
 20
114.2483266423
 11
102.7253551087
 21
114.0767419891
  0
LINE
  5
440
100
AcDbEntity
  8
0
100
AcDbLine
 62
7
  6
CONTINUOUS
 10
106.3069558318
 20
115.5283233415
 11
106.3588628864
 21
115.6999081549
  0
LINE
  5
441
100
AcDbEntity
  8
0
100
AcDbLine
 62
7
  6
CONTINUOUS
 10
106.3069558318
 20
114.6132051113
 11
106.3588628864
 21
114.7847898445
  0
LINE
  5
442
100
AcDbEntity
  8
0
100
AcDbLine
 62
7
  6
CONTINUOUS
 10
101.2200448837
 20
115.9286876924
 11
101.1162304776
 21
115.6999081549
  0
LINE
  5
443
100
AcDbEntity
  8
0
100
AcDbLine
 62
7
  6
CONTINUOUS
 10
101.2200448837
 20
115.8497836453
 11
101.1162304776
 21
115.6210041078
  0
LINE
  5
444
100
AcDbEntity
  8
0
100
AcDbLine
 62
7
  6
CONTINUOUS
 10
86.1154563202
 20
114.2483266423
 11
85.9962614339
 21
114.0767419891
  0
LINE
  5
445
100
AcDbEntity
  8
0
100
AcDbLine
 62
7
  6
CONTINUOUS
 10
88.9761363202
 20
114.3272306893
 11
88.8569410928
 21
114.1556460362
  0
LINE
  5
446
100
AcDbEntity
  8
0
100
AcDbLine
 62
7
  6
CONTINUOUS
 10
88.9761363202
 20
114.2483266423
 11
88.8569410928
 21
114.0767419891
  0
LINE
  5
447
100
AcDbEntity
  8
0
100
AcDbLine
 62
7
  6
CONTINUOUS
 10
83.4335688202
 20
115.3567386883
 11
83.3143737634
 21
115.2423489196
  0
LINE
  5
448
100
AcDbEntity
  8
0
100
AcDbLine
 62
7
  6
CONTINUOUS
 10
83.4335688202
 20
115.2778346413
 11
83.3143737634
 21
115.1634448725
  0
LINE
  5
449
100
AcDbEntity
  8
0
100
AcDbLine
 62
7
  6
CONTINUOUS
 10
86.1154563202
 20
113.8124766698
 11
86.3538464339
 21
114.0412562274
  0
LINE
  5
44A
100
AcDbEntity
  8
0
100
AcDbLine
 62
7
  6
CONTINUOUS
 10
88.9761363202
 20
113.8124766698
 11
89.2145260928
 21
114.0412562274
  0
LINE
  5
44B
100
AcDbEntity
  8
0
100
AcDbLine
 62
7
  6
CONTINUOUS
 10
117.1454999419
 20
126.7144642792
 11
117.1454999419
 21
127.8840793755
  0
LINE
  5
44C
100
AcDbEntity
  8
RUNDUNGEN
100
AcDbLine
 62
7
  6
CONTINUOUS
 10
120.9065200237
 20
44.5787440637
 11
120.9065200237
 21
48.1142779696
  0
LINE
  5
44D
100
AcDbEntity
  8
0
100
AcDbLine
 62
7
  6
CONTINUOUS
 10
115.4209526265
 20
121.9793047343
 11
114.0940843606
 21
117.2924144879
  0
LINE
  5
44E
100
AcDbEntity
  8
0
100
AcDbLine
 62
7
  6
CONTINUOUS
 10
115.4209526265
 20
120.523330948
 11
114.0940843606
 21
115.9036186482
  0
LINE
  5
44F
100
AcDbEntity
  8
0
100
AcDbLine
 62
7
  6
CONTINUOUS
 10
107.6046369476
 20
114.4416204581
 11
107.5527298931
 21
114.270035805
  0
LINE
  5
450
100
AcDbEntity
  8
0
100
AcDbLine
 62
7
  6
CONTINUOUS
 10
107.6046369476
 20
114.362716411
 11
107.5527298931
 21
114.1911317579
  0
LINE
  5
451
100
AcDbEntity
  8
0
100
AcDbLine
 62
7
  6
CONTINUOUS
 10
114.0940843606
 20
112.8440111992
 11
111.6194239729
 21
105.2379047588
  0
LINE
  5
452
100
AcDbEntity
  8
0
100
AcDbLine
 62
7
  6
CONTINUOUS
 10
114.0940843606
 20
111.946208323
 11
111.6194239729
 21
104.3401018826
  0
LINE
  5
453
100
AcDbEntity
  8
0
100
AcDbLine
 62
7
  6
CONTINUOUS
 10
106.1512340742
 20
115.871492808
 11
106.047419371
 21
115.5855182259
  0
LINE
  5
454
100
AcDbEntity
  8
0
100
AcDbLine
 62
7
  6
CONTINUOUS
 10
106.1512340742
 20
115.7925887609
 11
106.047419371
 21
115.5066141788
  0
LINE
  5
455
100
AcDbEntity
  8
0
100
AcDbLine
 62
7
  6
CONTINUOUS
 10
107.7603587053
 20
114.0984511118
 11
107.8641734084
 21
114.3844255737
  0
LINE
  5
456
100
AcDbEntity
  8
0
100
AcDbLine
 62
7
  6
CONTINUOUS
 10
101.4276739929
 20
115.6427131103
 11
101.531488399
 21
115.8142979236
  0
LINE
  5
457
100
AcDbEntity
  8
0
100
AcDbLine
 62
7
  6
CONTINUOUS
 10
106.3588628864
 20
115.6999081549
 11
106.4626775895
 21
115.871492808
  0
LINE
  5
458
100
AcDbEntity
  8
0
100
AcDbLine
 62
7
  6
CONTINUOUS
 10
107.5527298931
 20
114.270035805
 11
107.44891519
 21
114.0984511118
  0
LINE
  5
459
100
AcDbEntity
  8
0
100
AcDbLine
 62
7
  6
CONTINUOUS
 10
107.5527298931
 20
114.1911317579
 11
107.44891519
 21
114.0195470647
  0
LINE
  5
45A
100
AcDbEntity
  8
0
100
AcDbLine
 62
7
  6
CONTINUOUS
 10
100.3895288923
 20
115.0707642664
 11
100.5452505015
 21
115.299543804
  0
LINE
  5
45B
100
AcDbEntity
  8
0
100
AcDbLine
 62
7
  6
CONTINUOUS
 10
106.3069558318
 20
116.1002723455
 11
106.1512340742
 21
115.871492808
  0
LINE
  5
45C
100
AcDbEntity
  8
0
100
AcDbLine
 62
7
  6
CONTINUOUS
 10
106.3069558318
 20
116.0213682985
 11
106.1512340742
 21
115.7925887609
  0
LINE
  5
45D
100
AcDbEntity
  8
0
100
AcDbLine
 62
7
  6
CONTINUOUS
 10
107.6046369476
 20
113.8696715542
 11
107.7603587053
 21
114.0984511118
  0
LINE
  5
45E
100
AcDbEntity
  8
0
100
AcDbLine
 62
7
  6
CONTINUOUS
 10
100.2338071347
 20
115.3567386883
 11
100.1299925801
 21
115.2423489196
  0
LINE
  5
45F
100
AcDbEntity
  8
0
100
AcDbLine
 62
7
  6
CONTINUOUS
 10
100.2338071347
 20
115.2778346413
 11
100.1299925801
 21
115.1634448725
  0
LINE
  5
460
100
AcDbEntity
  8
0
100
AcDbLine
 62
7
  6
CONTINUOUS
 10
101.4276739929
 20
116.1574672299
 11
101.2200448837
 21
115.9286876924
  0
LINE
  5
461
100
AcDbEntity
  8
0
100
AcDbLine
 62
7
  6
CONTINUOUS
 10
101.4276739929
 20
116.0785631829
 11
101.2200448837
 21
115.8497836453
  0
LINE
  5
462
100
AcDbEntity
  8
0
100
AcDbLine
 62
7
  6
CONTINUOUS
 10
102.8291698118
 20
113.8124766698
 11
103.036798921
 21
114.0412562274
  0
LINE
  5
463
100
AcDbEntity
  8
0
100
AcDbLine
 62
7
  6
CONTINUOUS
 10
106.3588628864
 20
114.7847898445
 11
106.4626775895
 21
114.8991796133
  0
LINE
  5
464
100
AcDbEntity
  8
0
100
AcDbLine
 62
7
  6
CONTINUOUS
 10
101.531488399
 20
115.8142979236
 11
101.6872101566
 21
115.9286876924
  0
LINE
  5
465
100
AcDbEntity
  8
0
100
AcDbLine
 62
7
  6
CONTINUOUS
 10
85.9962614339
 20
114.1556460362
 11
85.8174689339
 21
114.0412562274
  0
LINE
  5
466
100
AcDbEntity
  8
0
100
AcDbLine
 62
7
  6
CONTINUOUS
 10
85.9962614339
 20
114.0767419891
 11
85.8174689339
 21
113.9623521803
  0
LINE
  5
467
100
AcDbEntity
  8
0
100
AcDbLine
 62
7
  6
CONTINUOUS
 10
88.8569410928
 20
114.1556460362
 11
88.6781485928
 21
114.0412562274
  0
LINE
  5
468
100
AcDbEntity
  8
0
100
AcDbLine
 62
7
  6
CONTINUOUS
 10
88.8569410928
 20
114.0767419891
 11
88.6781485928
 21
113.9623521803
  0
LINE
  5
469
100
AcDbEntity
  8
0
100
AcDbLine
 62
7
  6
CONTINUOUS
 10
101.6353028051
 20
116.2718569987
 11
101.4276739929
 21
116.1574672299
  0
LINE
  5
46A
100
AcDbEntity
  8
0
100
AcDbLine
 62
7
  6
CONTINUOUS
 10
101.6353028051
 20
116.1929529516
 11
101.4276739929
 21
116.0785631829
  0
LINE
  5
46B
100
AcDbEntity
  8
0
100
AcDbLine
 62
7
  6
CONTINUOUS
 10
100.1818997831
 20
114.9563744977
 11
100.3895288923
 21
115.0707642664
  0
LINE
  5
46C
100
AcDbEntity
  8
0
100
AcDbLine
 62
7
  6
CONTINUOUS
 10
83.373971377
 20
114.9563744977
 11
83.6123613202
 21
115.0707642664
  0
LINE
  5
46D
100
AcDbEntity
  8
0
100
AcDbLine
 62
7
  6
CONTINUOUS
 10
85.8770662065
 20
113.698086886
 11
86.1154563202
 21
113.8124766698
  0
LINE
  5
46E
100
AcDbEntity
  8
0
100
AcDbLine
 62
7
  6
CONTINUOUS
 10
88.7377465475
 20
113.698086886
 11
88.9761363202
 21
113.8124766698
  0
LINE
  5
46F
100
AcDbEntity
  8
0
100
AcDbLine
 62
7
  6
CONTINUOUS
 10
83.3143737634
 20
115.2423489196
 11
83.1355812634
 21
115.1851540352
  0
LINE
  5
470
100
AcDbEntity
  8
0
100
AcDbLine
 62
7
  6
CONTINUOUS
 10
83.3143737634
 20
115.1634448725
 11
83.1355812634
 21
115.1062499881
  0
LINE
  5
471
100
AcDbEntity
  8
0
100
AcDbLine
 62
7
  6
CONTINUOUS
 10
102.7253551087
 20
114.1556460362
 11
102.569633351
 21
114.0412562274
  0
LINE
  5
472
100
AcDbEntity
  8
0
100
AcDbLine
 62
7
  6
CONTINUOUS
 10
102.7253551087
 20
114.0767419891
 11
102.569633351
 21
113.9623521803
  0
LINE
  5
473
100
AcDbEntity
  8
0
100
AcDbLine
 62
7
  6
CONTINUOUS
 10
106.4626775895
 20
115.871492808
 11
106.6183993471
 21
115.9858825768
  0
LINE
  5
474
100
AcDbEntity
  8
0
100
AcDbLine
 62
7
  6
CONTINUOUS
 10
106.5664916986
 20
115.299543804
 11
106.2550481832
 21
115.0707642664
  0
LINE
  5
475
100
AcDbEntity
  8
0
100
AcDbLine
 62
7
  6
CONTINUOUS
 10
106.5664916986
 20
115.2206397569
 11
106.2550481832
 21
114.9918602194
  0
LINE
  5
476
100
AcDbEntity
  8
0
100
AcDbLine
 62
7
  6
CONTINUOUS
 10
106.4626775895
 20
114.8991796133
 11
106.6183993471
 21
115.0135693821
  0
LINE
  5
477
100
AcDbEntity
  8
0
100
AcDbLine
 62
7
  6
CONTINUOUS
 10
107.44891519
 20
114.0984511118
 11
107.2931934323
 21
113.984061343
  0
LINE
  5
478
100
AcDbEntity
  8
0
100
AcDbLine
 62
7
  6
CONTINUOUS
 10
107.44891519
 20
114.0195470647
 11
107.2931934323
 21
113.9051572959
  0
LINE
  5
479
100
AcDbEntity
  8
0
100
AcDbLine
 62
7
  6
CONTINUOUS
 10
106.5664916986
 20
116.2718569987
 11
106.3069558318
 21
116.1002723455
  0
LINE
  5
47A
100
AcDbEntity
  8
0
100
AcDbLine
 62
7
  6
CONTINUOUS
 10
106.5664916986
 20
116.1929529516
 11
106.3069558318
 21
116.0213682985
  0
LINE
  5
47B
100
AcDbEntity
  8
0
100
AcDbLine
 62
7
  6
CONTINUOUS
 10
107.3451004868
 20
113.698086886
 11
107.6046369476
 21
113.8696715542
  0
LINE
  5
47C
100
AcDbEntity
  8
0
100
AcDbLine
 62
7
  6
CONTINUOUS
 10
102.6215407026
 20
113.698086886
 11
102.8291698118
 21
113.8124766698
  0
LINE
  5
47D
100
AcDbEntity
  8
0
100
AcDbLine
 62
7
  6
CONTINUOUS
 10
100.1299925801
 20
115.2423489196
 11
99.9742708224
 21
115.1851540352
  0
LINE
  5
47E
100
AcDbEntity
  8
0
100
AcDbLine
 62
7
  6
CONTINUOUS
 10
100.1299925801
 20
115.1634448725
 11
99.9742708224
 21
115.1062499881
  0
LINE
  5
47F
100
AcDbEntity
  8
0
100
AcDbLine
 62
7
  6
CONTINUOUS
 10
106.6183993471
 20
115.9858825768
 11
106.7741211048
 21
116.0430774612
  0
LINE
  5
480
100
AcDbEntity
  8
0
100
AcDbLine
 62
7
  6
CONTINUOUS
 10
106.6183993471
 20
115.0135693821
 11
106.7741211048
 21
115.0707642664
  0
LINE
  5
481
100
AcDbEntity
  8
0
100
AcDbLine
 62
7
  6
CONTINUOUS
 10
107.2931934323
 20
113.984061343
 11
107.1374716746
 21
113.9268664586
  0
LINE
  5
482
100
AcDbEntity
  8
0
100
AcDbLine
 62
7
  6
CONTINUOUS
 10
107.2931934323
 20
113.9051572959
 11
107.1374716746
 21
113.8479624115
  0
LINE
  5
483
100
AcDbEntity
  8
0
100
AcDbLine
 62
7
  6
CONTINUOUS
 10
83.1575714268
 20
89.2986092697
 11
83.1716200909
 21
89.3033890938
  0
LINE
  5
484
100
AcDbEntity
  8
RUNDUNGEN
100
AcDbLine
 62
7
  6
CONTINUOUS
 10
83.43017354
 20
24.8393585036
 11
74.51196784
 21
15.8332804733
  0
LINE
  5
485
100
AcDbEntity
  8
RUNDUNGEN
100
AcDbLine
 62
7
  6
CONTINUOUS
 10
70.7162076186
 20
49.910245298
 11
69.8970555743
 21
49.5046655103
  0
LINE
  5
486
100
AcDbEntity
  8
RUNDUNGEN
100
AcDbLine
 62
7
  6
CONTINUOUS
 10
83.43017354
 20
21.3038245976
 11
74.51196784
 21
12.2977465673
  0
LINE
  5
487
100
AcDbEntity
  8
RUNDUNGEN
100
AcDbLine
 62
7
  6
CONTINUOUS
 10
109.8534376741
 20
45.975361028
 11
114.5820317358
 21
50.7505465895
  0
LINE
  5
488
100
AcDbEntity
  8
RUNDUNGEN
100
AcDbLine
 62
7
  6
CONTINUOUS
 10
109.8534376741
 20
42.4398271221
 11
114.5820317358
 21
47.2150126836
  0
LINE
  5
489
100
AcDbEntity
  8
RUNDUNGEN
100
AcDbLine
 62
7
  6
CONTINUOUS
 10
70.7162076186
 20
46.374711392
 11
69.8970555743
 21
45.9691316044
  0
LINE
  5
48A
100
AcDbEntity
  8
RUNDUNGEN
100
AcDbLine
 62
7
  6
CONTINUOUS
 10
73.9284056675
 20
42.2679009694
 11
71.9624407612
 21
41.294509479
  0
LINE
  5
48B
100
AcDbEntity
  8
RUNDUNGEN
100
AcDbLine
 62
7
  6
CONTINUOUS
 10
89.2072360457
 20
48.4962649025
 11
86.7497799128
 21
47.2795255395
  0
LINE
  5
48C
100
AcDbEntity
  8
RUNDUNGEN
100
AcDbLine
 62
7
  6
CONTINUOUS
 10
75.4038993793
 20
41.3546755929
 11
76.2493608
 21
41.7732817185
  0
LINE
  5
48D
100
AcDbEntity
  8
RUNDUNGEN
100
AcDbLine
 62
7
  6
CONTINUOUS
 10
88.2541004504
 20
11.3816457139
 11
91.4204766134
 21
14.5792206248
  0
LINE
  5
48E
100
AcDbEntity
  8
RUNDUNGEN
100
AcDbLine
 62
7
  6
CONTINUOUS
 10
105.3086744057
 20
28.6042607757
 11
120.725672068
 21
44.173164276
  0
LINE
  5
48F
100
AcDbEntity
  8
RUNDUNGEN
100
AcDbLine
 62
7
  6
CONTINUOUS
 10
89.2072360457
 20
44.9607309966
 11
86.7497799128
 21
43.7439916336
  0
LINE
  5
490
100
AcDbEntity
  8
RUNDUNGEN
100
AcDbLine
 62
7
  6
CONTINUOUS
 10
75.4038993793
 20
37.819141687
 11
77.3698642856
 21
38.7925331774
  0
ARC
  5
491
100
AcDbEntity
  8
KONSTRUKTIONSELEMENTE
100
AcDbCircle
 62
7
  6
CONTINUOUS
 10
226.4785381485
 20
56.757203562
 40
9.55
100
AcDbArc
 50
58.6297070454
 51
135.0
  0
ARC
  5
492
100
AcDbEntity
  8
KONSTRUKTIONSELEMENTE
100
AcDbCircle
 62
7
  6
CONTINUOUS
 10
226.4785381485
 20
56.757203562
 40
9.55
100
AcDbArc
 50
315.0
 51
31.3702929546
  0
ARC
  5
493
100
AcDbEntity
  8
KONSTRUKTIONSELEMENTE
100
AcDbCircle
 62
7
  6
CONTINUOUS
 10
218.0639674523
 20
48.3426328659
 40
9.55
100
AcDbArc
 50
240.1951355235
 51
315.0
  0
ARC
  5
494
100
AcDbEntity
  8
KONSTRUKTIONSELEMENTE
100
AcDbCircle
 62
7
  6
CONTINUOUS
 10
218.0639674523
 20
48.3426328659
 40
9.55
100
AcDbArc
 50
135.0
 51
209.8048644765
  0
ARC
  5
495
100
AcDbEntity
  8
KONSTRUKTIONSELEMENTE
100
AcDbCircle
 62
7
  6
CONTINUOUS
 10
247.3735435325
 20
77.6522089461
 40
8.0
100
AcDbArc
 50
135.0
 51
208.6357041722
  0
ARC
  5
496
100
AcDbEntity
  8
KONSTRUKTIONSELEMENTE
100
AcDbCircle
 62
7
  6
CONTINUOUS
 10
247.3735435325
 20
77.6522089461
 40
8.0
100
AcDbArc
 50
241.3642958278
 51
315.0
  0
ARC
  5
497
100
AcDbEntity
  8
KONSTRUKTIONSELEMENTE
100
AcDbCircle
 62
7
  6
CONTINUOUS
 10
226.4785381485
 20
56.757203562
 40
4.55
100
AcDbArc
 50
74.6522021471
 51
135.0
  0
ARC
  5
498
100
AcDbEntity
  8
KONSTRUKTIONSELEMENTE
100
AcDbCircle
 62
7
  6
CONTINUOUS
 10
226.4785381485
 20
56.757203562
 40
4.55
100
AcDbArc
 50
315.0
 51
15.3477978529
  0
ARC
  5
499
100
AcDbEntity
  8
KONSTRUKTIONSELEMENTE
100
AcDbCircle
 62
7
  6
CONTINUOUS
 10
218.0639674523
 20
48.3426328659
 40
4.55
100
AcDbArc
 50
258.3583327703
 51
315.0
  0
ARC
  5
49A
100
AcDbEntity
  8
KONSTRUKTIONSELEMENTE
100
AcDbCircle
 62
7
  6
CONTINUOUS
 10
218.0639674523
 20
48.3426328659
 40
4.55
100
AcDbArc
 50
135.0
 51
191.6416672297
  0
ARC
  5
49B
100
AcDbEntity
  8
KONSTRUKTIONSELEMENTE
100
AcDbCircle
 62
7
  6
CONTINUOUS
 10
247.3735435325
 20
77.6522089461
 40
3.5
100
AcDbArc
 50
135.0
 51
184.8461224921
  0
ARC
  5
49C
100
AcDbEntity
  8
KONSTRUKTIONSELEMENTE
100
AcDbCircle
 62
7
  6
CONTINUOUS
 10
247.3735435325
 20
77.6522089461
 40
3.5
100
AcDbArc
 50
265.1538775079
 51
315.0
  0
ARC
  5
49D
100
AcDbEntity
  8
KONSTRUKTIONSELEMENTE
100
AcDbCircle
 62
7
  6
CONTINUOUS
 10
246.489660056
 20
76.7683254696
 40
2.25
100
AcDbArc
 50
315.0
 51
135.0
  0
ARC
  5
49E
100
AcDbEntity
  8
KONSTRUKTIONSELEMENTE
100
AcDbCircle
 62
7
  6
CONTINUOUS
 10
227.7513303546
 20
58.0299957681
 40
2.25
100
AcDbArc
 50
135.0
 51
315.0
  0
ARC
  5
49F
100
AcDbEntity
  8
KONSTRUKTIONSELEMENTE
100
AcDbCircle
 62
7
  6
CONTINUOUS
 10
287.6432747211
 20
117.9219401346
 40
9.55
100
AcDbArc
 50
63.3390960058
 51
135.0
  0
ARC
  5
4A0
100
AcDbEntity
  8
KONSTRUKTIONSELEMENTE
100
AcDbCircle
 62
7
  6
CONTINUOUS
 10
287.6432747211
 20
117.9219401346
 40
9.55
100
AcDbArc
 50
315.0
 51
26.6609039942
  0
ARC
  5
4A1
100
AcDbEntity
  8
KONSTRUKTIONSELEMENTE
100
AcDbCircle
 62
7
  6
CONTINUOUS
 10
279.228704025
 20
109.5073694385
 40
9.55
100
AcDbArc
 50
238.6297070454
 51
315.0
  0
ARC
  5
4A2
100
AcDbEntity
  8
KONSTRUKTIONSELEMENTE
100
AcDbCircle
 62
7
  6
CONTINUOUS
 10
279.228704025
 20
109.5073694385
 40
9.55
100
AcDbArc
 50
135.0
 51
211.3702929546
  0
ARC
  5
4A3
100
AcDbEntity
  8
KONSTRUKTIONSELEMENTE
100
AcDbCircle
 62
7
  6
CONTINUOUS
 10
257.9801452503
 20
88.2588106638
 40
8.0
100
AcDbArc
 50
315.0
 51
28.6357041722
  0
ARC
  5
4A4
100
AcDbEntity
  8
KONSTRUKTIONSELEMENTE
100
AcDbCircle
 62
7
  6
CONTINUOUS
 10
257.9801452503
 20
88.2588106638
 40
8.0
100
AcDbArc
 50
61.3642958278
 51
135.0
  0
ARC
  5
4A5
100
AcDbEntity
  8
KONSTRUKTIONSELEMENTE
100
AcDbCircle
 62
7
  6
CONTINUOUS
 10
287.6432747211
 20
117.9219401346
 40
4.55
100
AcDbArc
 50
86.2724010126
 51
135.0
  0
ARC
  5
4A6
100
AcDbEntity
  8
KONSTRUKTIONSELEMENTE
100
AcDbCircle
 62
7
  6
CONTINUOUS
 10
287.6432747211
 20
117.9219401346
 40
4.55
100
AcDbArc
 50
315.0
 51
3.7275989874
  0
ARC
  5
4A7
100
AcDbEntity
  8
KONSTRUKTIONSELEMENTE
100
AcDbCircle
 62
7
  6
CONTINUOUS
 10
279.228704025
 20
109.5073694385
 40
4.55
100
AcDbArc
 50
254.6522021471
 51
315.0
  0
ARC
  5
4A8
100
AcDbEntity
  8
KONSTRUKTIONSELEMENTE
100
AcDbCircle
 62
7
  6
CONTINUOUS
 10
279.228704025
 20
109.5073694385
 40
4.55
100
AcDbArc
 50
135.0
 51
195.3477978529
  0
ARC
  5
4A9
100
AcDbEntity
  8
KONSTRUKTIONSELEMENTE
100
AcDbCircle
 62
7
  6
CONTINUOUS
 10
257.9801452503
 20
88.2588106638
 40
3.5
100
AcDbArc
 50
315.0
 51
4.8461224921
  0
ARC
  5
4AA
100
AcDbEntity
  8
KONSTRUKTIONSELEMENTE
100
AcDbCircle
 62
7
  6
CONTINUOUS
 10
257.9801452503
 20
88.2588106638
 40
3.5
100
AcDbArc
 50
85.1538775079
 51
135.0
  0
ARC
  5
4AB
100
AcDbEntity
  8
KONSTRUKTIONSELEMENTE
100
AcDbCircle
 62
7
  6
CONTINUOUS
 10
288.7392902319
 20
119.0179556455
 40
3.0
100
AcDbArc
 50
135.0
 51
315.0
  0
ARC
  5
4AC
100
AcDbEntity
  8
KONSTRUKTIONSELEMENTE
100
AcDbCircle
 62
7
  6
CONTINUOUS
 10
277.6023584282
 20
107.8810238418
 40
2.25
100
AcDbArc
 50
315.0
 51
135.0
  0
ARC
  5
4AD
100
AcDbEntity
  8
KONSTRUKTIONSELEMENTE
100
AcDbCircle
 62
7
  6
CONTINUOUS
 10
258.8640287268
 20
89.1426941403
 40
2.25
100
AcDbArc
 50
135.0
 51
315.0
  0
ARC
  5
4AE
100
AcDbEntity
  8
0
100
AcDbCircle
 62
7
  6
CONTINUOUS
 10
368.1459836657
 20
97.6986091632
 40
8.4
100
AcDbArc
 50
200.0
 51
290.0
  0
ARC
  5
4AF
100
AcDbEntity
  8
RUNDUNGEN
100
AcDbCircle
 62
7
  6
CONTINUOUS
 10
370.2133074314
 20
98.4510534785
 40
8.4
100
AcDbArc
 50
290.0
 51
20.0
  0
ARC
  5
4B0
100
AcDbEntity
  8
0
100
AcDbCircle
 62
7
  6
CONTINUOUS
 10
316.1057207573
 20
97.6986091632
 40
8.4
100
AcDbArc
 50
250.0
 51
340.0
  0
ARC
  5
4B1
100
AcDbEntity
  8
RUNDUNGEN
100
AcDbCircle
 62
7
  6
CONTINUOUS
 10
314.0383969916
 20
98.4510534785
 40
8.4
100
AcDbArc
 50
160.0
 51
250.0
  0
CIRCLE
  5
4B2
100
AcDbEntity
  8
BEZUGSACHSEN
100
AcDbCircle
 62
7
  6
CONTINUOUS
 10
368.4956052619
 20
99.9542165625
 40
4.26795
  0
CIRCLE
  5
4B3
100
AcDbEntity
  8
BEZUGSACHSEN
100
AcDbCircle
 62
7
  6
CONTINUOUS
 10
315.7560991611
 20
99.9542165625
 40
4.26795
  0
ARC
  5
4B4
100
AcDbEntity
  8
0
100
AcDbCircle
 62
7
  6
CONTINUOUS
 10
359.4013205429
 20
113.2453408734
 40
3.0
100
AcDbArc
 50
129.4712206345
 51
199.9999856999
  0
ARC
  5
4B5
100
AcDbEntity
  8
RUNDUNGEN
100
AcDbCircle
 62
7
  6
CONTINUOUS
 10
366.9188615092
 20
115.98150202
 40
3.0
100
AcDbArc
 50
20.0000143001
 51
90.5287793655
  0
ARC
  5
4B6
100
AcDbEntity
  8
0
100
AcDbCircle
 62
7
  6
CONTINUOUS
 10
324.8503838801
 20
113.2453408734
 40
3.0
100
AcDbArc
 50
340.0000023923
 51
50.5287793655
  0
ARC
  5
4B7
100
AcDbEntity
  8
RUNDUNGEN
100
AcDbCircle
 62
7
  6
CONTINUOUS
 10
317.3328429138
 20
115.98150202
 40
3.0
100
AcDbArc
 50
89.4712206345
 51
159.9999976077
  0
ARC
  5
4B8
100
AcDbEntity
  8
0
100
AcDbCircle
 62
7
  6
CONTINUOUS
 10
342.1258522115
 20
172.404517625
 40
53.5
100
AcDbArc
 50
295.3632667025
 51
360.0
  0
ARC
  5
4B9
100
AcDbEntity
  8
0
100
AcDbCircle
 62
7
  6
CONTINUOUS
 10
342.1258522115
 20
172.404517625
 40
53.5
100
AcDbArc
 50
255.3647085082
 51
284.6352914918
  0
ARC
  5
4BA
100
AcDbEntity
  8
0
100
AcDbCircle
 62
7
  6
CONTINUOUS
 10
342.1258522115
 20
172.404517625
 40
53.5
100
AcDbArc
 50
228.2145340929
 51
244.6367332975
  0
ARC
  5
4BB
100
AcDbEntity
  8
0
100
AcDbCircle
 62
7
  6
CONTINUOUS
 10
342.1258522115
 20
172.404517625
 40
53.5
100
AcDbArc
 50
180.0
 51
221.7854659071
  0
ARC
  5
4BC
100
AcDbEntity
  8
0
100
AcDbCircle
 62
7
  6
CONTINUOUS
 10
342.1258522115
 20
232.404517625
 40
53.5
100
AcDbArc
 50
0.0
 51
180.0
  0
ARC
  5
4BD
100
AcDbEntity
  8
0
100
AcDbCircle
 62
7
  6
CONTINUOUS
 10
342.1258522115
 20
172.404517625
 40
37.5
100
AcDbArc
 50
297.6650643018
 51
360.0
  0
ARC
  5
4BE
100
AcDbEntity
  8
0
100
AcDbCircle
 62
7
  6
CONTINUOUS
 10
342.1258522115
 20
172.404517625
 40
37.5
100
AcDbArc
 50
257.6640584708
 51
282.3359415292
  0
ARC
  5
4BF
100
AcDbEntity
  8
0
100
AcDbCircle
 62
7
  6
CONTINUOUS
 10
342.1258522115
 20
172.404517625
 40
37.5
100
AcDbArc
 50
229.5903972803
 51
242.3349356982
  0
ARC
  5
4C0
100
AcDbEntity
  8
0
100
AcDbCircle
 62
7
  6
CONTINUOUS
 10
342.1258522115
 20
172.404517625
 40
37.5
100
AcDbArc
 50
180.0
 51
220.4096027197
  0
ARC
  5
4C1
100
AcDbEntity
  8
0
100
AcDbCircle
 62
7
  6
CONTINUOUS
 10
342.1258522115
 20
232.404517625
 40
37.5
100
AcDbArc
 50
0.0
 51
180.0
  0
ARC
  5
4C2
100
AcDbEntity
  8
BEZUGSACHSEN
100
AcDbCircle
 62
7
  6
CONTINUOUS
 10
353.2415068696
 20
141.8645074495
 40
5.0
100
AcDbArc
 50
20.0
 51
48.7624430017
  0
ARC
  5
4C3
100
AcDbEntity
  8
BEZUGSACHSEN
100
AcDbCircle
 62
7
  6
CONTINUOUS
 10
353.2415068696
 20
141.8645074495
 40
5.0
100
AcDbArc
 50
171.2375569983
 51
200.0
  0
ARC
  5
4C4
100
AcDbEntity
  8
BEZUGSACHSEN
100
AcDbCircle
 62
7
  6
CONTINUOUS
 10
331.0101975534
 20
141.8645074495
 40
5.0
100
AcDbArc
 50
131.2375569983
 51
160.0
  0
ARC
  5
4C5
100
AcDbEntity
  8
BEZUGSACHSEN
100
AcDbCircle
 62
7
  6
CONTINUOUS
 10
331.0101975534
 20
141.8645074495
 40
5.0
100
AcDbArc
 50
340.0
 51
8.7624430017
  0
ARC
  5
4C6
100
AcDbEntity
  8
KONSTRUKTIONSELEMENTE
100
AcDbCircle
 62
7
  6
CONTINUOUS
 10
317.7306682606
 20
148.0093336741
 40
3.0
100
AcDbArc
 50
315.0
 51
135.0
  0
ARC
  5
4C7
100
AcDbEntity
  8
0
100
AcDbCircle
 62
7
  6
CONTINUOUS
 10
483.5062270505
 20
238.1175168633
 40
426.7116825792
100
AcDbArc
 50
195.1337610362
 51
195.9967182972
  0
ARC
  5
4C8
100
AcDbEntity
  8
0
100
AcDbCircle
 62
7
  6
CONTINUOUS
 10
-276.7457216169
 20
233.0975634271
 40
408.0044830702
100
AcDbArc
 50
343.9834978024
 51
344.8860228642
  0
ARC
  5
4C9
100
AcDbEntity
  8
0
100
AcDbCircle
 62
7
  6
CONTINUOUS
 10
445.4371236593
 20
27.0698575585
 40
387.1984967906
100
AcDbArc
 50
163.2613862918
 51
164.9080819797
  0
ARC
  5
4CA
100
AcDbEntity
  8
0
100
AcDbCircle
 62
7
  6
CONTINUOUS
 10
-256.6982756447
 20
27.0698575781
 40
387.198496719
100
AcDbArc
 50
15.0919180202
 51
16.7386137084
  0
ARC
  5
4CB
100
AcDbEntity
  8
0
100
AcDbCircle
 62
7
  6
CONTINUOUS
 10
469.5734810579
 20
21.7498100288
 40
368.0624471516
100
AcDbArc
 50
163.2402383649
 51
164.1978384854
  0
ARC
  5
4CC
100
AcDbEntity
  8
0
100
AcDbCircle
 62
7
  6
CONTINUOUS
 10
-276.7469279465
 20
22.943664392
 40
363.804121123
100
AcDbArc
 50
15.7965570287
 51
16.765366121
  0
ARC
  5
4CD
100
AcDbEntity
  8
0
100
AcDbCircle
 62
7
  6
CONTINUOUS
 10
67.7929439337
 20
20.8080685174
 40
131.2229411155
100
AcDbArc
 50
73.1831622286
 51
74.7224297333
  0
ARC
  5
4CE
100
AcDbEntity
  8
0
100
AcDbCircle
 62
7
  6
CONTINUOUS
 10
120.9459039448
 20
20.8080688386
 40
131.2229407886
100
AcDbArc
 50
105.2775702641
 51
106.8168377839
  0
ARC
  5
4CF
100
AcDbEntity
  8
KONSTRUKTIONSELEMENTE
100
AcDbCircle
 62
7
  6
CONTINUOUS
 10
94.3694239729
 20
70.840177853
 40
21.59352
100
AcDbArc
 50
58.7790914184
 51
80.1338135404
  0
ARC
  5
4D0
100
AcDbEntity
  8
KONSTRUKTIONSELEMENTE
100
AcDbCircle
 62
7
  6
CONTINUOUS
 10
94.3694239729
 20
70.840177853
 40
21.59352
100
AcDbArc
 50
99.8661864596
 51
121.2209085816
  0
ARC
  5
4D1
100
AcDbEntity
  8
0
100
AcDbCircle
 62
7
  6
CONTINUOUS
 10
94.3694239729
 20
277.904517625
 40
8.0
100
AcDbArc
 50
0.0
 51
180.0
  0
ARC
  5
4D2
100
AcDbEntity
  8
0
100
AcDbCircle
 62
7
  6
CONTINUOUS
 10
94.3694239729
 20
126.904517625
 40
8.0
100
AcDbArc
 50
180.0
 51
262.3869373369
  0
ARC
  5
4D3
100
AcDbEntity
  8
0
100
AcDbCircle
 62
7
  6
CONTINUOUS
 10
94.3694239729
 20
126.904517625
 40
8.0
100
AcDbArc
 50
277.6130626631
 51
360.0
  0
ARC
  5
4D4
100
AcDbEntity
  8
RUNDUNGEN
100
AcDbCircle
 62
7
  6
CONTINUOUS
 10
106.6187915036
 20
113.846782303
 40
5.1347197559
100
AcDbArc
 50
82.37280809
 51
89.9929425904
  0
ARC
  5
4D5
100
AcDbEntity
  8
RUNDUNGEN
100
AcDbCircle
 62
7
  6
CONTINUOUS
 10
82.1200563637
 20
113.8467837202
 40
5.1347183388
100
AcDbArc
 50
90.0070565365
 51
97.6271977292
  0
ARC
  5
4D6
100
AcDbEntity
  8
0
100
AcDbCircle
 62
7
  6
CONTINUOUS
 10
108.6194239729
 20
92.2986091632
 40
3.0
100
AcDbArc
 50
270.0
 51
281.1385935395
  0
ARC
  5
4D7
100
AcDbEntity
  8
0
100
AcDbCircle
 62
7
  6
CONTINUOUS
 10
80.1194239729
 20
92.2986091632
 40
3.0
100
AcDbArc
 50
258.9323075881
 51
270.0
  0
ARC
  5
4D8
100
AcDbEntity
  8
KONSTRUKTIONSELEMENTE
100
AcDbCircle
 62
7
  6
CONTINUOUS
 10
94.3694239729
 20
63.807203562
 40
2.5
100
AcDbArc
 50
0.0
 51
180.0
  0
ARC
  5
4D9
100
AcDbEntity
  8
KONSTRUKTIONSELEMENTE
100
AcDbCircle
 62
7
  6
CONTINUOUS
 10
94.3694239729
 20
41.2926328659
 40
2.5
100
AcDbArc
 50
180.0
 51
360.0
  0
ARC
  5
4DA
100
AcDbEntity
  8
KONSTRUKTIONSELEMENTE
100
AcDbCircle
 62
7
  6
CONTINUOUS
 10
94.3694239729
 20
94.0088106638
 40
2.25
100
AcDbArc
 50
130.565904109
 51
180.0
  0
ARC
  5
4DB
100
AcDbEntity
  8
KONSTRUKTIONSELEMENTE
100
AcDbCircle
 62
7
  6
CONTINUOUS
 10
94.3694239729
 20
71.9022089461
 40
2.25
100
AcDbArc
 50
180.0
 51
360.0
  0
ARC
  5
4DC
100
AcDbEntity
  8
KONSTRUKTIONSELEMENTE
100
AcDbCircle
 62
7
  6
CONTINUOUS
 10
94.3694239729
 20
94.0088106638
 40
2.25
100
AcDbArc
 50
0.0
 51
49.434095891
  0
ARC
  5
4DD
100
AcDbEntity
  8
BEZUGSACHSEN
100
AcDbCircle
 62
7
  6
CONTINUOUS
 10
83.5322540701
 20
102.9966273193
 40
1.3372395237
100
AcDbArc
 50
8.0455549065
 51
8.7497994134
  0
ARC
  5
4DE
100
AcDbEntity
  8
BEZUGSACHSEN
100
AcDbCircle
 62
7
  6
CONTINUOUS
 10
83.2065938753
 20
102.9966273194
 40
1.3372395233
100
AcDbArc
 50
171.2502005865
 51
171.9544450936
  0
ARC
  5
4DF
100
AcDbEntity
  8
BEZUGSACHSEN
100
AcDbCircle
 62
7
  6
CONTINUOUS
 10
83.536267823
 20
102.9971577873
 40
1.3331910338
100
AcDbArc
 50
4.2855019131
 51
8.0471243999
  0
ARC
  5
4E0
100
AcDbEntity
  8
BEZUGSACHSEN
100
AcDbCircle
 62
7
  6
CONTINUOUS
 10
83.2025801228
 20
102.9971577873
 40
1.3331910338
100
AcDbArc
 50
171.9528756001
 51
175.7144980869
  0
ARC
  5
4E1
100
AcDbEntity
  8
0
100
AcDbCircle
 62
7
  6
CONTINUOUS
 10
101.8470936472
 20
36.952745917
 40
1.2775271224
100
AcDbArc
 50
350.5636876715
 51
355.3957076166
  0
ARC
  5
4E2
100
AcDbEntity
  8
0
100
AcDbCircle
 62
7
  6
CONTINUOUS
 10
87.866929194
 20
36.5736875737
 40
0.2501758626
100
AcDbArc
 50
78.8903114984
 51
89.9692795104
  0
SPLINE
  5
4E3
100
AcDbEntity
  8
0
100
AcDbSpline
 62
7
  6
CONTINUOUS
 70
0
 71
3
 72
13
 73
9
 74
0
 42
0.0000001
 43
0.0000001
 44
0.0000000001
 40
0.0
 40
0.0
 40
0.0
 40
0.0
 40
0.2578502816
 40
0.3800272365
 40
0.5000000009
 40
0.6199727654
 40
0.7421497198
 40
1.0
 40
1.0
 40
1.0
 40
1.0
 10
352.3596878571
 20
149.286589894
 30
0.0
 10
352.5663594909
 20
149.1054231228
 30
0.0
 10
352.8480076779
 20
148.8077441253
 30
0.0
 10
353.1321593475
 20
148.3552328114
 30
0.0
 10
353.2904906562
 20
148.0017500855
 30
0.0
 10
353.396416149
 20
147.6291932039
 30
0.0
 10
353.4696120142
 20
147.0999002568
 30
0.0
 10
353.4452013521
 20
146.6908249517
 30
0.0
 10
353.4033334516
 20
146.4191971893
 30
0.0
  0
SPLINE
  5
4E4
100
AcDbEntity
  8
0
100
AcDbSpline
 62
7
  6
CONTINUOUS
 70
0
 71
3
 72
13
 73
9
 74
0
 42
0.0000001
 43
0.0000001
 44
0.0000000001
 40
0.0
 40
0.0
 40
0.0
 40
0.0
 40
0.2578502816
 40
0.3800272365
 40
0.5000000009
 40
0.6199727654
 40
0.7421497198
 40
1.0
 40
1.0
 40
1.0
 40
1.0
 10
349.1461967905
 20
148.1169747977
 30
0.0
 10
349.1043288898
 20
147.8453470339
 30
0.0
 10
349.0799182324
 20
147.4362717271
 30
0.0
 10
349.1531140907
 20
146.9069787771
 30
0.0
 10
349.259039588
 20
146.5344218958
 30
0.0
 10
349.4173709003
 20
146.1809391725
 30
0.0
 10
349.7015225628
 20
145.7284278564
 30
0.0
 10
349.9831707523
 20
145.4307488633
 30
0.0
 10
350.189842385
 20
145.249582093
 30
0.0
  0
SPLINE
  5
4E5
100
AcDbEntity
  8
0
100
AcDbSpline
 62
7
  6
CONTINUOUS
 70
0
 71
3
 72
9
 73
5
 74
0
 42
0.0000001
 43
0.0000001
 44
0.0000000001
 40
0.0
 40
0.0
 40
0.0
 40
0.0
 40
0.500095873
 40
1.0
 40
1.0
 40
1.0
 40
1.0
 10
360.1495646244
 20
127.8840793755
 30
0.0
 10
360.6608343292
 20
126.9372005032
 30
0.0
 10
361.6119217533
 20
125.0041616972
 30
0.0
 10
362.3964323775
 20
122.997209921
 30
0.0
 10
362.7442218709
 20
121.9793047343
 30
0.0
  0
SPLINE
  5
4E6
100
AcDbEntity
  8
0
100
AcDbSpline
 62
7
  6
CONTINUOUS
 70
0
 71
3
 72
11
 73
7
 74
0
 42
0.0000001
 43
0.0000001
 44
0.0000000001
 40
0.0
 40
0.0
 40
0.0
 40
0.0
 40
0.2500485047
 40
0.5000000009
 40
0.7499514969
 40
1.0
 40
1.0
 40
1.0
 40
1.0
 10
356.2546262408
 20
138.5853346348
 30
0.0
 10
356.7071657592
 20
137.7472249152
 30
0.0
 10
357.5563007169
 20
136.0403261209
 30
0.0
 10
358.6368082926
 20
133.3929295366
 30
0.0
 10
359.5108051899
 20
130.6703692183
 30
0.0
 10
359.9575034658
 20
128.8169954584
 30
0.0
 10
360.1495646244
 20
127.8840793755
 30
0.0
  0
SPLINE
  5
4E7
100
AcDbEntity
  8
0
100
AcDbSpline
 62
7
  6
CONTINUOUS
 70
0
 71
3
 72
11
 73
7
 74
0
 42
0.0000001
 43
0.0000001
 44
0.0000000001
 40
0.0
 40
0.0
 40
0.0
 40
0.0
 40
0.2506353974
 40
0.5000000009
 40
0.7493646041
 40
1.0
 40
1.0
 40
1.0
 40
1.0
 10
353.4033334516
 20
146.4191971893
 30
0.0
 10
353.7681362352
 20
145.820618732
 30
0.0
 10
354.44295304
 20
144.5929651185
 30
0.0
 10
355.2638064013
 20
142.6605298278
 30
0.0
 10
355.8771417063
 20
140.6525641459
 30
0.0
 10
356.1493225709
 20
139.2783630408
 30
0.0
 10
356.2546262408
 20
138.5853346348
 30
0.0
  0
LINE
  5
4E8
100
AcDbEntity
  8
0
100
AcDbLine
 62
7
  6
CONTINUOUS
 10
361.6154633761
 20
107.1620334357
 11
358.5214534502
 21
106.8913426423
  0
SPLINE
  5
4E9
100
AcDbEntity
  8
0
100
AcDbSpline
 62
7
  6
CONTINUOUS
 70
0
 71
3
 72
9
 73
5
 74
0
 42
0.0000001
 43
0.0000001
 44
0.0000000001
 40
0.0
 40
0.0
 40
0.0
 40
0.0
 40
0.2637741096
 40
1.0
 40
1.0
 40
1.0
 40
1.0
 10
358.8788818392
 20
114.6807294149
 30
0.0
 10
358.8353747626
 20
114.7119532219
 30
0.0
 10
358.6682768905
 20
114.8272245441
 30
0.0
 10
358.4920057862
 20
114.9297111634
 30
0.0
 10
358.3571215221
 20
114.9941113358
 30
0.0
  0
SPLINE
  5
4EA
100
AcDbEntity
  8
0
100
AcDbSpline
 62
7
  6
CONTINUOUS
 70
0
 71
3
 72
13
 73
9
 74
0
 42
0.0000001
 43
0.0000001
 44
0.0000000001
 40
0.0
 40
0.0
 40
0.0
 40
0.0
 40
0.0519586623
 40
0.1227005438
 40
0.2143857084
 40
0.3279011679
 40
0.6211317425
 40
1.0
 40
1.0
 40
1.0
 40
1.0
 10
357.5107490566
 20
115.5158389416
 30
0.0
 10
357.5167021559
 20
115.4994829667
 30
0.0
 10
357.5399251729
 20
115.4645090166
 30
0.0
 10
357.5915885346
 20
115.4144768447
 30
0.0
 10
357.6656594832
 20
115.3588169355
 30
0.0
 10
357.806744777
 20
115.2693827769
 30
0.0
 10
358.0397730841
 20
115.1464473836
 30
0.0
 10
358.242588814
 20
115.0487947061
 30
0.0
 10
358.3571215221
 20
114.9941113358
 30
0.0
  0
LINE
  5
4EB
100
AcDbEntity
  8
0
100
AcDbLine
 62
7
  6
CONTINUOUS
 10
360.7472224878
 20
102.2379946706
 11
357.6532125618
 21
101.9673038773
  0
SPLINE
  5
4EC
100
AcDbEntity
  8
0
100
AcDbSpline
 62
7
  6
CONTINUOUS
 70
0
 71
3
 72
9
 73
5
 74
0
 42
0.0000001
 43
0.0000001
 44
0.0000000001
 40
0.0
 40
0.0
 40
0.0
 40
0.0
 40
0.500095873
 40
1.0
 40
1.0
 40
1.0
 40
1.0
 10
356.9360735578
 20
126.7144642792
 30
0.0
 10
357.1530602485
 20
125.6604751493
 30
0.0
 10
357.6670184059
 20
123.5683343017
 30
0.0
 10
358.3560921367
 20
121.5266463371
 30
0.0
 10
358.7439667698
 20
120.523330948
 30
0.0
  0
SPLINE
  5
4ED
100
AcDbEntity
  8
0
100
AcDbSpline
 62
7
  6
CONTINUOUS
 70
0
 71
3
 72
11
 73
7
 74
0
 42
0.0000001
 43
0.0000001
 44
0.0000000001
 40
0.0
 40
0.0
 40
0.0
 40
0.0
 40
0.2500485047
 40
0.5000000009
 40
0.7499514969
 40
1.0
 40
1.0
 40
1.0
 40
1.0
 10
353.0411351742
 20
137.4157195384
 30
0.0
 10
353.2331963341
 20
136.4828034497
 30
0.0
 10
353.6798946143
 20
134.6294296837
 30
0.0
 10
354.5538915125
 20
131.9068693596
 30
0.0
 10
355.6343990852
 20
129.2594727803
 30
0.0
 10
356.4835340422
 20
127.5525739935
 30
0.0
 10
356.9360735578
 20
126.7144642792
 30
0.0
  0
SPLINE
  5
4EE
100
AcDbEntity
  8
0
100
AcDbSpline
 62
7
  6
CONTINUOUS
 70
0
 71
3
 72
11
 73
7
 74
0
 42
0.0000001
 43
0.0000001
 44
0.0000000001
 40
0.0
 40
0.0
 40
0.0
 40
0.0
 40
0.2506353974
 40
0.5000000009
 40
0.7493646041
 40
1.0
 40
1.0
 40
1.0
 40
1.0
 10
350.189842385
 20
145.249582093
 30
0.0
 10
350.2951460555
 20
144.5565536827
 30
0.0
 10
350.5673269238
 20
143.1823525731
 30
0.0
 10
351.1806622292
 20
141.174386887
 30
0.0
 10
352.001515588
 20
139.2419515997
 30
0.0
 10
352.6763323928
 20
138.014297992
 30
0.0
 10
353.0411351742
 20
137.4157195384
 30
0.0
  0
LINE
  5
4EF
100
AcDbEntity
  8
RUNDUNGEN
100
AcDbLine
 62
7
  6
CONTINUOUS
 10
369.1330043424
 20
109.8981945823
 11
371.6771501412
 21
111.6796246489
  0
SPLINE
  5
4F0
100
AcDbEntity
  8
RUNDUNGEN
100
AcDbSpline
 62
7
  6
CONTINUOUS
 70
0
 71
3
 72
13
 73
9
 74
0
 42
0.0000001
 43
0.0000001
 44
0.0000000001
 40
0.0
 40
0.0
 40
0.0
 40
0.0
 40
0.0519586623
 40
0.1227005438
 40
0.2143857084
 40
0.3279011679
 40
0.6211317425
 40
1.0
 40
1.0
 40
1.0
 40
1.0
 10
366.9076752645
 20
118.9360403749
 30
0.0
 10
366.9136283439
 20
118.9196843927
 30
0.0
 10
366.9183193025
 20
118.877965325
 30
0.0
 10
366.9109029316
 20
118.806429889
 30
0.0
 10
366.889938793
 20
118.7161800369
 30
0.0
 10
366.8393483567
 20
118.5569816178
 30
0.0
 10
366.7398596646
 20
118.3130199345
 30
0.0
 10
366.6472637329
 20
118.1078462053
 30
0.0
 10
366.5946763811
 20
117.9923361077
 30
0.0
  0
SPLINE
  5
4F1
100
AcDbEntity
  8
RUNDUNGEN
100
AcDbSpline
 62
7
  6
CONTINUOUS
 70
0
 71
3
 72
9
 73
5
 74
0
 42
0.0000001
 43
0.0000001
 44
0.0000000001
 40
0.0
 40
0.0
 40
0.0
 40
0.0
 40
0.2637741096
 40
1.0
 40
1.0
 40
1.0
 40
1.0
 10
366.3964228055
 20
117.4168905615
 30
0.0
 10
366.4096808835
 20
117.4687751951
 30
0.0
 10
366.4635903022
 20
117.6644865927
 30
0.0
 10
366.5327446731
 20
117.8563007798
 30
0.0
 10
366.5946763811
 20
117.9923361077
 30
0.0
  0
LINE
  5
4F2
100
AcDbEntity
  8
RUNDUNGEN
100
AcDbLine
 62
7
  6
CONTINUOUS
 10
372.963226558
 20
106.6842565339
 11
375.5073723568
 21
108.4656866004
  0
SPLINE
  5
4F3
100
AcDbEntity
  8
0
100
AcDbSpline
 62
7
  6
CONTINUOUS
 70
0
 71
3
 72
24
 73
20
 74
0
 42
0.0000001
 43
0.0000001
 44
0.0000000001
 40
0.0
 40
0.0
 40
0.0
 40
0.0
 40
0.1325367287
 40
0.2638739511
 40
0.3927528325
 40
0.455920943
 40
0.5179481019
 40
0.5786546273
 40
0.6379015311
 40
0.6956649624
 40
0.7522607548
 40
0.7805927531
 40
0.8092812622
 40
0.8387558883
 40
0.8693761345
 40
0.9011686732
 40
0.9337888009
 40
0.9668267246
 40
1.0
 40
1.0
 40
1.0
 40
1.0
 10
371.0157354866
 20
89.8140308359
 30
0.0
 10
370.6403151273
 20
89.6773889997
 30
0.0
 10
369.8711672043
 20
89.4608703038
 30
0.0
 10
368.6912828966
 20
89.3183822258
 30
0.0
 10
367.7114198629
 20
89.3667398485
 30
0.0
 10
366.9597362972
 20
89.5201658963
 30
0.0
 10
366.425638742
 20
89.6943718518
 30
0.0
 10
365.9292695214
 20
89.9321520721
 30
0.0
 10
365.4860916993
 20
90.2380056706
 30
0.0
 10
365.1185796476
 20
90.6160006827
 30
0.0
 10
364.9043624327
 20
90.9978798236
 30
0.0
 10
364.8225097103
 20
91.3326164343
 30
0.0
 10
364.8158831123
 20
91.5956089065
 30
0.0
 10
364.8750824132
 20
91.8596163041
 30
0.0
 10
365.0043047265
 20
92.1080278133
 30
0.0
 10
365.1951264581
 20
92.324885026
 30
0.0
 10
365.4303530047
 20
92.5033359515
 30
0.0
 10
365.6928798143
 20
92.6458498118
 30
0.0
 10
365.8779596101
 20
92.7213859637
 30
0.0
 10
365.9719254344
 20
92.7555867268
 30
0.0
  0
SPLINE
  5
4F4
100
AcDbEntity
  8
RUNDUNGEN
100
AcDbSpline
 62
7
  6
CONTINUOUS
 70
0
 71
3
 72
24
 73
20
 74
0
 42
0.0000001
 43
0.0000001
 44
0.0000000001
 40
0.0
 40
0.0
 40
0.0
 40
0.0
 40
0.1325367287
 40
0.2638739511
 40
0.3927528325
 40
0.455920943
 40
0.5179481019
 40
0.5786546273
 40
0.6379015311
 40
0.6956649624
 40
0.7522607548
 40
0.7805927531
 40
0.8092812622
 40
0.8387558883
 40
0.8693761345
 40
0.9011686732
 40
0.9337888009
 40
0.9668267246
 40
1.0
 40
1.0
 40
1.0
 40
1.0
 10
373.0830592523
 20
90.5664751512
 30
0.0
 10
373.4584796117
 20
90.7031169873
 30
0.0
 10
374.186856639
 20
91.0316527984
 30
0.0
 10
375.1822900275
 20
91.6809156119
 30
0.0
 10
375.9018249788
 20
92.3478035173
 30
0.0
 10
376.3790276348
 20
92.948507571
 30
0.0
 10
376.6761926693
 20
93.425268366
 30
0.0
 10
376.903591373
 20
93.9264785674
 30
0.0
 10
377.0464863774
 20
94.4456452298
 30
0.0
 10
377.0850464321
 20
94.9714384016
 30
0.0
 10
377.0036791591
 20
95.4016709669
 30
0.0
 10
376.8512174363
 20
95.7107080032
 30
0.0
 10
376.6872454024
 20
95.9164314203
 30
0.0
 10
376.4721954228
 20
96.080620243
 30
0.0
 10
376.2135295476
 20
96.1878519973
 30
0.0
 10
375.927958491
 20
96.2313164154
 30
0.0
 10
375.6330584583
 20
96.2168170456
 30
0.0
 10
375.3403451111
 20
96.1572400159
 30
0.0
 10
375.1500120594
 20
96.0961370658
 30
0.0
 10
375.0560462351
 20
96.0619363027
 30
0.0
  0
SPLINE
  5
4F5
100
AcDbEntity
  8
0
100
AcDbSpline
 62
7
  6
CONTINUOUS
 70
0
 71
3
 72
11
 73
7
 74
0
 42
0.0000001
 43
0.0000001
 44
0.0000000001
 40
0.0
 40
0.0
 40
0.0
 40
0.0
 40
0.2506353974
 40
0.5000000009
 40
0.7493646041
 40
1.0
 40
1.0
 40
1.0
 40
1.0
 10
327.9970781822
 20
138.5853346348
 30
0.0
 10
328.1023818528
 20
139.278363045
 30
0.0
 10
328.3745627211
 20
140.6525641547
 30
0.0
 10
328.9878980264
 20
142.6605298408
 30
0.0
 10
329.8087513853
 20
144.592965128
 30
0.0
 10
330.48356819
 20
145.8206187357
 30
0.0
 10
330.8483709714
 20
146.4191971893
 30
0.0
  0
SPLINE
  5
4F6
100
AcDbEntity
  8
0
100
AcDbSpline
 62
7
  6
CONTINUOUS
 70
0
 71
3
 72
11
 73
7
 74
0
 42
0.0000001
 43
0.0000001
 44
0.0000000001
 40
0.0
 40
0.0
 40
0.0
 40
0.0
 40
0.2500485047
 40
0.5000000009
 40
0.7499514969
 40
1.0
 40
1.0
 40
1.0
 40
1.0
 10
324.1021397986
 20
127.8840793755
 30
0.0
 10
324.2942009585
 20
128.8169954642
 30
0.0
 10
324.7408992387
 20
130.6703692303
 30
0.0
 10
325.6148961369
 20
133.3929295543
 30
0.0
 10
326.6954037096
 20
136.0403261336
 30
0.0
 10
327.5445386666
 20
137.7472249205
 30
0.0
 10
327.9970781822
 20
138.5853346348
 30
0.0
  0
SPLINE
  5
4F7
100
AcDbEntity
  8
0
100
AcDbSpline
 62
7
  6
CONTINUOUS
 70
0
 71
3
 72
9
 73
5
 74
0
 42
0.0000001
 43
0.0000001
 44
0.0000000001
 40
0.0
 40
0.0
 40
0.0
 40
0.0
 40
0.4999041821
 40
1.0
 40
1.0
 40
1.0
 40
1.0
 10
321.5074825522
 20
121.9793047343
 30
0.0
 10
321.8552720839
 20
122.9972100331
 30
0.0
 10
322.6397827321
 20
125.0041618003
 30
0.0
 10
323.5908701502
 20
126.9372006077
 30
0.0
 10
324.1021397986
 20
127.8840793755
 30
0.0
  0
LINE
  5
4F8
100
AcDbEntity
  8
0
100
AcDbLine
 62
7
  6
CONTINUOUS
 10
323.5044819352
 20
102.2379946706
 11
326.5984918612
 21
101.9673038773
  0
LINE
  5
4F9
100
AcDbEntity
  8
0
100
AcDbLine
 62
7
  6
CONTINUOUS
 10
322.6362410469
 20
107.1620334357
 11
325.7302509729
 21
106.8913426423
  0
SPLINE
  5
4FA
100
AcDbEntity
  8
RUNDUNGEN
100
AcDbSpline
 62
7
  6
CONTINUOUS
 70
0
 71
3
 72
9
 73
5
 74
0
 42
0.0000001
 43
0.0000001
 44
0.0000000001
 40
0.0
 40
0.0
 40
0.0
 40
0.0
 40
0.2362642616
 40
1.0
 40
1.0
 40
1.0
 40
1.0
 10
317.6570280419
 20
117.9923361077
 30
0.0
 10
317.6769039155
 20
117.9486780032
 30
0.0
 10
317.7561145315
 20
117.7616600222
 30
0.0
 10
317.8168916506
 20
117.5671272224
 30
0.0
 10
317.8552816175
 20
117.4168905615
 30
0.0
  0
SPLINE
  5
4FB
100
AcDbEntity
  8
RUNDUNGEN
100
AcDbSpline
 62
7
  6
CONTINUOUS
 70
0
 71
3
 72
13
 73
9
 74
0
 42
0.0000001
 43
0.0000001
 44
0.0000000001
 40
0.0
 40
0.0
 40
0.0
 40
0.0
 40
0.0519586463
 40
0.1227005131
 40
0.2143856674
 40
0.3279011225
 40
0.6211317072
 40
1.0
 40
1.0
 40
1.0
 40
1.0
 10
317.3440291796
 20
118.9360404328
 30
0.0
 10
317.3380760917
 20
118.9196844583
 30
0.0
 10
317.3333851187
 20
118.8779653985
 30
0.0
 10
317.3408014767
 20
118.8064299705
 30
0.0
 10
317.3617656062
 20
118.7161801203
 30
0.0
 10
317.4123560378
 20
118.5569816907
 30
0.0
 10
317.5118447386
 20
118.3130199785
 30
0.0
 10
317.604440682
 20
118.107846223
 30
0.0
 10
317.6570280419
 20
117.9923361077
 30
0.0
  0
SPLINE
  5
4FC
100
AcDbEntity
  8
0
100
AcDbSpline
 62
7
  6
CONTINUOUS
 70
0
 71
3
 72
13
 73
9
 74
0
 42
0.0000001
 43
0.0000001
 44
0.0000000001
 40
0.0
 40
0.0
 40
0.0
 40
0.0
 40
0.0519586463
 40
0.1227005131
 40
0.2143856674
 40
0.3279011225
 40
0.6211317072
 40
1.0
 40
1.0
 40
1.0
 40
1.0
 10
326.7409553875
 20
115.5158389995
 30
0.0
 10
326.7350022996
 20
115.499483025
 30
0.0
 10
326.7117792987
 20
115.4645090717
 30
0.0
 10
326.6601159521
 20
115.4144768976
 30
0.0
 10
326.5860450117
 20
115.3588169842
 30
0.0
 10
326.4449597147
 20
115.2693828144
 30
0.0
 10
326.2119313824
 20
115.1464474046
 30
0.0
 10
326.0091156267
 20
115.0487947145
 30
0.0
 10
325.8945829009
 20
114.9941113358
 30
0.0
  0
SPLINE
  5
4FD
100
AcDbEntity
  8
0
100
AcDbSpline
 62
7
  6
CONTINUOUS
 70
0
 71
3
 72
9
 73
5
 74
0
 42
0.0000001
 43
0.0000001
 44
0.0000000001
 40
0.0
 40
0.0
 40
0.0
 40
0.0
 40
0.2362642616
 40
1.0
 40
1.0
 40
1.0
 40
1.0
 10
325.8945829009
 20
114.9941113358
 30
0.0
 10
325.8512942098
 20
114.9734432528
 30
0.0
 10
325.6704025166
 20
114.8810947702
 30
0.0
 10
325.4988012688
 20
114.771140779
 30
0.0
 10
325.3728225838
 20
114.6807294149
 30
0.0
  0
SPLINE
  5
4FE
100
AcDbEntity
  8
0
100
AcDbSpline
 62
7
  6
CONTINUOUS
 70
0
 71
3
 72
13
 73
9
 74
0
 42
0.0000001
 43
0.0000001
 44
0.0000000001
 40
0.0
 40
0.0
 40
0.0
 40
0.0
 40
0.2578502816
 40
0.3800272365
 40
0.5000000009
 40
0.6199727654
 40
0.7421497198
 40
1.0
 40
1.0
 40
1.0
 40
1.0
 10
334.061862038
 20
145.249582093
 30
0.0
 10
334.2685336718
 20
145.4307488642
 30
0.0
 10
334.5501818589
 20
145.7284278617
 30
0.0
 10
334.8343335285
 20
146.1809391756
 30
0.0
 10
334.9926648371
 20
146.5344219015
 30
0.0
 10
335.0985903299
 20
146.9069787832
 30
0.0
 10
335.1717861951
 20
147.4362717303
 30
0.0
 10
335.147375533
 20
147.8453470353
 30
0.0
 10
335.1055076325
 20
148.1169747977
 30
0.0
  0
SPLINE
  5
4FF
100
AcDbEntity
  8
0
100
AcDbSpline
 62
7
  6
CONTINUOUS
 70
0
 71
3
 72
11
 73
7
 74
0
 42
0.0000001
 43
0.0000001
 44
0.0000000001
 40
0.0
 40
0.0
 40
0.0
 40
0.0
 40
0.2506353974
 40
0.5000000009
 40
0.7493646041
 40
1.0
 40
1.0
 40
1.0
 40
1.0
 10
331.2105692488
 20
137.4157195384
 30
0.0
 10
331.5753720325
 20
138.0142979957
 30
0.0
 10
332.2501888373
 20
139.2419516092
 30
0.0
 10
333.0710421986
 20
141.1743868999
 30
0.0
 10
333.6843775036
 20
143.1823525818
 30
0.0
 10
333.9565583682
 20
144.556553687
 30
0.0
 10
334.061862038
 20
145.249582093
 30
0.0
  0
SPLINE
  5
500
100
AcDbEntity
  8
0
100
AcDbSpline
 62
7
  6
CONTINUOUS
 70
0
 71
3
 72
11
 73
7
 74
0
 42
0.0000001
 43
0.0000001
 44
0.0000000001
 40
0.0
 40
0.0
 40
0.0
 40
0.0
 40
0.2500485047
 40
0.5000000009
 40
0.7499514969
 40
1.0
 40
1.0
 40
1.0
 40
1.0
 10
327.3156308652
 20
126.7144642792
 30
0.0
 10
327.7681703836
 20
127.5525739987
 30
0.0
 10
328.6173053413
 20
129.259472793
 30
0.0
 10
329.697812917
 20
131.9068693774
 30
0.0
 10
330.5718098143
 20
134.6294296956
 30
0.0
 10
331.0185080902
 20
136.4828034555
 30
0.0
 10
331.2105692488
 20
137.4157195384
 30
0.0
  0
SPLINE
  5
501
100
AcDbEntity
  8
0
100
AcDbSpline
 62
7
  6
CONTINUOUS
 70
0
 71
3
 72
9
 73
5
 74
0
 42
0.0000001
 43
0.0000001
 44
0.0000000001
 40
0.0
 40
0.0
 40
0.0
 40
0.0
 40
0.4999041821
 40
1.0
 40
1.0
 40
1.0
 40
1.0
 10
325.5077376533
 20
120.523330948
 30
0.0
 10
325.895612329
 20
121.5266464476
 30
0.0
 10
326.5846860356
 20
123.5683344207
 30
0.0
 10
327.0986441984
 20
125.6604752656
 30
0.0
 10
327.3156308652
 20
126.7144642792
 30
0.0
  0
LINE
  5
502
100
AcDbEntity
  8
RUNDUNGEN
100
AcDbLine
 62
7
  6
CONTINUOUS
 10
311.288477865
 20
106.6842565339
 11
308.7443320663
 21
108.4656866004
  0
LINE
  5
503
100
AcDbEntity
  8
RUNDUNGEN
100
AcDbLine
 62
7
  6
CONTINUOUS
 10
315.1187000806
 20
109.8981945823
 11
312.5745542819
 21
111.6796246489
  0
SPLINE
  5
504
100
AcDbEntity
  8
RUNDUNGEN
100
AcDbSpline
 62
7
  6
CONTINUOUS
 70
0
 71
3
 72
25
 73
21
 74
0
 42
0.0000001
 43
0.0000001
 44
0.0000000001
 40
0.0
 40
0.0
 40
0.0
 40
0.0
 40
0.0331679684
 40
0.0662003394
 40
0.0988091168
 40
0.1305875877
 40
0.161197813
 40
0.1906631803
 40
0.2193447519
 40
0.2476721202
 40
0.2759668155
 40
0.3044289674
 40
0.3621818675
 40
0.421418088
 40
0.4821139176
 40
0.5441286487
 40
0.6072852372
 40
0.7361514356
 40
0.8674787513
 40
1.0
 40
1.0
 40
1.0
 40
1.0
 10
309.1956581879
 20
96.0619363027
 30
0.0
 10
309.1016915262
 20
96.0961373706
 30
0.0
 10
308.9113582319
 20
96.1572420913
 30
0.0
 10
308.6186595065
 20
96.2168134634
 30
0.0
 10
308.3238067368
 20
96.2313063607
 30
0.0
 10
308.0382847994
 20
96.1879157749
 30
0.0
 10
307.7796601413
 20
96.0807200525
 30
0.0
 10
307.5646240705
 20
95.9165670608
 30
0.0
 10
307.400622367
 20
95.7109191832
 30
0.0
 10
307.2860562172
 20
95.4788045171
 30
0.0
 10
307.2156841541
 20
95.230884337
 30
0.0
 10
307.1730581331
 20
94.8872177848
 30
0.0
 10
307.2051336716
 20
94.4456035734
 30
0.0
 10
307.3480519158
 20
93.9267671889
 30
0.0
 10
307.5753988347
 20
93.4254581096
 30
0.0
 10
307.8725364387
 20
92.9487144959
 30
0.0
 10
308.3497163358
 20
92.3479603492
 30
0.0
 10
309.0692819984
 20
91.6810148603
 30
0.0
 10
310.0647763475
 20
91.0316872455
 30
0.0
 10
310.7932052526
 20
90.7031241061
 30
0.0
 10
311.1686451707
 20
90.5664751512
 30
0.0
  0
SPLINE
  5
505
100
AcDbEntity
  8
0
100
AcDbSpline
 62
7
  6
CONTINUOUS
 70
0
 71
3
 72
25
 73
21
 74
0
 42
0.0000001
 43
0.0000001
 44
0.0000000001
 40
0.0
 40
0.0
 40
0.0
 40
0.0
 40
0.0331679684
 40
0.0662003394
 40
0.0988091168
 40
0.1305875877
 40
0.161197813
 40
0.1906631803
 40
0.2193447519
 40
0.2476721202
 40
0.2759668155
 40
0.3044289674
 40
0.3621818675
 40
0.421418088
 40
0.4821139176
 40
0.5441286487
 40
0.6072852372
 40
0.7361514356
 40
0.8674787513
 40
1.0
 40
1.0
 40
1.0
 40
1.0
 10
318.2797789886
 20
92.7555867268
 30
0.0
 10
318.3737456504
 20
92.7213856589
 30
0.0
 10
318.5588267702
 20
92.6458507074
 30
0.0
 10
318.8213387421
 20
92.5033419119
 30
0.0
 10
319.0565249227
 20
92.3249164083
 30
0.0
 10
319.2473564853
 20
92.1081473274
 30
0.0
 10
319.3765703853
 20
91.8597899142
 30
0.0
 10
319.4357820633
 20
91.5958189051
 30
0.0
 10
319.4292267493
 20
91.3328652283
 30
0.0
 10
319.3677890803
 20
91.0814133765
 30
0.0
 10
319.2623371882
 20
90.84626121
 30
0.0
 10
319.0740860132
 20
90.5555978793
 30
0.0
 10
318.7656505817
 20
90.2379195254
 30
0.0
 10
318.3226672555
 20
89.9323338728
 30
0.0
 10
317.8262741469
 20
89.6944446208
 30
0.0
 10
317.2922086485
 20
89.5202341949
 30
0.0
 10
316.5405103181
 20
89.3667551446
 30
0.0
 10
315.5605867442
 20
89.3183731513
 30
0.0
 10
314.3806140844
 20
89.4608507733
 30
0.0
 10
313.6114088545
 20
89.6773818809
 30
0.0
 10
313.2359689364
 20
89.8140308359
 30
0.0
  0
SPLINE
  5
506
100
AcDbEntity
  8
0
100
AcDbSpline
 62
7
  6
CONTINUOUS
 70
0
 71
3
 72
13
 73
9
 74
0
 42
0.0000001
 43
0.0000001
 44
0.0000000001
 40
0.0
 40
0.0
 40
0.0
 40
0.0
 40
0.2578502816
 40
0.3800272365
 40
0.5000000009
 40
0.6199727654
 40
0.7421497198
 40
1.0
 40
1.0
 40
1.0
 40
1.0
 10
330.8483709714
 20
146.4191971893
 30
0.0
 10
330.8065030707
 20
146.6908249532
 30
0.0
 10
330.7820924133
 20
147.09990026
 30
0.0
 10
330.8552882716
 20
147.6291932099
 30
0.0
 10
330.9612137689
 20
148.0017500913
 30
0.0
 10
331.1195450812
 20
148.3552328145
 30
0.0
 10
331.4036967437
 20
148.8077441307
 30
0.0
 10
331.6853449333
 20
149.1054231238
 30
0.0
 10
331.8920165659
 20
149.286589894
 30
0.0
  0
SPLINE
  5
507
100
AcDbEntity
  8
KONSTRUKTIONSELEMENTE
100
AcDbSpline
 62
7
  6
CONTINUOUS
 70
0
 71
3
 72
14
 73
10
 74
0
 42
0.0000001
 43
0.0000001
 44
0.0000000001
 40
0.0
 40
0.0
 40
0.0
 40
0.0
 40
0.1193894076
 40
0.2390957115
 40
0.3600148606
 40
0.4826457182
 40
0.6077304619
 40
0.7357412445
 40
1.0
 40
1.0
 40
1.0
 40
1.0
 10
86.3694239729
 20
72.7024614777
 30
0.0
 10
86.3694239729
 20
73.061101089
 30
0.0
 10
86.4455144243
 20
73.7816052248
 30
0.0
 10
86.7811134217
 20
74.8171122628
 30
0.0
 10
87.3170131301
 20
75.7753899453
 30
0.0
 10
88.0292540738
 20
76.6307026976
 30
0.0
 10
88.8902254429
 20
77.3682934322
 30
0.0
 10
90.2145022395
 20
78.1899206462
 30
0.0
 10
91.3411477998
 20
78.5926714533
 30
0.0
 10
92.1153116524
 20
78.7682275984
 30
0.0
  0
SPLINE
  5
508
100
AcDbEntity
  8
KONSTRUKTIONSELEMENTE
100
AcDbSpline
 62
7
  6
CONTINUOUS
 70
0
 71
3
 72
14
 73
10
 74
0
 42
0.0000001
 43
0.0000001
 44
0.0000000001
 40
0.0
 40
0.0
 40
0.0
 40
0.0
 40
0.2642708626
 40
0.3922805637
 40
0.5173547468
 40
0.6399817364
 40
0.7608849187
 40
0.8806119843
 40
1.0
 40
1.0
 40
1.0
 40
1.0
 10
96.6215947517
 20
78.7686588107
 30
0.0
 10
97.3959920782
 20
78.5931787065
 30
0.0
 10
98.523002829
 20
78.1905713164
 30
0.0
 10
99.8477093036
 20
77.3689779546
 30
0.0
 10
100.7089390054
 20
76.6313730924
 30
0.0
 10
101.4213723378
 20
75.7760298156
 30
0.0
 10
101.9576042994
 20
74.8176499555
 30
0.0
 10
102.2932414215
 20
73.7818852771
 30
0.0
 10
102.3694239729
 20
73.0611757481
 30
0.0
 10
102.3694239729
 20
72.7024614777
 30
0.0
  0
SPLINE
  5
509
100
AcDbEntity
  8
KONSTRUKTIONSELEMENTE
100
AcDbSpline
 62
7
  6
CONTINUOUS
 70
0
 71
3
 72
14
 73
10
 74
0
 42
0.0000001
 43
0.0000001
 44
0.0000000001
 40
0.0
 40
0.0
 40
0.0
 40
0.0
 40
0.0551359094
 40
0.1223699656
 40
0.2074507274
 40
0.3149057254
 40
0.4478676734
 40
0.6082995934
 40
1.0
 40
1.0
 40
1.0
 40
1.0
 10
90.8694239729
 20
72.7024614777
 30
0.0
 10
90.8694239729
 20
72.7375364755
 30
0.0
 10
90.8755150366
 20
72.8155565447
 30
0.0
 10
90.9096644422
 20
72.9437488717
 30
0.0
 10
90.978397736
 20
73.0947548974
 30
0.0
 10
91.0912911105
 20
73.2692084197
 30
0.0
 10
91.2599231901
 20
73.4616243319
 30
0.0
 10
91.5875362992
 20
73.7503968947
 30
0.0
 10
91.8926731113
 20
73.9322256421
 30
0.0
 10
92.1174320846
 20
74.0398137731
 30
0.0
  0
SPLINE
  5
50A
100
AcDbEntity
  8
KONSTRUKTIONSELEMENTE
100
AcDbSpline
 62
7
  6
CONTINUOUS
 70
0
 71
3
 72
14
 73
10
 74
0
 42
0.0000001
 43
0.0000001
 44
0.0000000001
 40
0.0
 40
0.0
 40
0.0
 40
0.0
 40
0.3917172299
 40
0.5521555057
 40
0.6851138818
 40
0.7925516428
 40
0.877642207
 40
0.9448879032
 40
1.0
 40
1.0
 40
1.0
 40
1.0
 10
96.6211732084
 20
74.0399257011
 30
0.0
 10
96.8459811143
 20
73.9323358005
 30
0.0
 10
97.151182575
 20
73.750486414
 30
0.0
 10
97.4788552229
 20
73.4616744623
 30
0.0
 10
97.647534253
 20
73.2692660709
 30
0.0
 10
97.7604478748
 20
73.0947968299
 30
0.0
 10
97.8291621677
 20
72.943754021
 30
0.0
 10
97.8633174316
 20
72.8155482557
 30
0.0
 10
97.8694239729
 20
72.7375261386
 30
0.0
 10
97.8694239729
 20
72.7024614777
 30
0.0
  0
SPLINE
  5
50B
100
AcDbEntity
  8
KONSTRUKTIONSELEMENTE
100
AcDbSpline
 62
7
  6
CONTINUOUS
 70
0
 71
3
 72
12
 73
8
 74
0
 42
0.0000001
 43
0.0000001
 44
0.0000000001
 40
0.0
 40
0.0
 40
0.0
 40
0.0
 40
0.1282453638
 40
0.2146169864
 40
0.321985829
 40
0.6101725692
 40
1.0
 40
1.0
 40
1.0
 40
1.0
 10
97.8694239729
 20
62.0958597599
 30
0.0
 10
97.8694239729
 20
62.0265967501
 30
0.0
 10
97.8497609872
 20
61.9100529005
 30
0.0
 10
97.7830710935
 20
61.7490293766
 30
0.0
 10
97.6519062027
 20
61.5232182025
 30
0.0
 10
97.3606117423
 20
61.2082437592
 30
0.0
 10
97.0583143389
 20
60.9968765171
 30
0.0
 10
96.8757780379
 20
60.8919619207
 30
0.0
  0
SPLINE
  5
50C
100
AcDbEntity
  8
KONSTRUKTIONSELEMENTE
100
AcDbSpline
 62
7
  6
CONTINUOUS
 70
0
 71
3
 72
12
 73
8
 74
0
 42
0.0000001
 43
0.0000001
 44
0.0000000001
 40
0.0
 40
0.0
 40
0.0
 40
0.0
 40
0.3898396094
 40
0.6780156338
 40
0.7853729626
 40
0.8717632718
 40
1.0
 40
1.0
 40
1.0
 40
1.0
 10
91.8629783718
 20
60.8920143918
 30
0.0
 10
91.6804511283
 20
60.9969298013
 30
0.0
 10
91.3782033646
 20
61.208319139
 30
0.0
 10
91.0868983885
 20
61.5232370566
 30
0.0
 10
90.9557602302
 20
61.7490455186
 30
0.0
 10
90.8891144231
 20
61.910071253
 30
0.0
 10
90.8694239729
 20
62.0266060276
 30
0.0
 10
90.8694239729
 20
62.0958597599
 30
0.0
  0
SPLINE
  5
50D
100
AcDbEntity
  8
KONSTRUKTIONSELEMENTE
100
AcDbSpline
 62
7
  6
CONTINUOUS
 70
0
 71
3
 72
14
 73
10
 74
0
 42
0.0000001
 43
0.0000001
 44
0.0000000001
 40
0.0
 40
0.0
 40
0.0
 40
0.0
 40
0.1196424727
 40
0.2395631224
 40
0.3606430533
 40
0.4833332762
 40
0.6083558391
 40
0.7361852119
 40
1.0
 40
1.0
 40
1.0
 40
1.0
 10
102.3694239729
 20
62.0958597599
 30
0.0
 10
102.3694239729
 20
61.7466460578
 30
0.0
 10
102.2973252729
 20
61.0453074212
 30
0.0
 10
101.9790176754
 20
60.03507832
 30
0.0
 10
101.4697169366
 20
59.0965404678
 30
0.0
 10
100.7913089262
 20
58.2539588707
 30
0.0
 10
99.9692428314
 20
57.5217163786
 30
0.0
 10
98.7017452918
 20
56.6970427328
 30
0.0
 10
97.6190728304
 20
56.2800449083
 30
0.0
 10
96.8728483088
 20
56.0900764177
 30
0.0
  0
SPLINE
  5
50E
100
AcDbEntity
  8
KONSTRUKTIONSELEMENTE
100
AcDbSpline
 62
7
  6
CONTINUOUS
 70
0
 71
3
 72
14
 73
10
 74
0
 42
0.0000001
 43
0.0000001
 44
0.0000000001
 40
0.0
 40
0.0
 40
0.0
 40
0.0
 40
0.2638203492
 40
0.3916464215
 40
0.5166578653
 40
0.6393440549
 40
0.7604112963
 40
0.8803567455
 40
1.0
 40
1.0
 40
1.0
 40
1.0
 10
91.8650961704
 20
56.0903236073
 30
0.0
 10
91.118956348
 20
56.2803582086
 30
0.0
 10
90.0364229328
 20
56.6973839375
 30
0.0
 10
88.769151486
 20
57.5220657545
 30
0.0
 10
87.9472783084
 20
58.2542662408
 30
0.0
 10
87.269033764
 20
59.0967173035
 30
0.0
 10
86.7597260818
 20
60.0351545986
 30
0.0
 10
86.4415669789
 20
61.0453534565
 30
0.0
 10
86.3694239729
 20
61.7466809625
 30
0.0
 10
86.3694239729
 20
62.0958597599
 30
0.0
  0
SPLINE
  5
50F
100
AcDbEntity
  8
KONSTRUKTIONSELEMENTE
100
AcDbSpline
 62
7
  6
CONTINUOUS
 70
0
 71
3
 72
10
 73
6
 74
0
 42
0.0000001
 43
0.0000001
 44
0.0000000001
 40
0.0
 40
0.0
 40
0.0
 40
0.0
 40
0.4053084429
 40
0.6808240364
 40
1.0
 40
1.0
 40
1.0
 40
1.0
 10
90.9730466544
 20
104.1880017109
 30
0.0
 10
91.0508143058
 20
104.3349030897
 30
0.0
 10
91.2312938074
 20
104.5552502862
 30
0.0
 10
91.5446045557
 20
104.8199923954
 30
0.0
 10
91.7495858068
 20
104.9538315474
 30
0.0
 10
91.8630699079
 20
105.0190576892
 30
0.0
  0
SPLINE
  5
510
100
AcDbEntity
  8
KONSTRUKTIONSELEMENTE
100
AcDbSpline
 62
7
  6
CONTINUOUS
 70
0
 71
3
 72
10
 73
6
 74
0
 42
0.0000001
 43
0.0000001
 44
0.0000000001
 40
0.0
 40
0.0
 40
0.0
 40
0.0
 40
0.3191933616
 40
0.5947209855
 40
1.0
 40
1.0
 40
1.0
 40
1.0
 10
96.8758695739
 20
105.0190052181
 30
0.0
 10
96.9893500275
 20
104.9537774305
 30
0.0
 10
97.1943186763
 20
104.8199266821
 30
0.0
 10
97.5075865506
 20
104.5551871436
 30
0.0
 10
97.6880802553
 20
104.3348809054
 30
0.0
 10
97.7658165759
 20
104.1879902127
 30
0.0
  0
SPLINE
  5
511
100
AcDbEntity
  8
KONSTRUKTIONSELEMENTE
100
AcDbSpline
 62
7
  6
CONTINUOUS
 70
0
 71
3
 72
14
 73
10
 74
0
 42
0.0000001
 43
0.0000001
 44
0.0000000001
 40
0.0
 40
0.0
 40
0.0
 40
0.0
 40
0.0551359094
 40
0.1223699656
 40
0.2074507274
 40
0.3149057254
 40
0.4478676734
 40
0.6082995934
 40
1.0
 40
1.0
 40
1.0
 40
1.0
 10
97.8694239729
 20
93.2085581322
 30
0.0
 10
97.8694239729
 20
93.1734831344
 30
0.0
 10
97.8633329091
 20
93.0954630652
 30
0.0
 10
97.8291835036
 20
92.9672707382
 30
0.0
 10
97.7604502097
 20
92.8162647125
 30
0.0
 10
97.6475568352
 20
92.6418111902
 30
0.0
 10
97.4789247556
 20
92.449395278
 30
0.0
 10
97.1513116466
 20
92.1606227152
 30
0.0
 10
96.8461748345
 20
91.9787939678
 30
0.0
 10
96.6214158612
 20
91.8712058368
 30
0.0
  0
SPLINE
  5
512
100
AcDbEntity
  8
KONSTRUKTIONSELEMENTE
100
AcDbSpline
 62
7
  6
CONTINUOUS
 70
0
 71
3
 72
14
 73
10
 74
0
 42
0.0000001
 43
0.0000001
 44
0.0000000001
 40
0.0
 40
0.0
 40
0.0
 40
0.0
 40
0.3917172299
 40
0.5521555057
 40
0.6851138818
 40
0.7925516428
 40
0.877642207
 40
0.9448879032
 40
1.0
 40
1.0
 40
1.0
 40
1.0
 10
92.1176747374
 20
91.8710939088
 30
0.0
 10
91.8928668314
 20
91.9786838094
 30
0.0
 10
91.5876653707
 20
92.1605331959
 30
0.0
 10
91.2599927228
 20
92.4493451476
 30
0.0
 10
91.0913136928
 20
92.641753539
 30
0.0
 10
90.9784000709
 20
92.81622278
 30
0.0
 10
90.9096857781
 20
92.9672655889
 30
0.0
 10
90.8755305141
 20
93.0954713542
 30
0.0
 10
90.8694239729
 20
93.1734934713
 30
0.0
 10
90.8694239729
 20
93.2085581322
 30
0.0
  0
SPLINE
  5
513
100
AcDbEntity
  8
KONSTRUKTIONSELEMENTE
100
AcDbSpline
 62
7
  6
CONTINUOUS
 70
0
 71
3
 72
12
 73
8
 74
0
 42
0.0000001
 43
0.0000001
 44
0.0000000001
 40
0.0
 40
0.0
 40
0.0
 40
0.0
 40
0.1190940111
 40
0.239303997
 40
0.4843174175
 40
0.7379000993
 40
1.0
 40
1.0
 40
1.0
 40
1.0
 10
101.9082957104
 20
91.0702572159
 30
0.0
 10
101.7981515709
 20
90.8232549889
 30
0.0
 10
101.5402134552
 20
90.3423836891
 30
0.0
 10
100.8888241618
 20
89.4526998356
 30
0.0
 10
99.8409701452
 20
88.4928716702
 30
0.0
 10
98.3259920323
 20
87.6381990212
 30
0.0
 10
97.2039944201
 20
87.2744217573
 30
0.0
 10
96.6235362934
 20
87.1427920115
 30
0.0
  0
SPLINE
  5
514
100
AcDbEntity
  8
KONSTRUKTIONSELEMENTE
100
AcDbSpline
 62
7
  6
CONTINUOUS
 70
0
 71
3
 72
12
 73
8
 74
0
 42
0.0000001
 43
0.0000001
 44
0.0000000001
 40
0.0
 40
0.0
 40
0.0
 40
0.0
 40
0.2621243904
 40
0.5157117087
 40
0.76071533
 40
0.8809175252
 40
1.0
 40
1.0
 40
1.0
 40
1.0
 10
92.1172531941
 20
87.1423607992
 30
0.0
 10
91.5365468915
 20
87.2739500997
 30
0.0
 10
90.4140757171
 20
87.6376166896
 30
0.0
 10
88.8984752437
 20
88.4923702277
 30
0.0
 10
87.8503110713
 20
89.4524409316
 30
0.0
 10
87.1986699969
 20
90.3422614551
 30
0.0
 10
86.9406436737
 20
90.8232257285
 30
0.0
 10
86.8304929692
 20
91.0702846254
 30
0.0
  0
SPLINE
  5
515
100
AcDbEntity
  8
0
100
AcDbSpline
 62
7
  6
CONTINUOUS
 70
0
 71
3
 72
12
 73
8
 74
0
 42
0.0000001
 43
0.0000001
 44
0.0000000001
 40
0.0
 40
0.0
 40
0.0
 40
0.0
 40
0.1089727213
 40
0.2201620805
 40
0.4554253
 40
0.7155329149
 40
1.0
 40
1.0
 40
1.0
 40
1.0
 10
103.1245431731
 20
36.7390105866
 30
0.0
 10
103.1245431731
 20
36.8252601414
 30
0.0
 10
103.1064062268
 20
37.0000329016
 30
0.0
 10
102.9973924056
 20
37.3458059121
 30
0.0
 10
102.7212737404
 20
37.7519415309
 30
0.0
 10
102.2272641401
 20
38.1343460985
 30
0.0
 10
101.8268376909
 20
38.3060969346
 30
0.0
 10
101.6116805152
 20
38.3724272511
 30
0.0
  0
SPLINE
  5
516
100
AcDbEntity
  8
0
100
AcDbSpline
 62
7
  6
CONTINUOUS
 70
0
 71
3
 72
19
 73
15
 74
0
 42
0.0000001
 43
0.0000001
 44
0.0000000001
 40
0.0
 40
0.0
 40
0.0
 40
0.0
 40
0.0517123707
 40
0.1053415175
 40
0.1622467977
 40
0.2232148443
 40
0.3564757697
 40
0.5
 40
0.6435242303
 40
0.7767851557
 40
0.8377532023
 40
0.8946584825
 40
0.9482876293
 40
1.0
 40
1.0
 40
1.0
 40
1.0
 10
95.2805441126
 20
36.2998274467
 30
0.0
 10
95.2805441126
 20
36.2472770147
 30
0.0
 10
95.2958347158
 20
36.1396909093
 30
0.0
 10
95.3625345737
 20
35.9870065231
 30
0.0
 10
95.4696607158
 20
35.8475899121
 30
0.0
 10
95.6653242104
 20
35.6813519158
 30
0.0
 10
95.9844246929
 20
35.5372135745
 30
0.0
 10
96.4127847208
 20
35.4795073161
 30
0.0
 10
96.8411447487
 20
35.5372135745
 30
0.0
 10
97.1602452312
 20
35.6813519158
 30
0.0
 10
97.3559087257
 20
35.8475899121
 30
0.0
 10
97.4630348678
 20
35.9870065231
 30
0.0
 10
97.5297347258
 20
36.1396909093
 30
0.0
 10
97.545025329
 20
36.2472770147
 30
0.0
 10
97.545025329
 20
36.2998274467
 30
0.0
  0
SPLINE
  5
517
100
AcDbEntity
  8
0
100
AcDbSpline
 62
7
  6
CONTINUOUS
 70
0
 71
3
 72
13
 73
9
 74
0
 42
0.0000001
 43
0.0000001
 44
0.0000000001
 40
0.0
 40
0.0
 40
0.0
 40
0.0
 40
0.1034557072
 40
0.2106700021
 40
0.3244995741
 40
0.4464358475
 40
0.7129373538
 40
1.0
 40
1.0
 40
1.0
 40
1.0
 10
93.8364415736
 20
37.548201442
 30
0.0
 10
93.8364332455
 20
37.60371681
 30
0.0
 10
93.8202633429
 20
37.7173345938
 30
0.0
 10
93.7497302471
 20
37.8785437005
 30
0.0
 10
93.636624978
 20
38.0257826224
 30
0.0
 10
93.4299096451
 20
38.2012936656
 30
0.0
 10
93.0931480104
 20
38.3535341672
 30
0.0
 10
92.7945848034
 20
38.3936404546
 30
0.0
 10
92.6405441126
 20
38.3936404546
 30
0.0
  0
SPLINE
  5
518
100
AcDbEntity
  8
0
100
AcDbSpline
 62
7
  6
CONTINUOUS
 70
0
 71
3
 72
11
 73
7
 74
0
 42
0.0000001
 43
0.0000001
 44
0.0000000001
 40
0.0
 40
0.0
 40
0.0
 40
0.0
 40
0.2092798753
 40
0.444592951
 40
0.7123432609
 40
1.0
 40
1.0
 40
1.0
 40
1.0
 10
87.2820633317
 20
36.3444450027
 30
0.0
 10
87.2820633317
 20
36.3377055832
 30
0.0
 10
87.2864818489
 20
36.323237718
 30
0.0
 10
87.3032035939
 20
36.306582113
 30
0.0
 10
87.326815019
 20
36.2959949297
 30
0.0
 10
87.3447999497
 20
36.2935333145
 30
0.0
 10
87.3540633317
 20
36.2935333145
 30
0.0
  0
SPLINE
  5
519
100
AcDbEntity
  8
0
100
AcDbSpline
 62
7
  6
CONTINUOUS
 70
0
 71
3
 72
11
 73
7
 74
0
 42
0.0000001
 43
0.0000001
 44
0.0000000001
 40
0.0
 40
0.0
 40
0.0
 40
0.0
 40
0.2092798753
 40
0.444592951
 40
0.7123432609
 40
1.0
 40
1.0
 40
1.0
 40
1.0
 10
87.7770633317
 20
36.3699008468
 30
0.0
 10
87.7770633317
 20
36.3766402663
 30
0.0
 10
87.7726448145
 20
36.3911081316
 30
0.0
 10
87.7559230695
 20
36.4077637365
 30
0.0
 10
87.7323116445
 20
36.4183509199
 30
0.0
 10
87.7143267137
 20
36.4208125351
 30
0.0
 10
87.7050633317
 20
36.4208125351
 30
0.0
  0
SPLINE
  5
51A
100
AcDbEntity
  8
0
100
AcDbSpline
 62
7
  6
CONTINUOUS
 70
0
 71
3
 72
11
 73
7
 74
0
 42
0.0000001
 43
0.0000001
 44
0.0000000001
 40
0.0
 40
0.0
 40
0.0
 40
0.0
 40
0.2092798753
 40
0.444592951
 40
0.7123432609
 40
1.0
 40
1.0
 40
1.0
 40
1.0
 10
87.7770633317
 20
37.642693053
 30
0.0
 10
87.7770633317
 20
37.6494324725
 30
0.0
 10
87.7726448145
 20
37.6639003377
 30
0.0
 10
87.7559230695
 20
37.6805559426
 30
0.0
 10
87.7323116445
 20
37.691143126
 30
0.0
 10
87.7143267137
 20
37.6936047412
 30
0.0
 10
87.7050633317
 20
37.6936047412
 30
0.0
  0
SPLINE
  5
51B
100
AcDbEntity
  8
0
100
AcDbSpline
 62
7
  6
CONTINUOUS
 70
0
 71
3
 72
11
 73
7
 74
0
 42
0.0000001
 43
0.0000001
 44
0.0000000001
 40
0.0
 40
0.0
 40
0.0
 40
0.0
 40
0.2094668498
 40
0.4446559298
 40
0.7120302568
 40
1.0
 40
1.0
 40
1.0
 40
1.0
 10
86.7870633317
 20
36.9935690278
 30
0.0
 10
86.7870633317
 20
36.976702983
 30
0.0
 10
86.7980166095
 20
36.9404756149
 30
0.0
 10
86.8399606019
 20
36.8989897071
 30
0.0
 10
86.898879096
 20
36.8723519258
 30
0.0
 10
86.9438763185
 20
36.8662898072
 30
0.0
 10
86.9670633317
 20
36.8662898072
 30
0.0
  0
SPLINE
  5
51C
100
AcDbEntity
  8
0
100
AcDbSpline
 62
7
  6
CONTINUOUS
 70
0
 71
3
 72
11
 73
7
 74
0
 42
0.0000001
 43
0.0000001
 44
0.0000000001
 40
0.0
 40
0.0
 40
0.0
 40
0.0
 40
0.2094668498
 40
0.4446559298
 40
0.7120302568
 40
1.0
 40
1.0
 40
1.0
 40
1.0
 10
86.7870633317
 20
35.7207768217
 30
0.0
 10
86.7870633317
 20
35.7039107768
 30
0.0
 10
86.7980166095
 20
35.6676834088
 30
0.0
 10
86.8399606019
 20
35.626197501
 30
0.0
 10
86.898879096
 20
35.5995597197
 30
0.0
 10
86.9438763185
 20
35.5934976011
 30
0.0
 10
86.9670633317
 20
35.5934976011
 30
0.0
  0
SPLINE
  5
51D
100
AcDbEntity
  8
0
100
AcDbSpline
 62
7
  6
CONTINUOUS
 70
0
 71
3
 72
9
 73
5
 74
0
 42
0.0000001
 43
0.0000001
 44
0.0000000001
 40
0.0
 40
0.0
 40
0.0
 40
0.0
 40
0.4873302954
 40
1.0
 40
1.0
 40
1.0
 40
1.0
 10
89.2170633317
 20
38.1390820133
 30
0.0
 10
89.2170633317
 20
38.1591553024
 30
0.0
 10
89.2099305191
 20
38.2005989938
 30
0.0
 10
89.1901722204
 20
38.2375173032
 30
0.0
 10
89.1778263017
 20
38.2546493532
 30
0.0
  0
SPLINE
  5
51E
100
AcDbEntity
  8
0
100
AcDbSpline
 62
7
  6
CONTINUOUS
 70
0
 71
3
 72
9
 73
5
 74
0
 42
0.0000001
 43
0.0000001
 44
0.0000000001
 40
0.0
 40
0.0
 40
0.0
 40
0.0
 40
0.4654299385
 40
1.0
 40
1.0
 40
1.0
 40
1.0
 10
89.1778263017
 20
38.2546493532
 30
0.0
 10
89.1452791982
 20
38.2998139635
 30
0.0
 10
89.0417501689
 20
38.372127627
 30
0.0
 10
88.9210032437
 20
38.3936404546
 30
0.0
 10
88.8570633317
 20
38.3936404546
 30
0.0
  0
SPLINE
  5
51F
100
AcDbEntity
  8
RUNDUNGEN
100
AcDbSpline
 62
7
  6
CONTINUOUS
 70
0
 71
3
 72
11
 73
7
 74
0
 42
0.0000001
 43
0.0000001
 44
0.0000000001
 40
0.0
 40
0.0
 40
0.0
 40
0.0
 40
0.2256934588
 40
0.4632957354
 40
0.7206235605
 40
1.0
 40
1.0
 40
1.0
 40
1.0
 10
75.0201253695
 20
40.833724995
 30
0.0
 10
75.0201575871
 20
40.8848480821
 30
0.0
 10
75.0387478204
 20
40.990527697
 30
0.0
 10
75.1183471615
 20
41.1357935262
 30
0.0
 10
75.243009792
 20
41.2618237513
 30
0.0
 10
75.3471869897
 20
41.3265960696
 30
0.0
 10
75.4038993793
 20
41.3546755929
 30
0.0
  0
SPLINE
  5
520
100
AcDbEntity
  8
RUNDUNGEN
100
AcDbSpline
 62
7
  6
CONTINUOUS
 70
0
 71
3
 72
9
 73
5
 74
0
 42
0.0000001
 43
0.0000001
 44
0.0000000001
 40
0.0
 40
0.0
 40
0.0
 40
0.0
 40
0.4805181646
 40
1.0
 40
1.0
 40
1.0
 40
1.0
 10
75.020124594
 20
37.2981657765
 30
0.0
 10
75.0200876842
 20
37.2328338857
 30
0.0
 10
75.0511335501
 20
37.0955903319
 30
0.0
 10
75.1331842023
 20
36.9830015119
 30
0.0
 10
75.1828813321
 20
36.9328147093
 30
0.0
  0
SPLINE
  5
521
100
AcDbEntity
  8
RUNDUNGEN
100
AcDbSpline
 62
7
  6
CONTINUOUS
 70
0
 71
3
 72
11
 73
7
 74
0
 42
0.0000001
 43
0.0000001
 44
0.0000000001
 40
0.0
 40
0.0
 40
0.0
 40
0.0
 40
0.2256919297
 40
0.4632773963
 40
0.7205986282
 40
1.0
 40
1.0
 40
1.0
 40
1.0
 10
68.6177863389
 20
47.7665982624
 30
0.0
 10
68.6177534398
 20
47.9371238728
 30
0.0
 10
68.6794209565
 20
48.2896805142
 30
0.0
 10
68.9446602924
 20
48.7743858281
 30
0.0
 10
69.3603727455
 20
49.1949013202
 30
0.0
 10
69.7078682178
 20
49.4109947829
 30
0.0
 10
69.8970555743
 20
49.5046655103
 30
0.0
  0
SPLINE
  5
522
100
AcDbEntity
  8
RUNDUNGEN
100
AcDbSpline
 62
7
  6
CONTINUOUS
 70
0
 71
3
 72
10
 73
6
 74
0
 42
0.0000001
 43
0.0000001
 44
0.0000000001
 40
0.0
 40
0.0
 40
0.0
 40
0.0
 40
0.2382860828
 40
0.4819052527
 40
1.0
 40
1.0
 40
1.0
 40
1.0
 10
68.6177863389
 20
44.2310643565
 30
0.0
 10
68.6178072072
 20
44.1228981849
 30
0.0
 10
68.6419514977
 20
43.9033913441
 30
0.0
 10
68.7861919453
 20
43.4702760794
 30
0.0
 10
68.9948480188
 20
43.1818195818
 30
0.0
 10
69.1603287505
 20
43.0147083453
 30
0.0
  0
SPLINE
  5
523
100
AcDbEntity
  8
RUNDUNGEN
100
AcDbSpline
 62
7
  6
CONTINUOUS
 70
0
 71
3
 72
11
 73
7
 74
0
 42
0.0000001
 43
0.0000001
 44
0.0000000001
 40
0.0
 40
0.0
 40
0.0
 40
0.0
 40
0.237780559
 40
0.4809056754
 40
0.7339193747
 40
1.0
 40
1.0
 40
1.0
 40
1.0
 10
103.6810428043
 20
24.9540429573
 30
0.0
 10
103.6810428158
 20
25.2786300751
 30
0.0
 10
103.7530486751
 20
25.9371963453
 30
0.0
 10
104.0723205185
 20
26.8940348732
 30
0.0
 10
104.5930882498
 20
27.8019015363
 30
0.0
 10
105.0531021873
 20
28.3461703685
 30
0.0
 10
105.3086744057
 20
28.6042607757
 30
0.0
  0
SPLINE
  5
524
100
AcDbEntity
  8
RUNDUNGEN
100
AcDbSpline
 62
7
  6
CONTINUOUS
 70
0
 71
3
 72
9
 73
5
 74
0
 42
0.0000001
 43
0.0000001
 44
0.0000000001
 40
0.0
 40
0.0
 40
0.0
 40
0.0
 40
0.4865850801
 40
1.0
 40
1.0
 40
1.0
 40
1.0
 10
104.0356885996
 20
26.7207166103
 30
0.0
 10
104.1758805829
 20
26.378072023
 30
0.0
 10
104.5429862434
 20
25.7044854967
 30
0.0
 10
105.0338159527
 20
25.1169251754
 30
0.0
 10
105.3086744057
 20
24.8393585036
 30
0.0
  0
SPLINE
  5
525
100
AcDbEntity
  8
RUNDUNGEN
100
AcDbSpline
 62
7
  6
CONTINUOUS
 70
0
 71
3
 72
10
 73
6
 74
0
 42
0.0000001
 43
0.0000001
 44
0.0000000001
 40
0.0
 40
0.0
 40
0.0
 40
0.0
 40
0.2382826319
 40
0.4819247904
 40
1.0
 40
1.0
 40
1.0
 40
1.0
 10
73.9694239729
 20
14.6165411102
 30
0.0
 10
73.9694239729
 20
14.7247360825
 30
0.0
 10
73.9934961371
 20
14.9443230888
 30
0.0
 10
74.1377522709
 20
15.3775748929
 30
0.0
 10
74.346446895
 20
15.6661286273
 30
0.0
 10
74.51196784
 20
15.8332804733
 30
0.0
  0
SPLINE
  5
526
100
AcDbEntity
  8
BEZUGSACHSEN
100
AcDbSpline
 62
7
  6
CONTINUOUS
 70
0
 71
3
 72
9
 73
5
 74
0
 42
0.0000001
 43
0.0000001
 44
0.0000000001
 40
0.0
 40
0.0
 40
0.0
 40
0.0
 40
0.2432940019
 40
1.0
 40
1.0
 40
1.0
 40
1.0
 10
91.2488149897
 20
43.3522655419
 30
0.0
 10
91.2949211957
 20
43.3116057229
 30
0.0
 10
91.4891000155
 20
43.14981323
 30
0.0
 10
91.7007823472
 20
43.0093830031
 30
0.0
 10
91.8671010662
 20
42.9150700325
 30
0.0
  0
SPLINE
  5
527
100
AcDbEntity
  8
BEZUGSACHSEN
100
AcDbSpline
 62
7
  6
CONTINUOUS
 70
0
 71
3
 72
9
 73
5
 74
0
 42
0.0000001
 43
0.0000001
 44
0.0000000001
 40
0.0
 40
0.0
 40
0.0
 40
0.0
 40
0.25695157
 40
1.0
 40
1.0
 40
1.0
 40
1.0
 10
96.8717468795
 20
42.9150700325
 30
0.0
 10
96.9282208941
 20
42.9470942816
 30
0.0
 10
97.1449804608
 20
43.0769301095
 30
0.0
 10
97.3492245647
 20
43.2280904211
 30
0.0
 10
97.4900329561
 20
43.3522655419
 30
0.0
  0
SPLINE
  5
528
100
AcDbEntity
  8
BEZUGSACHSEN
100
AcDbSpline
 62
7
  6
CONTINUOUS
 70
0
 71
3
 72
11
 73
7
 74
0
 42
0.0000001
 43
0.0000001
 44
0.0000000001
 40
0.0
 40
0.0
 40
0.0
 40
0.0
 40
0.2279232111
 40
0.4663851525
 40
0.7228056147
 40
1.0
 40
1.0
 40
1.0
 40
1.0
 10
98.3694239729
 20
41.5861569396
 30
0.0
 10
98.3694239729
 20
41.7979684138
 30
0.0
 10
98.2985091162
 20
42.2341503414
 30
0.0
 10
97.9914250803
 20
42.8415387075
 30
0.0
 10
97.5058744208
 20
43.3794051661
 30
0.0
 10
97.0958263601
 20
43.6657108682
 30
0.0
 10
96.8717468795
 20
43.7927777527
 30
0.0
  0
SPLINE
  5
529
100
AcDbEntity
  8
BEZUGSACHSEN
100
AcDbSpline
 62
7
  6
CONTINUOUS
 70
0
 71
3
 72
11
 73
7
 74
0
 42
0.0000001
 43
0.0000001
 44
0.0000000001
 40
0.0
 40
0.0
 40
0.0
 40
0.0
 40
0.2771943853
 40
0.5336148475
 40
0.7720767889
 40
1.0
 40
1.0
 40
1.0
 40
1.0
 10
91.8671010662
 20
43.7927777527
 30
0.0
 10
91.6430215856
 20
43.6657108682
 30
0.0
 10
91.232973525
 20
43.3794051661
 30
0.0
 10
90.7474228655
 20
42.8415387075
 30
0.0
 10
90.4403388295
 20
42.2341503414
 30
0.0
 10
90.3694239729
 20
41.7979684138
 30
0.0
 10
90.3694239729
 20
41.5861569396
 30
0.0
  0
SPLINE
  5
52A
100
AcDbEntity
  8
RUNDUNGEN
100
AcDbSpline
 62
7
  6
CONTINUOUS
 70
0
 71
3
 72
10
 73
6
 74
0
 42
0.0000001
 43
0.0000001
 44
0.0000000001
 40
0.0
 40
0.0
 40
0.0
 40
0.0
 40
0.5180750537
 40
0.7617172794
 40
1.0
 40
1.0
 40
1.0
 40
1.0
 10
114.2268801057
 20
15.8332804733
 30
0.0
 10
114.3924010011
 20
15.6661286773
 30
0.0
 10
114.601095614
 20
15.3775749934
 30
0.0
 10
114.7453517861
 20
14.9443232002
 30
0.0
 10
114.7694239729
 20
14.7247361229
 30
0.0
 10
114.7694239729
 20
14.6165411102
 30
0.0
  0
SPLINE
  5
52B
100
AcDbEntity
  8
RUNDUNGEN
100
AcDbSpline
 62
7
  6
CONTINUOUS
 70
0
 71
3
 72
11
 73
7
 74
0
 42
0.0000001
 43
0.0000001
 44
0.0000000001
 40
0.0
 40
0.0
 40
0.0
 40
0.0
 40
0.2793753354
 40
0.5367191876
 40
0.7743210397
 40
1.0
 40
1.0
 40
1.0
 40
1.0
 10
120.48009646
 20
48.693505935
 30
0.0
 10
120.5431109855
 20
48.6623060887
 30
0.0
 10
120.658868016
 20
48.5903331474
 30
0.0
 10
120.7973866742
 20
48.450293807
 30
0.0
 10
120.8858263023
 20
48.2888812001
 30
0.0
 10
120.9064788164
 20
48.1714609426
 30
0.0
 10
120.9065127997
 20
48.1146602516
 30
0.0
  0
SPLINE
  5
52C
100
AcDbEntity
  8
RUNDUNGEN
100
AcDbSpline
 62
7
  6
CONTINUOUS
 70
0
 71
3
 72
11
 73
7
 74
0
 42
0.0000001
 43
0.0000001
 44
0.0000000001
 40
0.0
 40
0.0
 40
0.0
 40
0.0
 40
0.2297149365
 40
0.4842569271
 40
0.747560856
 40
1.0
 40
1.0
 40
1.0
 40
1.0
 10
114.5820317358
 20
50.7505465895
 30
0.0
 10
114.6618610127
 20
50.8311624354
 30
0.0
 10
114.8681836657
 20
50.9642789535
 30
0.0
 10
115.2297964278
 20
51.059204294
 30
0.0
 10
115.6145869043
 20
51.0538140436
 30
0.0
 10
115.8630290871
 20
50.9795152514
 30
0.0
 10
115.9747602165
 20
50.9241947672
 30
0.0
  0
SPLINE
  5
52D
100
AcDbEntity
  8
0
100
AcDbSpline
 62
7
  6
CONTINUOUS
 70
0
 71
3
 72
9
 73
5
 74
0
 42
0.0000001
 43
0.0000001
 44
0.0000000001
 40
0.0
 40
0.0
 40
0.0
 40
0.0
 40
0.2432212797
 40
1.0
 40
1.0
 40
1.0
 40
1.0
 10
99.5316119
 20
48.4962649025
 30
0.0
 10
99.3272262048
 20
48.5974606542
 30
0.0
 10
98.472359226
 20
48.9838266788
 30
0.0
 10
97.566331906
 20
49.2541283131
 30
0.0
 10
96.8711126485
 20
49.3963794498
 30
0.0
  0
SPLINE
  5
52E
100
AcDbEntity
  8
0
100
AcDbSpline
 62
7
  6
CONTINUOUS
 70
0
 71
3
 72
9
 73
5
 74
0
 42
0.0000001
 43
0.0000001
 44
0.0000000001
 40
0.0
 40
0.0
 40
0.0
 40
0.0
 40
0.2565045474
 40
1.0
 40
1.0
 40
1.0
 40
1.0
 10
91.8677352973
 20
49.3963794498
 30
0.0
 10
91.6321083054
 20
49.3481670232
 30
0.0
 10
90.7195058214
 20
49.132713148
 30
0.0
 10
89.8319832655
 20
48.8055906822
 30
0.0
 10
89.2072360457
 20
48.4962649025
 30
0.0
  0
SPLINE
  5
52F
100
AcDbEntity
  8
RUNDUNGEN
100
AcDbSpline
 62
7
  6
CONTINUOUS
 70
0
 71
3
 72
13
 73
9
 74
0
 42
0.0000001
 43
0.0000001
 44
0.0000000001
 40
0.0
 40
0.0
 40
0.0
 40
0.0
 40
0.2520973387
 40
0.3837531395
 40
0.5156914498
 40
0.6454036081
 40
0.7706002201
 40
1.0
 40
1.0
 40
1.0
 40
1.0
 10
70.7162076186
 20
49.910245298
 30
0.0
 10
71.6100464319
 20
50.3528041106
 30
0.0
 10
73.0940017562
 20
50.7962945969
 30
0.0
 10
75.130415522
 20
50.9678034773
 30
0.0
 10
76.6896283459
 20
50.8845814204
 30
0.0
 10
78.1975469793
 20
50.5888724401
 30
0.0
 10
80.0062496315
 20
49.9487768993
 30
0.0
 10
81.2194200213
 20
49.1659676864
 30
0.0
 10
81.8580354637
 20
48.5210598766
 30
0.0
  0
SPLINE
  5
530
100
AcDbEntity
  8
0
100
AcDbSpline
 62
7
  6
CONTINUOUS
 70
0
 71
3
 72
11
 73
7
 74
0
 42
0.0000001
 43
0.0000001
 44
0.0000000001
 40
0.0
 40
0.0
 40
0.0
 40
0.0
 40
0.2880052506
 40
0.5553344723
 40
0.7905070702
 40
1.0
 40
1.0
 40
1.0
 40
1.0
 10
85.9770633317
 20
38.3936404546
 30
0.0
 10
85.9306839122
 20
38.3936404546
 30
0.0
 10
85.8406863608
 20
38.3815254649
 30
0.0
 10
85.7228744752
 20
38.3282184465
 30
0.0
 10
85.638964967
 20
38.2452797598
 30
0.0
 10
85.6170633317
 20
38.1728180666
 30
0.0
 10
85.6170633317
 20
38.1390820133
 30
0.0
  0
SPLINE
  5
531
100
AcDbEntity
  8
0
100
AcDbSpline
 62
7
  6
CONTINUOUS
 70
0
 71
3
 72
11
 73
7
 74
0
 42
0.0000001
 43
0.0000001
 44
0.0000000001
 40
0.0
 40
0.0
 40
0.0
 40
0.0
 40
0.2879697432
 40
0.5553440702
 40
0.7905331502
 40
1.0
 40
1.0
 40
1.0
 40
1.0
 10
87.8670633317
 20
36.8662898072
 30
0.0
 10
87.8902503449
 20
36.8662898072
 30
0.0
 10
87.9352475675
 20
36.8723519258
 30
0.0
 10
87.9941660616
 20
36.8989897071
 30
0.0
 10
88.0361100539
 20
36.9404756149
 30
0.0
 10
88.0470633317
 20
36.976702983
 30
0.0
 10
88.0470633317
 20
36.9935690278
 30
0.0
  0
SPLINE
  5
532
100
AcDbEntity
  8
0
100
AcDbSpline
 62
7
  6
CONTINUOUS
 70
0
 71
3
 72
11
 73
7
 74
0
 42
0.0000001
 43
0.0000001
 44
0.0000000001
 40
0.0
 40
0.0
 40
0.0
 40
0.0
 40
0.2879697432
 40
0.5553440702
 40
0.7905331502
 40
1.0
 40
1.0
 40
1.0
 40
1.0
 10
87.8670633317
 20
35.5934976011
 30
0.0
 10
87.8902503449
 20
35.5934976011
 30
0.0
 10
87.9352475675
 20
35.5995597197
 30
0.0
 10
87.9941660616
 20
35.626197501
 30
0.0
 10
88.0361100539
 20
35.6676834088
 30
0.0
 10
88.0470633317
 20
35.7039107768
 30
0.0
 10
88.0470633317
 20
35.7207768217
 30
0.0
  0
SPLINE
  5
533
100
AcDbEntity
  8
0
100
AcDbSpline
 62
7
  6
CONTINUOUS
 70
0
 71
3
 72
11
 73
7
 74
0
 42
0.0000001
 43
0.0000001
 44
0.0000000001
 40
0.0
 40
0.0
 40
0.0
 40
0.0
 40
0.2876567391
 40
0.555407049
 40
0.7907201247
 40
1.0
 40
1.0
 40
1.0
 40
1.0
 10
87.1290633317
 20
37.6936047412
 30
0.0
 10
87.1197999497
 20
37.6936047412
 30
0.0
 10
87.101815019
 20
37.691143126
 30
0.0
 10
87.0782035939
 20
37.6805559426
 30
0.0
 10
87.0614818489
 20
37.6639003377
 30
0.0
 10
87.0570633317
 20
37.6494324725
 30
0.0
 10
87.0570633317
 20
37.642693053
 30
0.0
  0
SPLINE
  5
534
100
AcDbEntity
  8
0
100
AcDbSpline
 62
7
  6
CONTINUOUS
 70
0
 71
3
 72
11
 73
7
 74
0
 42
0.0000001
 43
0.0000001
 44
0.0000000001
 40
0.0
 40
0.0
 40
0.0
 40
0.0
 40
0.2876567391
 40
0.555407049
 40
0.7907201247
 40
1.0
 40
1.0
 40
1.0
 40
1.0
 10
87.1290633317
 20
36.4208125351
 30
0.0
 10
87.1197999497
 20
36.4208125351
 30
0.0
 10
87.101815019
 20
36.4183509199
 30
0.0
 10
87.0782035939
 20
36.4077637365
 30
0.0
 10
87.0614818489
 20
36.3911081316
 30
0.0
 10
87.0570633317
 20
36.3766402663
 30
0.0
 10
87.0570633317
 20
36.3699008468
 30
0.0
  0
SPLINE
  5
535
100
AcDbEntity
  8
0
100
AcDbSpline
 62
7
  6
CONTINUOUS
 70
0
 71
3
 72
11
 73
7
 74
0
 42
0.0000001
 43
0.0000001
 44
0.0000000001
 40
0.0
 40
0.0
 40
0.0
 40
0.0
 40
0.2876567391
 40
0.555407049
 40
0.7907201247
 40
1.0
 40
1.0
 40
1.0
 40
1.0
 10
87.4800633317
 20
36.2935333145
 30
0.0
 10
87.4893267137
 20
36.2935333145
 30
0.0
 10
87.5073116445
 20
36.2959949297
 30
0.0
 10
87.5309230695
 20
36.306582113
 30
0.0
 10
87.5476448145
 20
36.323237718
 30
0.0
 10
87.5520633317
 20
36.3377055832
 30
0.0
 10
87.5520633317
 20
36.3444450027
 30
0.0
  0
SPLINE
  5
536
100
AcDbEntity
  8
0
100
AcDbSpline
 62
7
  6
CONTINUOUS
 70
0
 71
3
 72
12
 73
8
 74
0
 42
0.0000001
 43
0.0000001
 44
0.0000000001
 40
0.0
 40
0.0
 40
0.0
 40
0.0
 40
0.2874600855
 40
0.5543011876
 40
0.7890519721
 40
0.8964084757
 40
1.0
 40
1.0
 40
1.0
 40
1.0
 10
92.6405441126
 20
37.0884627239
 30
0.0
 10
92.7242702993
 20
37.0884627239
 30
0.0
 10
92.8867294493
 20
37.1104799143
 30
0.0
 10
93.0994731601
 20
37.2061374605
 30
0.0
 10
93.2291677898
 20
37.3358870529
 30
0.0
 10
93.2816782344
 20
37.4560831284
 30
0.0
 10
93.2904329182
 20
37.517839168
 30
0.0
 10
93.2904329182
 20
37.548011438
 30
0.0
  0
SPLINE
  5
537
100
AcDbEntity
  8
0
100
AcDbSpline
 62
7
  6
CONTINUOUS
 70
0
 71
3
 72
9
 73
5
 74
0
 42
0.0000001
 43
0.0000001
 44
0.0000000001
 40
0.0
 40
0.0
 40
0.0
 40
0.0
 40
0.2457811574
 40
1.0
 40
1.0
 40
1.0
 40
1.0
 10
101.6116805152
 20
38.3724272511
 30
0.0
 10
101.6002706954
 20
38.3759447585
 30
0.0
 10
101.5532912104
 20
38.388404337
 30
0.0
 10
101.5044445037
 20
38.3936404546
 30
0.0
 10
101.4678055695
 20
38.3936404546
 30
0.0
  0
SPLINE
  5
538
100
AcDbEntity
  8
0
100
AcDbSpline
 62
7
  6
CONTINUOUS
 70
0
 71
3
 72
11
 73
7
 74
0
 42
0.0000001
 43
0.0000001
 44
0.0000000001
 40
0.0
 40
0.0
 40
0.0
 40
0.0
 40
0.2779817175
 40
0.5346952233
 40
0.772857858
 40
1.0
 40
1.0
 40
1.0
 40
1.0
 10
101.5898668995
 20
35.5348720207
 30
0.0
 10
101.7160498492
 20
35.603200176
 30
0.0
 10
101.9472376104
 20
35.7583322348
 30
0.0
 10
102.2219683727
 20
36.0531993517
 30
0.0
 10
102.3962352972
 20
36.3884562828
 30
0.0
 10
102.4365827861
 20
36.6302442432
 30
0.0
 10
102.4365827861
 20
36.747495868
 30
0.0
  0
SPLINE
  5
539
100
AcDbEntity
  8
0
100
AcDbSpline
 62
7
  6
CONTINUOUS
 70
0
 71
3
 72
9
 73
5
 74
0
 42
0.0000001
 43
0.0000001
 44
0.0000000001
 40
0.0
 40
0.0
 40
0.0
 40
0.0
 40
0.2591205677
 40
1.0
 40
1.0
 40
1.0
 40
1.0
 10
101.4804274563
 20
35.5086447873
 30
0.0
 10
101.4902013038
 20
35.5086447873
 30
0.0
 10
101.5278534564
 20
35.5108019492
 30
0.0
 10
101.5652929762
 20
35.521565224
 30
0.0
 10
101.5898668995
 20
35.5348720207
 30
0.0
  0
SPLINE
  5
53A
100
AcDbEntity
  8
RUNDUNGEN
100
AcDbSpline
 62
7
  6
CONTINUOUS
 70
0
 71
3
 72
11
 73
7
 74
0
 42
0.0000001
 43
0.0000001
 44
0.0000000001
 40
0.0
 40
0.0
 40
0.0
 40
0.0
 40
0.2880068215
 40
0.5553366529
 40
0.7905059061
 40
1.0
 40
1.0
 40
1.0
 40
1.0
 10
78.1694239729
 20
5.3858959088
 30
0.0
 10
78.2080737051
 20
5.3858959088
 30
0.0
 10
78.2830718646
 20
5.395992118
 30
0.0
 10
78.3812485996
 20
5.4404141422
 30
0.0
 10
78.4511724792
 20
5.5095300373
 30
0.0
 10
78.4694239729
 20
5.5699144055
 30
0.0
 10
78.4694239729
 20
5.5980279431
 30
0.0
  0
SPLINE
  5
53B
100
AcDbEntity
  8
RUNDUNGEN
100
AcDbSpline
 62
7
  6
CONTINUOUS
 70
0
 71
3
 72
13
 73
9
 74
0
 42
0.0000001
 43
0.0000001
 44
0.0000000001
 40
0.0
 40
0.0
 40
0.0
 40
0.0
 40
0.1034546555
 40
0.2106690395
 40
0.3244963599
 40
0.4464318111
 40
0.7129511617
 40
1.0
 40
1.0
 40
1.0
 40
1.0
 10
73.9694239729
 20
7.5072162523
 30
0.0
 10
73.9694239729
 20
7.3679365985
 30
0.0
 10
74.0098434011
 20
7.082868996
 30
0.0
 10
74.1867165072
 20
6.6783679873
 30
0.0
 10
74.4704394611
 20
6.3089365706
 30
0.0
 10
74.9890262014
 20
5.8685270499
 30
0.0
 10
75.8339105358
 20
5.4865223309
 30
0.0
 10
76.5829738643
 20
5.3858959088
 30
0.0
 10
76.9694239729
 20
5.3858959088
 30
0.0
  0
SPLINE
  5
53C
100
AcDbEntity
  8
RUNDUNGEN
100
AcDbSpline
 62
7
  6
CONTINUOUS
 70
0
 71
3
 72
11
 73
7
 74
0
 42
0.0000001
 43
0.0000001
 44
0.0000000001
 40
0.0
 40
0.0
 40
0.0
 40
0.0
 40
0.2297023479
 40
0.4842340123
 40
0.7475494683
 40
1.0
 40
1.0
 40
1.0
 40
1.0
 10
70.7089851286
 20
41.4507928389
 30
0.0
 10
70.7808275444
 20
41.3782425497
 30
0.0
 10
70.9665069788
 20
41.258440838
 30
0.0
 10
71.2919519728
 20
41.1730038397
 30
0.0
 10
71.6382694185
 20
41.1778485003
 30
0.0
 10
71.8618782031
 20
41.2447187945
 30
0.0
 10
71.9624407612
 20
41.294509479
 30
0.0
  0
SPLINE
  5
53D
100
AcDbEntity
  8
RUNDUNGEN
100
AcDbSpline
 62
7
  6
CONTINUOUS
 70
0
 71
3
 72
9
 73
5
 74
0
 42
0.0000001
 43
0.0000001
 44
0.0000000001
 40
0.0
 40
0.0
 40
0.0
 40
0.0
 40
0.5194815986
 40
1.0
 40
1.0
 40
1.0
 40
1.0
 10
120.725672068
 20
44.173164276
 30
0.0
 10
120.7808959821
 20
44.228932319
 30
0.0
 10
120.8720704119
 20
44.3540438816
 30
0.0
 10
120.9065596726
 20
44.5065537793
 30
0.0
 10
120.9065119699
 20
44.5791512503
 30
0.0
  0
SPLINE
  5
53E
100
AcDbEntity
  8
RUNDUNGEN
100
AcDbSpline
 62
7
  6
CONTINUOUS
 70
0
 71
3
 72
13
 73
9
 74
0
 42
0.0000001
 43
0.0000001
 44
0.0000000001
 40
0.0
 40
0.0
 40
0.0
 40
0.0
 40
0.2870490624
 40
0.5535683755
 40
0.6755038246
 40
0.7893311355
 40
0.8965454157
 40
1.0
 40
1.0
 40
1.0
 40
1.0
 10
111.7694239729
 20
5.3858959088
 30
0.0
 10
112.155874383
 20
5.3858959088
 30
0.0
 10
112.9049379803
 20
5.4865224267
 30
0.0
 10
113.7498224387
 20
5.8685274788
 30
0.0
 10
114.2684090114
 20
6.3089371026
 30
0.0
 10
114.5521317103
 20
6.6783685168
 30
0.0
 10
114.7290046301
 20
7.0828693246
 30
0.0
 10
114.7694239729
 20
7.3679366943
 30
0.0
 10
114.7694239729
 20
7.5072162523
 30
0.0
  0
SPLINE
  5
53F
100
AcDbEntity
  8
RUNDUNGEN
100
AcDbSpline
 62
7
  6
CONTINUOUS
 70
0
 71
3
 72
11
 73
7
 74
0
 42
0.0000001
 43
0.0000001
 44
0.0000000001
 40
0.0
 40
0.0
 40
0.0
 40
0.0
 40
0.2094942263
 40
0.444667264
 40
0.7119932261
 40
1.0
 40
1.0
 40
1.0
 40
1.0
 10
110.2694239729
 20
5.5980279431
 30
0.0
 10
110.2694239729
 20
5.5699143901
 30
0.0
 10
110.2876758172
 20
5.5095295582
 30
0.0
 10
110.3575998823
 20
5.4404138001
 30
0.0
 10
110.4557765962
 20
5.395991911
 30
0.0
 10
110.5307742503
 20
5.3858959088
 30
0.0
 10
110.5694239729
 20
5.3858959088
 30
0.0
  0
SPLINE
  5
540
100
AcDbEntity
  8
RUNDUNGEN
100
AcDbSpline
 62
7
  6
CONTINUOUS
 70
0
 71
3
 72
10
 73
6
 74
0
 42
0.0000001
 43
0.0000001
 44
0.0000000001
 40
0.0
 40
0.0
 40
0.0
 40
0.0
 40
0.47201694
 40
0.7322443513
 40
1.0
 40
1.0
 40
1.0
 40
1.0
 10
100.4847474953
 20
11.3816457139
 30
0.0
 10
100.7806564234
 20
11.0828211536
 30
0.0
 10
101.3686444008
 20
10.7423455953
 30
0.0
 10
102.2316400458
 20
10.5169398254
 30
0.0
 10
102.7036458007
 20
10.4770647333
 30
0.0
 10
102.9422036282
 20
10.4770647333
 30
0.0
  0
SPLINE
  5
541
100
AcDbEntity
  8
RUNDUNGEN
100
AcDbSpline
 62
7
  6
CONTINUOUS
 70
0
 71
3
 72
10
 73
6
 74
0
 42
0.0000001
 43
0.0000001
 44
0.0000000001
 40
0.0
 40
0.0
 40
0.0
 40
0.0
 40
0.2677558652
 40
0.5279833681
 40
1.0
 40
1.0
 40
1.0
 40
1.0
 10
85.7966443176
 20
10.4770647333
 30
0.0
 10
86.0352023392
 20
10.4770647333
 30
0.0
 10
86.5072083743
 20
10.5169398752
 30
0.0
 10
87.3702039886
 20
10.7423458122
 30
0.0
 10
87.9581917139
 20
11.0828213471
 30
0.0
 10
88.2541004504
 20
11.3816457139
 30
0.0
  0
SPLINE
  5
542
100
AcDbEntity
  8
RUNDUNGEN
100
AcDbSpline
 62
7
  6
CONTINUOUS
 70
0
 71
3
 72
13
 73
9
 74
0
 42
0.0000001
 43
0.0000001
 44
0.0000000001
 40
0.0
 40
0.0
 40
0.0
 40
0.0
 40
0.1034546555
 40
0.2106690395
 40
0.3244963599
 40
0.4464318111
 40
0.7129511617
 40
1.0
 40
1.0
 40
1.0
 40
1.0
 10
78.4694239729
 20
8.3557443898
 30
0.0
 10
78.4694239729
 20
8.4950240436
 30
0.0
 10
78.5098434011
 20
8.7800916461
 30
0.0
 10
78.6867165072
 20
9.1845926548
 30
0.0
 10
78.9704394611
 20
9.5540240715
 30
0.0
 10
79.4890262014
 20
9.9944335922
 30
0.0
 10
80.3339105358
 20
10.3764383113
 30
0.0
 10
81.0829738643
 20
10.4770647333
 30
0.0
 10
81.4694239729
 20
10.4770647333
 30
0.0
  0
SPLINE
  5
543
100
AcDbEntity
  8
RUNDUNGEN
100
AcDbSpline
 62
7
  6
CONTINUOUS
 70
0
 71
3
 72
13
 73
9
 74
0
 42
0.0000001
 43
0.0000001
 44
0.0000000001
 40
0.0
 40
0.0
 40
0.0
 40
0.0
 40
0.2870490624
 40
0.5535683755
 40
0.6755038246
 40
0.7893311355
 40
0.8965454157
 40
1.0
 40
1.0
 40
1.0
 40
1.0
 10
107.2694239729
 20
10.4770647333
 30
0.0
 10
107.655874383
 20
10.4770647333
 30
0.0
 10
108.4049379803
 20
10.3764382154
 30
0.0
 10
109.2498224387
 20
9.9944331633
 30
0.0
 10
109.7684090114
 20
9.5540235395
 30
0.0
 10
110.0521317103
 20
9.1845921253
 30
0.0
 10
110.2290046301
 20
8.7800913175
 30
0.0
 10
110.2694239729
 20
8.4950239478
 30
0.0
 10
110.2694239729
 20
8.3557443898
 30
0.0
  0
SPLINE
  5
544
100
AcDbEntity
  8
RUNDUNGEN
100
AcDbSpline
 62
7
  6
CONTINUOUS
 70
0
 71
3
 72
13
 73
9
 74
0
 42
0.0000001
 43
0.0000001
 44
0.0000000001
 40
0.0
 40
0.0
 40
0.0
 40
0.0
 40
0.2360077172
 40
0.3661261163
 40
0.500000078
 40
0.6338740716
 40
0.7639924399
 40
1.0
 40
1.0
 40
1.0
 40
1.0
 10
91.4204766134
 20
14.5792206248
 30
0.0
 10
91.7755661837
 20
14.9378089424
 30
0.0
 10
92.4810223583
 20
15.3463950606
 30
0.0
 10
93.5170047944
 20
15.6168571797
 30
0.0
 10
94.3694245581
 20
15.6889885935
 30
0.0
 10
95.2218442411
 20
15.6168570019
 30
0.0
 10
96.2578263009
 20
15.346394739
 30
0.0
 10
96.9632819984
 20
14.9378087037
 30
0.0
 10
97.3183713323
 20
14.5792206248
 30
0.0
  0
SPLINE
  5
545
100
AcDbEntity
  8
RUNDUNGEN
100
AcDbSpline
 62
7
  6
CONTINUOUS
 70
0
 71
3
 72
9
 73
5
 74
0
 42
0.0000001
 43
0.0000001
 44
0.0000000001
 40
0.0
 40
0.0
 40
0.0
 40
0.0
 40
0.5134149467
 40
1.0
 40
1.0
 40
1.0
 40
1.0
 10
83.43017354
 20
24.8393585036
 30
0.0
 10
83.7050329412
 20
25.1169261329
 30
0.0
 10
84.1958641759
 20
25.7044886168
 30
0.0
 10
84.5629703715
 20
26.3780778796
 30
0.0
 10
84.7031622925
 20
26.7207238295
 30
0.0
  0
SPLINE
  5
546
100
AcDbEntity
  8
RUNDUNGEN
100
AcDbSpline
 62
7
  6
CONTINUOUS
 70
0
 71
3
 72
11
 73
7
 74
0
 42
0.0000001
 43
0.0000001
 44
0.0000000001
 40
0.0
 40
0.0
 40
0.0
 40
0.0
 40
0.2660806488
 40
0.5190943636
 40
0.7622194616
 40
1.0
 40
1.0
 40
1.0
 40
1.0
 10
83.43017354
 20
28.6042607757
 30
0.0
 10
83.6857458145
 20
28.3461703118
 30
0.0
 10
84.1457598314
 20
27.8019013521
 30
0.0
 10
84.6665276049
 20
26.8940345197
 30
0.0
 10
84.9857993854
 20
25.9371958595
 30
0.0
 10
85.0578051529
 20
25.2786295483
 30
0.0
 10
85.0578051414
 20
24.9540424161
 30
0.0
  0
SPLINE
  5
547
100
AcDbEntity
  8
RUNDUNGEN
100
AcDbSpline
 62
7
  6
CONTINUOUS
 70
0
 71
3
 72
11
 73
7
 74
0
 42
0.0000001
 43
0.0000001
 44
0.0000000001
 40
0.0
 40
0.0
 40
0.0
 40
0.0
 40
0.2524507309
 40
0.5157647478
 40
0.7702968692
 40
1.0
 40
1.0
 40
1.0
 40
1.0
 10
73.9284056675
 20
42.2679009694
 30
0.0
 10
74.0960100653
 20
42.35088551
 30
0.0
 10
74.4686905393
 20
42.4623356032
 30
0.0
 10
75.0458855734
 20
42.4704104815
 30
0.0
 10
75.5882940018
 20
42.328016239
 30
0.0
 10
75.8977606192
 20
42.1283462652
 30
0.0
 10
76.0174983884
 20
42.0074287029
 30
0.0
  0
SPLINE
  5
548
100
AcDbEntity
  8
RUNDUNGEN
100
AcDbSpline
 62
7
  6
CONTINUOUS
 70
0
 71
3
 72
10
 73
6
 74
0
 42
0.0000001
 43
0.0000001
 44
0.0000000001
 40
0.0
 40
0.0
 40
0.0
 40
0.0
 40
0.5180905271
 40
0.761708294
 40
1.0
 40
1.0
 40
1.0
 40
1.0
 10
77.7382276975
 20
40.2697448069
 30
0.0
 10
77.8210633204
 20
40.1860929929
 30
0.0
 10
77.9254810242
 20
40.0416667281
 30
0.0
 10
77.9975825174
 20
39.8248135949
 30
0.0
 10
78.009523012
 20
39.7149148405
 30
0.0
 10
78.0094876581
 20
39.6607677818
 30
0.0
  0
SPLINE
  5
549
100
AcDbEntity
  8
RUNDUNGEN
100
AcDbSpline
 62
7
  6
CONTINUOUS
 70
0
 71
3
 72
12
 73
8
 74
0
 42
0.0000001
 43
0.0000001
 44
0.0000000001
 40
0.0
 40
0.0
 40
0.0
 40
0.0
 40
0.252259356
 40
0.5153839756
 40
0.6451803977
 40
0.7704553584
 40
1.0
 40
1.0
 40
1.0
 40
1.0
 10
105.6752522322
 20
45.454416495
 30
0.0
 10
106.0104436781
 20
45.288456004
 30
0.0
 10
106.7555553138
 20
45.0656694021
 30
0.0
 10
107.7239831626
 20
45.0516814114
 30
0.0
 10
108.4807268337
 20
45.1998982202
 30
0.0
 10
109.1590468619
 20
45.4399819856
 30
0.0
 10
109.6139582118
 20
45.733521941
 30
0.0
 10
109.8534376741
 20
45.975361028
 30
0.0
  0
SPLINE
  5
54A
100
AcDbEntity
  8
RUNDUNGEN
100
AcDbSpline
 62
7
  6
CONTINUOUS
 70
0
 71
3
 72
12
 73
8
 74
0
 42
0.0000001
 43
0.0000001
 44
0.0000000001
 40
0.0
 40
0.0
 40
0.0
 40
0.0
 40
0.2295488423
 40
0.3548243544
 40
0.4846199331
 40
0.7477426437
 40
1.0
 40
1.0
 40
1.0
 40
1.0
 10
82.5715944709
 20
47.8004700725
 30
0.0
 10
82.8110783124
 20
47.5586265631
 30
0.0
 10
83.2659970853
 20
47.265083781
 30
0.0
 10
83.944324039
 20
47.0250023641
 30
0.0
 10
84.7010650966
 20
46.8767896001
 30
0.0
 10
85.6694855972
 20
46.890780712
 30
0.0
 10
86.4145911285
 20
47.1135663663
 30
0.0
 10
86.7497799128
 20
47.2795255395
 30
0.0
  0
SPLINE
  5
54B
100
AcDbEntity
  8
0
100
AcDbSpline
 62
7
  6
CONTINUOUS
 70
0
 71
3
 72
11
 73
7
 74
0
 42
0.0000001
 43
0.0000001
 44
0.0000000001
 40
0.0
 40
0.0
 40
0.0
 40
0.0
 40
0.2092798753
 40
0.444592951
 40
0.7123432609
 40
1.0
 40
1.0
 40
1.0
 40
1.0
 10
87.0570633317
 20
36.0474601546
 30
0.0
 10
87.0570633317
 20
36.0407207351
 30
0.0
 10
87.0614818489
 20
36.0262528699
 30
0.0
 10
87.0782035939
 20
36.0095972649
 30
0.0
 10
87.101815019
 20
35.9990100816
 30
0.0
 10
87.1197999497
 20
35.9965484664
 30
0.0
 10
87.1290633317
 20
35.9965484664
 30
0.0
  0
SPLINE
  5
54C
100
AcDbEntity
  8
0
100
AcDbSpline
 62
7
  6
CONTINUOUS
 70
0
 71
3
 72
19
 73
15
 74
0
 42
0.0000001
 43
0.0000001
 44
0.0000000001
 40
0.0
 40
0.0
 40
0.0
 40
0.0
 40
0.051855061
 40
0.1061589371
 40
0.1638754827
 40
0.2253669227
 40
0.3583203672
 40
0.5
 40
0.6416796328
 40
0.7746330773
 40
0.8361245173
 40
0.8938410629
 40
0.948144939
 40
1.0
 40
1.0
 40
1.0
 40
1.0
 10
94.7172142933
 20
36.3653151417
 30
0.0
 10
94.7299108336
 20
36.2919340578
 30
0.0
 10
94.7754782237
 20
36.1445196185
 30
0.0
 10
94.8969522925
 20
35.9407730121
 30
0.0
 10
95.0675308983
 20
35.756848344
 30
0.0
 10
95.3597401504
 20
35.540109401
 30
0.0
 10
95.8134011544
 20
35.3534088226
 30
0.0
 10
96.4127847208
 20
35.278604512
 30
0.0
 10
97.0121682872
 20
35.3534088226
 30
0.0
 10
97.4658292912
 20
35.540109401
 30
0.0
 10
97.7580385433
 20
35.756848344
 30
0.0
 10
97.9286171491
 20
35.9407730121
 30
0.0
 10
98.0500912178
 20
36.1445196185
 30
0.0
 10
98.095658608
 20
36.2919340578
 30
0.0
 10
98.1083551483
 20
36.3653151417
 30
0.0
  0
SPLINE
  5
54D
100
AcDbEntity
  8
RUNDUNGEN
100
AcDbSpline
 62
7
  6
CONTINUOUS
 70
0
 71
3
 72
11
 73
7
 74
0
 42
0.0000001
 43
0.0000001
 44
0.0000000001
 40
0.0
 40
0.0
 40
0.0
 40
0.0
 40
0.2256927635
 40
0.4632951072
 40
0.7206222905
 40
1.0
 40
1.0
 40
1.0
 40
1.0
 10
78.0094876581
 20
39.6607677818
 30
0.0
 10
78.0094320266
 20
39.5755641167
 30
0.0
 10
77.9784456831
 20
39.3994349156
 30
0.0
 10
77.8457795458
 20
39.1573307466
 30
0.0
 10
77.6380105098
 20
38.9472841638
 30
0.0
 10
77.4643840152
 20
38.8393319276
 30
0.0
 10
77.3698642856
 20
38.7925331774
 30
0.0
  0
SPLINE
  5
54E
100
AcDbEntity
  8
0
100
AcDbSpline
 62
7
  6
CONTINUOUS
 70
0
 71
3
 72
11
 73
7
 74
0
 42
0.0000001
 43
0.0000001
 44
0.0000000001
 40
0.0
 40
0.0
 40
0.0
 40
0.0
 40
0.2092798753
 40
0.444592951
 40
0.7123432609
 40
1.0
 40
1.0
 40
1.0
 40
1.0
 10
87.5520633317
 20
37.1335761705
 30
0.0
 10
87.5520633317
 20
37.14031559
 30
0.0
 10
87.5476448145
 20
37.1547834552
 30
0.0
 10
87.5309230695
 20
37.1714390602
 30
0.0
 10
87.5073116445
 20
37.1820262435
 30
0.0
 10
87.4893267137
 20
37.1844878587
 30
0.0
 10
87.4800633317
 20
37.1844878587
 30
0.0
  0
SPLINE
  5
54F
100
AcDbEntity
  8
0
100
AcDbSpline
 62
7
  6
CONTINUOUS
 70
0
 71
3
 72
12
 73
8
 74
0
 42
0.0000001
 43
0.0000001
 44
0.0000000001
 40
0.0
 40
0.0
 40
0.0
 40
0.0
 40
0.1035915243
 40
0.2109480279
 40
0.4456988124
 40
0.7125399145
 40
1.0
 40
1.0
 40
1.0
 40
1.0
 10
93.2904329182
 20
37.548011438
 30
0.0
 10
93.2904329182
 20
37.5781837079
 30
0.0
 10
93.2816782344
 20
37.6399397475
 30
0.0
 10
93.2291677898
 20
37.760135823
 30
0.0
 10
93.0994731601
 20
37.8898854154
 30
0.0
 10
92.8867294493
 20
37.9855429616
 30
0.0
 10
92.7242702993
 20
38.007560152
 30
0.0
 10
92.6405441126
 20
38.007560152
 30
0.0
  0
SPLINE
  5
550
100
AcDbEntity
  8
0
100
AcDbSpline
 62
7
  6
CONTINUOUS
 70
0
 71
3
 72
11
 73
7
 74
0
 42
0.0000001
 43
0.0000001
 44
0.0000000001
 40
0.0
 40
0.0
 40
0.0
 40
0.0
 40
0.2092798753
 40
0.444592951
 40
0.7123432609
 40
1.0
 40
1.0
 40
1.0
 40
1.0
 10
87.0570633317
 20
37.1081203264
 30
0.0
 10
87.0570633317
 20
37.1013809069
 30
0.0
 10
87.0614818489
 20
37.0869130416
 30
0.0
 10
87.0782035939
 20
37.0702574367
 30
0.0
 10
87.101815019
 20
37.0596702533
 30
0.0
 10
87.1197999497
 20
37.0572086381
 30
0.0
 10
87.1290633317
 20
37.0572086381
 30
0.0
  0
SPLINE
  5
551
100
AcDbEntity
  8
0
100
AcDbSpline
 62
7
  6
CONTINUOUS
 70
0
 71
3
 72
11
 73
7
 74
0
 42
0.0000001
 43
0.0000001
 44
0.0000000001
 40
0.0
 40
0.0
 40
0.0
 40
0.0
 40
0.2094929298
 40
0.4446655277
 40
0.7119947494
 40
1.0
 40
1.0
 40
1.0
 40
1.0
 10
85.6170633317
 20
35.3389391598
 30
0.0
 10
85.6170633317
 20
35.3052031066
 30
0.0
 10
85.638964967
 20
35.2327414134
 30
0.0
 10
85.7228744752
 20
35.1498027267
 30
0.0
 10
85.8406863608
 20
35.0964957083
 30
0.0
 10
85.9306839122
 20
35.0843807186
 30
0.0
 10
85.9770633317
 20
35.0843807186
 30
0.0
  0
SPLINE
  5
552
100
AcDbEntity
  8
0
100
AcDbSpline
 62
7
  6
CONTINUOUS
 70
0
 71
3
 72
11
 73
7
 74
0
 42
0.0000001
 43
0.0000001
 44
0.0000000001
 40
0.0
 40
0.0
 40
0.0
 40
0.0
 40
0.2880052506
 40
0.5553344723
 40
0.7905070702
 40
1.0
 40
1.0
 40
1.0
 40
1.0
 10
88.8570633317
 20
35.0843807186
 30
0.0
 10
88.9034427512
 20
35.0843807186
 30
0.0
 10
88.9934403026
 20
35.0964957083
 30
0.0
 10
89.1112521882
 20
35.1498027267
 30
0.0
 10
89.1951616964
 20
35.2327414134
 30
0.0
 10
89.2170633317
 20
35.3052031066
 30
0.0
 10
89.2170633317
 20
35.3389391598
 30
0.0
  0
SPLINE
  5
553
100
AcDbEntity
  8
0
100
AcDbSpline
 62
7
  6
CONTINUOUS
 70
0
 71
3
 72
11
 73
7
 74
0
 42
0.0000001
 43
0.0000001
 44
0.0000000001
 40
0.0
 40
0.0
 40
0.0
 40
0.0
 40
0.2094668498
 40
0.4446559298
 40
0.7120302568
 40
1.0
 40
1.0
 40
1.0
 40
1.0
 10
88.0470633317
 20
36.4844521454
 30
0.0
 10
88.0470633317
 20
36.5013181902
 30
0.0
 10
88.0361100539
 20
36.5375455583
 30
0.0
 10
87.9941660616
 20
36.5790314661
 30
0.0
 10
87.9352475675
 20
36.6056692474
 30
0.0
 10
87.8902503449
 20
36.611731366
 30
0.0
 10
87.8670633317
 20
36.611731366
 30
0.0
  0
SPLINE
  5
554
100
AcDbEntity
  8
0
100
AcDbSpline
 62
7
  6
CONTINUOUS
 70
0
 71
3
 72
9
 73
5
 74
0
 42
0.0000001
 43
0.0000001
 44
0.0000000001
 40
0.0
 40
0.0
 40
0.0
 40
0.0
 40
0.2445376398
 40
1.0
 40
1.0
 40
1.0
 40
1.0
 10
85.6170633317
 20
35.5510711942
 30
0.0
 10
85.6170633317
 20
35.5427667605
 30
0.0
 10
85.6194485357
 20
35.5088182958
 30
0.0
 10
85.6315139709
 20
35.4758013549
 30
0.0
 10
85.6444667
 20
35.4536558962
 30
0.0
  0
SPLINE
  5
555
100
AcDbEntity
  8
0
100
AcDbSpline
 62
7
  6
CONTINUOUS
 70
0
 71
3
 72
9
 73
5
 74
0
 42
0.0000001
 43
0.0000001
 44
0.0000000001
 40
0.0
 40
0.0
 40
0.0
 40
0.0
 40
0.461013727
 40
1.0
 40
1.0
 40
1.0
 40
1.0
 10
85.6444667
 20
35.4536558962
 30
0.0
 10
85.6739155921
 20
35.4033067213
 30
0.0
 10
85.7809305881
 20
35.3204525955
 30
0.0
 10
85.9088689399
 20
35.296512753
 30
0.0
 10
85.9770633317
 20
35.296512753
 30
0.0
  0
SPLINE
  5
556
100
AcDbEntity
  8
0
100
AcDbSpline
 62
7
  6
CONTINUOUS
 70
0
 71
3
 72
11
 73
7
 74
0
 42
0.0000001
 43
0.0000001
 44
0.0000000001
 40
0.0
 40
0.0
 40
0.0
 40
0.0
 40
0.2879697432
 40
0.5553440702
 40
0.7905331502
 40
1.0
 40
1.0
 40
1.0
 40
1.0
 10
86.9670633317
 20
36.611731366
 30
0.0
 10
86.9438763185
 20
36.611731366
 30
0.0
 10
86.898879096
 20
36.6056692474
 30
0.0
 10
86.8399606019
 20
36.5790314661
 30
0.0
 10
86.7980166095
 20
36.5375455583
 30
0.0
 10
86.7870633317
 20
36.5013181902
 30
0.0
 10
86.7870633317
 20
36.4844521454
 30
0.0
  0
SPLINE
  5
557
100
AcDbEntity
  8
0
100
AcDbSpline
 62
7
  6
CONTINUOUS
 70
0
 71
3
 72
11
 73
7
 74
0
 42
0.0000001
 43
0.0000001
 44
0.0000000001
 40
0.0
 40
0.0
 40
0.0
 40
0.0
 40
0.2879697432
 40
0.5553440702
 40
0.7905331502
 40
1.0
 40
1.0
 40
1.0
 40
1.0
 10
86.9670633317
 20
37.8845235721
 30
0.0
 10
86.9438763185
 20
37.8845235721
 30
0.0
 10
86.898879096
 20
37.8784614535
 30
0.0
 10
86.8399606019
 20
37.8518236722
 30
0.0
 10
86.7980166095
 20
37.8103377644
 30
0.0
 10
86.7870633317
 20
37.7741103964
 30
0.0
 10
86.7870633317
 20
37.7572443515
 30
0.0
  0
SPLINE
  5
558
100
AcDbEntity
  8
0
100
AcDbSpline
 62
7
  6
CONTINUOUS
 70
0
 71
3
 72
11
 73
7
 74
0
 42
0.0000001
 43
0.0000001
 44
0.0000000001
 40
0.0
 40
0.0
 40
0.0
 40
0.0
 40
0.2876567391
 40
0.555407049
 40
0.7907201247
 40
1.0
 40
1.0
 40
1.0
 40
1.0
 10
87.3540633317
 20
37.1844878587
 30
0.0
 10
87.3447999497
 20
37.1844878587
 30
0.0
 10
87.326815019
 20
37.1820262435
 30
0.0
 10
87.3032035939
 20
37.1714390602
 30
0.0
 10
87.2864818489
 20
37.1547834552
 30
0.0
 10
87.2820633317
 20
37.14031559
 30
0.0
 10
87.2820633317
 20
37.1335761705
 30
0.0
  0
SPLINE
  5
559
100
AcDbEntity
  8
0
100
AcDbSpline
 62
7
  6
CONTINUOUS
 70
0
 71
3
 72
11
 73
7
 74
0
 42
0.0000001
 43
0.0000001
 44
0.0000000001
 40
0.0
 40
0.0
 40
0.0
 40
0.0
 40
0.2876567391
 40
0.555407049
 40
0.7907201247
 40
1.0
 40
1.0
 40
1.0
 40
1.0
 10
87.7050633317
 20
37.0572086381
 30
0.0
 10
87.7143267137
 20
37.0572086381
 30
0.0
 10
87.7323116445
 20
37.0596702533
 30
0.0
 10
87.7559230695
 20
37.0702574367
 30
0.0
 10
87.7726448145
 20
37.0869130416
 30
0.0
 10
87.7770633317
 20
37.1013809069
 30
0.0
 10
87.7770633317
 20
37.1081203264
 30
0.0
  0
SPLINE
  5
55A
100
AcDbEntity
  8
0
100
AcDbSpline
 62
7
  6
CONTINUOUS
 70
0
 71
3
 72
11
 73
7
 74
0
 42
0.0000001
 43
0.0000001
 44
0.0000000001
 40
0.0
 40
0.0
 40
0.0
 40
0.0
 40
0.2876567391
 40
0.555407049
 40
0.7907201247
 40
1.0
 40
1.0
 40
1.0
 40
1.0
 10
87.7050633317
 20
35.784416432
 30
0.0
 10
87.7143267137
 20
35.784416432
 30
0.0
 10
87.7323116445
 20
35.7868780472
 30
0.0
 10
87.7559230695
 20
35.7974652305
 30
0.0
 10
87.7726448145
 20
35.8141208355
 30
0.0
 10
87.7770633317
 20
35.8285887007
 30
0.0
 10
87.7770633317
 20
35.8353281202
 30
0.0
  0
SPLINE
  5
55B
100
AcDbEntity
  8
RUNDUNGEN
100
AcDbSpline
 62
7
  6
CONTINUOUS
 70
0
 71
3
 72
11
 73
7
 74
0
 42
0.0000001
 43
0.0000001
 44
0.0000000001
 40
0.0
 40
0.0
 40
0.0
 40
0.0
 40
0.237780559
 40
0.4809056754
 40
0.7339193747
 40
1.0
 40
1.0
 40
1.0
 40
1.0
 10
85.0578051414
 20
24.9540424161
 30
0.0
 10
85.0578051299
 20
24.6294552983
 30
0.0
 10
84.9857992706
 20
23.9708890281
 30
0.0
 10
84.6665274272
 20
23.0140505002
 30
0.0
 10
84.1457596959
 20
22.1061838371
 30
0.0
 10
83.6857457584
 20
21.5619150049
 30
0.0
 10
83.43017354
 20
21.3038245976
 30
0.0
  0
SPLINE
  5
55C
100
AcDbEntity
  8
RUNDUNGEN
100
AcDbSpline
 62
7
  6
CONTINUOUS
 70
0
 71
3
 72
10
 73
6
 74
0
 42
0.0000001
 43
0.0000001
 44
0.0000000001
 40
0.0
 40
0.0
 40
0.0
 40
0.0
 40
0.2382827206
 40
0.4819249463
 40
1.0
 40
1.0
 40
1.0
 40
1.0
 10
114.7694239729
 20
11.0810072043
 30
0.0
 10
114.7694239729
 20
11.189202217
 30
0.0
 10
114.7453517861
 20
11.4087892943
 30
0.0
 10
114.601095614
 20
11.8420410875
 30
0.0
 10
114.3924010011
 20
12.1305947714
 30
0.0
 10
114.2268801057
 20
12.2977465673
 30
0.0
  0
SPLINE
  5
55D
100
AcDbEntity
  8
RUNDUNGEN
100
AcDbSpline
 62
7
  6
CONTINUOUS
 70
0
 71
3
 72
11
 73
7
 74
0
 42
0.0000001
 43
0.0000001
 44
0.0000000001
 40
0.0
 40
0.0
 40
0.0
 40
0.0
 40
0.2256939479
 40
0.4632958812
 40
0.7206236633
 40
1.0
 40
1.0
 40
1.0
 40
1.0
 10
120.9065119699
 20
44.5791512503
 30
0.0
 10
120.9064746458
 20
44.6359538188
 30
0.0
 10
120.8858164659
 20
44.7533730139
 30
0.0
 10
120.797372051
 20
44.9147753174
 30
0.0
 10
120.6588595878
 20
45.0548053422
 30
0.0
 10
120.5431091118
 20
45.1267731105
 30
0.0
 10
120.48009646
 20
45.157972029
 30
0.0
  0
SPLINE
  5
55E
100
AcDbEntity
  8
0
100
AcDbSpline
 62
7
  6
CONTINUOUS
 70
0
 71
3
 72
12
 73
8
 74
0
 42
0.0000001
 43
0.0000001
 44
0.0000000001
 40
0.0
 40
0.0
 40
0.0
 40
0.0
 40
0.2861430251
 40
0.547729335
 40
0.7823897905
 40
0.8924618245
 40
1.0
 40
1.0
 40
1.0
 40
1.0
 10
93.013833224
 20
36.744633536
 30
0.0
 10
93.1285435479
 20
36.7712835812
 30
0.0
 10
93.3435972442
 20
36.8472240137
 30
0.0
 10
93.61257853
 20
37.0316947065
 30
0.0
 10
93.7657283476
 20
37.2367591594
 30
0.0
 10
93.8263724694
 20
37.4140745072
 30
0.0
 10
93.8364482129
 20
37.5039428993
 30
0.0
 10
93.8364415736
 20
37.548201442
 30
0.0
  0
SPLINE
  5
55F
100
AcDbEntity
  8
0
100
AcDbSpline
 62
7
  6
CONTINUOUS
 70
0
 71
3
 72
11
 73
7
 74
0
 42
0.0000001
 43
0.0000001
 44
0.0000000001
 40
0.0
 40
0.0
 40
0.0
 40
0.0
 40
0.2092798753
 40
0.444592951
 40
0.7123432609
 40
1.0
 40
1.0
 40
1.0
 40
1.0
 10
87.0570633317
 20
37.3202523607
 30
0.0
 10
87.0570633317
 20
37.3135129412
 30
0.0
 10
87.0614818489
 20
37.299045076
 30
0.0
 10
87.0782035939
 20
37.282389471
 30
0.0
 10
87.101815019
 20
37.2718022877
 30
0.0
 10
87.1197999497
 20
37.2693406725
 30
0.0
 10
87.1290633317
 20
37.2693406725
 30
0.0
  0
SPLINE
  5
560
100
AcDbEntity
  8
0
100
AcDbSpline
 62
7
  6
CONTINUOUS
 70
0
 71
3
 72
9
 73
5
 74
0
 42
0.0000001
 43
0.0000001
 44
0.0000000001
 40
0.0
 40
0.0
 40
0.0
 40
0.0
 40
0.2536121958
 40
1.0
 40
1.0
 40
1.0
 40
1.0
 10
101.4678055695
 20
35.0843807186
 30
0.0
 10
101.4801251698
 20
35.0843807186
 30
0.0
 10
101.5286788698
 20
35.0861407421
 30
0.0
 10
101.5770327071
 20
35.0949124281
 30
0.0
 10
101.6116805152
 20
35.1055939221
 30
0.0
  0
SPLINE
  5
561
100
AcDbEntity
  8
0
100
AcDbSpline
 62
7
  6
CONTINUOUS
 70
0
 71
3
 72
12
 73
8
 74
0
 42
0.0000001
 43
0.0000001
 44
0.0000000001
 40
0.0
 40
0.0
 40
0.0
 40
0.0
 40
0.2844670851
 40
0.5445747
 40
0.7798379195
 40
0.8910272787
 40
1.0
 40
1.0
 40
1.0
 40
1.0
 10
101.6116805152
 20
35.1055939221
 30
0.0
 10
101.8268376909
 20
35.1719242386
 30
0.0
 10
102.2272641401
 20
35.3436750747
 30
0.0
 10
102.7212737404
 20
35.7260796423
 30
0.0
 10
102.9973924056
 20
36.1322152611
 30
0.0
 10
103.1064062268
 20
36.4779882716
 30
0.0
 10
103.1245431731
 20
36.6527610318
 30
0.0
 10
103.1245431731
 20
36.7390105866
 30
0.0
  0
SPLINE
  5
562
100
AcDbEntity
  8
0
100
AcDbSpline
 62
7
  6
CONTINUOUS
 70
0
 71
3
 72
9
 73
5
 74
0
 42
0.0000001
 43
0.0000001
 44
0.0000000001
 40
0.0
 40
0.0
 40
0.0
 40
0.0
 40
0.239729366
 40
1.0
 40
1.0
 40
1.0
 40
1.0
 10
101.5898668995
 20
37.9601197153
 30
0.0
 10
101.5819130549
 20
37.9644267276
 30
0.0
 10
101.5474539747
 20
37.9799860739
 30
0.0
 10
101.5091128483
 20
37.9863469486
 30
0.0
 10
101.4804274563
 20
37.9863469486
 30
0.0
  0
SPLINE
  5
563
100
AcDbEntity
  8
0
100
AcDbSpline
 62
7
  6
CONTINUOUS
 70
0
 71
3
 72
11
 73
7
 74
0
 42
0.0000001
 43
0.0000001
 44
0.0000000001
 40
0.0
 40
0.0
 40
0.0
 40
0.0
 40
0.2094668498
 40
0.4446559298
 40
0.7120302568
 40
1.0
 40
1.0
 40
1.0
 40
1.0
 10
88.0470633317
 20
37.7572443515
 30
0.0
 10
88.0470633317
 20
37.7741103964
 30
0.0
 10
88.0361100539
 20
37.8103377644
 30
0.0
 10
87.9941660616
 20
37.8518236722
 30
0.0
 10
87.9352475675
 20
37.8784614535
 30
0.0
 10
87.8902503449
 20
37.8845235721
 30
0.0
 10
87.8670633317
 20
37.8845235721
 30
0.0
  0
SPLINE
  5
564
100
AcDbEntity
  8
RUNDUNGEN
100
AcDbSpline
 62
7
  6
CONTINUOUS
 70
0
 71
3
 72
10
 73
6
 74
0
 42
0.0000001
 43
0.0000001
 44
0.0000000001
 40
0.0
 40
0.0
 40
0.0
 40
0.0
 40
0.5180752096
 40
0.7617173681
 40
1.0
 40
1.0
 40
1.0
 40
1.0
 10
74.51196784
 20
12.2977465673
 30
0.0
 10
74.346446895
 20
12.1305947213
 30
0.0
 10
74.1377522709
 20
11.842040987
 30
0.0
 10
73.9934961371
 20
11.4087891828
 30
0.0
 10
73.9694239729
 20
11.1892021765
 30
0.0
 10
73.9694239729
 20
11.0810072043
 30
0.0
  0
SPLINE
  5
565
100
AcDbEntity
  8
RUNDUNGEN
100
AcDbSpline
 62
7
  6
CONTINUOUS
 70
0
 71
3
 72
11
 73
7
 74
0
 42
0.0000001
 43
0.0000001
 44
0.0000000001
 40
0.0
 40
0.0
 40
0.0
 40
0.0
 40
0.2793752682
 40
0.5367194959
 40
0.7743217448
 40
1.0
 40
1.0
 40
1.0
 40
1.0
 10
75.4038993793
 20
37.819141687
 30
0.0
 10
75.3471850981
 20
37.7910612271
 30
0.0
 10
75.2430015558
 20
37.7262839088
 30
0.0
 10
75.1183329366
 20
37.6002445392
 30
0.0
 10
75.0387381033
 20
37.4549684441
 30
0.0
 10
75.0201534755
 20
37.3492873411
 30
0.0
 10
75.020124594
 20
37.2981657765
 30
0.0
  0
SPLINE
  5
566
100
AcDbEntity
  8
RUNDUNGEN
100
AcDbSpline
 62
7
  6
CONTINUOUS
 70
0
 71
3
 72
11
 73
7
 74
0
 42
0.0000001
 43
0.0000001
 44
0.0000000001
 40
0.0
 40
0.0
 40
0.0
 40
0.0
 40
0.2794013718
 40
0.5367226037
 40
0.7743080703
 40
1.0
 40
1.0
 40
1.0
 40
1.0
 10
69.8970555743
 20
45.9691316044
 30
0.0
 10
69.7078682178
 20
45.8754608769
 30
0.0
 10
69.3603727455
 20
45.6593674142
 30
0.0
 10
68.9446602924
 20
45.2388519222
 30
0.0
 10
68.6794209565
 20
44.7541466083
 30
0.0
 10
68.6177534398
 20
44.4015899669
 30
0.0
 10
68.6177863389
 20
44.2310643565
 30
0.0
  0
SPLINE
  5
567
100
AcDbEntity
  8
RUNDUNGEN
100
AcDbSpline
 62
7
  6
CONTINUOUS
 70
0
 71
3
 72
13
 73
9
 74
0
 42
0.0000001
 43
0.0000001
 44
0.0000000001
 40
0.0
 40
0.0
 40
0.0
 40
0.0
 40
0.2294024404
 40
0.354599695
 40
0.4843111925
 40
0.6162488643
 40
0.7479039558
 40
1.0
 40
1.0
 40
1.0
 40
1.0
 10
81.8580354637
 20
44.9855259707
 30
0.0
 10
81.219412636
 20
45.6304412386
 30
0.0
 10
80.006227757
 20
46.4132541016
 30
0.0
 10
78.1975134985
 20
47.0533476288
 30
0.0
 10
76.6895964992
 20
47.3490509963
 30
0.0
 10
75.1303915782
 20
47.4322691763
 30
0.0
 10
73.0939886441
 20
47.2607572848
 30
0.0
 10
71.6100418126
 20
46.8172679176
 30
0.0
 10
70.7162076186
 20
46.374711392
 30
0.0
  0
SPLINE
  5
568
100
AcDbEntity
  8
0
100
AcDbSpline
 62
7
  6
CONTINUOUS
 70
0
 71
3
 72
9
 73
5
 74
0
 42
0.0000001
 43
0.0000001
 44
0.0000000001
 40
0.0
 40
0.0
 40
0.0
 40
0.0
 40
0.2432212797
 40
1.0
 40
1.0
 40
1.0
 40
1.0
 10
99.5316119
 20
44.9607309966
 30
0.0
 10
99.3272262048
 20
45.0619267483
 30
0.0
 10
98.472359226
 20
45.4482927729
 30
0.0
 10
97.566331906
 20
45.7185944071
 30
0.0
 10
96.8711126485
 20
45.8608455439
 30
0.0
  0
SPLINE
  5
569
100
AcDbEntity
  8
0
100
AcDbSpline
 62
7
  6
CONTINUOUS
 70
0
 71
3
 72
9
 73
5
 74
0
 42
0.0000001
 43
0.0000001
 44
0.0000000001
 40
0.0
 40
0.0
 40
0.0
 40
0.0
 40
0.2565045474
 40
1.0
 40
1.0
 40
1.0
 40
1.0
 10
91.8677352973
 20
45.8608455439
 30
0.0
 10
91.6321083054
 20
45.8126331173
 30
0.0
 10
90.7195058214
 20
45.5971792421
 30
0.0
 10
89.8319832655
 20
45.2700567762
 30
0.0
 10
89.2072360457
 20
44.9607309966
 30
0.0
  0
SPLINE
  5
56A
100
AcDbEntity
  8
RUNDUNGEN
100
AcDbSpline
 62
7
  6
CONTINUOUS
 70
0
 71
3
 72
11
 73
7
 74
0
 42
0.0000001
 43
0.0000001
 44
0.0000000001
 40
0.0
 40
0.0
 40
0.0
 40
0.0
 40
0.2524504596
 40
0.5157648056
 40
0.770297345
 40
1.0
 40
1.0
 40
1.0
 40
1.0
 10
115.9747602165
 20
47.3886608612
 30
0.0
 10
115.8630240717
 20
47.4439838286
 30
0.0
 10
115.6145704345
 20
47.5182840022
 30
0.0
 10
115.2297734843
 20
47.5236672091
 30
0.0
 10
114.8681677573
 20
47.4287375535
 30
0.0
 10
114.6618567497
 20
47.2956242245
 30
0.0
 10
114.5820317358
 20
47.2150126836
 30
0.0
  0
SPLINE
  5
56B
100
AcDbEntity
  8
BEZUGSACHSEN
100
AcDbSpline
 62
7
  6
CONTINUOUS
 70
0
 71
3
 72
14
 73
10
 74
0
 42
0.0000001
 43
0.0000001
 44
0.0000000001
 40
0.0
 40
0.0
 40
0.0
 40
0.0
 40
0.1033676327
 40
0.210482854
 40
0.3242103284
 40
0.4460321472
 40
0.5760508462
 40
0.7132084093
 40
1.0
 40
1.0
 40
1.0
 40
1.0
 10
90.3694239729
 20
41.5861569396
 30
0.0
 10
90.3694239729
 20
41.4004783688
 30
0.0
 10
90.4232922174
 20
41.0204627299
 30
0.0
 10
90.6590533117
 20
40.4812080817
 30
0.0
 10
91.0372077392
 20
39.988752336
 30
0.0
 10
91.540757979
 20
39.560792001
 30
0.0
 10
92.1500827436
 20
39.2113914751
 30
0.0
 10
93.0848794023
 20
38.8616470017
 30
0.0
 10
93.8531321245
 20
38.7578413658
 30
0.0
 10
94.3682938846
 20
38.7577385979
 30
0.0
  0
SPLINE
  5
56C
100
AcDbEntity
  8
BEZUGSACHSEN
100
AcDbSpline
 62
7
  6
CONTINUOUS
 70
0
 71
3
 72
14
 73
10
 74
0
 42
0.0000001
 43
0.0000001
 44
0.0000000001
 40
0.0
 40
0.0
 40
0.0
 40
0.0
 40
0.2867876161
 40
0.423949601
 40
0.5539733661
 40
0.6757985759
 40
0.7895262215
 40
0.8966380609
 40
1.0
 40
1.0
 40
1.0
 40
1.0
 10
94.3682938846
 20
38.7577385979
 30
0.0
 10
94.8836634486
 20
38.7576357885
 30
0.0
 10
95.6522804544
 20
38.8612190254
 30
0.0
 10
96.5875848102
 20
39.2108248728
 30
0.0
 10
97.1972837681
 20
39.560211163
 30
0.0
 10
97.7011652259
 20
39.9882338866
 30
0.0
 10
98.0795824963
 20
40.4808179644
 30
0.0
 10
98.3155151884
 20
41.0202520819
 30
0.0
 10
98.3694239729
 20
41.400411128
 30
0.0
 10
98.3694239729
 20
41.5861569396
 30
0.0
  0
SPLINE
  5
56D
100
AcDbEntity
  8
0
100
AcDbSpline
 62
7
  6
CONTINUOUS
 70
0
 71
3
 72
11
 73
7
 74
0
 42
0.0000001
 43
0.0000001
 44
0.0000000001
 40
0.0
 40
0.0
 40
0.0
 40
0.0
 40
0.227142142
 40
0.4653047767
 40
0.7220182825
 40
1.0
 40
1.0
 40
1.0
 40
1.0
 10
102.4365827861
 20
36.747495868
 30
0.0
 10
102.4365827861
 20
36.8647474927
 30
0.0
 10
102.3962352972
 20
37.1065354531
 30
0.0
 10
102.2219683727
 20
37.4417923842
 30
0.0
 10
101.9472376104
 20
37.7366595011
 30
0.0
 10
101.7160498492
 20
37.89179156
 30
0.0
 10
101.5898668995
 20
37.9601197153
 30
0.0
  0
SPLINE
  5
56E
100
AcDbEntity
  8
0
100
AcDbSpline
 62
7
  6
CONTINUOUS
 70
0
 71
3
 72
19
 73
15
 74
0
 42
0.0000001
 43
0.0000001
 44
0.0000000001
 40
0.0
 40
0.0
 40
0.0
 40
0.0
 40
0.0517234907
 40
0.1053372095
 40
0.1622487312
 40
0.2232163938
 40
0.3564752704
 40
0.5
 40
0.6435247296
 40
0.7767836062
 40
0.8377512688
 40
0.8946627905
 40
0.9482765093
 40
1.0
 40
1.0
 40
1.0
 40
1.0
 10
94.7045441126
 20
36.2998274467
 30
0.0
 10
94.7045441126
 20
36.2205258911
 30
0.0
 10
94.7275744824
 20
36.0582048518
 30
0.0
 10
94.8282630908
 20
35.8278652568
 30
0.0
 10
94.9898539846
 20
35.6175192191
 30
0.0
 10
95.2850897895
 20
35.3667361549
 30
0.0
 10
95.7664969928
 20
35.1492238117
 30
0.0
 10
96.4127847208
 20
35.0622037735
 30
0.0
 10
97.0590724487
 20
35.1492238117
 30
0.0
 10
97.540479652
 20
35.3667361549
 30
0.0
 10
97.835715457
 20
35.6175192191
 30
0.0
 10
97.9973063507
 20
35.8278652568
 30
0.0
 10
98.0979949591
 20
36.0582048518
 30
0.0
 10
98.121025329
 20
36.2205258911
 30
0.0
 10
98.121025329
 20
36.2998274467
 30
0.0
  0
SPLINE
  5
56F
100
AcDbEntity
  8
0
100
AcDbSpline
 62
7
  6
CONTINUOUS
 70
0
 71
3
 72
11
 73
7
 74
0
 42
0.0000001
 43
0.0000001
 44
0.0000000001
 40
0.0
 40
0.0
 40
0.0
 40
0.0
 40
0.2092798753
 40
0.444592951
 40
0.7123432609
 40
1.0
 40
1.0
 40
1.0
 40
1.0
 10
87.0570633317
 20
35.8353281202
 30
0.0
 10
87.0570633317
 20
35.8285887007
 30
0.0
 10
87.0614818489
 20
35.8141208355
 30
0.0
 10
87.0782035939
 20
35.7974652305
 30
0.0
 10
87.101815019
 20
35.7868780472
 30
0.0
 10
87.1197999497
 20
35.784416432
 30
0.0
 10
87.1290633317
 20
35.784416432
 30
0.0
  0
SPLINE
  5
570
100
AcDbEntity
  8
0
100
AcDbSpline
 62
7
  6
CONTINUOUS
 70
0
 71
3
 72
9
 73
5
 74
0
 42
0.0000001
 43
0.0000001
 44
0.0000000001
 40
0.0
 40
0.0
 40
0.0
 40
0.0
 40
0.2536121958
 40
1.0
 40
1.0
 40
1.0
 40
1.0
 10
101.4678055695
 20
35.296512753
 30
0.0
 10
101.4801251698
 20
35.296512753
 30
0.0
 10
101.5286788698
 20
35.2982727765
 30
0.0
 10
101.5770327071
 20
35.3070444624
 30
0.0
 10
101.6116805152
 20
35.3177259564
 30
0.0
  0
SPLINE
  5
571
100
AcDbEntity
  8
0
100
AcDbSpline
 62
7
  6
CONTINUOUS
 70
0
 71
3
 72
11
 73
7
 74
0
 42
0.0000001
 43
0.0000001
 44
0.0000000001
 40
0.0
 40
0.0
 40
0.0
 40
0.0
 40
0.2816347582
 40
0.5420479832
 40
0.7798483853
 40
1.0
 40
1.0
 40
1.0
 40
1.0
 10
101.6116805152
 20
35.3177259564
 30
0.0
 10
101.8060056067
 20
35.3776339971
 30
0.0
 10
102.1703774531
 20
35.5294634242
 30
0.0
 10
102.6329305093
 20
35.8601850773
 30
0.0
 10
102.9642858389
 20
36.2686577475
 30
0.0
 10
103.0812887968
 20
36.5864850428
 30
0.0
 10
103.1073338505
 20
36.7432938264
 30
0.0
  0
SPLINE
  5
572
100
AcDbEntity
  8
0
100
AcDbSpline
 62
7
  6
CONTINUOUS
 70
0
 71
3
 72
9
 73
5
 74
0
 42
0.0000001
 43
0.0000001
 44
0.0000000001
 40
0.0
 40
0.0
 40
0.0
 40
0.0
 40
0.2591205677
 40
1.0
 40
1.0
 40
1.0
 40
1.0
 10
101.4804274563
 20
38.198478983
 30
0.0
 10
101.4902013038
 20
38.198478983
 30
0.0
 10
101.5278534564
 20
38.1963218211
 30
0.0
 10
101.5652929762
 20
38.1855585463
 30
0.0
 10
101.5898668995
 20
38.1722517496
 30
0.0
  0
SPLINE
  5
573
100
AcDbEntity
  8
0
100
AcDbSpline
 62
7
  6
CONTINUOUS
 70
0
 71
3
 72
11
 73
7
 74
0
 42
0.0000001
 43
0.0000001
 44
0.0000000001
 40
0.0
 40
0.0
 40
0.0
 40
0.0
 40
0.2779697373
 40
0.5346991835
 40
0.7728568778
 40
1.0
 40
1.0
 40
1.0
 40
1.0
 10
101.5898668995
 20
38.1722517496
 30
0.0
 10
101.7160448632
 20
38.1039262943
 30
0.0
 10
101.9472298569
 20
37.9487876643
 30
0.0
 10
102.2219788703
 20
37.6539345266
 30
0.0
 10
102.3962391513
 20
37.3186653133
 30
0.0
 10
102.4365935807
 20
37.0768804532
 30
0.0
 10
102.4365935807
 20
36.9596279023
 30
0.0
  0
SPLINE
  5
574
100
AcDbEntity
  8
0
100
AcDbSpline
 62
7
  6
CONTINUOUS
 70
0
 71
3
 72
11
 73
7
 74
0
 42
0.0000001
 43
0.0000001
 44
0.0000000001
 40
0.0
 40
0.0
 40
0.0
 40
0.0
 40
0.2782911642
 40
0.539206302
 40
0.7792454761
 40
1.0
 40
1.0
 40
1.0
 40
1.0
 10
93.013833224
 20
36.9567655704
 30
0.0
 10
93.1050638296
 20
36.9779606963
 30
0.0
 10
93.2787049338
 20
37.0349341154
 30
0.0
 10
93.5082617782
 20
37.165870376
 30
0.0
 10
93.6874142804
 20
37.3335626211
 30
0.0
 10
93.76810193
 20
37.4693839502
 30
0.0
 10
93.7947129515
 20
37.5387508016
 30
0.0
  0
SPLINE
  5
575
100
AcDbEntity
  8
0
100
AcDbSpline
 62
7
  6
CONTINUOUS
 70
0
 71
3
 72
9
 73
5
 74
0
 42
0.0000001
 43
0.0000001
 44
0.0000000001
 40
0.0
 40
0.0
 40
0.0
 40
0.0
 40
0.2525773098
 40
1.0
 40
1.0
 40
1.0
 40
1.0
 10
93.7947129515
 20
37.5387508016
 30
0.0
 10
93.7981930243
 20
37.5478222947
 30
0.0
 10
93.8111809542
 20
37.584035022
 30
0.0
 10
93.8209297985
 20
37.6214189347
 30
0.0
 10
93.8261975636
 20
37.6496840188
 30
0.0
  0
SPLINE
  5
576
100
AcDbEntity
  8
0
100
AcDbSpline
 62
7
  6
CONTINUOUS
 70
0
 71
3
 72
12
 73
8
 74
0
 42
0.0000001
 43
0.0000001
 44
0.0000000001
 40
0.0
 40
0.0
 40
0.0
 40
0.0
 40
0.2874678609
 40
0.554294436
 40
0.7890536075
 40
0.8964041367
 40
1.0
 40
1.0
 40
1.0
 40
1.0
 10
92.6405441126
 20
38.2196921864
 30
0.0
 10
92.7242718937
 20
38.2196921864
 30
0.0
 10
92.8867329398
 20
38.1976841968
 30
0.0
 10
93.0994560546
 20
38.1020011306
 30
0.0
 10
93.2291732378
 20
37.9722714576
 30
0.0
 10
93.2816559139
 20
37.852066558
 30
0.0
 10
93.2904441366
 20
37.7903167645
 30
0.0
 10
93.2904441366
 20
37.7601434723
 30
0.0
  0
SPLINE
  5
577
100
AcDbEntity
  8
0
100
AcDbSpline
 62
7
  6
CONTINUOUS
 70
0
 71
3
 72
11
 73
7
 74
0
 42
0.0000001
 43
0.0000001
 44
0.0000000001
 40
0.0
 40
0.0
 40
0.0
 40
0.0
 40
0.2876567391
 40
0.555407049
 40
0.7907201247
 40
1.0
 40
1.0
 40
1.0
 40
1.0
 10
87.7050633317
 20
35.9965484664
 30
0.0
 10
87.7143267137
 20
35.9965484664
 30
0.0
 10
87.7323116445
 20
35.9990100816
 30
0.0
 10
87.7559230695
 20
36.0095972649
 30
0.0
 10
87.7726448145
 20
36.0262528699
 30
0.0
 10
87.7770633317
 20
36.0407207351
 30
0.0
 10
87.7770633317
 20
36.0474601546
 30
0.0
  0
SPLINE
  5
578
100
AcDbEntity
  8
0
100
AcDbSpline
 62
7
  6
CONTINUOUS
 70
0
 71
3
 72
11
 73
7
 74
0
 42
0.0000001
 43
0.0000001
 44
0.0000000001
 40
0.0
 40
0.0
 40
0.0
 40
0.0
 40
0.2092798753
 40
0.444592951
 40
0.7123432609
 40
1.0
 40
1.0
 40
1.0
 40
1.0
 10
87.2820633317
 20
37.3457082049
 30
0.0
 10
87.2820633317
 20
37.3524476244
 30
0.0
 10
87.2864818489
 20
37.3669154896
 30
0.0
 10
87.3032035939
 20
37.3835710946
 30
0.0
 10
87.326815019
 20
37.3941582779
 30
0.0
 10
87.3447999497
 20
37.3966198931
 30
0.0
 10
87.3540633317
 20
37.3966198931
 30
0.0
  0
SPLINE
  5
579
100
AcDbEntity
  8
0
100
AcDbSpline
 62
7
  6
CONTINUOUS
 70
0
 71
3
 72
11
 73
7
 74
0
 42
0.0000001
 43
0.0000001
 44
0.0000000001
 40
0.0
 40
0.0
 40
0.0
 40
0.0
 40
0.2876567391
 40
0.555407049
 40
0.7907201247
 40
1.0
 40
1.0
 40
1.0
 40
1.0
 10
87.4800633317
 20
37.3966198931
 30
0.0
 10
87.4893267137
 20
37.3966198931
 30
0.0
 10
87.5073116445
 20
37.3941582779
 30
0.0
 10
87.5309230695
 20
37.3835710946
 30
0.0
 10
87.5476448145
 20
37.3669154896
 30
0.0
 10
87.5520633317
 20
37.3524476244
 30
0.0
 10
87.5520633317
 20
37.3457082049
 30
0.0
  0
SPLINE
  5
57A
100
AcDbEntity
  8
0
100
AcDbSpline
 62
7
  6
CONTINUOUS
 70
0
 71
3
 72
11
 73
7
 74
0
 42
0.0000001
 43
0.0000001
 44
0.0000000001
 40
0.0
 40
0.0
 40
0.0
 40
0.0
 40
0.2876567391
 40
0.555407049
 40
0.7907201247
 40
1.0
 40
1.0
 40
1.0
 40
1.0
 10
87.7050633317
 20
37.2693406725
 30
0.0
 10
87.7143267137
 20
37.2693406725
 30
0.0
 10
87.7323116445
 20
37.2718022877
 30
0.0
 10
87.7559230695
 20
37.282389471
 30
0.0
 10
87.7726448145
 20
37.299045076
 30
0.0
 10
87.7770633317
 20
37.3135129412
 30
0.0
 10
87.7770633317
 20
37.3202523607
 30
0.0
  0
SPLINE
  5
57B
100
AcDbEntity
  8
0
100
AcDbSpline
 62
7
  6
CONTINUOUS
 70
0
 71
3
 72
11
 73
7
 74
0
 42
0.0000001
 43
0.0000001
 44
0.0000000001
 40
0.0
 40
0.0
 40
0.0
 40
0.0
 40
0.2876567391
 40
0.555407049
 40
0.7907201247
 40
1.0
 40
1.0
 40
1.0
 40
1.0
 10
87.8670633317
 20
38.0966556065
 30
0.0
 10
87.8902217868
 20
38.0966556065
 30
0.0
 10
87.9351841136
 20
38.0905015685
 30
0.0
 10
87.9942126763
 20
38.0640336101
 30
0.0
 10
88.0360170387
 20
38.0223945977
 30
0.0
 10
88.0470633317
 20
37.9862249346
 30
0.0
 10
88.0470633317
 20
37.9693763859
 30
0.0
  0
SPLINE
  5
57C
100
AcDbEntity
  8
RUNDUNGEN
100
AcDbSpline
 62
7
  6
CONTINUOUS
 70
0
 71
3
 72
11
 73
7
 74
0
 42
0.0000001
 43
0.0000001
 44
0.0000000001
 40
0.0
 40
0.0
 40
0.0
 40
0.0
 40
0.2660806488
 40
0.5190943636
 40
0.7622194616
 40
1.0
 40
1.0
 40
1.0
 40
1.0
 10
105.3086744057
 20
21.3038245976
 30
0.0
 10
105.0531021312
 20
21.5619150615
 30
0.0
 10
104.5930881144
 20
22.1061840213
 30
0.0
 10
104.0723203408
 20
23.0140508537
 30
0.0
 10
103.7530485603
 20
23.9708895138
 30
0.0
 10
103.6810427928
 20
24.6294558251
 30
0.0
 10
103.6810428043
 20
24.9540429573
 30
0.0
  0
SPLINE
  5
57D
100
AcDbEntity
  8
0
100
AcDbSpline
 62
7
  6
CONTINUOUS
 70
0
 71
3
 72
8
 73
4
 74
0
 42
0.0000001
 43
0.0000001
 44
0.0000000001
 40
0.0
 40
0.0
 40
0.0
 40
0.0
 40
1.0
 40
1.0
 40
1.0
 40
1.0
 10
87.9151350548
 20
36.8191751645
 30
0.0
 10
87.9294333056
 20
36.8163686685
 30
0.0
 10
87.9435638585
 20
36.8122957983
 30
0.0
 10
87.9570633317
 20
36.8068112182
 30
0.0
  0
SPLINE
  5
57E
100
AcDbEntity
  8
0
100
AcDbSpline
 62
7
  6
CONTINUOUS
 70
0
 71
3
 72
9
 73
5
 74
0
 42
0.0000001
 43
0.0000001
 44
0.0000000001
 40
0.0
 40
0.0
 40
0.0
 40
0.0
 40
0.5424756321
 40
1.0
 40
1.0
 40
1.0
 40
1.0
 10
87.9570633317
 20
36.8068112182
 30
0.0
 10
87.9819824781
 20
36.7966870411
 30
0.0
 10
88.0259264996
 20
36.769126568
 30
0.0
 10
88.0470633317
 20
36.7192693531
 30
0.0
 10
88.0470633317
 20
36.6965841797
 30
0.0
  0
SPLINE
  5
57F
100
AcDbEntity
  8
RUNDUNGEN
100
AcDbSpline
 62
7
  6
CONTINUOUS
 70
0
 71
3
 72
12
 73
8
 74
0
 42
0.0000001
 43
0.0000001
 44
0.0000000001
 40
0.0
 40
0.0
 40
0.0
 40
0.0
 40
0.2295488423
 40
0.3548243544
 40
0.4846199331
 40
0.7477426437
 40
1.0
 40
1.0
 40
1.0
 40
1.0
 10
109.8534376741
 20
42.4398271221
 30
0.0
 10
109.6139538326
 20
42.1979836127
 30
0.0
 10
109.1590350598
 20
41.9044408305
 30
0.0
 10
108.480708106
 20
41.6643594136
 30
0.0
 10
107.7239670484
 20
41.5161466496
 30
0.0
 10
106.7555465478
 20
41.5301377615
 30
0.0
 10
106.0104410165
 20
41.7529234159
 30
0.0
 10
105.6752522322
 20
41.9188825891
 30
0.0
  0
SPLINE
  5
580
100
AcDbEntity
  8
RUNDUNGEN
100
AcDbSpline
 62
7
  6
CONTINUOUS
 70
0
 71
3
 72
12
 73
8
 74
0
 42
0.0000001
 43
0.0000001
 44
0.0000000001
 40
0.0
 40
0.0
 40
0.0
 40
0.0
 40
0.252259356
 40
0.5153839756
 40
0.6451803977
 40
0.7704553584
 40
1.0
 40
1.0
 40
1.0
 40
1.0
 10
86.7497799128
 20
43.7439916336
 30
0.0
 10
86.4145884669
 20
43.5780311426
 30
0.0
 10
85.6694768312
 20
43.3552445407
 30
0.0
 10
84.7010489825
 20
43.34125655
 30
0.0
 10
83.9443053113
 20
43.4894733588
 30
0.0
 10
83.2659852831
 20
43.7295571242
 30
0.0
 10
82.8110739332
 20
44.0230970796
 30
0.0
 10
82.5715944709
 20
44.2649361666
 30
0.0
  0
SPLINE
  5
581
100
AcDbEntity
  8
0
100
AcDbSpline
 62
7
  6
CONTINUOUS
 70
0
 71
3
 72
9
 73
5
 74
0
 42
0.0000001
 43
0.0000001
 44
0.0000000001
 40
0.0
 40
0.0
 40
0.0
 40
0.0
 40
0.4575243679
 40
1.0
 40
1.0
 40
1.0
 40
1.0
 10
86.7870633317
 20
36.6965841797
 30
0.0
 10
86.7870633317
 20
36.7192693531
 30
0.0
 10
86.8082001638
 20
36.769126568
 30
0.0
 10
86.8521441853
 20
36.7966870411
 30
0.0
 10
86.8770633317
 20
36.8068112182
 30
0.0
  0
SPLINE
  5
582
100
AcDbEntity
  8
0
100
AcDbSpline
 62
7
  6
CONTINUOUS
 70
0
 71
3
 72
9
 73
5
 74
0
 42
0.0000001
 43
0.0000001
 44
0.0000000001
 40
0.0
 40
0.0
 40
0.0
 40
0.0
 40
0.2441493338
 40
1.0
 40
1.0
 40
1.0
 40
1.0
 10
86.8770633317
 20
36.8068112182
 30
0.0
 10
86.883993666
 20
36.8096268817
 30
0.0
 10
86.9129983131
 20
36.8195897533
 30
0.0
 10
86.9439048766
 20
36.8238634003
 30
0.0
 10
86.9670633317
 20
36.8238634003
 30
0.0
  0
SPLINE
  5
583
100
AcDbEntity
  8
0
100
AcDbSpline
 62
7
  6
CONTINUOUS
 70
0
 71
3
 72
11
 73
7
 74
0
 42
0.0000001
 43
0.0000001
 44
0.0000000001
 40
0.0
 40
0.0
 40
0.0
 40
0.0
 40
0.2092798753
 40
0.444592951
 40
0.7123432609
 40
1.0
 40
1.0
 40
1.0
 40
1.0
 10
86.7870633317
 20
37.9693763859
 30
0.0
 10
86.7870633317
 20
37.9862249346
 30
0.0
 10
86.7981096247
 20
38.0223945977
 30
0.0
 10
86.8399139872
 20
38.0640336101
 30
0.0
 10
86.8989425499
 20
38.0905015685
 30
0.0
 10
86.9439048766
 20
38.0966556065
 30
0.0
 10
86.9670633317
 20
38.0966556065
 30
0.0
  0
SPLINE
  5
584
100
AcDbEntity
  8
0
100
AcDbSpline
 62
7
  6
CONTINUOUS
 70
0
 71
3
 72
9
 73
5
 74
0
 42
0.0000001
 43
0.0000001
 44
0.0000000001
 40
0.0
 40
0.0
 40
0.0
 40
0.0
 40
0.538986273
 40
1.0
 40
1.0
 40
1.0
 40
1.0
 10
88.8570633317
 20
35.296512753
 30
0.0
 10
88.9252577235
 20
35.296512753
 30
0.0
 10
89.0531960754
 20
35.3204525955
 30
0.0
 10
89.1602110713
 20
35.4033067213
 30
0.0
 10
89.1896599634
 20
35.4536558962
 30
0.0
  0
SPLINE
  5
585
100
AcDbEntity
  8
0
100
AcDbSpline
 62
7
  6
CONTINUOUS
 70
0
 71
3
 72
9
 73
5
 74
0
 42
0.0000001
 43
0.0000001
 44
0.0000000001
 40
0.0
 40
0.0
 40
0.0
 40
0.0
 40
0.2592261758
 40
1.0
 40
1.0
 40
1.0
 40
1.0
 10
89.1896599634
 20
35.4536558962
 30
0.0
 10
89.1941035055
 20
35.461253081
 30
0.0
 10
89.2094775069
 20
35.4915403657
 30
0.0
 10
89.2170633317
 20
35.5259203872
 30
0.0
 10
89.2170633317
 20
35.5510711942
 30
0.0
  0
SPLINE
  5
586
100
AcDbEntity
  8
KONSTRUKTIONSELEMENTE
100
AcDbSpline
 62
7
  6
CONTINUOUS
 70
0
 71
3
 72
9
 73
5
 74
0
 42
0.0000001
 43
0.0000001
 44
0.0000000001
 40
0.0
 40
0.0
 40
0.0
 40
0.0
 40
0.2447697615
 40
1.0
 40
1.0
 40
1.0
 40
1.0
 10
84.4899131769
 20
124.0674573317
 30
0.0
 10
84.7189067512
 20
123.962816207
 30
0.0
 10
85.662518792
 20
123.5530962852
 30
0.0
 10
86.6365269015
 20
123.2141002166
 30
0.0
 10
87.3821716592
 20
122.9962134043
 30
0.0
  0
SPLINE
  5
587
100
AcDbEntity
  8
KONSTRUKTIONSELEMENTE
100
AcDbSpline
 62
7
  6
CONTINUOUS
 70
0
 71
3
 72
9
 73
5
 74
0
 42
0.0000001
 43
0.0000001
 44
0.0000000001
 40
0.0
 40
0.0
 40
0.0
 40
0.0
 40
0.2551021374
 40
1.0
 40
1.0
 40
1.0
 40
1.0
 10
101.3539866912
 20
122.9954333931
 30
0.0
 10
101.6056922217
 20
123.0689490056
 30
0.0
 10
102.5873328474
 20
123.3740048401
 30
0.0
 10
103.5480337985
 20
123.7473920692
 30
0.0
 10
104.2445356796
 20
124.0654512906
 30
0.0
  0
SPLINE
  5
588
100
AcDbEntity
  8
KONSTRUKTIONSELEMENTE
100
AcDbSpline
 62
7
  6
CONTINUOUS
 70
0
 71
3
 72
9
 73
5
 74
0
 42
0.0000001
 43
0.0000001
 44
0.0000000001
 40
0.0
 40
0.0
 40
0.0
 40
0.0
 40
0.4978700562
 40
1.0
 40
1.0
 40
1.0
 40
1.0
 10
70.8694239729
 20
133.5136446598
 30
0.0
 10
70.8694239729
 20
132.6881462036
 30
0.0
 10
71.0255657693
 20
131.0264425621
 30
0.0
 10
71.4850070489
 20
129.422804431
 30
0.0
 10
71.7830584659
 20
128.6454215265
 30
0.0
  0
SPLINE
  5
589
100
AcDbEntity
  8
KONSTRUKTIONSELEMENTE
100
AcDbSpline
 62
7
  6
CONTINUOUS
 70
0
 71
3
 72
9
 73
5
 74
0
 42
0.0000001
 43
0.0000001
 44
0.0000000001
 40
0.0
 40
0.0
 40
0.0
 40
0.0
 40
0.5021298858
 40
1.0
 40
1.0
 40
1.0
 40
1.0
 10
116.9556391699
 20
128.6450089666
 30
0.0
 10
117.2537419903
 20
129.4224505083
 30
0.0
 10
117.7132473019
 20
131.0262246709
 30
0.0
 10
117.8694239729
 20
132.6880734791
 30
0.0
 10
117.8694239729
 20
133.5136446598
 30
0.0
  0
SPLINE
  5
58A
100
AcDbEntity
  8
KONSTRUKTIONSELEMENTE
100
AcDbSpline
 62
7
  6
CONTINUOUS
 70
0
 71
3
 72
15
 73
11
 74
0
 42
0.0000001
 43
0.0000001
 44
0.0000000001
 40
0.0
 40
0.0
 40
0.0
 40
0.0
 40
0.1143873934
 40
0.2300235851
 40
0.3481197139
 40
0.4697363094
 40
0.5321717382
 40
0.5957422467
 40
0.7263109301
 40
1.0
 40
1.0
 40
1.0
 40
1.0
 10
117.8694239729
 20
133.5136446598
 30
0.0
 10
117.8694239729
 20
134.4389658015
 30
0.0
 10
117.6722351462
 20
136.3053959227
 30
0.0
 10
116.8019398037
 20
139.002782893
 30
0.0
 10
115.3981552322
 20
141.5305323426
 30
0.0
 10
113.8411310038
 20
143.4310093731
 30
0.0
 10
112.3931361261
 20
144.8173945179
 30
0.0
 10
110.78598495
 20
146.1340596047
 30
0.0
 10
107.6016113754
 20
148.1989445936
 30
0.0
 10
104.5140208874
 20
149.4056077162
 30
0.0
 10
102.374769959
 20
149.9759318341
 30
0.0
  0
SPLINE
  5
58B
100
AcDbEntity
  8
KONSTRUKTIONSELEMENTE
100
AcDbSpline
 62
7
  6
CONTINUOUS
 70
0
 71
3
 72
15
 73
11
 74
0
 42
0.0000001
 43
0.0000001
 44
0.0000000001
 40
0.0
 40
0.0
 40
0.0
 40
0.0
 40
0.2736922063
 40
0.4042613053
 40
0.4678316022
 40
0.5302663041
 40
0.6518818296
 40
0.769976382
 40
0.885612085
 40
1.0
 40
1.0
 40
1.0
 40
1.0
 10
86.3670829938
 20
149.9767308012
 30
0.0
 10
84.227479249
 20
149.4065333625
 30
0.0
 10
81.1393360485
 20
148.2000368035
 30
0.0
 10
77.9543482813
 20
146.1351502211
 30
0.0
 10
76.3468962615
 20
144.8184406364
 30
0.0
 10
74.8986088233
 20
143.4320139717
 30
0.0
 10
73.3412753606
 20
141.5314170279
 30
0.0
 10
71.9371685335
 20
139.0034504249
 30
0.0
 10
71.0666675358
 20
136.3057577824
 30
0.0
 10
70.8694239729
 20
134.4390882632
 30
0.0
 10
70.8694239729
 20
133.5136446598
 30
0.0
  0
SPLINE
  5
58C
100
AcDbEntity
  8
0
100
AcDbSpline
 62
7
  6
CONTINUOUS
 70
0
 71
3
 72
19
 73
15
 74
0
 42
0.0000001
 43
0.0000001
 44
0.0000000001
 40
0.0
 40
0.0
 40
0.0
 40
0.0
 40
0.0389652903
 40
0.0938823263
 40
0.1685850574
 40
0.2591901
 40
0.4501015385
 40
0.619339835
 40
0.7573894685
 40
0.8648552123
 40
0.9079249064
 40
0.9444219355
 40
0.9748763975
 40
1.0
 40
1.0
 40
1.0
 40
1.0
 10
111.6194239729
 20
92.7555867268
 30
0.0
 10
111.6194239729
 20
92.6997985383
 30
0.0
 10
111.604135974
 20
92.565383633
 30
0.0
 10
111.5389146834
 20
92.3323197068
 30
0.0
 10
111.420522252
 20
92.0395702076
 30
0.0
 10
111.1926946704
 20
91.5828949906
 30
0.0
 10
110.8569210658
 20
91.0305221817
 30
0.0
 10
110.4410756825
 20
90.4502451014
 30
0.0
 10
110.0590191091
 20
89.9949531205
 30
0.0
 10
109.7653165019
 20
89.7029048527
 30
0.0
 10
109.5563458804
 20
89.5350716271
 30
0.0
 10
109.4252158409
 20
89.4472974553
 30
0.0
 10
109.3077824191
 20
89.386716438
 30
0.0
 10
109.2316409621
 20
89.3616267464
 30
0.0
 10
109.1963615376
 20
89.3546097824
 30
0.0
  0
SPLINE
  5
58D
100
AcDbEntity
  8
0
100
AcDbSpline
 62
7
  6
CONTINUOUS
 70
0
 71
3
 72
9
 73
5
 74
0
 42
0.0000001
 43
0.0000001
 44
0.0000000001
 40
0.0
 40
0.0
 40
0.0
 40
0.0
 40
0.5087184815
 40
1.0
 40
1.0
 40
1.0
 40
1.0
 10
114.0940843606
 20
138.5853346348
 30
0.0
 10
112.7279038591
 20
139.9630026887
 30
0.0
 10
109.9993237874
 20
142.6290349227
 30
0.0
 10
107.1703842136
 20
145.188574791
 30
0.0
 10
105.7574619574
 20
146.4191971893
 30
0.0
  0
SPLINE
  5
58E
100
AcDbEntity
  8
0
100
AcDbSpline
 62
7
  6
CONTINUOUS
 70
0
 71
3
 72
9
 73
5
 74
0
 42
0.0000001
 43
0.0000001
 44
0.0000000001
 40
0.0
 40
0.0
 40
0.0
 40
0.0
 40
0.4912815204
 40
1.0
 40
1.0
 40
1.0
 40
1.0
 10
82.9813859884
 20
146.4191971893
 30
0.0
 10
81.5684637269
 20
145.1885747864
 30
0.0
 10
78.7395241532
 20
142.6290349179
 30
0.0
 10
76.0109440818
 20
139.9630026837
 30
0.0
 10
74.6447635852
 20
138.5853346348
 30
0.0
  0
SPLINE
  5
58F
100
AcDbEntity
  8
0
100
AcDbSpline
 62
7
  6
CONTINUOUS
 70
0
 71
3
 72
19
 73
15
 74
0
 42
0.0000001
 43
0.0000001
 44
0.0000000001
 40
0.0
 40
0.0
 40
0.0
 40
0.0
 40
0.0250716168
 40
0.0554709814
 40
0.0919143088
 40
0.134934621
 40
0.2423158584
 40
0.3803107896
 40
0.5495385005
 40
0.7405271123
 40
0.8312301607
 40
0.9060377532
 40
0.9610106675
 40
1.0
 40
1.0
 40
1.0
 40
1.0
 10
79.5437496367
 20
89.35436075
 30
0.0
 10
79.5085114907
 20
89.361257714
 30
0.0
 10
79.4324291513
 20
89.3861294909
 30
0.0
 10
79.3150692051
 20
89.4464406074
 30
0.0
 10
79.1839888735
 20
89.5339693218
 30
0.0
 10
78.9750338682
 20
89.7015227681
 30
0.0
 10
78.6812943201
 20
89.9933322461
 30
0.0
 10
78.2991268219
 20
90.4484835186
 30
0.0
 10
77.8830172746
 20
91.0288550793
 30
0.0
 10
77.5469065572
 20
91.5815253683
 30
0.0
 10
77.318742977
 20
92.0386509425
 30
0.0
 10
77.2001013581
 20
92.3318016042
 30
0.0
 10
77.1347426866
 20
92.5651783595
 30
0.0
 10
77.1194239729
 20
92.6997474718
 30
0.0
 10
77.1194239729
 20
92.7555867268
 30
0.0
  0
SPLINE
  5
590
100
AcDbEntity
  8
RUNDUNGEN
100
AcDbSpline
 62
7
  6
CONTINUOUS
 70
0
 71
3
 72
15
 73
11
 74
0
 42
0.0000001
 43
0.0000001
 44
0.0000000001
 40
0.0
 40
0.0
 40
0.0
 40
0.0
 40
0.1255977708
 40
0.2510392406
 40
0.3762981426
 40
0.5013506273
 40
0.6262073704
 40
0.7509020654
 40
0.8754791568
 40
1.0
 40
1.0
 40
1.0
 40
1.0
 10
107.3003063985
 20
118.9360734541
 30
0.0
 10
107.5935775329
 20
118.8967938331
 30
0.0
 10
108.1741958518
 20
118.7670158126
 30
0.0
 10
108.9966055166
 20
118.4246353732
 30
0.0
 10
109.7456578388
 20
117.9441774876
 30
0.0
 10
110.3968611718
 20
117.3396347093
 30
0.0
 10
110.9286350833
 20
116.6293012967
 30
0.0
 10
111.3226327743
 20
115.8353092748
 30
0.0
 10
111.5649168362
 20
114.9837477775
 30
0.0
 10
111.6194239729
 20
114.3954696187
 30
0.0
 10
111.6194239729
 20
114.1021167784
 30
0.0
  0
SPLINE
  5
591
100
AcDbEntity
  8
RUNDUNGEN
100
AcDbSpline
 62
7
  6
CONTINUOUS
 70
0
 71
3
 72
15
 73
11
 74
0
 42
0.0000001
 43
0.0000001
 44
0.0000000001
 40
0.0
 40
0.0
 40
0.0
 40
0.0
 40
0.1255977726
 40
0.2510392418
 40
0.3762981436
 40
0.5013506281
 40
0.626207371
 40
0.7509020658
 40
0.8754791569
 40
1.0
 40
1.0
 40
1.0
 40
1.0
 10
81.43854114
 20
118.9360733974
 30
0.0
 10
81.1452700218
 20
118.8967937525
 30
0.0
 10
80.5646517428
 20
118.7670157006
 30
0.0
 10
79.7422421484
 20
118.4246352204
 30
0.0
 10
78.9931898994
 20
117.9441773227
 30
0.0
 10
78.3419866349
 20
117.339634549
 30
0.0
 10
77.8102127819
 20
116.6293011596
 30
0.0
 10
77.4162151368
 20
115.8353091749
 30
0.0
 10
77.1739311028
 20
114.983747725
 30
0.0
 10
77.1194239729
 20
114.3954696015
 30
0.0
 10
77.1194239729
 20
114.1021167784
 30
0.0
  0
SPLINE
  5
592
100
AcDbEntity
  8
BEZUGSACHSEN
100
AcDbSpline
 62
7
  6
CONTINUOUS
 70
0
 71
3
 72
19
 73
15
 74
0
 42
0.0000001
 43
0.0000001
 44
0.0000000001
 40
0.0
 40
0.0
 40
0.0
 40
0.0
 40
0.0607073476
 40
0.1217409119
 40
0.1832993399
 40
0.2455770137
 40
0.3717610991
 40
0.5
 40
0.6282389009
 40
0.7544229863
 40
0.8167006601
 40
0.8782590881
 40
0.9392926524
 40
1.0
 40
1.0
 40
1.0
 40
1.0
 10
81.8694239729
 20
103.203407924
 30
0.0
 10
81.8694239729
 20
103.1112599975
 30
0.0
 10
81.8889085182
 20
102.9258986327
 30
0.0
 10
81.9751313416
 20
102.659379022
 30
0.0
 10
82.1152151879
 20
102.4139036108
 30
0.0
 10
82.3664356833
 20
102.126598849
 30
0.0
 10
82.7853922946
 20
101.8654876405
 30
0.0
 10
83.3694239729
 20
101.7577897099
 30
0.0
 10
83.9534556512
 20
101.8654876405
 30
0.0
 10
84.3724122625
 20
102.126598849
 30
0.0
 10
84.6236327579
 20
102.4139036108
 30
0.0
 10
84.7637166041
 20
102.659379022
 30
0.0
 10
84.8499394276
 20
102.9258986327
 30
0.0
 10
84.8694239729
 20
103.1112599975
 30
0.0
 10
84.8694239729
 20
103.203407924
 30
0.0
  0
SPLINE
  5
593
100
AcDbEntity
  8
BEZUGSACHSEN
100
AcDbSpline
 62
7
  6
CONTINUOUS
 70
0
 71
3
 72
15
 73
11
 74
0
 42
0.0000001
 43
0.0000001
 44
0.0000000001
 40
0.0
 40
0.0
 40
0.0
 40
0.0
 40
0.1329389775
 40
0.2619224903
 40
0.3869647107
 40
0.5089097756
 40
0.6293306162
 40
0.7501823772
 40
0.8733100616
 40
1.0
 40
1.0
 40
1.0
 40
1.0
 10
89.1905163484
 20
118.9813323483
 30
0.0
 10
88.5144297992
 20
119.3311893479
 30
0.0
 10
87.2506282007
 20
120.1643794407
 30
0.0
 10
85.6994793591
 20
121.7715462822
 30
0.0
 10
84.5815042221
 20
123.6340314033
 30
0.0
 10
83.94069843
 20
125.6585603568
 30
0.0
 10
83.7978127762
 20
127.7534606588
 30
0.0
 10
84.1575204265
 20
129.8292216685
 30
0.0
 10
85.0077148515
 20
131.7944099142
 30
0.0
 10
85.8704904276
 20
132.9537253454
 30
0.0
 10
86.3649795329
 20
133.4845489437
 30
0.0
  0
SPLINE
  5
594
100
AcDbEntity
  8
BEZUGSACHSEN
100
AcDbSpline
 62
7
  6
CONTINUOUS
 70
0
 71
3
 72
15
 73
11
 74
0
 42
0.0000001
 43
0.0000001
 44
0.0000000001
 40
0.0
 40
0.0
 40
0.0
 40
0.0
 40
0.1266902529
 40
0.2498181581
 40
0.3706702938
 40
0.4910914658
 40
0.6130366477
 40
0.7380787028
 40
0.8670617255
 40
1.0
 40
1.0
 40
1.0
 40
1.0
 10
102.3742535473
 20
133.4841343485
 30
0.0
 10
102.8686957023
 20
132.9533018819
 30
0.0
 10
103.7313773398
 20
131.793980747
 30
0.0
 10
104.5814403814
 20
129.8288191271
 30
0.0
 10
104.9410486629
 20
127.7531171933
 30
0.0
 10
104.7980919961
 20
125.6582975673
 30
0.0
 10
104.1572603982
 20
123.6338608457
 30
0.0
 10
103.0392995116
 20
121.7714678232
 30
0.0
 10
101.4882060297
 20
120.1643779088
 30
0.0
 10
100.224462394
 20
119.3312178031
 30
0.0
 10
99.5484072346
 20
118.9813712655
 30
0.0
  0
SPLINE
  5
595
100
AcDbEntity
  8
0
100
AcDbSpline
 62
7
  6
CONTINUOUS
 70
0
 71
3
 72
19
 73
15
 74
0
 42
0.0000001
 43
0.0000001
 44
0.0000000001
 40
0.0
 40
0.0
 40
0.0
 40
0.0
 40
0.0607367228
 40
0.12197285
 40
0.1837861117
 40
0.2462231459
 40
0.3723954696
 40
0.5
 40
0.6276045304
 40
0.7537768541
 40
0.8162138883
 40
0.87802715
 40
0.9392632772
 40
1.0
 40
1.0
 40
1.0
 40
1.0
 10
97.9231316599
 20
106.8913426423
 30
0.0
 10
97.8677083265
 20
107.0710100833
 30
0.0
 10
97.7253258286
 20
107.4230201691
 30
0.0
 10
97.4257587463
 20
107.9096131897
 30
0.0
 10
97.0469241923
 20
108.3446605045
 30
0.0
 10
96.4486832934
 20
108.8420698826
 30
0.0
 10
95.5543434421
 20
109.2808521064
 30
0.0
 10
94.3694239729
 20
109.4602145996
 30
0.0
 10
93.1845045037
 20
109.2808521064
 30
0.0
 10
92.2901646523
 20
108.8420698826
 30
0.0
 10
91.6919237534
 20
108.3446605045
 30
0.0
 10
91.3130891994
 20
107.9096131897
 30
0.0
 10
91.0135221171
 20
107.4230201691
 30
0.0
 10
90.8711396192
 20
107.0710100833
 30
0.0
 10
90.8157162858
 20
106.8913426423
 30
0.0
  0
SPLINE
  5
596
100
AcDbEntity
  8
KONSTRUKTIONSELEMENTE
100
AcDbSpline
 62
7
  6
CONTINUOUS
 70
0
 71
3
 72
19
 73
15
 74
0
 42
0.0000001
 43
0.0000001
 44
0.0000000001
 40
0.0
 40
0.0
 40
0.0
 40
0.0
 40
0.0607367228
 40
0.12197285
 40
0.1837861117
 40
0.2462231459
 40
0.3723954696
 40
0.5
 40
0.6276045304
 40
0.7537768541
 40
0.8162138883
 40
0.87802715
 40
0.9392632772
 40
1.0
 40
1.0
 40
1.0
 40
1.0
 10
97.9231316599
 20
111.6796246489
 30
0.0
 10
97.8677083265
 20
111.8592920899
 30
0.0
 10
97.7253258286
 20
112.2113021757
 30
0.0
 10
97.4257587463
 20
112.6978951962
 30
0.0
 10
97.0469241923
 20
113.132942511
 30
0.0
 10
96.4486832934
 20
113.6303518891
 30
0.0
 10
95.5543434421
 20
114.069134113
 30
0.0
 10
94.3694239729
 20
114.2484966062
 30
0.0
 10
93.1845045037
 20
114.069134113
 30
0.0
 10
92.2901646523
 20
113.6303518891
 30
0.0
 10
91.6919237534
 20
113.132942511
 30
0.0
 10
91.3130891994
 20
112.6978951962
 30
0.0
 10
91.0135221171
 20
112.2113021757
 30
0.0
 10
90.8711396192
 20
111.8592920899
 30
0.0
 10
90.8157162858
 20
111.6796246489
 30
0.0
  0
SPLINE
  5
597
100
AcDbEntity
  8
BEZUGSACHSEN
100
AcDbSpline
 62
7
  6
CONTINUOUS
 70
0
 71
3
 72
15
 73
11
 74
0
 42
0.0000001
 43
0.0000001
 44
0.0000000001
 40
0.0
 40
0.0
 40
0.0
 40
0.0
 40
0.1215273364
 40
0.245330401
 40
0.3717992295
 40
0.5
 40
0.6282007705
 40
0.754669599
 40
0.8784726636
 40
1.0
 40
1.0
 40
1.0
 40
1.0
 10
84.8539308578
 20
103.2000480968
 30
0.0
 10
84.8283920532
 20
103.3659809388
 30
0.0
 10
84.7112045528
 20
103.6940825266
 30
0.0
 10
84.3676376867
 20
104.0902983948
 30
0.0
 10
83.9008516341
 20
104.3483868401
 30
0.0
 10
83.3694239729
 20
104.4377030935
 30
0.0
 10
82.8379963116
 20
104.3483868401
 30
0.0
 10
82.3712102591
 20
104.0902983948
 30
0.0
 10
82.0276433929
 20
103.6940825266
 30
0.0
 10
81.9104558925
 20
103.3659809388
 30
0.0
 10
81.884917088
 20
103.2000480968
 30
0.0
  0
SPLINE
  5
598
100
AcDbEntity
  8
RUNDUNGEN
100
AcDbSpline
 62
7
  6
CONTINUOUS
 70
0
 71
3
 72
34
 73
30
 74
0
 42
0.0000001
 43
0.0000001
 44
0.0000000001
 40
0.0
 40
0.0
 40
0.0
 40
0.0
 40
0.0137800456
 40
0.0191766768
 40
0.0236580771
 40
0.0277620264
 40
0.0325228589
 40
0.0389038851
 40
0.0474321047
 40
0.0582972287
 40
0.0714686704
 40
0.086736301
 40
0.1038338148
 40
0.1422661111
 40
0.1845407007
 40
0.2289787001
 40
0.2744373761
 40
0.3201722287
 40
0.3656635984
 40
0.4545856055
 40
0.5393676221
 40
0.6189795422
 40
0.6928021697
 40
0.7604461787
 40
0.8216586315
 40
0.8762806044
 40
0.9242211926
 40
0.965455395
 40
1.0
 40
1.0
 40
1.0
 40
1.0
 10
111.6194239729
 20
96.0619363027
 30
0.0
 10
111.6194239729
 20
96.092094878
 30
0.0
 10
111.6175189217
 20
96.1345799023
 30
0.0
 10
111.6023194714
 20
96.1843515745
 30
0.0
 10
111.5851876244
 20
96.2107055012
 30
0.0
 10
111.5580513062
 20
96.2250383162
 30
0.0
 10
111.5235474268
 20
96.2226295872
 30
0.0
 10
111.4836985448
 20
96.2054463854
 30
0.0
 10
111.4367650489
 20
96.1737781
 30
0.0
 10
111.3827490943
 20
96.1271313242
 30
0.0
 10
111.322173876
 20
96.0659736351
 30
0.0
 10
111.2559827193
 20
95.991421719
 30
0.0
 10
111.1579496704
 20
95.8713911305
 30
0.0
 10
111.0305065687
 20
95.6992808294
 30
0.0
 10
110.8763969597
 20
95.4728120626
 30
0.0
 10
110.7208871901
 20
95.2288597709
 30
0.0
 10
110.5673415581
 20
94.9747919988
 30
0.0
 10
110.4178480519
 20
94.7156582444
 30
0.0
 10
110.2270126985
 20
94.3706348922
 30
0.0
 10
110.0051257643
 20
93.9452128535
 30
0.0
 10
109.7634614146
 20
93.4461725544
 30
0.0
 10
109.5500076108
 20
92.9704348994
 30
0.0
 10
109.3653191447
 20
92.5231402771
 30
0.0
 10
109.2094465621
 20
92.1077596974
 30
0.0
 10
109.0821852426
 20
91.7267934516
 30
0.0
 10
108.9832121087
 20
91.3821672742
 30
0.0
 10
108.9121665004
 20
91.0753813386
 30
0.0
 10
108.8687253671
 20
90.8079158
 30
0.0
 10
108.8568128951
 20
90.6420783893
 30
0.0
 10
108.8568128951
 20
90.5664751512
 30
0.0
  0
SPLINE
  5
599
100
AcDbEntity
  8
BEZUGSACHSEN
100
AcDbSpline
 62
7
  6
CONTINUOUS
 70
0
 71
3
 72
19
 73
15
 74
0
 42
0.0000001
 43
0.0000001
 44
0.0000000001
 40
0.0
 40
0.0
 40
0.0
 40
0.0
 40
0.0607073476
 40
0.1217409119
 40
0.1832993399
 40
0.2455770137
 40
0.3717610991
 40
0.5
 40
0.6282389009
 40
0.7544229863
 40
0.8167006601
 40
0.8782590881
 40
0.9392926524
 40
1.0
 40
1.0
 40
1.0
 40
1.0
 10
84.8694239729
 20
103.203407924
 30
0.0
 10
84.8694239729
 20
103.2955558506
 30
0.0
 10
84.8499394276
 20
103.4809172154
 30
0.0
 10
84.7637166041
 20
103.7474368261
 30
0.0
 10
84.6236327579
 20
103.9929122373
 30
0.0
 10
84.3724122625
 20
104.2802169991
 30
0.0
 10
83.9534556512
 20
104.5413282076
 30
0.0
 10
83.3694239729
 20
104.6490261382
 30
0.0
 10
82.7853922946
 20
104.5413282076
 30
0.0
 10
82.3664356833
 20
104.2802169991
 30
0.0
 10
82.1152151879
 20
103.9929122373
 30
0.0
 10
81.9751313416
 20
103.7474368261
 30
0.0
 10
81.8889085182
 20
103.4809172154
 30
0.0
 10
81.8694239729
 20
103.2955558506
 30
0.0
 10
81.8694239729
 20
103.203407924
 30
0.0
  0
SPLINE
  5
59A
100
AcDbEntity
  8
KONSTRUKTIONSELEMENTE
100
AcDbSpline
 62
7
  6
CONTINUOUS
 70
0
 71
3
 72
17
 73
13
 74
0
 42
0.0000001
 43
0.0000001
 44
0.0000000001
 40
0.0
 40
0.0
 40
0.0
 40
0.0
 40
0.0602079039
 40
0.1207185764
 40
0.181697661
 40
0.2431575353
 40
0.3671701051
 40
0.4924552561
 40
0.6185919275
 40
0.7453261762
 40
0.8724983506
 40
1.0
 40
1.0
 40
1.0
 40
1.0
 10
85.7382785101
 20
104.6599314863
 30
0.0
 10
85.7382785101
 20
104.7921482897
 30
0.0
 10
85.7679601151
 20
105.058086646
 30
0.0
 10
85.8941610419
 20
105.4390923135
 30
0.0
 10
86.0860583373
 20
105.7940095338
 30
0.0
 10
86.4090238705
 20
106.2299819726
 30
0.0
 10
86.9045804607
 20
106.7056129461
 30
0.0
 10
87.5790317805
 20
107.1829689904
 30
0.0
 10
88.3066296585
 20
107.5860844301
 30
0.0
 10
89.0701618686
 20
107.9252039044
 30
0.0
 10
89.8594971349
 20
108.2073189384
 30
0.0
 10
90.3978862612
 20
108.3602994251
 30
0.0
 10
90.6694239729
 20
108.4285928501
 30
0.0
  0
SPLINE
  5
59B
100
AcDbEntity
  8
KONSTRUKTIONSELEMENTE
100
AcDbSpline
 62
7
  6
CONTINUOUS
 70
0
 71
3
 72
10
 73
6
 74
0
 42
0.0000001
 43
0.0000001
 44
0.0000000001
 40
0.0
 40
0.0
 40
0.0
 40
0.0
 40
0.5014015146
 40
0.7510009611
 40
1.0
 40
1.0
 40
1.0
 40
1.0
 10
85.1875483905
 20
101.3240226825
 30
0.0
 10
85.3504908452
 20
101.644110962
 30
0.0
 10
85.5593340263
 20
102.145085837
 30
0.0
 10
85.7117609269
 20
102.8468100032
 30
0.0
 10
85.7382785101
 20
103.204520679
 30
0.0
 10
85.7382785101
 20
103.3828892146
 30
0.0
  0
SPLINE
  5
59C
100
AcDbEntity
  8
KONSTRUKTIONSELEMENTE
100
AcDbSpline
 62
7
  6
CONTINUOUS
 70
0
 71
3
 72
10
 73
6
 74
0
 42
0.0000001
 43
0.0000001
 44
0.0000000001
 40
0.0
 40
0.0
 40
0.0
 40
0.0
 40
0.2489990389
 40
0.4985984854
 40
1.0
 40
1.0
 40
1.0
 40
1.0
 10
103.0005694357
 20
103.3828892146
 30
0.0
 10
103.0005694357
 20
103.204520679
 30
0.0
 10
103.0270870188
 20
102.8468100032
 30
0.0
 10
103.1795139194
 20
102.145085837
 30
0.0
 10
103.3883571006
 20
101.644110962
 30
0.0
 10
103.5512995553
 20
101.3240226825
 30
0.0
  0
SPLINE
  5
59D
100
AcDbEntity
  8
KONSTRUKTIONSELEMENTE
100
AcDbSpline
 62
7
  6
CONTINUOUS
 70
0
 71
3
 72
17
 73
13
 74
0
 42
0.0000001
 43
0.0000001
 44
0.0000000001
 40
0.0
 40
0.0
 40
0.0
 40
0.0
 40
0.1274827645
 40
0.2546356137
 40
0.3813492644
 40
0.5074635234
 40
0.6327309252
 40
0.7567404164
 40
0.8182106856
 40
0.8792058238
 40
0.9397521775
 40
1.0
 40
1.0
 40
1.0
 40
1.0
 10
98.0694239729
 20
108.4285928501
 30
0.0
 10
98.3409214246
 20
108.3603095507
 30
0.0
 10
98.8792300449
 20
108.2073532509
 30
0.0
 10
99.6684460524
 20
107.925290863
 30
0.0
 10
100.4318685845
 20
107.5862625746
 30
0.0
 10
101.159363845
 20
107.1832391312
 30
0.0
 10
101.833782498
 20
106.706006169
 30
0.0
 10
102.3293926377
 20
106.2304664733
 30
0.0
 10
102.6524647107
 20
105.7945108691
 30
0.0
 10
102.8445149289
 20
105.4395202117
 30
0.0
 10
102.9708366357
 20
105.0583397614
 30
0.0
 10
103.0005694357
 20
104.7922359311
 30
0.0
 10
103.0005694357
 20
104.6599314863
 30
0.0
  0
SPLINE
  5
59E
100
AcDbEntity
  8
RUNDUNGEN
100
AcDbSpline
 62
7
  6
CONTINUOUS
 70
0
 71
3
 72
14
 73
10
 74
0
 42
0.0000001
 43
0.0000001
 44
0.0000000001
 40
0.0
 40
0.0
 40
0.0
 40
0.0
 40
0.0909366748
 40
0.1878685312
 40
0.2952046508
 40
0.4151533241
 40
0.5478635868
 40
0.691774429
 40
1.0
 40
1.0
 40
1.0
 40
1.0
 10
77.1194239729
 20
109.8981945823
 30
0.0
 10
77.1194239729
 20
110.0136333543
 30
0.0
 10
77.159870833
 20
110.2536423866
 30
0.0
 10
77.3346355014
 20
110.5906232897
 30
0.0
 10
77.6137294193
 20
110.8981964821
 30
0.0
 10
77.9865553718
 20
111.1670335279
 30
0.0
 10
78.4410278828
 20
111.3885461385
 30
0.0
 10
79.1502112636
 20
111.6141002986
 30
0.0
 10
79.7281496989
 20
111.6796246489
 30
0.0
 10
80.1194239729
 20
111.6796246489
 30
0.0
  0
SPLINE
  5
59F
100
AcDbEntity
  8
RUNDUNGEN
100
AcDbSpline
 62
7
  6
CONTINUOUS
 70
0
 71
3
 72
14
 73
10
 74
0
 42
0.0000001
 43
0.0000001
 44
0.0000000001
 40
0.0
 40
0.0
 40
0.0
 40
0.0
 40
0.0909366748
 40
0.1878685312
 40
0.2952046508
 40
0.4151533241
 40
0.5478635868
 40
0.691774429
 40
1.0
 40
1.0
 40
1.0
 40
1.0
 10
77.1194239729
 20
106.6842565339
 30
0.0
 10
77.1194239729
 20
106.7996953059
 30
0.0
 10
77.159870833
 20
107.0397043382
 30
0.0
 10
77.3346355014
 20
107.3766852412
 30
0.0
 10
77.6137294193
 20
107.6842584336
 30
0.0
 10
77.9865553718
 20
107.9530954795
 30
0.0
 10
78.4410278828
 20
108.1746080901
 30
0.0
 10
79.1502112636
 20
108.4001622502
 30
0.0
 10
79.7281496989
 20
108.4656866004
 30
0.0
 10
80.1194239729
 20
108.4656866004
 30
0.0
  0
SPLINE
  5
5A0
100
AcDbEntity
  8
0
100
AcDbSpline
 62
7
  6
CONTINUOUS
 70
0
 71
3
 72
13
 73
9
 74
0
 42
0.0000001
 43
0.0000001
 44
0.0000000001
 40
0.0
 40
0.0
 40
0.0
 40
0.0
 40
0.0466624294
 40
0.1150355819
 40
0.2059833062
 40
0.3197368416
 40
0.61543668
 40
1.0
 40
1.0
 40
1.0
 40
1.0
 10
83.1716601677
 20
89.3033980052
 30
0.0
 10
83.1795201136
 20
89.3081461452
 30
0.0
 10
83.1962479713
 20
89.3238660211
 30
0.0
 10
83.2217724234
 20
89.3552878076
 30
0.0
 10
83.252369674
 20
89.3995597082
 30
0.0
 10
83.3045278161
 20
89.4830845322
 30
0.0
 10
83.3809166128
 20
89.619485331
 30
0.0
 10
83.4432173719
 20
89.73796755
 30
0.0
 10
83.4779778341
 20
89.8051911486
 30
0.0
  0
SPLINE
  5
5A1
100
AcDbEntity
  8
KONSTRUKTIONSELEMENTE
100
AcDbSpline
 62
7
  6
CONTINUOUS
 70
0
 71
3
 72
18
 73
14
 74
0
 42
0.0000001
 43
0.0000001
 44
0.0000000001
 40
0.0
 40
0.0
 40
0.0
 40
0.0
 40
0.1475541955
 40
0.2989471579
 40
0.4495481689
 40
0.5937004854
 40
0.7254666348
 40
0.7849712687
 40
0.8394188774
 40
0.8883414529
 40
0.9314210558
 40
0.9685718713
 40
1.0
 40
1.0
 40
1.0
 40
1.0
 10
85.1875483905
 20
101.3240226825
 30
0.0
 10
84.9394779572
 20
100.8367068487
 30
0.0
 10
84.4951511576
 20
99.8191705236
 30
0.0
 10
83.9720819108
 20
98.2355980153
 30
0.0
 10
83.5753313269
 20
96.6289788762
 30
0.0
 10
83.3026574256
 20
95.0709087045
 30
0.0
 10
83.1723539538
 20
93.8334040965
 30
0.0
 10
83.1338240857
 20
92.9233428403
 30
0.0
 10
83.1370195795
 20
92.3194719016
 30
0.0
 10
83.1710925477
 20
91.7774605951
 30
0.0
 10
83.2360673108
 20
91.3026461165
 30
0.0
 10
83.3320384638
 20
90.8994034563
 30
0.0
 10
83.4244814498
 20
90.6610926462
 30
0.0
 10
83.4779778341
 20
90.5576354639
 30
0.0
  0
SPLINE
  5
5A2
100
AcDbEntity
  8
KONSTRUKTIONSELEMENTE
100
AcDbSpline
 62
7
  6
CONTINUOUS
 70
0
 71
3
 72
18
 73
14
 74
0
 42
0.0000001
 43
0.0000001
 44
0.0000000001
 40
0.0
 40
0.0
 40
0.0
 40
0.0
 40
0.0314281287
 40
0.0685789442
 40
0.1116585471
 40
0.1605811226
 40
0.2150287313
 40
0.2745333652
 40
0.4062995146
 40
0.5504518311
 40
0.7010528421
 40
0.8524458045
 40
1.0
 40
1.0
 40
1.0
 40
1.0
 10
105.2608701116
 20
90.5576354639
 30
0.0
 10
105.314366496
 20
90.6610926462
 30
0.0
 10
105.406809482
 20
90.8994034563
 30
0.0
 10
105.5027806349
 20
91.3026461165
 30
0.0
 10
105.567755398
 20
91.7774605951
 30
0.0
 10
105.6018283662
 20
92.3194719016
 30
0.0
 10
105.60502386
 20
92.9233428403
 30
0.0
 10
105.5664939919
 20
93.8334040965
 30
0.0
 10
105.4361905201
 20
95.0709087045
 30
0.0
 10
105.1635166188
 20
96.6289788762
 30
0.0
 10
104.766766035
 20
98.2355980153
 30
0.0
 10
104.2436967881
 20
99.8191705236
 30
0.0
 10
103.7993699885
 20
100.8367068487
 30
0.0
 10
103.5512995553
 20
101.3240226825
 30
0.0
  0
SPLINE
  5
5A3
100
AcDbEntity
  8
0
100
AcDbSpline
 62
7
  6
CONTINUOUS
 70
0
 71
3
 72
13
 73
9
 74
0
 42
0.0000001
 43
0.0000001
 44
0.0000000001
 40
0.0
 40
0.0
 40
0.0
 40
0.0
 40
0.3293886346
 40
0.4619949473
 40
0.5768668785
 40
0.6795237342
 40
0.7781998855
 40
1.0
 40
1.0
 40
1.0
 40
1.0
 10
79.8820350506
 20
89.8140308359
 30
0.0
 10
79.8820350506
 20
89.7404349666
 30
0.0
 10
79.8753756094
 20
89.6362022285
 30
0.0
 10
79.8387920359
 20
89.5120445517
 30
0.0
 10
79.8021804809
 20
89.4421440154
 30
0.0
 10
79.7534417562
 20
89.3895519726
 30
0.0
 10
79.668870028
 20
89.3435425936
 30
0.0
 10
79.5923840285
 20
89.3448418142
 30
0.0
 10
79.5437496367
 20
89.35436075
 30
0.0
  0
SPLINE
  5
5A4
100
AcDbEntity
  8
RUNDUNGEN
100
AcDbSpline
 62
7
  6
CONTINUOUS
 70
0
 71
3
 72
34
 73
30
 74
0
 42
0.0000001
 43
0.0000001
 44
0.0000000001
 40
0.0
 40
0.0
 40
0.0
 40
0.0
 40
0.0345438975
 40
0.0757740432
 40
0.1237083516
 40
0.1783242669
 40
0.2395301356
 40
0.3071667157
 40
0.3809867804
 40
0.4605979246
 40
0.5453776973
 40
0.6342982705
 40
0.6797873358
 40
0.7255245091
 40
0.7709853064
 40
0.8154187557
 40
0.8576968363
 40
0.8961372182
 40
0.913236073
 40
0.9285107315
 40
0.9416901131
 40
0.9525550457
 40
0.961092112
 40
0.9674751907
 40
0.9722373416
 40
0.9763418645
 40
0.9808233246
 40
0.9862201725
 40
1.0
 40
1.0
 40
1.0
 40
1.0
 10
79.8820350506
 20
90.5664751512
 30
0.0
 10
79.8820350506
 20
90.6420768206
 30
0.0
 10
79.8701236931
 20
90.8079037499
 30
0.0
 10
79.8266888206
 20
91.0753457457
 30
0.0
 10
79.7556514368
 20
91.3820966119
 30
0.0
 10
79.6566968973
 20
91.7266848598
 30
0.0
 10
79.5294540853
 20
92.1076109239
 30
0.0
 10
79.3735987979
 20
92.5229590711
 30
0.0
 10
79.1889269241
 20
92.9702348946
 30
0.0
 10
78.9754846707
 20
93.445964226
 30
0.0
 10
78.7338301764
 20
93.9449982489
 30
0.0
 10
78.5119572936
 20
94.370412764
 30
0.0
 10
78.3211242052
 20
94.7154336931
 30
0.0
 10
78.1716351434
 20
94.9745752695
 30
0.0
 10
78.0180950161
 20
95.2286460917
 30
0.0
 10
77.8625856734
 20
95.4726011637
 30
0.0
 10
77.708478806
 20
95.6990904914
 30
0.0
 10
77.5810254002
 20
95.871227649
 30
0.0
 10
77.4829784434
 20
95.9912942776
 30
0.0
 10
77.4167573219
 20
96.065865615
 30
0.0
 10
77.3561874818
 20
96.127076594
 30
0.0
 10
77.3021206994
 20
96.173718028
 30
0.0
 10
77.2551892259
 20
96.2054304915
 30
0.0
 10
77.2153145099
 20
96.2226257748
 30
0.0
 10
77.1808030799
 20
96.2250373115
 30
0.0
 10
77.1536589623
 20
96.2107088585
 30
0.0
 10
77.1365270219
 20
96.1843514232
 30
0.0
 10
77.1213314347
 20
96.1345790778
 30
0.0
 10
77.1194239729
 20
96.0920943926
 30
0.0
 10
77.1194239729
 20
96.0619363027
 30
0.0
  0
SPLINE
  5
5A5
100
AcDbEntity
  8
0
100
AcDbSpline
 62
7
  6
CONTINUOUS
 70
0
 71
3
 72
11
 73
7
 74
0
 42
0.0000001
 43
0.0000001
 44
0.0000000001
 40
0.0
 40
0.0
 40
0.0
 40
0.0
 40
0.2568163914
 40
0.5
 40
0.7431836086
 40
1.0
 40
1.0
 40
1.0
 40
1.0
 10
105.2608701116
 20
90.5576354639
 30
0.0
 10
105.2300706427
 20
90.498072069
 30
0.0
 10
105.1807000529
 20
90.3758803927
 30
0.0
 10
105.154049947
 20
90.1814133063
 30
0.0
 10
105.1807000529
 20
89.9869462198
 30
0.0
 10
105.2300706427
 20
89.8647545436
 30
0.0
 10
105.2608701116
 20
89.8051911486
 30
0.0
  0
SPLINE
  5
5A6
100
AcDbEntity
  8
0
100
AcDbSpline
 62
7
  6
CONTINUOUS
 70
0
 71
3
 72
11
 73
7
 74
0
 42
0.0000001
 43
0.0000001
 44
0.0000000001
 40
0.0
 40
0.0
 40
0.0
 40
0.0
 40
0.2568163914
 40
0.5
 40
0.7431836086
 40
1.0
 40
1.0
 40
1.0
 40
1.0
 10
83.4779778341
 20
89.8051911486
 30
0.0
 10
83.508777303
 20
89.8647545436
 30
0.0
 10
83.5581478929
 20
89.9869462198
 30
0.0
 10
83.5847979987
 20
90.1814133063
 30
0.0
 10
83.5581478929
 20
90.3758803927
 30
0.0
 10
83.508777303
 20
90.498072069
 30
0.0
 10
83.4779778341
 20
90.5576354639
 30
0.0
  0
SPLINE
  5
5A7
100
AcDbEntity
  8
RUNDUNGEN
100
AcDbSpline
 62
7
  6
CONTINUOUS
 70
0
 71
3
 72
14
 73
10
 74
0
 42
0.0000001
 43
0.0000001
 44
0.0000000001
 40
0.0
 40
0.0
 40
0.0
 40
0.0
 40
0.0909366748
 40
0.1878685312
 40
0.2952046508
 40
0.4151533241
 40
0.5478635868
 40
0.691774429
 40
1.0
 40
1.0
 40
1.0
 40
1.0
 10
111.6194239729
 20
109.8981945823
 30
0.0
 10
111.6194239729
 20
110.0136333543
 30
0.0
 10
111.5789771128
 20
110.2536423866
 30
0.0
 10
111.4042124443
 20
110.5906232897
 30
0.0
 10
111.1251185265
 20
110.8981964821
 30
0.0
 10
110.752292574
 20
111.1670335279
 30
0.0
 10
110.2978200629
 20
111.3885461385
 30
0.0
 10
109.5886366822
 20
111.6141002986
 30
0.0
 10
109.0106982469
 20
111.6796246489
 30
0.0
 10
108.6194239729
 20
111.6796246489
 30
0.0
  0
SPLINE
  5
5A8
100
AcDbEntity
  8
RUNDUNGEN
100
AcDbSpline
 62
7
  6
CONTINUOUS
 70
0
 71
3
 72
14
 73
10
 74
0
 42
0.0000001
 43
0.0000001
 44
0.0000000001
 40
0.0
 40
0.0
 40
0.0
 40
0.0
 40
0.0909366748
 40
0.1878685312
 40
0.2952046508
 40
0.4151533241
 40
0.5478635868
 40
0.691774429
 40
1.0
 40
1.0
 40
1.0
 40
1.0
 10
111.6194239729
 20
106.6842565339
 30
0.0
 10
111.6194239729
 20
106.7996953059
 30
0.0
 10
111.5789771128
 20
107.0397043382
 30
0.0
 10
111.4042124443
 20
107.3766852412
 30
0.0
 10
111.1251185265
 20
107.6842584336
 30
0.0
 10
110.752292574
 20
107.9530954795
 30
0.0
 10
110.2978200629
 20
108.1746080901
 30
0.0
 10
109.5886366822
 20
108.4001622502
 30
0.0
 10
109.0106982469
 20
108.4656866004
 30
0.0
 10
108.6194239729
 20
108.4656866004
 30
0.0
  0
SPLINE
  5
5A9
100
AcDbEntity
  8
0
100
AcDbSpline
 62
7
  6
CONTINUOUS
 70
0
 71
3
 72
13
 73
9
 74
0
 42
0.0000001
 43
0.0000001
 44
0.0000000001
 40
0.0
 40
0.0
 40
0.0
 40
0.0
 40
0.2221781201
 40
0.320857303
 40
0.4234427897
 40
0.5382171664
 40
0.6707288656
 40
1.0
 40
1.0
 40
1.0
 40
1.0
 10
109.1963615376
 20
89.3546097824
 30
0.0
 10
109.1475807831
 20
89.3449074474
 30
0.0
 10
109.0708694336
 20
89.3433099481
 30
0.0
 10
108.9859012746
 20
89.3891369887
 30
0.0
 10
108.9369642722
 20
89.441692293
 30
0.0
 10
108.9002118243
 20
89.5116267364
 30
0.0
 10
108.8634885739
 20
89.635931708
 30
0.0
 10
108.8568128951
 20
89.740320965
 30
0.0
 10
108.8568128951
 20
89.8140308359
 30
0.0
  0
SPLINE
  5
5AA
100
AcDbEntity
  8
0
100
AcDbSpline
 62
7
  6
CONTINUOUS
 70
0
 71
3
 72
13
 73
9
 74
0
 42
0.0000001
 43
0.0000001
 44
0.0000000001
 40
0.0
 40
0.0
 40
0.0
 40
0.0
 40
0.38456332
 40
0.6802631584
 40
0.7940166938
 40
0.8849644181
 40
0.9533375706
 40
1.0
 40
1.0
 40
1.0
 40
1.0
 10
105.2608701116
 20
89.8051911486
 30
0.0
 10
105.2956305738
 20
89.73796755
 30
0.0
 10
105.357931333
 20
89.619485331
 30
0.0
 10
105.4343201297
 20
89.4830845322
 30
0.0
 10
105.4864782718
 20
89.3995597082
 30
0.0
 10
105.5170755224
 20
89.3552878076
 30
0.0
 10
105.5425999745
 20
89.3238660211
 30
0.0
 10
105.5593278321
 20
89.3081461452
 30
0.0
 10
105.567187778
 20
89.3033980052
 30
0.0
  0
ELLIPSE
  5
5AB
100
AcDbEntity
  8
0
100
AcDbEllipse
 62
7
  6
CONTINUOUS
 10
358.869437193
 20
110.923395621
 30
0.0
 11
-2.7209717898
 21
4.2981106255
 31
0.0
 40
0.5071182934
 41
-1.6812517444
 42
-0.8981209173
  0
ELLIPSE
  5
5AC
100
AcDbEntity
  8
RUNDUNGEN
100
AcDbEllipse
 62
7
  6
CONTINUOUS
 10
368.8188254324
 20
114.5446767893
 30
0.0
 11
-0.6783869357
 21
5.0415507133
 31
0.0
 40
0.5071182934
 41
0.8981209173
 42
1.6812517444
  0
ELLIPSE
  5
5AD
100
AcDbEntity
  8
0
100
AcDbEllipse
 62
7
  6
CONTINUOUS
 10
325.38226723
 20
110.923395621
 30
0.0
 11
2.7209717898
 21
4.2981106255
 31
0.0
 40
0.5071182934
 41
0.8981209173
 42
1.6812517444
  0
ELLIPSE
  5
5AE
100
AcDbEntity
  8
RUNDUNGEN
100
AcDbEllipse
 62
7
  6
CONTINUOUS
 10
315.4328789907
 20
114.5446767893
 30
0.0
 11
0.6783869357
 21
5.0415507133
 31
0.0
 40
0.5071182934
 41
-1.6812517444
 42
-0.8981209173
  0
ELLIPSE
  5
5AF
100
AcDbEntity
  8
0
100
AcDbEllipse
 62
7
  6
CONTINUOUS
 10
94.3694239729
 20
105.7199254179
 30
0.0
 11
0.0
 21
4.2074847576
 31
0.0
 40
0.8793852416
 41
-1.5707963268
 42
-1.2886552492
  0
ELLIPSE
  5
5B0
100
AcDbEntity
  8
0
100
AcDbEllipse
 62
7
  6
CONTINUOUS
 10
94.3694239729
 20
105.7199254179
 30
0.0
 11
0.0
 21
4.2074847576
 31
0.0
 40
0.8793852416
 41
1.2886552492
 42
1.5707963268
  0
ELLIPSE
  5
5B1
100
AcDbEntity
  8
KONSTRUKTIONSELEMENTE
100
AcDbEllipse
 62
7
  6
CONTINUOUS
 10
94.3694239729
 20
110.915036357
 30
0.0
 11
3.7
 21
0.0
 31
0.0
 40
0.742227199
 41
0.0
 42
0.2821410776
  0
ELLIPSE
  5
5B2
100
AcDbEntity
  8
KONSTRUKTIONSELEMENTE
100
AcDbEllipse
 62
7
  6
CONTINUOUS
 10
94.3694239729
 20
110.915036357
 30
0.0
 11
3.7
 21
-0.0
 31
0.0
 40
0.742227199
 41
2.859451576
 42
3.1415926536
  0
ENDSEC
  0
SECTION
  2
OBJECTS
  0
DICTIONARY
  5
C
100
AcDbDictionary
280
0
281
1
  3
ACAD_GROUP
350
D
  3
ACAD_MLINESTYLE
350
17
  3
ACAD_LAYOUT
350
1A
  3
ACAD_PLOTSETTINGS
350
19
  3
ACAD_PLOTSTYLENAME
350
E
  0
DICTIONARY
  5
D
102
{ACAD_REACTORS
330
C
102
}
100
AcDbDictionary
280
0
281
1
  0
ACDBDICTIONARYWDFLT
  5
E
102
{ACAD_REACTORS
330
C
102
}
100
AcDbDictionary
281
1
  3
Normal
350
F
100
AcDbDictionaryWithDefault
340
F
  0
DICTIONARY
  5
17
102
{ACAD_REACTORS
330
C
102
}
100
AcDbDictionary
280
0
281
1
  3
Standard
350
18
  0
DICTIONARY
  5
19
102
{ACAD_REACTORS
330
C
102
}
100
AcDbDictionary
281
1
  0
DICTIONARY
  5
1A
102
{ACAD_REACTORS
330
C
102
}
100
AcDbDictionary
281
1
  3
Model
350
5B3
  3
Layout1
350
5B4
  0
ACDBPLACEHOLDER
  5
F
102
{ACAD_REACTORS
330
E
102
}
  0
MLINESTYLE
  5
18
102
{ACAD_REACTORS
330
17
102
}
100
AcDbMlineStyle
  2
STANDARD
 70
0
  3

 62
256
 51
90.0
 52
90.0
 71
2
 49
0.5
 62
256
  6
BYLAYER
 49
-0.5
 62
256
  6
BYLAYER
  0
LAYOUT
  5
5B3
102
{ACAD_REACTORS
330
1A
102
}
100
AcDbPlotSettings
  1

  2
none_device
  4
ISO_A3_(420.00_x_297.00_MM)
  6

 40
0.0
 41
0.0
 42
0.0
 43
0.0
 44
420.0
 45
297.0
 46
0.0
 47
0.0
 48
0.0
 49
0.0
140
0.0
141
0.0
142
1.0
143
1.0
 70
1024
 72
1
 73
0
 74
0
  7

 75
0
147
1.0
148
0.0
149
0.0
100
AcDbLayout
  1
Model
 70
0
 71
0
 10
0.0
 20
0.0
 11
420.0
 21
297.0
 12
0.0
 22
0.0
 32
0.0
 14
0.0
 24
0.0
 34
0.0
 15
0.0
 25
0.0
 35
0.0
146
0.0
 13
0.0
 23
0.0
 33
0.0
 16
1.0
 26
0.0
 36
0.0
 17
0.0
 27
1.0
 37
0.0
 76
0
330
20A
345
0
346
0
  0
LAYOUT
  5
5B4
102
{ACAD_REACTORS
330
1A
102
}
100
AcDbPlotSettings
  1

  2
none_device
  4
ISO_A3_(420.00_x_297.00_MM)
  6

 40
0.0
 41
0.0
 42
0.0
 43
0.0
 44
420.0
 45
297.0
 46
0.0
 47
0.0
 48
0.0
 49
0.0
140
0.0
141
0.0
142
1.0
143
1.0
 70
0
 72
1
 73
0
 74
0
  7

 75
0
147
1.0
148
0.0
149
0.0
100
AcDbLayout
  1
Layout1
 70
0
 71
1
 10
0.0
 20
0.0
 11
420.0
 21
297.0
 12
0.0
 22
0.0
 32
0.0
 14
0.0
 24
0.0
 34
0.0
 15
0.0
 25
0.0
 35
0.0
146
0.0
 13
0.0
 23
0.0
 33
0.0
 16
1.0
 26
0.0
 36
0.0
 17
0.0
 27
1.0
 37
0.0
 76
0
330
20B
345
0
346
0
  0
ENDSEC
  0
EOF
