999
DXF file: IAK-RG-2-16_7903055_M34547-P-5.dxf
999
Pro/ENGINEER 2010140 by Parametric Technology Corporation
  0
SECTION
  2
HEADER
  9
$ACADVER
  1
AC1015
  9
$DWGCODEPAGE
  3
ANSI_1252
  9
$EXTMAX
 10
841.0
 20
594.0
 30
0.0
  9
$EXTMIN
 10
0.0
 20
0.0
 30
0.0
  9
$LIMMIN
 10
0.0
 20
0.0
  9
$LIMMAX
 10
841.0
 20
594.0
  9
$VIEWCTR
 10
420.5
 20
297.0
  9
$VIEWSIZE
 40
594.0
  9
$CLAYER
  8
0
  9
$LTSCALE
 40
46.255
  9
$CELTYPE
  6
BYLAYER
  9
$DIMSCALE
 40
1.0
  9
$DIMASZ
 40
3.5
  9
$DIMEXO
 40
5.25625
  9
$DIMDLI
 40
31.958
  9
$DIMEXE
 40
15.138
  9
$DIMCEN
 40
7.569
  9
$DIMLFAC
 40
1.0
  9
$DIMBLK
  1
_FILLED
  9
$DIMTXT
 40
3.5
  9
$DIMTOL
 70
1
  9
$DIMLIM
 70
0
  9
$DIMTFAC
 40
1.0
  9
$DIMTP
 40
0.005
  9
$DIMTM
 40
0.005
  9
$PDMODE
 70
3
  9
$PDSIZE
 40
0.3125
  9
$HANDSEED
  5
5A0
  9
$TILEMODE
 70
1
  9
$MEASUREMENT
 70
1
  9
$INSUNITS
 70
4
  0
ENDSEC
  0
SECTION
  2
CLASSES
  0
CLASS
  1
ACDBDICTIONARYWDFLT
  2
AcDbDictionaryWithDefault
  3
AutoCAD 2000
 90
0
280
0
281
0
  0
CLASS
  1
ACDBPLACEHOLDER
  2
AcDbPlaceHolder
  3
AutoCAD 2000
 90
0
280
0
281
0
  0
CLASS
  1
LAYOUT
  2
AcDbLayout
  3
AutoCAD 2000
 90
0
280
0
281
0
  0
ENDSEC
  0
SECTION
  2
TABLES
  0
TABLE
  2
VPORT
  5
8
100
AcDbSymbolTable
 70
2
  0
VPORT
  5
1F4
100
AcDbSymbolTableRecord
100
AcDbViewportTableRecord
  2
*ACTIVE
 70
0
 10
0.0
 20
0.0
 11
1.0
 21
1.0
 12
420.5
 22
297.0
 13
0.0
 23
0.0
 14
1.0
 24
1.0
 15
0.0
 25
0.0
 16
0.0
 26
0.0
 36
1.0
 17
0.0
 27
0.0
 37
0.0
 40
594.0
 41
1.4158249158
 42
50.0
 43
0.0
 44
0.0
 50
0.0
 51
0.0
 71
0
 72
100
 73
1
 74
1
 75
0
 76
0
 77
0
 78
0
  0
ENDTAB
  0
TABLE
  2
LTYPE
  5
5
100
AcDbSymbolTable
 70
6
  0
LTYPE
  5
14
100
AcDbSymbolTableRecord
100
AcDbLinetypeTableRecord
  2
BYBLOCK
 70
0
  3

 72
65
 73
0
 40
0.0
  0
LTYPE
  5
15
100
AcDbSymbolTableRecord
100
AcDbLinetypeTableRecord
  2
BYLAYER
 70
0
  3

 72
65
 73
0
 40
0.0
  0
LTYPE
  5
16
100
AcDbSymbolTableRecord
100
AcDbLinetypeTableRecord
  2
CONTINUOUS
 70
64
  3
Solid line
 72
65
 73
0
 40
0.0
  0
LTYPE
  5
1F5
100
AcDbSymbolTableRecord
100
AcDbLinetypeTableRecord
  2
CENTER
 70
64
  3
____ _ ____ _ ____ _ ____ _ ____ _ ____ _ ____
 72
65
 73
4
 40
0.6
 49
0.375
 74
0
 49
-0.075
 74
0
 49
0.075
 74
0
 49
-0.075
 74
0
  0
LTYPE
  5
1F6
100
AcDbSymbolTableRecord
100
AcDbLinetypeTableRecord
  2
HIDDEN
 70
64
  3
- - - - - - - - - - - - - - - - - - - -
 72
65
 73
2
 40
0.2
 49
0.1
 74
0
 49
-0.1
 74
0
  0
LTYPE
  5
1F7
100
AcDbSymbolTableRecord
100
AcDbLinetypeTableRecord
  2
PHANTOM
 70
64
  3
_____ _ _ _____ _ _ _____ _ _ _____
 72
65
 73
6
 40
0.8
 49
0.45
 74
0
 49
-0.05
 74
0
 49
0.1
 74
0
 49
-0.05
 74
0
 49
0.1
 74
0
 49
-0.05
 74
0
  0
LTYPE
  5
1F8
100
AcDbSymbolTableRecord
100
AcDbLinetypeTableRecord
  2
DOT
 70
64
  3
. . . . . . . . . . . . . . . . . . . .
 72
65
 73
2
 40
0.2
 49
0.1
 74
0
 49
-0.1
 74
0
  0
LTYPE
  5
1F9
100
AcDbSymbolTableRecord
100
AcDbLinetypeTableRecord
  2
DASHED
 70
64
  3
- - - - - - - - - - - - - - - - - - - -
 72
65
 73
2
 40
0.2
 49
0.1
 74
0
 49
-0.1
 74
0
  0
ENDTAB
  0
TABLE
  2
LAYER
  5
2
100
AcDbSymbolTable
 70
36
  0
LAYER
  5
10
100
AcDbSymbolTableRecord
100
AcDbLayerTableRecord
  2
0
 70
0
 62
7
  6
CONTINUOUS
370
-3
390
F
  0
LAYER
  5
1FA
100
AcDbSymbolTableRecord
100
AcDbLayerTableRecord
  2
DEFAULT_1
 70
0
 62
7
  6
CENTER
370
-3
390
F
  0
LAYER
  5
1FB
100
AcDbSymbolTableRecord
100
AcDbLayerTableRecord
  2
DEFAULT_2
 70
0
 62
8
  6
HIDDEN
370
-3
390
F
  0
LAYER
  5
1FC
100
AcDbSymbolTableRecord
100
AcDbLayerTableRecord
  2
DEFAULT_3
 70
0
 62
7
  6
PHANTOM
370
-3
390
F
  0
LAYER
  5
1FD
100
AcDbSymbolTableRecord
100
AcDbLayerTableRecord
  2
BEZUGSACHSEN
 70
0
 62
7
  6
CONTINUOUS
370
-3
390
F
  0
LAYER
  5
1FE
100
AcDbSymbolTableRecord
100
AcDbLayerTableRecord
  2
BEZUGSEBENEN
 70
0
 62
7
  6
CONTINUOUS
370
-3
390
F
  0
LAYER
  5
1FF
100
AcDbSymbolTableRecord
100
AcDbLayerTableRecord
  2
BG_STARTBEZUEGE
 70
0
 62
7
  6
CONTINUOUS
370
-3
390
F
  0
LAYER
  5
200
100
AcDbSymbolTableRecord
100
AcDbLayerTableRecord
  2
FASEN
 70
0
 62
7
  6
CONTINUOUS
370
-3
390
F
  0
LAYER
  5
201
100
AcDbSymbolTableRecord
100
AcDbLayerTableRecord
  2
HILFEN
 70
0
 62
7
  6
CONTINUOUS
370
-3
390
F
  0
LAYER
  5
202
100
AcDbSymbolTableRecord
100
AcDbLayerTableRecord
  2
KONSTRUKTIONSELEMENTE
 70
0
 62
7
  6
CONTINUOUS
370
-3
390
F
  0
LAYER
  5
203
100
AcDbSymbolTableRecord
100
AcDbLayerTableRecord
  2
NORM
 70
0
 62
7
  6
CONTINUOUS
370
-3
390
F
  0
LAYER
  5
204
100
AcDbSymbolTableRecord
100
AcDbLayerTableRecord
  2
PLATZIERUNG
 70
0
 62
7
  6
CONTINUOUS
370
-3
390
F
  0
LAYER
  5
205
100
AcDbSymbolTableRecord
100
AcDbLayerTableRecord
  2
RUNDUNGEN
 70
0
 62
7
  6
CONTINUOUS
370
-3
390
F
  0
LAYER
  5
206
100
AcDbSymbolTableRecord
100
AcDbLayerTableRecord
  2
TEIL_STARTBEZUEGE
 70
0
 62
7
  6
CONTINUOUS
370
-3
390
F
  0
LAYER
  5
207
100
AcDbSymbolTableRecord
100
AcDbLayerTableRecord
  2
T_STARTBEZUEGE
 70
0
 62
7
  6
CONTINUOUS
370
-3
390
F
  0
ENDTAB
  0
TABLE
  2
STYLE
  5
3
100
AcDbSymbolTable
 70
1
  0
STYLE
  5
11
100
AcDbSymbolTableRecord
100
AcDbTextStyleTableRecord
  2
STANDARD
 70
0
 40
0.0
 41
0.7
 50
0.0
 71
0
 42
0.2
  3
txt
  4

  0
STYLE
  5
208
100
AcDbSymbolTableRecord
100
AcDbTextStyleTableRecord
  2
TEXTSTYLE_1
 70
0
 40
0.0
 41
0.8
 50
0.0
 71
0
 42
0.2
  3
gdt
  4

  0
ENDTAB
  0
TABLE
  2
VIEW
  5
6
100
AcDbSymbolTable
 70
0
  0
ENDTAB
  0
TABLE
  2
UCS
  5
7
100
AcDbSymbolTable
 70
0
  0
ENDTAB
  0
TABLE
  2
APPID
  5
9
100
AcDbSymbolTable
 70
1
  0
APPID
  5
209
100
AcDbSymbolTableRecord
100
AcDbRegAppTableRecord
  2
ACAD
 70
0
  0
ENDTAB
  0
TABLE
  2
BLOCK_RECORD
  5
1
100
AcDbSymbolTable
 70
0
  0
BLOCK_RECORD
  5
20A
100
AcDbSymbolTableRecord
100
AcDbBlockTableRecord
  2
*Model_Space
  0
BLOCK_RECORD
  5
20B
100
AcDbSymbolTableRecord
100
AcDbBlockTableRecord
  2
*Paper_Space
  0
ENDTAB
  0
TABLE
  2
DIMSTYLE
  5
A
100
AcDbSymbolTable
 70
1
100
AcDbDimStyleTable
 71
0
  0
DIMSTYLE
105
20C
100
AcDbSymbolTableRecord
100
AcDbDimStyleTableRecord
  2
STANDARD
 70
0
  3

  4

 40
1.0
 41
3.5
 42
0.0625
 43
0.38
 44
0.18
 45
0.0
 46
0.0
 47
0.005
 48
0.005
140
3.5
141
0.09
142
0.0
143
25.4
144
1.0
145
0.0
146
1.0
147
0.09
 71
1.0
 72
0.0
 73
0
 74
0
 75
0
 76
0
 77
1
 78
8
170
0
171
2
172
0
173
0
174
0
175
0
176
0
177
0
178
5
270
2
271
3
272
3
273
2
274
2
275
0
280
0
281
0
282
0
283
1
284
8
285
0
286
0
287
3
288
0
340
11
  0
ENDTAB
  0
ENDSEC
  0
SECTION
  2
BLOCKS
  0
BLOCK
  5
20
100
AcDbEntity
  8
0
100
AcDbBlockBegin
  2
*Model_Space
 70
0
 10
0.0
 20
0.0
 30
0.0
  3
*Model_Space
  1

  0
ENDBLK
  5
21
100
AcDbEntity
  8
0
100
AcDbBlockEnd
  0
BLOCK
  5
1C
100
AcDbEntity
  8
0
100
AcDbBlockBegin
  2
*Paper_Space
 70
0
 10
0.0
 20
0.0
 30
0.0
  3
*Paper_Space
  1

  0
ENDBLK
  5
1D
100
AcDbEntity
  8
0
100
AcDbBlockEnd
  0
ENDSEC
  0
SECTION
  2
ENTITIES
  0
MTEXT
  5
20D
100
AcDbEntity
  8
0
100
AcDbMText
 62
5
  6
CONTINUOUS
  7
STANDARD
 71
1
 72
1
 10
549.2897824071
 20
357.2790424764
 30
0.0
 11
0.0
 21
1.0
 31
0.0
 44
0.9
  1
RUD
 40
11.0
 41
29.3333333333
  0
MTEXT
  5
20E
100
AcDbEntity
  8
0
100
AcDbMText
 62
5
  6
CONTINUOUS
  7
STANDARD
 71
1
 72
1
 10
766.2767682757
 20
325.0417213761
 30
0.0
 11
0.0
 21
1.0
 31
0.0
 44
0.9
  1
IAK-RG 2-16
 40
11.0
 41
92.4523809524
  0
MTEXT
  5
20F
100
AcDbEntity
  8
0
100
AcDbMText
 62
5
  6
CONTINUOUS
  7
STANDARD
 71
1
 72
1
 10
166.2526414374
 20
316.8333167837
 30
0.0
 11
0.0
 21
1.0
 31
0.0
 44
0.9
  1
RUD IAK-RG 2-16
 40
11.0
 41
128.3333333333
  0
LINE
  5
210
100
AcDbEntity
  8
0
100
AcDbLine
 62
7
  6
CONTINUOUS
 10
0.0
 20
0.0
 11
0.0
 21
594.0
  0
LINE
  5
211
100
AcDbEntity
  8
0
100
AcDbLine
 62
7
  6
CONTINUOUS
 10
0.0
 20
0.0
 11
841.0
 21
0.0
  0
LINE
  5
212
100
AcDbEntity
  8
0
100
AcDbLine
 62
7
  6
CONTINUOUS
 10
0.0
 20
594.0
 11
841.0
 21
594.0
  0
LINE
  5
213
100
AcDbEntity
  8
0
100
AcDbLine
 62
7
  6
CONTINUOUS
 10
841.0
 20
0.0
 11
841.0
 21
594.0
  0
LINE
  5
214
100
AcDbEntity
  8
RUNDUNGEN
100
AcDbLine
 62
7
  6
CONTINUOUS
 10
387.4929102205
 20
15.7024077453
 11
383.9573763145
 21
19.2379416512
  0
LINE
  5
215
100
AcDbEntity
  8
0
100
AcDbLine
 62
7
  6
CONTINUOUS
 10
590.9354722217
 20
98.8731432267
 11
592.9949025694
 21
98.1235718806
  0
LINE
  5
216
100
AcDbEntity
  8
RUNDUNGEN
100
AcDbLine
 62
7
  6
CONTINUOUS
 10
479.5934482182
 20
114.8740135549
 11
483.1289821241
 21
111.3384796489
  0
LINE
  5
217
100
AcDbEntity
  8
KONSTRUKTIONSELEMENTE
100
AcDbLine
 62
7
  6
CONTINUOUS
 10
489.104154677
 20
134.3549256284
 11
492.6396885829
 21
130.8193917225
  0
LINE
  5
218
100
AcDbEntity
  8
KONSTRUKTIONSELEMENTE
100
AcDbLine
 62
7
  6
CONTINUOUS
 10
489.4577080676
 20
134.708479019
 11
492.9932419735
 21
131.1729451131
  0
LINE
  5
219
100
AcDbEntity
  8
RUNDUNGEN
100
AcDbLine
 62
7
  6
CONTINUOUS
 10
499.4403509133
 20
127.6498484382
 11
495.9048170074
 21
131.1853823441
  0
LINE
  5
21A
100
AcDbEntity
  8
0
100
AcDbLine
 62
7
  6
CONTINUOUS
 10
585.0098904333
 20
113.8014755032
 11
607.1299085913
 21
105.7504473123
  0
LINE
  5
21B
100
AcDbEntity
  8
0
100
AcDbLine
 62
7
  6
CONTINUOUS
 10
602.3019601757
 20
138.5958178111
 11
609.8209106809
 21
135.8591436342
  0
LINE
  5
21C
100
AcDbEntity
  8
0
100
AcDbLine
 62
7
  6
CONTINUOUS
 10
613.7901652499
 20
146.7645809345
 11
606.2712147447
 21
149.5012551113
  0
LINE
  5
21D
100
AcDbEntity
  8
0
100
AcDbLine
 62
7
  6
CONTINUOUS
 10
620.6065508601
 20
161.2950242294
 11
610.389549339
 21
165.0137086666
  0
LINE
  5
21E
100
AcDbEntity
  8
KONSTRUKTIONSELEMENTE
100
AcDbLine
 62
7
  6
CONTINUOUS
 10
550.2688912496
 20
195.519662201
 11
553.8044251556
 21
191.9841282951
  0
LINE
  5
21F
100
AcDbEntity
  8
KONSTRUKTIONSELEMENTE
100
AcDbLine
 62
7
  6
CONTINUOUS
 10
550.6224446402
 20
195.8732155916
 11
554.1579785461
 21
192.3376816857
  0
LINE
  5
220
100
AcDbEntity
  8
0
100
AcDbLine
 62
7
  6
CONTINUOUS
 10
628.9780099705
 20
187.7190161093
 11
620.9616541856
 21
190.6367310023
  0
LINE
  5
221
100
AcDbEntity
  8
0
100
AcDbLine
 62
7
  6
CONTINUOUS
 10
537.6181082738
 20
295.3631397046
 11
537.6181082738
 21
455.3631397046
  0
LINE
  5
222
100
AcDbEntity
  8
0
100
AcDbLine
 62
7
  6
CONTINUOUS
 10
638.4497919489
 20
213.7425232171
 11
630.433436164
 21
216.6602381101
  0
LINE
  5
223
100
AcDbEntity
  8
0
100
AcDbLine
 62
7
  6
CONTINUOUS
 10
645.3836175954
 20
232.7930526111
 11
637.3672618104
 21
235.7107675041
  0
LINE
  5
224
100
AcDbEntity
  8
0
100
AcDbLine
 62
7
  6
CONTINUOUS
 10
639.9052181424
 20
242.6837452178
 11
647.9215739274
 21
239.7660303248
  0
LINE
  5
225
100
AcDbEntity
  8
RUNDUNGEN
100
AcDbLine
 62
7
  6
CONTINUOUS
 10
742.3052185827
 20
147.8814843327
 11
734.4504045456
 21
153.3814843327
  0
LINE
  5
226
100
AcDbEntity
  8
0
100
AcDbLine
 62
7
  6
CONTINUOUS
 10
573.6181082738
 20
295.3631397046
 11
573.6181082738
 21
455.3631397046
  0
LINE
  5
227
100
AcDbEntity
  8
0
100
AcDbLine
 62
7
  6
CONTINUOUS
 10
626.6147463503
 20
141.0687591729
 11
629.0965511419
 21
131.8065375964
  0
LINE
  5
228
100
AcDbEntity
  8
KONSTRUKTIONSELEMENTE
100
AcDbLine
 62
7
  6
CONTINUOUS
 10
485.0736460242
 20
130.3244169756
 11
489.104154677
 21
134.3549256284
  0
LINE
  5
229
100
AcDbEntity
  8
KONSTRUKTIONSELEMENTE
100
AcDbLine
 62
7
  6
CONTINUOUS
 10
489.4577080676
 20
134.708479019
 11
493.4882167203
 21
138.7389876718
  0
LINE
  5
22A
100
AcDbEntity
  8
KONSTRUKTIONSELEMENTE
100
AcDbLine
 62
7
  6
CONTINUOUS
 10
546.2383825969
 20
191.4891535483
 11
550.2688912496
 21
195.519662201
  0
LINE
  5
22B
100
AcDbEntity
  8
KONSTRUKTIONSELEMENTE
100
AcDbLine
 62
7
  6
CONTINUOUS
 10
550.6224446402
 20
195.8732155916
 11
554.652953293
 21
199.9037242444
  0
LINE
  5
22C
100
AcDbEntity
  8
KONSTRUKTIONSELEMENTE
100
AcDbLine
 62
7
  6
CONTINUOUS
 10
526.085839333
 20
169.1445792628
 11
515.4792376152
 21
158.537977545
  0
LINE
  5
22D
100
AcDbEntity
  8
KONSTRUKTIONSELEMENTE
100
AcDbLine
 62
7
  6
CONTINUOUS
 10
687.3309984052
 20
242.6837452178
 11
699.0200798365
 21
230.3063408507
  0
LINE
  5
22E
100
AcDbEntity
  8
0
100
AcDbLine
 62
7
  6
CONTINUOUS
 10
717.4153058667
 20
135.8591436342
 11
707.9129751601
 21
156.1151980005
  0
LINE
  5
22F
100
AcDbEntity
  8
0
100
AcDbLine
 62
7
  6
CONTINUOUS
 10
705.525864017
 20
111.5131236964
 11
698.1396654058
 21
131.8065375964
  0
LINE
  5
230
100
AcDbEntity
  8
0
100
AcDbLine
 62
7
  6
CONTINUOUS
 10
648.9198876358
 20
222.7707917765
 11
647.9215739274
 21
239.7660303248
  0
LINE
  5
231
100
AcDbEntity
  8
RUNDUNGEN
100
AcDbLine
 62
7
  6
CONTINUOUS
 10
602.3019601757
 20
138.5958178111
 11
608.043093309
 21
160.2208361392
  0
LINE
  5
232
100
AcDbEntity
  8
0
100
AcDbLine
 62
7
  6
CONTINUOUS
 10
606.2712147447
 20
149.5012551113
 11
610.389549339
 21
165.0137086666
  0
LINE
  5
233
100
AcDbEntity
  8
RUNDUNGEN
100
AcDbLine
 62
7
  6
CONTINUOUS
 10
577.5447993537
 20
127.5880704327
 11
584.930997965
 21
147.8814843327
  0
LINE
  5
234
100
AcDbEntity
  8
RUNDUNGEN
100
AcDbLine
 62
7
  6
CONTINUOUS
 10
592.785812002
 20
153.3814843327
 11
597.6237505324
 21
166.6736112017
  0
LINE
  5
235
100
AcDbEntity
  8
BEZUGSACHSEN
100
AcDbLine
 62
7
  6
CONTINUOUS
 10
625.664225645
 20
226.1713570032
 11
611.2046711084
 21
186.4440574184
  0
LINE
  5
236
100
AcDbEntity
  8
RUNDUNGEN
100
AcDbLine
 62
7
  6
CONTINUOUS
 10
611.2045678456
 20
186.4437737064
 11
605.7752307559
 21
171.5267926497
  0
LINE
  5
237
100
AcDbEntity
  8
KONSTRUKTIONSELEMENTE
100
AcDbLine
 62
7
  6
CONTINUOUS
 10
605.7752307559
 20
171.5267926497
 11
611.2046711084
 21
186.4440574184
  0
LINE
  5
238
100
AcDbEntity
  8
0
100
AcDbLine
 62
7
  6
CONTINUOUS
 10
606.2712147447
 20
149.5012551113
 11
602.3019601757
 21
138.5958178111
  0
LINE
  5
239
100
AcDbEntity
  8
0
100
AcDbLine
 62
7
  6
CONTINUOUS
 10
616.4158116184
 20
180.4378952309
 11
610.389549339
 21
165.0137086666
  0
LINE
  5
23A
100
AcDbEntity
  8
KONSTRUKTIONSELEMENTE
100
AcDbLine
 62
7
  6
CONTINUOUS
 10
488.6091799302
 20
126.7888830697
 11
492.6396885829
 21
130.8193917225
  0
LINE
  5
23B
100
AcDbEntity
  8
KONSTRUKTIONSELEMENTE
100
AcDbLine
 62
7
  6
CONTINUOUS
 10
492.9932419735
 20
131.1729451131
 11
497.0237506263
 21
135.2034537658
  0
LINE
  5
23C
100
AcDbEntity
  8
KONSTRUKTIONSELEMENTE
100
AcDbLine
 62
7
  6
CONTINUOUS
 10
549.7739165028
 20
187.9536196423
 11
553.8044251556
 21
191.9841282951
  0
LINE
  5
23D
100
AcDbEntity
  8
KONSTRUKTIONSELEMENTE
100
AcDbLine
 62
7
  6
CONTINUOUS
 10
554.1579785461
 20
192.3376816857
 11
558.1884871989
 21
196.3681903385
  0
LINE
  5
23E
100
AcDbEntity
  8
KONSTRUKTIONSELEMENTE
100
AcDbLine
 62
7
  6
CONTINUOUS
 10
558.9663046582
 20
196.3681903385
 11
599.9306935227
 21
237.332579203
  0
LINE
  5
23F
100
AcDbEntity
  8
KONSTRUKTIONSELEMENTE
100
AcDbLine
 62
7
  6
CONTINUOUS
 10
529.2678198484
 20
165.9625987474
 11
518.6612181306
 21
155.3559970296
  0
LINE
  5
240
100
AcDbEntity
  8
RUNDUNGEN
100
AcDbLine
 62
7
  6
CONTINUOUS
 10
383.9573763145
 20
19.2379416512
 11
495.905017005
 21
131.1855823417
  0
LINE
  5
241
100
AcDbEntity
  8
KONSTRUKTIONSELEMENTE
100
AcDbLine
 62
7
  6
CONTINUOUS
 10
499.9228884291
 20
134.8499003752
 11
518.6315734043
 21
153.5585853504
  0
LINE
  5
242
100
AcDbEntity
  8
KONSTRUKTIONSELEMENTE
100
AcDbLine
 62
7
  6
CONTINUOUS
 10
531.0355868013
 20
165.9625987474
 11
549.7442717765
 21
184.6712837226
  0
LINE
  5
243
100
AcDbEntity
  8
KONSTRUKTIONSELEMENTE
100
AcDbLine
 62
7
  6
CONTINUOUS
 10
503.1048689445
 20
131.6679198599
 11
521.8135539197
 21
150.3766048351
  0
LINE
  5
244
100
AcDbEntity
  8
KONSTRUKTIONSELEMENTE
100
AcDbLine
 62
7
  6
CONTINUOUS
 10
534.2175673167
 20
162.7806182321
 11
552.9262522919
 21
181.4893032073
  0
LINE
  5
245
100
AcDbEntity
  8
RUNDUNGEN
100
AcDbLine
 62
7
  6
CONTINUOUS
 10
387.4929102205
 20
15.7024077453
 11
499.4405365206
 21
127.6500340454
  0
LINE
  5
246
100
AcDbEntity
  8
KONSTRUKTIONSELEMENTE
100
AcDbLine
 62
7
  6
CONTINUOUS
 10
523.6109655989
 20
150.4062495613
 11
534.2175673167
 21
161.0128512791
  0
LINE
  5
247
100
AcDbEntity
  8
KONSTRUKTIONSELEMENTE
100
AcDbLine
 62
7
  6
CONTINUOUS
 10
564.670963352
 20
190.7591405333
 11
605.5875477722
 21
231.6757249535
  0
LINE
  5
248
100
AcDbEntity
  8
KONSTRUKTIONSELEMENTE
100
AcDbLine
 62
7
  6
CONTINUOUS
 10
564.6231589077
 20
189.9335186297
 11
556.2085882116
 21
181.5189479335
  0
LINE
  5
249
100
AcDbEntity
  8
KONSTRUKTIONSELEMENTE
100
AcDbLine
 62
7
  6
CONTINUOUS
 10
503.4584223351
 20
128.768782057
 11
495.043851639
 21
120.3542113609
  0
LINE
  5
24A
100
AcDbEntity
  8
KONSTRUKTIONSELEMENTE
100
AcDbLine
 62
7
  6
CONTINUOUS
 10
526.7929461142
 20
147.224269046
 11
537.399547832
 21
157.8308707638
  0
LINE
  5
24B
100
AcDbEntity
  8
KONSTRUKTIONSELEMENTE
100
AcDbLine
 62
7
  6
CONTINUOUS
 10
568.1586928136
 20
186.3979847237
 11
559.7441221175
 21
177.9834140276
  0
LINE
  5
24C
100
AcDbEntity
  8
KONSTRUKTIONSELEMENTE
100
AcDbLine
 62
7
  6
CONTINUOUS
 10
506.993956241
 20
125.2332481511
 11
498.5793855449
 21
116.818677455
  0
LINE
  5
24D
100
AcDbEntity
  8
0
100
AcDbLine
 62
7
  6
CONTINUOUS
 10
713.4460512978
 20
146.7645809345
 11
706.6296656875
 21
161.2950242294
  0
LINE
  5
24E
100
AcDbEntity
  8
0
100
AcDbLine
 62
7
  6
CONTINUOUS
 10
710.8204049292
 20
180.4378952309
 11
716.8466672086
 21
165.0137086666
  0
LINE
  5
24F
100
AcDbEntity
  8
0
100
AcDbLine
 62
7
  6
CONTINUOUS
 10
695.7835316669
 20
154.3608860419
 11
700.6214701973
 21
141.0687591729
  0
LINE
  5
250
100
AcDbEntity
  8
0
100
AcDbLine
 62
7
  6
CONTINUOUS
 10
693.4790257312
 20
178.2352904643
 11
698.9083628929
 21
163.3183092099
  0
LINE
  5
251
100
AcDbEntity
  8
BEZUGSACHSEN
100
AcDbLine
 62
7
  6
CONTINUOUS
 10
693.4789225404
 20
178.2355739786
 11
679.0193680038
 21
217.9628735634
  0
LINE
  5
252
100
AcDbEntity
  8
0
100
AcDbLine
 62
7
  6
CONTINUOUS
 10
713.4460512978
 20
146.7645809345
 11
717.4153058667
 21
135.8591436342
  0
LINE
  5
253
100
AcDbEntity
  8
0
100
AcDbLine
 62
7
  6
CONTINUOUS
 10
701.3315744064
 20
176.9842433626
 11
706.6296656875
 21
161.2950242294
  0
LINE
  5
254
100
AcDbEntity
  8
0
100
AcDbLine
 62
7
  6
CONTINUOUS
 10
678.3163289119
 20
222.7707917765
 11
679.3146426203
 21
239.7660303248
  0
LINE
  5
255
100
AcDbEntity
  8
0
100
AcDbLine
 62
7
  6
CONTINUOUS
 10
625.9046421413
 20
176.9842433626
 11
620.6065508601
 21
161.2950242294
  0
LINE
  5
256
100
AcDbEntity
  8
0
100
AcDbLine
 62
7
  6
CONTINUOUS
 10
613.7901652499
 20
146.7645809345
 11
609.8209106809
 21
135.8591436342
  0
LINE
  5
257
100
AcDbEntity
  8
BEZUGSACHSEN
100
AcDbLine
 62
7
  6
CONTINUOUS
 10
648.2168485439
 20
217.9628735634
 11
633.7572940072
 21
178.2355739786
  0
LINE
  5
258
100
AcDbEntity
  8
0
100
AcDbLine
 62
7
  6
CONTINUOUS
 10
633.7572940072
 20
178.2355739786
 11
628.3278536547
 21
163.3183092099
  0
LINE
  5
259
100
AcDbEntity
  8
0
100
AcDbLine
 62
7
  6
CONTINUOUS
 10
626.6147463503
 20
141.0687591729
 11
631.4526848807
 21
154.3608860419
  0
LINE
  5
25A
100
AcDbEntity
  8
0
100
AcDbLine
 62
7
  6
CONTINUOUS
 10
613.7901652499
 20
146.7645809345
 11
620.6065508601
 21
161.2950242294
  0
LINE
  5
25B
100
AcDbEntity
  8
0
100
AcDbLine
 62
7
  6
CONTINUOUS
 10
609.8209106809
 20
135.8591436342
 11
619.3232413876
 21
156.1151980005
  0
LINE
  5
25C
100
AcDbEntity
  8
KONSTRUKTIONSELEMENTE
100
AcDbLine
 62
7
  6
CONTINUOUS
 10
639.9052181424
 20
242.6837452178
 11
628.2161367111
 21
230.3063408507
  0
LINE
  5
25D
100
AcDbEntity
  8
0
100
AcDbLine
 62
7
  6
CONTINUOUS
 10
687.3309984052
 20
242.6837452178
 11
679.3146426203
 21
239.7660303248
  0
LINE
  5
25E
100
AcDbEntity
  8
0
100
AcDbLine
 62
7
  6
CONTINUOUS
 10
681.8525989523
 20
232.7930526111
 11
689.8689547372
 21
235.7107675041
  0
LINE
  5
25F
100
AcDbEntity
  8
0
100
AcDbLine
 62
7
  6
CONTINUOUS
 10
720.965001803
 20
149.5012551113
 11
724.9342563719
 21
138.5958178111
  0
LINE
  5
260
100
AcDbEntity
  8
RUNDUNGEN
100
AcDbLine
 62
7
  6
CONTINUOUS
 10
716.0316486301
 20
186.4437739041
 11
721.4609857918
 21
171.5267926497
  0
LINE
  5
261
100
AcDbEntity
  8
BEZUGSACHSEN
100
AcDbLine
 62
7
  6
CONTINUOUS
 10
716.0315454393
 20
186.4440574184
 11
701.5719909027
 21
226.1713570032
  0
LINE
  5
262
100
AcDbEntity
  8
RUNDUNGEN
100
AcDbLine
 62
7
  6
CONTINUOUS
 10
729.6124660152
 20
166.6736112017
 11
734.4504045456
 21
153.3814843327
  0
LINE
  5
263
100
AcDbEntity
  8
RUNDUNGEN
100
AcDbLine
 62
7
  6
CONTINUOUS
 10
749.6914171939
 20
127.5880704327
 11
742.3052185827
 21
147.8814843327
  0
LINE
  5
264
100
AcDbEntity
  8
0
100
AcDbLine
 62
7
  6
CONTINUOUS
 10
720.965001803
 20
149.5012551113
 11
716.8466672086
 21
165.0137086666
  0
LINE
  5
265
100
AcDbEntity
  8
RUNDUNGEN
100
AcDbLine
 62
7
  6
CONTINUOUS
 10
724.9342563719
 20
138.5958178111
 11
719.1931232387
 21
160.2208361392
  0
LINE
  5
266
100
AcDbEntity
  8
0
100
AcDbLine
 62
7
  6
CONTINUOUS
 10
629.0965511419
 20
131.8065375964
 11
621.7103525307
 21
111.5131236964
  0
LINE
  5
267
100
AcDbEntity
  8
0
100
AcDbLine
 62
7
  6
CONTINUOUS
 10
688.7864245987
 20
213.7425232171
 11
696.8027803836
 21
216.6602381101
  0
LINE
  5
268
100
AcDbEntity
  8
RUNDUNGEN
100
AcDbLine
 62
7
  6
CONTINUOUS
 10
592.785812002
 20
153.3814843327
 11
584.930997965
 21
147.8814843327
  0
LINE
  5
269
100
AcDbEntity
  8
0
100
AcDbLine
 62
7
  6
CONTINUOUS
 10
698.2582065772
 20
187.7190161093
 11
706.2745623621
 21
190.6367310023
  0
LINE
  5
26A
100
AcDbEntity
  8
0
100
AcDbLine
 62
7
  6
CONTINUOUS
 10
698.1396654058
 20
131.8065375964
 11
700.6214701973
 21
141.0687591729
  0
LINE
  5
26B
100
AcDbEntity
  8
0
100
AcDbLine
 62
7
  6
CONTINUOUS
 10
753.6181082738
 20
455.3631397046
 11
753.6181082738
 21
295.3631397046
  0
LINE
  5
26C
100
AcDbEntity
  8
0
100
AcDbLine
 62
7
  6
CONTINUOUS
 10
706.6296656875
 20
161.2950242294
 11
716.8466672086
 21
165.0137086666
  0
LINE
  5
26D
100
AcDbEntity
  8
0
100
AcDbLine
 62
7
  6
CONTINUOUS
 10
720.965001803
 20
149.5012551113
 11
713.4460512978
 21
146.7645809345
  0
LINE
  5
26E
100
AcDbEntity
  8
0
100
AcDbLine
 62
7
  6
CONTINUOUS
 10
789.6181082738
 20
455.3631397046
 11
789.6181082738
 21
295.3631397046
  0
LINE
  5
26F
100
AcDbEntity
  8
0
100
AcDbLine
 62
7
  6
CONTINUOUS
 10
717.4153058667
 20
135.8591436342
 11
724.9342563719
 21
138.5958178111
  0
LINE
  5
270
100
AcDbEntity
  8
0
100
AcDbLine
 62
7
  6
CONTINUOUS
 10
720.1063079563
 20
105.7504473123
 11
742.2263261143
 21
113.8014755032
  0
LINE
  5
271
100
AcDbEntity
  8
0
100
AcDbLine
 62
7
  6
CONTINUOUS
 10
734.2413139782
 20
98.1235718806
 11
736.3007443259
 21
98.8731432267
  0
LINE
  5
272
100
AcDbEntity
  8
RUNDUNGEN
100
AcDbLine
 62
7
  6
CONTINUOUS
 10
125.481456685
 20
15.7024077453
 11
129.031456685
 21
15.7024077453
  0
LINE
  5
273
100
AcDbEntity
  8
RUNDUNGEN
100
AcDbLine
 62
7
  6
CONTINUOUS
 10
214.931456685
 20
15.7024077453
 11
218.481456685
 21
15.7024077453
  0
LINE
  5
274
100
AcDbEntity
  8
RUNDUNGEN
100
AcDbLine
 62
7
  6
CONTINUOUS
 10
137.831456685
 20
29.1374365878
 11
148.8806694299
 21
29.1374365878
  0
LINE
  5
275
100
AcDbEntity
  8
RUNDUNGEN
100
AcDbLine
 62
7
  6
CONTINUOUS
 10
195.0822439401
 20
29.1374365878
 11
206.131456685
 21
29.1374365878
  0
LINE
  5
276
100
AcDbEntity
  8
0
100
AcDbLine
 62
7
  6
CONTINUOUS
 10
149.6018283086
 20
94.756945882
 11
157.2818283086
 21
94.756945882
  0
LINE
  5
277
100
AcDbEntity
  8
0
100
AcDbLine
 62
7
  6
CONTINUOUS
 10
161.355110391
 20
94.756945882
 11
162.891110391
 21
94.756945882
  0
LINE
  5
278
100
AcDbEntity
  8
0
100
AcDbLine
 62
7
  6
CONTINUOUS
 10
170.207836658
 20
94.756945882
 11
171.981456685
 21
94.756945882
  0
LINE
  5
279
100
AcDbEntity
  8
0
100
AcDbLine
 62
7
  6
CONTINUOUS
 10
185.3457269679
 20
94.756945882
 11
190.910474276
 21
94.756945882
  0
LINE
  5
27A
100
AcDbEntity
  8
0
100
AcDbLine
 62
7
  6
CONTINUOUS
 10
149.6018283086
 20
95.3226313069
 11
157.2818283086
 21
95.3226313069
  0
LINE
  5
27B
100
AcDbEntity
  8
0
100
AcDbLine
 62
7
  6
CONTINUOUS
 10
161.355110391
 20
95.3226313069
 11
162.891110391
 21
95.3226313069
  0
LINE
  5
27C
100
AcDbEntity
  8
0
100
AcDbLine
 62
7
  6
CONTINUOUS
 10
170.207836658
 20
95.3226313069
 11
171.5195764696
 21
95.3226313069
  0
LINE
  5
27D
100
AcDbEntity
  8
0
100
AcDbLine
 62
7
  6
CONTINUOUS
 10
185.3457269679
 20
95.3226313069
 11
190.910474276
 21
95.3226313069
  0
LINE
  5
27E
100
AcDbEntity
  8
0
100
AcDbLine
 62
7
  6
CONTINUOUS
 10
190.9441326407
 20
95.8883167319
 11
186.8817269679
 21
95.8883167319
  0
LINE
  5
27F
100
AcDbEntity
  8
0
100
AcDbLine
 62
7
  6
CONTINUOUS
 10
154.6418283086
 20
96.1145909018
 11
152.2418283086
 21
96.1145909018
  0
LINE
  5
280
100
AcDbEntity
  8
0
100
AcDbLine
 62
7
  6
CONTINUOUS
 10
152.6738283086
 20
96.6237077843
 11
154.2098283086
 21
96.6237077843
  0
LINE
  5
281
100
AcDbEntity
  8
0
100
AcDbLine
 62
7
  6
CONTINUOUS
 10
133.981456685
 20
96.7716113915
 11
140.9436988026
 21
96.7716113915
  0
LINE
  5
282
100
AcDbEntity
  8
0
100
AcDbLine
 62
7
  6
CONTINUOUS
 10
203.0192145674
 20
96.7716113915
 11
209.981456685
 21
96.7716113915
  0
LINE
  5
283
100
AcDbEntity
  8
0
100
AcDbLine
 62
7
  6
CONTINUOUS
 10
152.6738283086
 20
97.1893932092
 11
154.2098283086
 21
97.1893932092
  0
LINE
  5
284
100
AcDbEntity
  8
0
100
AcDbLine
 62
7
  6
CONTINUOUS
 10
153.6098283086
 20
97.9813528042
 11
153.2738283086
 21
97.9813528042
  0
LINE
  5
285
100
AcDbEntity
  8
0
100
AcDbLine
 62
7
  6
CONTINUOUS
 10
154.2098283086
 20
98.3207640591
 11
153.8018283086
 21
98.3207640591
  0
LINE
  5
286
100
AcDbEntity
  8
0
100
AcDbLine
 62
7
  6
CONTINUOUS
 10
153.0818283086
 20
98.3207640591
 11
152.6738283086
 21
98.3207640591
  0
LINE
  5
287
100
AcDbEntity
  8
0
100
AcDbLine
 62
7
  6
CONTINUOUS
 10
152.2418283086
 20
98.8298809416
 11
153.0818283086
 21
98.8298809416
  0
LINE
  5
288
100
AcDbEntity
  8
0
100
AcDbLine
 62
7
  6
CONTINUOUS
 10
153.8018283086
 20
98.8298809416
 11
154.6418283086
 21
98.8298809416
  0
LINE
  5
289
100
AcDbEntity
  8
0
100
AcDbLine
 62
7
  6
CONTINUOUS
 10
162.891110391
 20
99.0150485468
 11
166.731110391
 21
99.0150485468
  0
LINE
  5
28A
100
AcDbEntity
  8
0
100
AcDbLine
 62
7
  6
CONTINUOUS
 10
152.2418283086
 20
99.3955663665
 11
153.0818283086
 21
99.3955663665
  0
LINE
  5
28B
100
AcDbEntity
  8
0
100
AcDbLine
 62
7
  6
CONTINUOUS
 10
153.8018283086
 20
99.3955663665
 11
154.6418283086
 21
99.3955663665
  0
LINE
  5
28C
100
AcDbEntity
  8
0
100
AcDbLine
 62
7
  6
CONTINUOUS
 10
154.6418283086
 20
99.5087034515
 11
153.8018283086
 21
99.5087034515
  0
LINE
  5
28D
100
AcDbEntity
  8
0
100
AcDbLine
 62
7
  6
CONTINUOUS
 10
153.0818283086
 20
99.5087034515
 11
152.2418283086
 21
99.5087034515
  0
LINE
  5
28E
100
AcDbEntity
  8
0
100
AcDbLine
 62
7
  6
CONTINUOUS
 10
162.891110391
 20
99.5807339717
 11
166.731110391
 21
99.5807339717
  0
LINE
  5
28F
100
AcDbEntity
  8
0
100
AcDbLine
 62
7
  6
CONTINUOUS
 10
152.6738283086
 20
100.017820334
 11
153.0818283086
 21
100.017820334
  0
LINE
  5
290
100
AcDbEntity
  8
0
100
AcDbLine
 62
7
  6
CONTINUOUS
 10
153.8018283086
 20
100.017820334
 11
154.2098283086
 21
100.017820334
  0
LINE
  5
291
100
AcDbEntity
  8
0
100
AcDbLine
 62
7
  6
CONTINUOUS
 10
167.371110391
 20
100.1011645627
 11
162.891110391
 21
100.1011645627
  0
LINE
  5
292
100
AcDbEntity
  8
0
100
AcDbLine
 62
7
  6
CONTINUOUS
 10
153.2738283086
 20
100.357231589
 11
153.6098283086
 21
100.357231589
  0
LINE
  5
293
100
AcDbEntity
  8
0
100
AcDbLine
 62
7
  6
CONTINUOUS
 10
152.6738283086
 20
100.5835057589
 11
153.0818283086
 21
100.5835057589
  0
LINE
  5
294
100
AcDbEntity
  8
0
100
AcDbLine
 62
7
  6
CONTINUOUS
 10
153.8018283086
 20
100.5835057589
 11
154.2098283086
 21
100.5835057589
  0
LINE
  5
295
100
AcDbEntity
  8
0
100
AcDbLine
 62
7
  6
CONTINUOUS
 10
153.2738283086
 20
100.9229170139
 11
153.6098283086
 21
100.9229170139
  0
LINE
  5
296
100
AcDbEntity
  8
0
100
AcDbLine
 62
7
  6
CONTINUOUS
 10
186.8817269679
 20
101.5451709814
 11
185.3457269679
 21
101.5451709814
  0
LINE
  5
297
100
AcDbEntity
  8
0
100
AcDbLine
 62
7
  6
CONTINUOUS
 10
162.891110391
 20
101.6017395238
 11
161.355110391
 21
101.6017395238
  0
LINE
  5
298
100
AcDbEntity
  8
0
100
AcDbLine
 62
7
  6
CONTINUOUS
 10
154.2098283086
 20
101.7148766088
 11
152.6738283086
 21
101.7148766088
  0
LINE
  5
299
100
AcDbEntity
  8
0
100
AcDbLine
 62
7
  6
CONTINUOUS
 10
152.2418283086
 20
102.2239934913
 11
154.6418283086
 21
102.2239934913
  0
LINE
  5
29A
100
AcDbEntity
  8
0
100
AcDbLine
 62
7
  6
CONTINUOUS
 10
185.3457269679
 20
102.4955224953
 11
190.9441326407
 21
102.4955224953
  0
LINE
  5
29B
100
AcDbEntity
  8
0
100
AcDbLine
 62
7
  6
CONTINUOUS
 10
161.355110391
 20
102.5520910378
 11
167.371110391
 21
102.5520910378
  0
LINE
  5
29C
100
AcDbEntity
  8
0
100
AcDbLine
 62
7
  6
CONTINUOUS
 10
153.4971296738
 20
102.7896789162
 11
154.6418283086
 21
102.7896789162
  0
LINE
  5
29D
100
AcDbEntity
  8
0
100
AcDbLine
 62
7
  6
CONTINUOUS
 10
185.3457269679
 20
103.0612079202
 11
189.670820783
 21
103.0612079202
  0
LINE
  5
29E
100
AcDbEntity
  8
0
100
AcDbLine
 62
7
  6
CONTINUOUS
 10
161.355110391
 20
103.1177764627
 11
167.371110391
 21
103.1177764627
  0
LINE
  5
29F
100
AcDbEntity
  8
0
100
AcDbLine
 62
7
  6
CONTINUOUS
 10
187.8935762363
 20
103.5816385112
 11
185.3457269679
 21
103.5816385112
  0
LINE
  5
2A0
100
AcDbEntity
  8
0
100
AcDbLine
 62
7
  6
CONTINUOUS
 10
181.9857269679
 20
103.5816385112
 11
180.4497269679
 21
103.5816385112
  0
LINE
  5
2A1
100
AcDbEntity
  8
0
100
AcDbLine
 62
7
  6
CONTINUOUS
 10
174.411110391
 20
103.5816385112
 11
172.875110391
 21
103.5816385112
  0
LINE
  5
2A2
100
AcDbEntity
  8
0
100
AcDbLine
 62
7
  6
CONTINUOUS
 10
167.371110391
 20
103.5816385112
 11
161.355110391
 21
103.5816385112
  0
LINE
  5
2A3
100
AcDbEntity
  8
0
100
AcDbLine
 62
7
  6
CONTINUOUS
 10
157.2818283086
 20
103.5816385112
 11
156.0693371337
 21
103.5816385112
  0
LINE
  5
2A4
100
AcDbEntity
  8
BEZUGSACHSEN
100
AcDbLine
 62
7
  6
CONTINUOUS
 10
162.731456685
 20
112.0093675477
 11
181.231456685
 21
112.0093675477
  0
LINE
  5
2A5
100
AcDbEntity
  8
BEZUGSACHSEN
100
AcDbLine
 62
7
  6
CONTINUOUS
 10
162.731456685
 20
121.784785334
 11
181.231456685
 21
121.784785334
  0
LINE
  5
2A6
100
AcDbEntity
  8
0
100
AcDbLine
 62
7
  6
CONTINUOUS
 10
203.0311125839
 20
96.771611498
 11
203.0212525743
 21
96.7750687095
  0
LINE
  5
2A7
100
AcDbEntity
  8
RUNDUNGEN
100
AcDbLine
 62
7
  6
CONTINUOUS
 10
104.7572027586
 20
116.1468928901
 11
108.772237813
 21
112.0922971327
  0
LINE
  5
2A8
100
AcDbEntity
  8
RUNDUNGEN
100
AcDbLine
 62
7
  6
CONTINUOUS
 10
120.5879124018
 20
100.1602010467
 11
142.408499653
 21
78.1246124922
  0
LINE
  5
2A9
100
AcDbEntity
  8
RUNDUNGEN
100
AcDbLine
 62
7
  6
CONTINUOUS
 10
180.1729771279
 20
39.9880363297
 11
188.5290275858
 21
31.549652536
  0
LINE
  5
2AA
100
AcDbEntity
  8
BEZUGSACHSEN
100
AcDbLine
 62
7
  6
CONTINUOUS
 10
162.731456685
 20
131.6743526279
 11
181.231456685
 21
131.6743526279
  0
LINE
  5
2AB
100
AcDbEntity
  8
BEZUGSACHSEN
100
AcDbLine
 62
7
  6
CONTINUOUS
 10
162.731456685
 20
134.6093675477
 11
181.231456685
 21
134.6093675477
  0
LINE
  5
2AC
100
AcDbEntity
  8
RUNDUNGEN
100
AcDbLine
 62
7
  6
CONTINUOUS
 10
126.481456685
 20
110.2350265197
 11
123.149461225
 21
113.5998525978
  0
LINE
  5
2AD
100
AcDbEntity
  8
0
100
AcDbLine
 62
7
  6
CONTINUOUS
 10
196.3523207611
 20
158.0755783098
 11
195.6863301875
 21
157.9229842424
  0
LINE
  5
2AE
100
AcDbEntity
  8
0
100
AcDbLine
 62
7
  6
CONTINUOUS
 10
196.3523207611
 20
158.286091708
 11
195.6863301875
 21
158.1334976407
  0
LINE
  5
2AF
100
AcDbEntity
  8
0
100
AcDbLine
 62
7
  6
CONTINUOUS
 10
193.5218584416
 20
163.3216966786
 11
194.1878499679
 21
163.474290746
  0
LINE
  5
2B0
100
AcDbEntity
  8
0
100
AcDbLine
 62
7
  6
CONTINUOUS
 10
156.1613053999
 20
157.2179331297
 11
156.9563268398
 21
157.3705272104
  0
LINE
  5
2B1
100
AcDbEntity
  8
0
100
AcDbLine
 62
7
  6
CONTINUOUS
 10
148.5291053999
 20
157.2179331297
 11
149.32412593
 21
157.3705272104
  0
LINE
  5
2B2
100
AcDbEntity
  8
0
100
AcDbLine
 62
7
  6
CONTINUOUS
 10
206.1756907719
 20
157.2179331297
 11
207.0081804179
 21
157.3705272104
  0
LINE
  5
2B3
100
AcDbEntity
  8
0
100
AcDbLine
 62
7
  6
CONTINUOUS
 10
195.6863301875
 20
157.2179331297
 11
196.5188188808
 21
157.3705272104
  0
LINE
  5
2B4
100
AcDbEntity
  8
0
100
AcDbLine
 62
7
  6
CONTINUOUS
 10
205.3432030313
 20
161.5852421794
 11
204.5107133852
 21
161.4326481121
  0
LINE
  5
2B5
100
AcDbEntity
  8
0
100
AcDbLine
 62
7
  6
CONTINUOUS
 10
205.3432030313
 20
161.7957555776
 11
204.5107133852
 21
161.6431615103
  0
LINE
  5
2B6
100
AcDbEntity
  8
0
100
AcDbLine
 62
7
  6
CONTINUOUS
 10
205.3432030313
 20
164.1793417518
 11
204.5107133852
 21
164.0267476845
  0
LINE
  5
2B7
100
AcDbEntity
  8
0
100
AcDbLine
 62
7
  6
CONTINUOUS
 10
205.3432030313
 20
164.3898551501
 11
204.5107133852
 21
164.2372610827
  0
LINE
  5
2B8
100
AcDbEntity
  8
0
100
AcDbLine
 62
7
  6
CONTINUOUS
 10
194.1878499679
 20
164.1793417518
 11
193.3553603219
 21
164.0267476845
  0
LINE
  5
2B9
100
AcDbEntity
  8
0
100
AcDbLine
 62
7
  6
CONTINUOUS
 10
194.1878499679
 20
164.3898551501
 11
193.3553603219
 21
164.2372610827
  0
LINE
  5
2BA
100
AcDbEntity
  8
RUNDUNGEN
100
AcDbLine
 62
7
  6
CONTINUOUS
 10
133.981456685
 20
147.8814843327
 11
162.731456685
 21
147.8814843327
  0
LINE
  5
2BB
100
AcDbEntity
  8
RUNDUNGEN
100
AcDbLine
 62
7
  6
CONTINUOUS
 10
181.231456685
 20
147.8814843327
 11
209.981456685
 21
147.8814843327
  0
LINE
  5
2BC
100
AcDbEntity
  8
RUNDUNGEN
100
AcDbLine
 62
7
  6
CONTINUOUS
 10
209.981456685
 20
153.3814843327
 11
180.9888013475
 21
153.3814843327
  0
LINE
  5
2BD
100
AcDbEntity
  8
RUNDUNGEN
100
AcDbLine
 62
7
  6
CONTINUOUS
 10
162.9741120225
 20
153.3814843327
 11
133.981456685
 21
153.3814843327
  0
LINE
  5
2BE
100
AcDbEntity
  8
0
100
AcDbLine
 62
7
  6
CONTINUOUS
 10
138.0348303999
 20
157.2179331297
 11
138.9888553999
 21
157.2179331297
  0
LINE
  5
2BF
100
AcDbEntity
  8
0
100
AcDbLine
 62
7
  6
CONTINUOUS
 10
142.9639594149
 20
157.2179331297
 11
144.0769888849
 21
157.2179331297
  0
LINE
  5
2C0
100
AcDbEntity
  8
0
100
AcDbLine
 62
7
  6
CONTINUOUS
 10
147.89308843
 20
157.2179331297
 11
148.5291053999
 21
157.2179331297
  0
LINE
  5
2C1
100
AcDbEntity
  8
0
100
AcDbLine
 62
7
  6
CONTINUOUS
 10
152.3452053999
 20
157.2179331297
 11
156.1613053999
 21
157.2179331297
  0
LINE
  5
2C2
100
AcDbEntity
  8
0
100
AcDbLine
 62
7
  6
CONTINUOUS
 10
181.534016685
 20
157.2179331297
 11
182.533003498
 21
157.2179331297
  0
LINE
  5
2C3
100
AcDbEntity
  8
0
100
AcDbLine
 62
7
  6
CONTINUOUS
 10
183.8649858361
 20
157.2179331297
 11
184.8639726491
 21
157.2179331297
  0
LINE
  5
2C4
100
AcDbEntity
  8
0
100
AcDbLine
 62
7
  6
CONTINUOUS
 10
189.0264177829
 20
157.2179331297
 11
190.1919027157
 21
157.2179331297
  0
LINE
  5
2C5
100
AcDbEntity
  8
0
100
AcDbLine
 62
7
  6
CONTINUOUS
 10
194.1878499679
 20
157.2179331297
 11
195.6863301875
 21
157.2179331297
  0
LINE
  5
2C6
100
AcDbEntity
  8
0
100
AcDbLine
 62
7
  6
CONTINUOUS
 10
200.348268966
 20
157.2179331297
 11
201.347255779
 21
157.2179331297
  0
LINE
  5
2C7
100
AcDbEntity
  8
0
100
AcDbLine
 62
7
  6
CONTINUOUS
 10
205.3432030313
 20
157.2179331297
 11
206.1756907719
 21
157.2179331297
  0
LINE
  5
2C8
100
AcDbEntity
  8
0
100
AcDbLine
 62
7
  6
CONTINUOUS
 10
206.3421898443
 20
157.7703901751
 11
205.1767039588
 21
157.7703901751
  0
LINE
  5
2C9
100
AcDbEntity
  8
0
100
AcDbLine
 62
7
  6
CONTINUOUS
 10
195.6863301875
 20
157.9229842424
 11
194.1878499679
 21
157.9229842424
  0
LINE
  5
2CA
100
AcDbEntity
  8
0
100
AcDbLine
 62
7
  6
CONTINUOUS
 10
156.1613053999
 20
157.9229842424
 11
153.2992303999
 21
157.9229842424
  0
LINE
  5
2CB
100
AcDbEntity
  8
0
100
AcDbLine
 62
7
  6
CONTINUOUS
 10
148.5291053999
 20
157.9229842424
 11
147.89308843
 21
157.9229842424
  0
LINE
  5
2CC
100
AcDbEntity
  8
0
100
AcDbLine
 62
7
  6
CONTINUOUS
 10
206.3421898443
 20
157.9809035733
 11
205.1767039588
 21
157.9809035733
  0
LINE
  5
2CD
100
AcDbEntity
  8
0
100
AcDbLine
 62
7
  6
CONTINUOUS
 10
195.6863301875
 20
158.1334976407
 11
194.1878499679
 21
158.1334976407
  0
LINE
  5
2CE
100
AcDbEntity
  8
0
100
AcDbLine
 62
7
  6
CONTINUOUS
 10
156.1613053999
 20
158.1334976407
 11
153.2992303999
 21
158.1334976407
  0
LINE
  5
2CF
100
AcDbEntity
  8
0
100
AcDbLine
 62
7
  6
CONTINUOUS
 10
148.5291053999
 20
158.1334976407
 11
147.89308843
 21
158.1334976407
  0
LINE
  5
2D0
100
AcDbEntity
  8
0
100
AcDbLine
 62
7
  6
CONTINUOUS
 10
195.5198320678
 20
160.2698149042
 11
197.0183122873
 21
160.2698149042
  0
LINE
  5
2D1
100
AcDbEntity
  8
0
100
AcDbLine
 62
7
  6
CONTINUOUS
 10
138.9888553999
 20
160.4224089715
 11
141.6919261574
 21
160.4224089715
  0
LINE
  5
2D2
100
AcDbEntity
  8
0
100
AcDbLine
 62
7
  6
CONTINUOUS
 10
184.8639726491
 20
160.4224089715
 11
187.6944352067
 21
160.4224089715
  0
LINE
  5
2D3
100
AcDbEntity
  8
0
100
AcDbLine
 62
7
  6
CONTINUOUS
 10
198.0172991004
 20
160.97486591
 11
195.5198320678
 21
160.97486591
  0
LINE
  5
2D4
100
AcDbEntity
  8
0
100
AcDbLine
 62
7
  6
CONTINUOUS
 10
205.1767039588
 20
161.0327852409
 11
206.3421898443
 21
161.0327852409
  0
LINE
  5
2D5
100
AcDbEntity
  8
0
100
AcDbLine
 62
7
  6
CONTINUOUS
 10
188.0274309698
 20
161.1274599774
 11
184.8639726491
 21
161.1274599774
  0
LINE
  5
2D6
100
AcDbEntity
  8
0
100
AcDbLine
 62
7
  6
CONTINUOUS
 10
142.0099344149
 20
161.1274599774
 11
138.9888553999
 21
161.1274599774
  0
LINE
  5
2D7
100
AcDbEntity
  8
0
100
AcDbLine
 62
7
  6
CONTINUOUS
 10
198.0172991004
 20
161.1853793082
 11
195.5198320678
 21
161.1853793082
  0
LINE
  5
2D8
100
AcDbEntity
  8
0
100
AcDbLine
 62
7
  6
CONTINUOUS
 10
188.0274309698
 20
161.3379733756
 11
184.8639726491
 21
161.3379733756
  0
LINE
  5
2D9
100
AcDbEntity
  8
0
100
AcDbLine
 62
7
  6
CONTINUOUS
 10
142.0099344149
 20
161.3379733756
 11
138.9888553999
 21
161.3379733756
  0
LINE
  5
2DA
100
AcDbEntity
  8
0
100
AcDbLine
 62
7
  6
CONTINUOUS
 10
206.1756907719
 20
161.5852421794
 11
205.3432030313
 21
161.5852421794
  0
LINE
  5
2DB
100
AcDbEntity
  8
0
100
AcDbLine
 62
7
  6
CONTINUOUS
 10
206.1756907719
 20
161.7957555776
 11
205.3432030313
 21
161.7957555776
  0
LINE
  5
2DC
100
AcDbEntity
  8
0
100
AcDbLine
 62
7
  6
CONTINUOUS
 10
197.0183122873
 20
162.5587259144
 11
198.0172991004
 21
162.5587259144
  0
LINE
  5
2DD
100
AcDbEntity
  8
0
100
AcDbLine
 62
7
  6
CONTINUOUS
 10
207.5076738244
 20
162.7113204092
 11
208.3401634704
 21
162.7113204092
  0
LINE
  5
2DE
100
AcDbEntity
  8
0
100
AcDbLine
 62
7
  6
CONTINUOUS
 10
153.2992303999
 20
163.474290746
 11
156.1613053999
 21
163.474290746
  0
LINE
  5
2DF
100
AcDbEntity
  8
0
100
AcDbLine
 62
7
  6
CONTINUOUS
 10
194.1878499679
 20
163.474290746
 11
195.6863301875
 21
163.474290746
  0
LINE
  5
2E0
100
AcDbEntity
  8
0
100
AcDbLine
 62
7
  6
CONTINUOUS
 10
138.9888553999
 20
163.6268848133
 11
142.0099344149
 21
163.6268848133
  0
LINE
  5
2E1
100
AcDbEntity
  8
0
100
AcDbLine
 62
7
  6
CONTINUOUS
 10
184.8639726491
 20
163.6268848133
 11
188.0274309698
 21
163.6268848133
  0
LINE
  5
2E2
100
AcDbEntity
  8
0
100
AcDbLine
 62
7
  6
CONTINUOUS
 10
205.1767039588
 20
163.6268848133
 11
206.1756907719
 21
163.6268848133
  0
LINE
  5
2E3
100
AcDbEntity
  8
0
100
AcDbLine
 62
7
  6
CONTINUOUS
 10
206.0091936048
 20
164.1793417518
 11
205.3432030313
 21
164.1793417518
  0
LINE
  5
2E4
100
AcDbEntity
  8
0
100
AcDbLine
 62
7
  6
CONTINUOUS
 10
201.347255779
 20
164.1793417518
 11
200.348268966
 21
164.1793417518
  0
LINE
  5
2E5
100
AcDbEntity
  8
0
100
AcDbLine
 62
7
  6
CONTINUOUS
 10
195.6863301875
 20
164.1793417518
 11
194.1878499679
 21
164.1793417518
  0
LINE
  5
2E6
100
AcDbEntity
  8
0
100
AcDbLine
 62
7
  6
CONTINUOUS
 10
187.8609333265
 20
164.1793417518
 11
183.8649858361
 21
164.1793417518
  0
LINE
  5
2E7
100
AcDbEntity
  8
0
100
AcDbLine
 62
7
  6
CONTINUOUS
 10
182.533003498
 20
164.1793417518
 11
181.534016685
 21
164.1793417518
  0
LINE
  5
2E8
100
AcDbEntity
  8
0
100
AcDbLine
 62
7
  6
CONTINUOUS
 10
156.1613053999
 20
164.1793417518
 11
152.3452053999
 21
164.1793417518
  0
LINE
  5
2E9
100
AcDbEntity
  8
0
100
AcDbLine
 62
7
  6
CONTINUOUS
 10
151.0731723698
 20
164.1793417518
 11
150.1191473698
 21
164.1793417518
  0
LINE
  5
2EA
100
AcDbEntity
  8
0
100
AcDbLine
 62
7
  6
CONTINUOUS
 10
146.3030473698
 20
164.1793417518
 11
145.3490219149
 21
164.1793417518
  0
LINE
  5
2EB
100
AcDbEntity
  8
0
100
AcDbLine
 62
7
  6
CONTINUOUS
 10
141.8509303999
 20
164.1793417518
 11
138.0348303999
 21
164.1793417518
  0
LINE
  5
2EC
100
AcDbEntity
  8
0
100
AcDbLine
 62
7
  6
CONTINUOUS
 10
206.0091936048
 20
164.3898551501
 11
205.3432030313
 21
164.3898551501
  0
LINE
  5
2ED
100
AcDbEntity
  8
0
100
AcDbLine
 62
7
  6
CONTINUOUS
 10
201.347255779
 20
164.3898551501
 11
200.348268966
 21
164.3898551501
  0
LINE
  5
2EE
100
AcDbEntity
  8
0
100
AcDbLine
 62
7
  6
CONTINUOUS
 10
195.6863301875
 20
164.3898551501
 11
194.1878499679
 21
164.3898551501
  0
LINE
  5
2EF
100
AcDbEntity
  8
0
100
AcDbLine
 62
7
  6
CONTINUOUS
 10
187.8609333265
 20
164.3898551501
 11
183.8649858361
 21
164.3898551501
  0
LINE
  5
2F0
100
AcDbEntity
  8
0
100
AcDbLine
 62
7
  6
CONTINUOUS
 10
182.533003498
 20
164.3898551501
 11
181.534016685
 21
164.3898551501
  0
LINE
  5
2F1
100
AcDbEntity
  8
0
100
AcDbLine
 62
7
  6
CONTINUOUS
 10
156.1613053999
 20
164.3898551501
 11
152.3452053999
 21
164.3898551501
  0
LINE
  5
2F2
100
AcDbEntity
  8
0
100
AcDbLine
 62
7
  6
CONTINUOUS
 10
151.0731723698
 20
164.3898551501
 11
150.1191473698
 21
164.3898551501
  0
LINE
  5
2F3
100
AcDbEntity
  8
0
100
AcDbLine
 62
7
  6
CONTINUOUS
 10
146.3030473698
 20
164.3898551501
 11
145.3490219149
 21
164.3898551501
  0
LINE
  5
2F4
100
AcDbEntity
  8
0
100
AcDbLine
 62
7
  6
CONTINUOUS
 10
141.8509303999
 20
164.3898551501
 11
138.0348303999
 21
164.3898551501
  0
LINE
  5
2F5
100
AcDbEntity
  8
0
100
AcDbLine
 62
7
  6
CONTINUOUS
 10
193.3553603219
 20
157.3705272104
 11
194.1878499679
 21
157.2179331297
  0
LINE
  5
2F6
100
AcDbEntity
  8
0
100
AcDbLine
 62
7
  6
CONTINUOUS
 10
147.0980678999
 20
157.3705272104
 11
147.89308843
 21
157.2179331297
  0
LINE
  5
2F7
100
AcDbEntity
  8
0
100
AcDbLine
 62
7
  6
CONTINUOUS
 10
142.6459513849
 20
164.0267476845
 11
141.8509303999
 21
164.1793417518
  0
LINE
  5
2F8
100
AcDbEntity
  8
0
100
AcDbLine
 62
7
  6
CONTINUOUS
 10
142.6459513849
 20
164.2372610827
 11
141.8509303999
 21
164.3898551501
  0
LINE
  5
2F9
100
AcDbEntity
  8
0
100
AcDbLine
 62
7
  6
CONTINUOUS
 10
156.9563268398
 20
164.0267476845
 11
156.1613053999
 21
164.1793417518
  0
LINE
  5
2FA
100
AcDbEntity
  8
0
100
AcDbLine
 62
7
  6
CONTINUOUS
 10
156.9563268398
 20
164.2372610827
 11
156.1613053999
 21
164.3898551501
  0
LINE
  5
2FB
100
AcDbEntity
  8
0
100
AcDbLine
 62
7
  6
CONTINUOUS
 10
147.89308843
 20
157.9229842424
 11
147.2570723698
 21
158.0755783098
  0
LINE
  5
2FC
100
AcDbEntity
  8
0
100
AcDbLine
 62
7
  6
CONTINUOUS
 10
147.89308843
 20
158.1334976407
 11
147.2570723698
 21
158.286091708
  0
LINE
  5
2FD
100
AcDbEntity
  8
0
100
AcDbLine
 62
7
  6
CONTINUOUS
 10
156.1613053999
 20
163.474290746
 11
156.79732146
 21
163.3216966786
  0
LINE
  5
2FE
100
AcDbEntity
  8
0
100
AcDbLine
 62
7
  6
CONTINUOUS
 10
142.0099344149
 20
163.6268848133
 11
142.4869469149
 21
163.474290746
  0
LINE
  5
2FF
100
AcDbEntity
  8
0
100
AcDbLine
 62
7
  6
CONTINUOUS
 10
146.46205093
 20
157.6757153852
 11
147.0980678999
 21
157.3705272104
  0
LINE
  5
300
100
AcDbEntity
  8
RUNDUNGEN
100
AcDbLine
 62
7
  6
CONTINUOUS
 10
225.0346730393
 20
34.1340095014
 11
201.554413717
 21
57.8456231086
  0
LINE
  5
301
100
AcDbEntity
  8
RUNDUNGEN
100
AcDbLine
 62
7
  6
CONTINUOUS
 10
225.0346730393
 20
37.6695434074
 11
201.554413717
 21
61.3811570145
  0
LINE
  5
302
100
AcDbEntity
  8
0
100
AcDbLine
 62
7
  6
CONTINUOUS
 10
156.79732146
 20
158.0755783098
 11
156.1613053999
 21
157.9229842424
  0
LINE
  5
303
100
AcDbEntity
  8
0
100
AcDbLine
 62
7
  6
CONTINUOUS
 10
156.79732146
 20
158.286091708
 11
156.1613053999
 21
158.1334976407
  0
LINE
  5
304
100
AcDbEntity
  8
0
100
AcDbLine
 62
7
  6
CONTINUOUS
 10
149.1651223698
 20
158.0755783098
 11
148.5291053999
 21
157.9229842424
  0
LINE
  5
305
100
AcDbEntity
  8
0
100
AcDbLine
 62
7
  6
CONTINUOUS
 10
149.1651223698
 20
158.286091708
 11
148.5291053999
 21
158.1334976407
  0
LINE
  5
306
100
AcDbEntity
  8
RUNDUNGEN
100
AcDbLine
 62
7
  6
CONTINUOUS
 10
136.481456685
 20
171.6084601267
 11
207.481456685
 21
171.6084601267
  0
LINE
  5
307
100
AcDbEntity
  8
0
100
AcDbLine
 62
7
  6
CONTINUOUS
 10
204.5107133852
 20
157.3705272104
 11
205.3432030313
 21
157.2179331297
  0
LINE
  5
308
100
AcDbEntity
  8
0
100
AcDbLine
 62
7
  6
CONTINUOUS
 10
188.6934220198
 20
164.0267476845
 11
187.8609333265
 21
164.1793417518
  0
LINE
  5
309
100
AcDbEntity
  8
0
100
AcDbLine
 62
7
  6
CONTINUOUS
 10
188.6934220198
 20
164.2372610827
 11
187.8609333265
 21
164.3898551501
  0
LINE
  5
30A
100
AcDbEntity
  8
0
100
AcDbLine
 62
7
  6
CONTINUOUS
 10
207.0081804179
 20
161.4326481121
 11
206.1756907719
 21
161.5852421794
  0
LINE
  5
30B
100
AcDbEntity
  8
0
100
AcDbLine
 62
7
  6
CONTINUOUS
 10
207.0081804179
 20
161.6431615103
 11
206.1756907719
 21
161.7957555776
  0
LINE
  5
30C
100
AcDbEntity
  8
0
100
AcDbLine
 62
7
  6
CONTINUOUS
 10
196.5188188808
 20
164.0267476845
 11
195.6863301875
 21
164.1793417518
  0
LINE
  5
30D
100
AcDbEntity
  8
0
100
AcDbLine
 62
7
  6
CONTINUOUS
 10
196.5188188808
 20
164.2372610827
 11
195.6863301875
 21
164.3898551501
  0
LINE
  5
30E
100
AcDbEntity
  8
0
100
AcDbLine
 62
7
  6
CONTINUOUS
 10
206.8416832508
 20
164.0267476845
 11
206.0091936048
 21
164.1793417518
  0
LINE
  5
30F
100
AcDbEntity
  8
0
100
AcDbLine
 62
7
  6
CONTINUOUS
 10
206.8416832508
 20
164.2372610827
 11
206.0091936048
 21
164.3898551501
  0
LINE
  5
310
100
AcDbEntity
  8
0
100
AcDbLine
 62
7
  6
CONTINUOUS
 10
194.1878499679
 20
157.9229842424
 11
193.5218584416
 21
158.0755783098
  0
LINE
  5
311
100
AcDbEntity
  8
0
100
AcDbLine
 62
7
  6
CONTINUOUS
 10
194.1878499679
 20
158.1334976407
 11
193.5218584416
 21
158.286091708
  0
LINE
  5
312
100
AcDbEntity
  8
0
100
AcDbLine
 62
7
  6
CONTINUOUS
 10
195.6863301875
 20
163.474290746
 11
196.3523207611
 21
163.3216966786
  0
LINE
  5
313
100
AcDbEntity
  8
0
100
AcDbLine
 62
7
  6
CONTINUOUS
 10
205.1767039588
 20
157.7703901751
 11
204.6772105523
 21
157.9229842424
  0
LINE
  5
314
100
AcDbEntity
  8
0
100
AcDbLine
 62
7
  6
CONTINUOUS
 10
205.1767039588
 20
157.9809035733
 11
204.6772105523
 21
158.1334976407
  0
LINE
  5
315
100
AcDbEntity
  8
0
100
AcDbLine
 62
7
  6
CONTINUOUS
 10
188.0274309698
 20
163.6268848133
 11
188.5269243764
 21
163.474290746
  0
LINE
  5
316
100
AcDbEntity
  8
0
100
AcDbLine
 62
7
  6
CONTINUOUS
 10
206.3421898443
 20
161.0327852409
 11
206.8416832508
 21
160.8801911736
  0
LINE
  5
317
100
AcDbEntity
  8
0
100
AcDbLine
 62
7
  6
CONTINUOUS
 10
206.1756907719
 20
163.6268848133
 11
206.6751841784
 21
163.474290746
  0
LINE
  5
318
100
AcDbEntity
  8
0
100
AcDbLine
 62
7
  6
CONTINUOUS
 10
192.6893697483
 20
157.6757153852
 11
193.3553603219
 21
157.3705272104
  0
LINE
  5
319
100
AcDbEntity
  8
0
100
AcDbLine
 62
7
  6
CONTINUOUS
 10
157.5923428999
 20
163.7215595498
 11
156.9563268398
 21
164.0267476845
  0
LINE
  5
31A
100
AcDbEntity
  8
0
100
AcDbLine
 62
7
  6
CONTINUOUS
 10
157.5923428999
 20
163.932072948
 11
156.9563268398
 21
164.2372610827
  0
LINE
  5
31B
100
AcDbEntity
  8
RUNDUNGEN
100
AcDbLine
 62
7
  6
CONTINUOUS
 10
241.7464419915
 20
121.794666082
 11
230.8926774047
 21
127.1685982687
  0
LINE
  5
31C
100
AcDbEntity
  8
RUNDUNGEN
100
AcDbLine
 62
7
  6
CONTINUOUS
 10
241.7464419915
 20
125.3301999879
 11
230.8926774047
 21
130.7041321746
  0
LINE
  5
31D
100
AcDbEntity
  8
0
100
AcDbLine
 62
7
  6
CONTINUOUS
 10
147.2570723698
 20
158.0755783098
 11
146.7800598698
 21
158.3807665514
  0
LINE
  5
31E
100
AcDbEntity
  8
0
100
AcDbLine
 62
7
  6
CONTINUOUS
 10
147.2570723698
 20
158.286091708
 11
146.7800598698
 21
158.5912799496
  0
LINE
  5
31F
100
AcDbEntity
  8
0
100
AcDbLine
 62
7
  6
CONTINUOUS
 10
156.79732146
 20
163.3216966786
 11
157.27433396
 21
163.0165085439
  0
LINE
  5
320
100
AcDbEntity
  8
0
100
AcDbLine
 62
7
  6
CONTINUOUS
 10
143.2819678999
 20
163.5689654824
 11
142.6459513849
 21
164.0267476845
  0
LINE
  5
321
100
AcDbEntity
  8
0
100
AcDbLine
 62
7
  6
CONTINUOUS
 10
143.2819678999
 20
163.7794788807
 11
142.6459513849
 21
164.2372610827
  0
LINE
  5
322
100
AcDbEntity
  8
0
100
AcDbLine
 62
7
  6
CONTINUOUS
 10
145.8260348698
 20
158.286091708
 11
146.46205093
 21
157.6757153852
  0
LINE
  5
323
100
AcDbEntity
  8
0
100
AcDbLine
 62
7
  6
CONTINUOUS
 10
142.4869469149
 20
163.474290746
 11
142.8049553999
 21
163.1691026113
  0
LINE
  5
324
100
AcDbEntity
  8
0
100
AcDbLine
 62
7
  6
CONTINUOUS
 10
166.731110391
 20
99.0150485468
 11
170.207836658
 21
94.756945882
  0
LINE
  5
325
100
AcDbEntity
  8
0
100
AcDbLine
 62
7
  6
CONTINUOUS
 10
166.731110391
 20
99.5807339717
 11
170.207836658
 21
95.3226313069
  0
LINE
  5
326
100
AcDbEntity
  8
0
100
AcDbLine
 62
7
  6
CONTINUOUS
 10
171.981456685
 20
94.756945882
 11
168.3665480213
 21
99.1842867283
  0
LINE
  5
327
100
AcDbEntity
  8
0
100
AcDbLine
 62
7
  6
CONTINUOUS
 10
197.1848104071
 20
163.7215595498
 11
196.5188188808
 21
164.0267476845
  0
LINE
  5
328
100
AcDbEntity
  8
0
100
AcDbLine
 62
7
  6
CONTINUOUS
 10
197.1848104071
 20
163.932072948
 11
196.5188188808
 21
164.2372610827
  0
LINE
  5
329
100
AcDbEntity
  8
0
100
AcDbLine
 62
7
  6
CONTINUOUS
 10
203.6782237392
 20
157.8283094525
 11
204.5107133852
 21
157.3705272104
  0
LINE
  5
32A
100
AcDbEntity
  8
0
100
AcDbLine
 62
7
  6
CONTINUOUS
 10
207.8406700639
 20
160.97486591
 11
207.0081804179
 21
161.4326481121
  0
LINE
  5
32B
100
AcDbEntity
  8
0
100
AcDbLine
 62
7
  6
CONTINUOUS
 10
207.8406700639
 20
161.1853793082
 11
207.0081804179
 21
161.6431615103
  0
LINE
  5
32C
100
AcDbEntity
  8
0
100
AcDbLine
 62
7
  6
CONTINUOUS
 10
207.6741709914
 20
163.5689654824
 11
206.8416832508
 21
164.0267476845
  0
LINE
  5
32D
100
AcDbEntity
  8
0
100
AcDbLine
 62
7
  6
CONTINUOUS
 10
207.6741709914
 20
163.7794788807
 11
206.8416832508
 21
164.2372610827
  0
LINE
  5
32E
100
AcDbEntity
  8
0
100
AcDbLine
 62
7
  6
CONTINUOUS
 10
193.5218584416
 20
158.0755783098
 11
193.0223650351
 21
158.3807665514
  0
LINE
  5
32F
100
AcDbEntity
  8
0
100
AcDbLine
 62
7
  6
CONTINUOUS
 10
193.5218584416
 20
158.286091708
 11
193.0223650351
 21
158.5912799496
  0
LINE
  5
330
100
AcDbEntity
  8
0
100
AcDbLine
 62
7
  6
CONTINUOUS
 10
204.6772105523
 20
157.9229842424
 11
204.1777171458
 21
158.2281723771
  0
LINE
  5
331
100
AcDbEntity
  8
0
100
AcDbLine
 62
7
  6
CONTINUOUS
 10
204.6772105523
 20
158.1334976407
 11
204.1777171458
 21
158.4386857754
  0
LINE
  5
332
100
AcDbEntity
  8
0
100
AcDbLine
 62
7
  6
CONTINUOUS
 10
196.3523207611
 20
163.3216966786
 11
196.8518141676
 21
163.0165085439
  0
LINE
  5
333
100
AcDbEntity
  8
0
100
AcDbLine
 62
7
  6
CONTINUOUS
 10
206.8416832508
 20
160.8801911736
 11
207.3411766574
 21
160.5750030389
  0
LINE
  5
334
100
AcDbEntity
  8
0
100
AcDbLine
 62
7
  6
CONTINUOUS
 10
206.6751841784
 20
163.474290746
 11
207.1746775849
 21
163.1691026113
  0
LINE
  5
335
100
AcDbEntity
  8
0
100
AcDbLine
 62
7
  6
CONTINUOUS
 10
189.359413546
 20
163.5689654824
 11
188.6934220198
 21
164.0267476845
  0
LINE
  5
336
100
AcDbEntity
  8
0
100
AcDbLine
 62
7
  6
CONTINUOUS
 10
189.359413546
 20
163.7794788807
 11
188.6934220198
 21
164.2372610827
  0
LINE
  5
337
100
AcDbEntity
  8
0
100
AcDbLine
 62
7
  6
CONTINUOUS
 10
158.22835896
 20
163.1111832804
 11
157.5923428999
 21
163.7215595498
  0
LINE
  5
338
100
AcDbEntity
  8
0
100
AcDbLine
 62
7
  6
CONTINUOUS
 10
158.22835896
 20
163.3216966786
 11
157.5923428999
 21
163.932072948
  0
LINE
  5
339
100
AcDbEntity
  8
0
100
AcDbLine
 62
7
  6
CONTINUOUS
 10
143.7589803999
 20
162.958589213
 11
143.2819678999
 21
163.5689654824
  0
LINE
  5
33A
100
AcDbEntity
  8
0
100
AcDbLine
 62
7
  6
CONTINUOUS
 10
143.7589803999
 20
163.1691026113
 11
143.2819678999
 21
163.7794788807
  0
LINE
  5
33B
100
AcDbEntity
  8
0
100
AcDbLine
 62
7
  6
CONTINUOUS
 10
146.7800598698
 20
158.3807665514
 11
146.46205093
 21
158.8385487534
  0
LINE
  5
33C
100
AcDbEntity
  8
0
100
AcDbLine
 62
7
  6
CONTINUOUS
 10
146.7800598698
 20
158.5912799496
 11
146.46205093
 21
159.0490621516
  0
LINE
  5
33D
100
AcDbEntity
  8
0
100
AcDbLine
 62
7
  6
CONTINUOUS
 10
192.0233782221
 20
158.286091708
 11
192.6893697483
 21
157.6757153852
  0
LINE
  5
33E
100
AcDbEntity
  8
0
100
AcDbLine
 62
7
  6
CONTINUOUS
 10
188.5269243764
 20
163.474290746
 11
188.8599201395
 21
163.1691026113
  0
LINE
  5
33F
100
AcDbEntity
  8
0
100
AcDbLine
 62
7
  6
CONTINUOUS
 10
197.8508019334
 20
163.1111832804
 11
197.1848104071
 21
163.7215595498
  0
LINE
  5
340
100
AcDbEntity
  8
0
100
AcDbLine
 62
7
  6
CONTINUOUS
 10
197.8508019334
 20
163.3216966786
 11
197.1848104071
 21
163.932072948
  0
LINE
  5
341
100
AcDbEntity
  8
0
100
AcDbLine
 62
7
  6
CONTINUOUS
 10
207.3411766574
 20
160.5750030389
 11
207.6741709914
 21
160.2698149042
  0
LINE
  5
342
100
AcDbEntity
  8
0
100
AcDbLine
 62
7
  6
CONTINUOUS
 10
208.3401634704
 20
160.517083708
 11
207.8406700639
 21
160.97486591
  0
LINE
  5
343
100
AcDbEntity
  8
0
100
AcDbLine
 62
7
  6
CONTINUOUS
 10
208.3401634704
 20
160.7275971062
 11
207.8406700639
 21
161.1853793082
  0
LINE
  5
344
100
AcDbEntity
  8
0
100
AcDbLine
 62
7
  6
CONTINUOUS
 10
157.27433396
 20
163.0165085439
 11
157.5923428999
 21
162.5587259144
  0
LINE
  5
345
100
AcDbEntity
  8
0
100
AcDbLine
 62
7
  6
CONTINUOUS
 10
145.5080263849
 20
158.8964680843
 11
145.8260348698
 21
158.286091708
  0
LINE
  5
346
100
AcDbEntity
  8
0
100
AcDbLine
 62
7
  6
CONTINUOUS
 10
158.5463678999
 20
162.500807011
 11
158.22835896
 21
163.1111832804
  0
LINE
  5
347
100
AcDbEntity
  8
0
100
AcDbLine
 62
7
  6
CONTINUOUS
 10
158.5463678999
 20
162.7113204092
 11
158.22835896
 21
163.3216966786
  0
LINE
  5
348
100
AcDbEntity
  8
0
100
AcDbLine
 62
7
  6
CONTINUOUS
 10
143.9911537254
 20
157.2179331297
 11
142.6459513849
 21
160.517083708
  0
LINE
  5
349
100
AcDbEntity
  8
0
100
AcDbLine
 62
7
  6
CONTINUOUS
 10
144.0769888849
 20
157.2179331297
 11
142.6459513849
 21
160.7275971062
  0
LINE
  5
34A
100
AcDbEntity
  8
0
100
AcDbLine
 62
7
  6
CONTINUOUS
 10
141.6919261574
 20
160.4224089715
 11
142.9639594149
 21
157.2179331297
  0
LINE
  5
34B
100
AcDbEntity
  8
0
100
AcDbLine
 62
7
  6
CONTINUOUS
 10
119.5787439492
 20
180.4378952309
 11
124.014668924
 21
165.0137086666
  0
LINE
  5
34C
100
AcDbEntity
  8
0
100
AcDbLine
 62
7
  6
CONTINUOUS
 10
119.5787439492
 20
176.9842433626
 11
124.014668924
 21
161.2950242294
  0
LINE
  5
34D
100
AcDbEntity
  8
0
100
AcDbLine
 62
7
  6
CONTINUOUS
 10
124.014668924
 20
146.7645809345
 11
126.481456685
 21
135.8591436342
  0
LINE
  5
34E
100
AcDbEntity
  8
0
100
AcDbLine
 62
7
  6
CONTINUOUS
 10
124.014668924
 20
149.5012551113
 11
126.481456685
 21
138.5958178111
  0
LINE
  5
34F
100
AcDbEntity
  8
RUNDUNGEN
100
AcDbLine
 62
7
  6
CONTINUOUS
 10
103.3104191129
 20
119.3915311915
 11
103.3104191129
 21
122.9270650974
  0
LINE
  5
350
100
AcDbEntity
  8
0
100
AcDbLine
 62
7
  6
CONTINUOUS
 10
116.5941810331
 20
187.7190161093
 11
116.5941810331
 21
190.6367310023
  0
LINE
  5
351
100
AcDbEntity
  8
0
100
AcDbLine
 62
7
  6
CONTINUOUS
 10
189.8589064762
 20
162.958589213
 11
189.359413546
 21
163.5689654824
  0
LINE
  5
352
100
AcDbEntity
  8
0
100
AcDbLine
 62
7
  6
CONTINUOUS
 10
189.8589064762
 20
163.1691026113
 11
189.359413546
 21
163.7794788807
  0
LINE
  5
353
100
AcDbEntity
  8
0
100
AcDbLine
 62
7
  6
CONTINUOUS
 10
203.1787303327
 20
158.4386857754
 11
203.6782237392
 21
157.8283094525
  0
LINE
  5
354
100
AcDbEntity
  8
0
100
AcDbLine
 62
7
  6
CONTINUOUS
 10
208.173664398
 20
162.958589213
 11
207.6741709914
 21
163.5689654824
  0
LINE
  5
355
100
AcDbEntity
  8
0
100
AcDbLine
 62
7
  6
CONTINUOUS
 10
208.173664398
 20
163.1691026113
 11
207.6741709914
 21
163.7794788807
  0
LINE
  5
356
100
AcDbEntity
  8
0
100
AcDbLine
 62
7
  6
CONTINUOUS
 10
193.0223650351
 20
158.3807665514
 11
192.6893697483
 21
158.8385487534
  0
LINE
  5
357
100
AcDbEntity
  8
0
100
AcDbLine
 62
7
  6
CONTINUOUS
 10
193.0223650351
 20
158.5912799496
 11
192.6893697483
 21
159.0490621516
  0
LINE
  5
358
100
AcDbEntity
  8
0
100
AcDbLine
 62
7
  6
CONTINUOUS
 10
204.1777171458
 20
158.2281723771
 11
203.8447228117
 21
158.6859546861
  0
LINE
  5
359
100
AcDbEntity
  8
0
100
AcDbLine
 62
7
  6
CONTINUOUS
 10
204.1777171458
 20
158.4386857754
 11
203.8447228117
 21
158.8964680843
  0
LINE
  5
35A
100
AcDbEntity
  8
0
100
AcDbLine
 62
7
  6
CONTINUOUS
 10
142.8049553999
 20
163.1691026113
 11
142.9639594149
 21
162.7113204092
  0
LINE
  5
35B
100
AcDbEntity
  8
0
100
AcDbLine
 62
7
  6
CONTINUOUS
 10
143.9179844149
 20
162.500807011
 11
143.7589803999
 21
162.958589213
  0
LINE
  5
35C
100
AcDbEntity
  8
0
100
AcDbLine
 62
7
  6
CONTINUOUS
 10
143.9179844149
 20
162.7113204092
 11
143.7589803999
 21
163.1691026113
  0
LINE
  5
35D
100
AcDbEntity
  8
0
100
AcDbLine
 62
7
  6
CONTINUOUS
 10
146.46205093
 20
158.8385487534
 11
146.3030473698
 21
159.4489250228
  0
LINE
  5
35E
100
AcDbEntity
  8
0
100
AcDbLine
 62
7
  6
CONTINUOUS
 10
146.46205093
 20
159.0490621516
 11
146.3030473698
 21
159.659438421
  0
LINE
  5
35F
100
AcDbEntity
  8
RUNDUNGEN
100
AcDbLine
 62
7
  6
CONTINUOUS
 10
117.481456685
 20
21.3592619948
 11
117.481456685
 21
34.424905106
  0
LINE
  5
360
100
AcDbEntity
  8
RUNDUNGEN
100
AcDbLine
 62
7
  6
CONTINUOUS
 10
120.1357925126
 20
101.1741505159
 11
120.1357925126
 21
104.7096844218
  0
LINE
  5
361
100
AcDbEntity
  8
0
100
AcDbLine
 62
7
  6
CONTINUOUS
 10
124.014668924
 20
146.7645809345
 11
124.014668924
 21
165.0137086666
  0
LINE
  5
362
100
AcDbEntity
  8
0
100
AcDbLine
 62
7
  6
CONTINUOUS
 10
126.481456685
 20
105.7504473123
 11
126.481456685
 21
113.8014755032
  0
LINE
  5
363
100
AcDbEntity
  8
RUNDUNGEN
100
AcDbLine
 62
7
  6
CONTINUOUS
 10
126.481456685
 20
113.8014755032
 11
126.481456685
 21
161.7592285748
  0
LINE
  5
364
100
AcDbEntity
  8
RUNDUNGEN
100
AcDbLine
 62
7
  6
CONTINUOUS
 10
129.831456685
 20
16.2680931703
 11
129.831456685
 21
23.4805823384
  0
LINE
  5
365
100
AcDbEntity
  8
0
100
AcDbLine
 62
7
  6
CONTINUOUS
 10
133.8669184378
 20
98.1235718806
 11
133.8669184378
 21
98.8731432267
  0
LINE
  5
366
100
AcDbEntity
  8
0
100
AcDbLine
 62
7
  6
CONTINUOUS
 10
207.1746775849
 20
163.1691026113
 11
207.5076738244
 21
162.7113204092
  0
LINE
  5
367
100
AcDbEntity
  8
0
100
AcDbLine
 62
7
  6
CONTINUOUS
 10
191.6903829353
 20
158.8964680843
 11
192.0233782221
 21
158.286091708
  0
LINE
  5
368
100
AcDbEntity
  8
0
100
AcDbLine
 62
7
  6
CONTINUOUS
 10
190.1020222412
 20
157.2179331297
 11
188.6934220198
 21
160.517083708
  0
LINE
  5
369
100
AcDbEntity
  8
0
100
AcDbLine
 62
7
  6
CONTINUOUS
 10
190.1919027157
 20
157.2179331297
 11
188.6934220198
 21
160.7275971062
  0
LINE
  5
36A
100
AcDbEntity
  8
0
100
AcDbLine
 62
7
  6
CONTINUOUS
 10
187.6944352067
 20
160.4224089715
 11
189.0264177829
 21
157.2179331297
  0
LINE
  5
36B
100
AcDbEntity
  8
0
100
AcDbLine
 62
7
  6
CONTINUOUS
 10
157.5923428999
 20
162.5587259144
 11
157.75134646
 21
161.948349645
  0
LINE
  5
36C
100
AcDbEntity
  8
0
100
AcDbLine
 62
7
  6
CONTINUOUS
 10
145.3490219149
 20
159.659438421
 11
145.5080263849
 21
158.8964680843
  0
LINE
  5
36D
100
AcDbEntity
  8
0
100
AcDbLine
 62
7
  6
CONTINUOUS
 10
158.70537146
 20
161.7378362468
 11
158.5463678999
 21
162.500807011
  0
LINE
  5
36E
100
AcDbEntity
  8
0
100
AcDbLine
 62
7
  6
CONTINUOUS
 10
158.70537146
 20
161.948349645
 11
158.5463678999
 21
162.7113204092
  0
LINE
  5
36F
100
AcDbEntity
  8
0
100
AcDbLine
 62
7
  6
CONTINUOUS
 10
138.0348303999
 20
164.3898551501
 11
138.0348303999
 21
157.2179331297
  0
LINE
  5
370
100
AcDbEntity
  8
0
100
AcDbLine
 62
7
  6
CONTINUOUS
 10
138.9888553999
 20
157.2179331297
 11
138.9888553999
 21
160.4224089715
  0
LINE
  5
371
100
AcDbEntity
  8
0
100
AcDbLine
 62
7
  6
CONTINUOUS
 10
138.9888553999
 20
161.1274599774
 11
138.9888553999
 21
163.6268848133
  0
LINE
  5
372
100
AcDbEntity
  8
0
100
AcDbLine
 62
7
  6
CONTINUOUS
 10
141.8509303999
 20
164.3898551501
 11
141.8509303999
 21
164.1793417518
  0
LINE
  5
373
100
AcDbEntity
  8
0
100
AcDbLine
 62
7
  6
CONTINUOUS
 10
142.0099344149
 20
161.3379733756
 11
142.0099344149
 21
161.1274599774
  0
LINE
  5
374
100
AcDbEntity
  8
0
100
AcDbLine
 62
7
  6
CONTINUOUS
 10
142.4869469149
 20
161.4905674429
 11
142.4869469149
 21
161.2800540447
  0
LINE
  5
375
100
AcDbEntity
  8
0
100
AcDbLine
 62
7
  6
CONTINUOUS
 10
142.6459513849
 20
164.2372610827
 11
142.6459513849
 21
164.0267476845
  0
LINE
  5
376
100
AcDbEntity
  8
0
100
AcDbLine
 62
7
  6
CONTINUOUS
 10
142.6459513849
 20
160.7275971062
 11
142.6459513849
 21
160.517083708
  0
LINE
  5
377
100
AcDbEntity
  8
0
100
AcDbLine
 62
7
  6
CONTINUOUS
 10
142.8049553999
 20
161.7957555776
 11
142.8049553999
 21
161.5852421794
  0
LINE
  5
378
100
AcDbEntity
  8
0
100
AcDbLine
 62
7
  6
CONTINUOUS
 10
142.9639594149
 20
162.7113204092
 11
142.9639594149
 21
162.0430243815
  0
LINE
  5
379
100
AcDbEntity
  8
0
100
AcDbLine
 62
7
  6
CONTINUOUS
 10
143.2819678999
 20
163.7794788807
 11
143.2819678999
 21
163.5689654824
  0
LINE
  5
37A
100
AcDbEntity
  8
0
100
AcDbLine
 62
7
  6
CONTINUOUS
 10
143.7589803999
 20
163.1691026113
 11
143.7589803999
 21
162.958589213
  0
LINE
  5
37B
100
AcDbEntity
  8
0
100
AcDbLine
 62
7
  6
CONTINUOUS
 10
143.9179844149
 20
162.1009437123
 11
143.9179844149
 21
162.7113204092
  0
LINE
  5
37C
100
AcDbEntity
  8
0
100
AcDbLine
 62
7
  6
CONTINUOUS
 10
145.3490219149
 20
164.3898551501
 11
145.3490219149
 21
159.659438421
  0
LINE
  5
37D
100
AcDbEntity
  8
0
100
AcDbLine
 62
7
  6
CONTINUOUS
 10
146.3030473698
 20
159.4489250228
 11
146.3030473698
 21
164.3898551501
  0
LINE
  5
37E
100
AcDbEntity
  8
0
100
AcDbLine
 62
7
  6
CONTINUOUS
 10
146.46205093
 20
159.0490621516
 11
146.46205093
 21
158.8385487534
  0
LINE
  5
37F
100
AcDbEntity
  8
BEZUGSACHSEN
100
AcDbLine
 62
7
  6
CONTINUOUS
 10
146.591377169
 20
132.4044010109
 11
146.591377169
 21
134.3846792203
  0
LINE
  5
380
100
AcDbEntity
  8
0
100
AcDbLine
 62
7
  6
CONTINUOUS
 10
146.7800598698
 20
158.5912799496
 11
146.7800598698
 21
158.3807665514
  0
LINE
  5
381
100
AcDbEntity
  8
0
100
AcDbLine
 62
7
  6
CONTINUOUS
 10
147.2570723698
 20
158.286091708
 11
147.2570723698
 21
158.0755783098
  0
LINE
  5
382
100
AcDbEntity
  8
0
100
AcDbLine
 62
7
  6
CONTINUOUS
 10
147.89308843
 20
158.1334976407
 11
147.89308843
 21
157.9229842424
  0
LINE
  5
383
100
AcDbEntity
  8
0
100
AcDbLine
 62
7
  6
CONTINUOUS
 10
148.5291053999
 20
158.1334976407
 11
148.5291053999
 21
157.9229842424
  0
LINE
  5
384
100
AcDbEntity
  8
0
100
AcDbLine
 62
7
  6
CONTINUOUS
 10
148.6418283086
 20
100.8820208087
 11
148.6418283086
 21
95.4357683919
  0
LINE
  5
385
100
AcDbEntity
  8
0
100
AcDbLine
 62
7
  6
CONTINUOUS
 10
149.1651223698
 20
158.286091708
 11
149.1651223698
 21
158.0755783098
  0
LINE
  5
386
100
AcDbEntity
  8
0
100
AcDbLine
 62
7
  6
CONTINUOUS
 10
149.6421348698
 20
158.5912799496
 11
149.6421348698
 21
158.3807665514
  0
LINE
  5
387
100
AcDbEntity
  8
0
100
AcDbLine
 62
7
  6
CONTINUOUS
 10
149.9601428999
 20
159.0490621516
 11
149.9601428999
 21
158.8385487534
  0
LINE
  5
388
100
AcDbEntity
  8
0
100
AcDbLine
 62
7
  6
CONTINUOUS
 10
150.1191473698
 20
164.3898551501
 11
150.1191473698
 21
159.4489250228
  0
LINE
  5
389
100
AcDbEntity
  8
0
100
AcDbLine
 62
7
  6
CONTINUOUS
 10
151.0731723698
 20
159.659438421
 11
151.0731723698
 21
164.3898551501
  0
LINE
  5
38A
100
AcDbEntity
  8
0
100
AcDbLine
 62
7
  6
CONTINUOUS
 10
151.7618283086
 20
96.4540021568
 11
151.7618283086
 21
99.0561551116
  0
LINE
  5
38B
100
AcDbEntity
  8
0
100
AcDbLine
 62
7
  6
CONTINUOUS
 10
151.7618283086
 20
99.8481147065
 11
151.7618283086
 21
102.159841831
  0
LINE
  5
38C
100
AcDbEntity
  8
0
100
AcDbLine
 62
7
  6
CONTINUOUS
 10
152.3452053999
 20
164.3898551501
 11
152.3452053999
 21
157.2179331297
  0
LINE
  5
38D
100
AcDbEntity
  8
0
100
AcDbLine
 62
7
  6
CONTINUOUS
 10
152.4818283086
 20
101.5791121068
 11
152.4818283086
 21
100.153584836
  0
LINE
  5
38E
100
AcDbEntity
  8
0
100
AcDbLine
 62
7
  6
CONTINUOUS
 10
152.4818283086
 20
98.1849995572
 11
152.4818283086
 21
96.7594722863
  0
LINE
  5
38F
100
AcDbEntity
  8
0
100
AcDbLine
 62
7
  6
CONTINUOUS
 10
153.0818283086
 20
98.1171173062
 11
153.0818283086
 21
98.3207640591
  0
LINE
  5
390
100
AcDbEntity
  8
0
100
AcDbLine
 62
7
  6
CONTINUOUS
 10
153.0818283086
 20
98.8298809416
 11
153.0818283086
 21
99.5087034515
  0
LINE
  5
391
100
AcDbEntity
  8
0
100
AcDbLine
 62
7
  6
CONTINUOUS
 10
153.0818283086
 20
100.017820334
 11
153.0818283086
 21
100.7871525119
  0
LINE
  5
392
100
AcDbEntity
  8
0
100
AcDbLine
 62
7
  6
CONTINUOUS
 10
153.2992303999
 20
157.9229842424
 11
153.2992303999
 21
163.474290746
  0
LINE
  5
393
100
AcDbEntity
  8
0
100
AcDbLine
 62
7
  6
CONTINUOUS
 10
153.8018283086
 20
99.5087034515
 11
153.8018283086
 21
98.8298809416
  0
LINE
  5
394
100
AcDbEntity
  8
0
100
AcDbLine
 62
7
  6
CONTINUOUS
 10
153.8018283086
 20
100.7871525119
 11
153.8018283086
 21
100.017820334
  0
LINE
  5
395
100
AcDbEntity
  8
0
100
AcDbLine
 62
7
  6
CONTINUOUS
 10
153.8018283086
 20
98.3207640591
 11
153.8018283086
 21
98.1171173062
  0
LINE
  5
396
100
AcDbEntity
  8
0
100
AcDbLine
 62
7
  6
CONTINUOUS
 10
153.981456685
 20
563.3631397046
 11
153.981456685
 21
187.3631397046
  0
LINE
  5
397
100
AcDbEntity
  8
0
100
AcDbLine
 62
7
  6
CONTINUOUS
 10
154.4018283086
 20
96.7594722863
 11
154.4018283086
 21
98.1849995572
  0
LINE
  5
398
100
AcDbEntity
  8
0
100
AcDbLine
 62
7
  6
CONTINUOUS
 10
154.4018283086
 20
100.153584836
 11
154.4018283086
 21
101.5791121068
  0
LINE
  5
399
100
AcDbEntity
  8
0
100
AcDbLine
 62
7
  6
CONTINUOUS
 10
155.1218283086
 20
102.4502676613
 11
155.1218283086
 21
99.8481147065
  0
LINE
  5
39A
100
AcDbEntity
  8
0
100
AcDbLine
 62
7
  6
CONTINUOUS
 10
155.1218283086
 20
99.0561551116
 11
155.1218283086
 21
96.4540021568
  0
LINE
  5
39B
100
AcDbEntity
  8
0
100
AcDbLine
 62
7
  6
CONTINUOUS
 10
156.1613053999
 20
164.3898551501
 11
156.1613053999
 21
164.1793417518
  0
LINE
  5
39C
100
AcDbEntity
  8
0
100
AcDbLine
 62
7
  6
CONTINUOUS
 10
156.1613053999
 20
158.1334976407
 11
156.1613053999
 21
157.9229842424
  0
LINE
  5
39D
100
AcDbEntity
  8
0
100
AcDbLine
 62
7
  6
CONTINUOUS
 10
202.8457359986
 20
159.201656219
 11
203.1787303327
 21
158.4386857754
  0
LINE
  5
39E
100
AcDbEntity
  8
0
100
AcDbLine
 62
7
  6
CONTINUOUS
 10
208.6731578045
 20
159.7541133712
 11
208.3401634704
 21
160.517083708
  0
LINE
  5
39F
100
AcDbEntity
  8
0
100
AcDbLine
 62
7
  6
CONTINUOUS
 10
208.6731578045
 20
159.9646267695
 11
208.3401634704
 21
160.7275971062
  0
LINE
  5
3A0
100
AcDbEntity
  8
0
100
AcDbLine
 62
7
  6
CONTINUOUS
 10
188.8599201395
 20
163.1691026113
 11
189.0264177829
 21
162.7113204092
  0
LINE
  5
3A1
100
AcDbEntity
  8
0
100
AcDbLine
 62
7
  6
CONTINUOUS
 10
190.025404596
 20
162.500807011
 11
189.8589064762
 21
162.958589213
  0
LINE
  5
3A2
100
AcDbEntity
  8
0
100
AcDbLine
 62
7
  6
CONTINUOUS
 10
190.025404596
 20
162.7113204092
 11
189.8589064762
 21
163.1691026113
  0
LINE
  5
3A3
100
AcDbEntity
  8
0
100
AcDbLine
 62
7
  6
CONTINUOUS
 10
196.8518141676
 20
163.0165085439
 11
197.0183122873
 21
162.5587259144
  0
LINE
  5
3A4
100
AcDbEntity
  8
0
100
AcDbLine
 62
7
  6
CONTINUOUS
 10
203.8447228117
 20
158.6859546861
 11
203.6782237392
 21
159.1437368881
  0
LINE
  5
3A5
100
AcDbEntity
  8
0
100
AcDbLine
 62
7
  6
CONTINUOUS
 10
203.8447228117
 20
158.8964680843
 11
203.6782237392
 21
159.3542502863
  0
LINE
  5
3A6
100
AcDbEntity
  8
0
100
AcDbLine
 62
7
  6
CONTINUOUS
 10
192.6893697483
 20
158.8385487534
 11
192.5228716286
 21
159.4489250228
  0
LINE
  5
3A7
100
AcDbEntity
  8
0
100
AcDbLine
 62
7
  6
CONTINUOUS
 10
192.6893697483
 20
159.0490621516
 11
192.5228716286
 21
159.659438421
  0
LINE
  5
3A8
100
AcDbEntity
  8
0
100
AcDbLine
 62
7
  6
CONTINUOUS
 10
156.79732146
 20
158.286091708
 11
156.79732146
 21
158.0755783098
  0
LINE
  5
3A9
100
AcDbEntity
  8
0
100
AcDbLine
 62
7
  6
CONTINUOUS
 10
156.9563268398
 20
164.2372610827
 11
156.9563268398
 21
164.0267476845
  0
LINE
  5
3AA
100
AcDbEntity
  8
0
100
AcDbLine
 62
7
  6
CONTINUOUS
 10
157.27433396
 20
158.5912799496
 11
157.27433396
 21
158.3807665514
  0
LINE
  5
3AB
100
AcDbEntity
  8
0
100
AcDbLine
 62
7
  6
CONTINUOUS
 10
157.5923428999
 20
163.932072948
 11
157.5923428999
 21
163.7215595498
  0
LINE
  5
3AC
100
AcDbEntity
  8
0
100
AcDbLine
 62
7
  6
CONTINUOUS
 10
157.5923428999
 20
159.0490621516
 11
157.5923428999
 21
158.8385487534
  0
LINE
  5
3AD
100
AcDbEntity
  8
0
100
AcDbLine
 62
7
  6
CONTINUOUS
 10
157.75134646
 20
161.948349645
 11
157.75134646
 21
159.4489250228
  0
LINE
  5
3AE
100
AcDbEntity
  8
0
100
AcDbLine
 62
7
  6
CONTINUOUS
 10
158.22835896
 20
163.3216966786
 11
158.22835896
 21
163.1111832804
  0
LINE
  5
3AF
100
AcDbEntity
  8
0
100
AcDbLine
 62
7
  6
CONTINUOUS
 10
158.2418283086
 20
95.4357683919
 11
158.2418283086
 21
102.9028160012
  0
LINE
  5
3B0
100
AcDbEntity
  8
0
100
AcDbLine
 62
7
  6
CONTINUOUS
 10
158.5463678999
 20
162.7113204092
 11
158.5463678999
 21
162.500807011
  0
LINE
  5
3B1
100
AcDbEntity
  8
0
100
AcDbLine
 62
7
  6
CONTINUOUS
 10
158.70537146
 20
159.659438421
 11
158.70537146
 21
161.948349645
  0
LINE
  5
3B2
100
AcDbEntity
  8
0
100
AcDbLine
 62
7
  6
CONTINUOUS
 10
161.355110391
 20
103.5816385112
 11
161.355110391
 21
102.5520910378
  0
LINE
  5
3B3
100
AcDbEntity
  8
0
100
AcDbLine
 62
7
  6
CONTINUOUS
 10
161.355110391
 20
101.6017395238
 11
161.355110391
 21
94.756945882
  0
LINE
  5
3B4
100
AcDbEntity
  8
0
100
AcDbLine
 62
7
  6
CONTINUOUS
 10
162.731456685
 20
129.7316243377
 11
162.731456685
 21
105.1045623934
  0
LINE
  5
3B5
100
AcDbEntity
  8
KONSTRUKTIONSELEMENTE
100
AcDbLine
 62
7
  6
CONTINUOUS
 10
162.731456685
 20
129.7316243377
 11
162.731456685
 21
151.9076776774
  0
LINE
  5
3B6
100
AcDbEntity
  8
0
100
AcDbLine
 62
7
  6
CONTINUOUS
 10
162.891110391
 20
94.756945882
 11
162.891110391
 21
99.5807339717
  0
LINE
  5
3B7
100
AcDbEntity
  8
0
100
AcDbLine
 62
7
  6
CONTINUOUS
 10
162.891110391
 20
100.1011645627
 11
162.891110391
 21
101.6017395238
  0
LINE
  5
3B8
100
AcDbEntity
  8
KONSTRUKTIONSELEMENTE
100
AcDbLine
 62
7
  6
CONTINUOUS
 10
163.981456685
 20
137.3247741094
 11
163.981456685
 21
143.4427226747
  0
LINE
  5
3B9
100
AcDbEntity
  8
0
100
AcDbLine
 62
7
  6
CONTINUOUS
 10
166.731110391
 20
99.0150485468
 11
166.731110391
 21
99.5807339717
  0
LINE
  5
3BA
100
AcDbEntity
  8
0
100
AcDbLine
 62
7
  6
CONTINUOUS
 10
168.3665480213
 20
99.1842867283
 11
168.3665480213
 21
99.7499721533
  0
LINE
  5
3BB
100
AcDbEntity
  8
KONSTRUKTIONSELEMENTE
100
AcDbLine
 62
7
  6
CONTINUOUS
 10
168.481456685
 20
137.3247741094
 11
168.481456685
 21
147.1274958989
  0
LINE
  5
3BC
100
AcDbEntity
  8
0
100
AcDbLine
 62
7
  6
CONTINUOUS
 10
169.1041771217
 20
101.8923132252
 11
169.1041771217
 21
101.3266278002
  0
LINE
  5
3BD
100
AcDbEntity
  8
KONSTRUKTIONSELEMENTE
100
AcDbLine
 62
7
  6
CONTINUOUS
 10
169.481456685
 20
139.0361179114
 11
169.481456685
 21
134.6093675477
  0
LINE
  5
3BE
100
AcDbEntity
  8
KONSTRUKTIONSELEMENTE
100
AcDbLine
 62
7
  6
CONTINUOUS
 10
169.731456685
 20
147.1803153426
 11
169.731456685
 21
147.5104506707
  0
LINE
  5
3BF
100
AcDbEntity
  8
0
100
AcDbLine
 62
7
  6
CONTINUOUS
 10
170.207836658
 20
94.756945882
 11
170.207836658
 21
95.3226313069
  0
LINE
  5
3C0
100
AcDbEntity
  8
0
100
AcDbLine
 62
7
  6
CONTINUOUS
 10
172.875110391
 20
103.5816385112
 11
172.875110391
 21
97.9981371568
  0
LINE
  5
3C1
100
AcDbEntity
  8
KONSTRUKTIONSELEMENTE
100
AcDbLine
 62
7
  6
CONTINUOUS
 10
174.231456685
 20
147.1803153426
 11
174.231456685
 21
147.5104506707
  0
LINE
  5
3C2
100
AcDbEntity
  8
0
100
AcDbLine
 62
7
  6
CONTINUOUS
 10
174.411110391
 20
97.9981371568
 11
174.411110391
 21
103.5816385112
  0
LINE
  5
3C3
100
AcDbEntity
  8
KONSTRUKTIONSELEMENTE
100
AcDbLine
 62
7
  6
CONTINUOUS
 10
174.481456685
 20
139.0361179114
 11
174.481456685
 21
134.6093675477
  0
LINE
  5
3C4
100
AcDbEntity
  8
KONSTRUKTIONSELEMENTE
100
AcDbLine
 62
7
  6
CONTINUOUS
 10
175.481456685
 20
147.1274958989
 11
175.481456685
 21
137.3247741094
  0
LINE
  5
3C5
100
AcDbEntity
  8
0
100
AcDbLine
 62
7
  6
CONTINUOUS
 10
207.6741709914
 20
160.2698149042
 11
207.8406700639
 21
159.8120324884
  0
LINE
  5
3C6
100
AcDbEntity
  8
0
100
AcDbLine
 62
7
  6
CONTINUOUS
 10
208.2635980527
 20
162.7113204092
 11
208.173664398
 21
162.958589213
  0
LINE
  5
3C7
100
AcDbEntity
  8
0
100
AcDbLine
 62
7
  6
CONTINUOUS
 10
208.3401634704
 20
162.7113204092
 11
208.173664398
 21
163.1691026113
  0
LINE
  5
3C8
100
AcDbEntity
  8
0
100
AcDbLine
 62
7
  6
CONTINUOUS
 10
191.5238848155
 20
159.659438421
 11
191.6903829353
 21
158.8964680843
  0
LINE
  5
3C9
100
AcDbEntity
  8
0
100
AcDbLine
 62
7
  6
CONTINUOUS
 10
197.9734486028
 20
162.5491567619
 11
197.8508019334
 21
163.1111832804
  0
LINE
  5
3CA
100
AcDbEntity
  8
0
100
AcDbLine
 62
7
  6
CONTINUOUS
 10
198.0172991004
 20
162.5587259144
 11
197.8508019334
 21
163.3216966786
  0
LINE
  5
3CB
100
AcDbEntity
  8
KONSTRUKTIONSELEMENTE
100
AcDbLine
 62
7
  6
CONTINUOUS
 10
179.981456685
 20
143.4427226747
 11
179.981456685
 21
137.3247741094
  0
LINE
  5
3CC
100
AcDbEntity
  8
0
100
AcDbLine
 62
7
  6
CONTINUOUS
 10
180.4497269679
 20
103.5816385112
 11
180.4497269679
 21
97.9981371568
  0
LINE
  5
3CD
100
AcDbEntity
  8
0
100
AcDbLine
 62
7
  6
CONTINUOUS
 10
181.231456685
 20
105.1045623934
 11
181.231456685
 21
129.7316243377
  0
LINE
  5
3CE
100
AcDbEntity
  8
KONSTRUKTIONSELEMENTE
100
AcDbLine
 62
7
  6
CONTINUOUS
 10
181.231456685
 20
129.7316243377
 11
181.231456685
 21
151.9076776774
  0
LINE
  5
3CF
100
AcDbEntity
  8
0
100
AcDbLine
 62
7
  6
CONTINUOUS
 10
181.534016685
 20
164.3898551501
 11
181.534016685
 21
157.2179331297
  0
LINE
  5
3D0
100
AcDbEntity
  8
0
100
AcDbLine
 62
7
  6
CONTINUOUS
 10
181.9857269679
 20
97.9981371568
 11
181.9857269679
 21
103.5816385112
  0
LINE
  5
3D1
100
AcDbEntity
  8
0
100
AcDbLine
 62
7
  6
CONTINUOUS
 10
182.533003498
 20
157.2179331297
 11
182.533003498
 21
164.3898551501
  0
LINE
  5
3D2
100
AcDbEntity
  8
0
100
AcDbLine
 62
7
  6
CONTINUOUS
 10
183.8649858361
 20
164.3898551501
 11
183.8649858361
 21
157.2179331297
  0
LINE
  5
3D3
100
AcDbEntity
  8
0
100
AcDbLine
 62
7
  6
CONTINUOUS
 10
184.8639726491
 20
157.2179331297
 11
184.8639726491
 21
160.4224089715
  0
LINE
  5
3D4
100
AcDbEntity
  8
0
100
AcDbLine
 62
7
  6
CONTINUOUS
 10
184.8639726491
 20
161.1274599774
 11
184.8639726491
 21
163.6268848133
  0
LINE
  5
3D5
100
AcDbEntity
  8
0
100
AcDbLine
 62
7
  6
CONTINUOUS
 10
185.3457269679
 20
103.5816385112
 11
185.3457269679
 21
102.4955224953
  0
LINE
  5
3D6
100
AcDbEntity
  8
0
100
AcDbLine
 62
7
  6
CONTINUOUS
 10
185.3457269679
 20
101.5451709814
 11
185.3457269679
 21
94.756945882
  0
LINE
  5
3D7
100
AcDbEntity
  8
0
100
AcDbLine
 62
7
  6
CONTINUOUS
 10
186.8817269679
 20
95.8883167319
 11
186.8817269679
 21
101.5451709814
  0
LINE
  5
3D8
100
AcDbEntity
  8
0
100
AcDbLine
 62
7
  6
CONTINUOUS
 10
187.8609333265
 20
164.3898551501
 11
187.8609333265
 21
164.1793417518
  0
LINE
  5
3D9
100
AcDbEntity
  8
0
100
AcDbLine
 62
7
  6
CONTINUOUS
 10
188.0274309698
 20
161.3379733756
 11
188.0274309698
 21
161.1274599774
  0
LINE
  5
3DA
100
AcDbEntity
  8
0
100
AcDbLine
 62
7
  6
CONTINUOUS
 10
188.5269243764
 20
161.4905674429
 11
188.5269243764
 21
161.2800540447
  0
LINE
  5
3DB
100
AcDbEntity
  8
0
100
AcDbLine
 62
7
  6
CONTINUOUS
 10
188.6934220198
 20
164.2372610827
 11
188.6934220198
 21
164.0267476845
  0
LINE
  5
3DC
100
AcDbEntity
  8
0
100
AcDbLine
 62
7
  6
CONTINUOUS
 10
188.6934220198
 20
160.7275971062
 11
188.6934220198
 21
160.517083708
  0
LINE
  5
3DD
100
AcDbEntity
  8
0
100
AcDbLine
 62
7
  6
CONTINUOUS
 10
188.8599201395
 20
161.7957555776
 11
188.8599201395
 21
161.5852421794
  0
LINE
  5
3DE
100
AcDbEntity
  8
0
100
AcDbLine
 62
7
  6
CONTINUOUS
 10
189.0264177829
 20
162.7113204092
 11
189.0264177829
 21
162.0430243815
  0
LINE
  5
3DF
100
AcDbEntity
  8
0
100
AcDbLine
 62
7
  6
CONTINUOUS
 10
189.359413546
 20
163.7794788807
 11
189.359413546
 21
163.5689654824
  0
LINE
  5
3E0
100
AcDbEntity
  8
0
100
AcDbLine
 62
7
  6
CONTINUOUS
 10
189.8589064762
 20
163.1691026113
 11
189.8589064762
 21
162.958589213
  0
LINE
  5
3E1
100
AcDbEntity
  8
0
100
AcDbLine
 62
7
  6
CONTINUOUS
 10
189.981456685
 20
563.3631397046
 11
189.981456685
 21
187.3631397046
  0
LINE
  5
3E2
100
AcDbEntity
  8
0
100
AcDbLine
 62
7
  6
CONTINUOUS
 10
190.025404596
 20
162.1009437123
 11
190.025404596
 21
162.7113204092
  0
LINE
  5
3E3
100
AcDbEntity
  8
0
100
AcDbLine
 62
7
  6
CONTINUOUS
 10
191.5238848155
 20
161.948349645
 11
191.5238848155
 21
159.659438421
  0
LINE
  5
3E4
100
AcDbEntity
  8
0
100
AcDbLine
 62
7
  6
CONTINUOUS
 10
191.6903829353
 20
162.7113204092
 11
191.6903829353
 21
162.500807011
  0
LINE
  5
3E5
100
AcDbEntity
  8
0
100
AcDbLine
 62
7
  6
CONTINUOUS
 10
192.0233782221
 20
163.3216966786
 11
192.0233782221
 21
163.1111832804
  0
LINE
  5
3E6
100
AcDbEntity
  8
0
100
AcDbLine
 62
7
  6
CONTINUOUS
 10
192.5228716286
 20
159.4489250228
 11
192.5228716286
 21
161.948349645
  0
LINE
  5
3E7
100
AcDbEntity
  8
0
100
AcDbLine
 62
7
  6
CONTINUOUS
 10
192.6893697483
 20
163.932072948
 11
192.6893697483
 21
163.7215595498
  0
LINE
  5
3E8
100
AcDbEntity
  8
0
100
AcDbLine
 62
7
  6
CONTINUOUS
 10
192.6893697483
 20
159.0490621516
 11
192.6893697483
 21
158.8385487534
  0
LINE
  5
3E9
100
AcDbEntity
  8
0
100
AcDbLine
 62
7
  6
CONTINUOUS
 10
193.0223650351
 20
158.5912799496
 11
193.0223650351
 21
158.3807665514
  0
LINE
  5
3EA
100
AcDbEntity
  8
0
100
AcDbLine
 62
7
  6
CONTINUOUS
 10
193.3553603219
 20
164.2372610827
 11
193.3553603219
 21
164.0267476845
  0
LINE
  5
3EB
100
AcDbEntity
  8
0
100
AcDbLine
 62
7
  6
CONTINUOUS
 10
193.4939089725
 20
99.7576050385
 11
193.4939089725
 21
99.1919196136
  0
LINE
  5
3EC
100
AcDbEntity
  8
0
100
AcDbLine
 62
7
  6
CONTINUOUS
 10
193.5218584416
 20
158.286091708
 11
193.5218584416
 21
158.0755783098
  0
LINE
  5
3ED
100
AcDbEntity
  8
0
100
AcDbLine
 62
7
  6
CONTINUOUS
 10
194.1878499679
 20
164.3898551501
 11
194.1878499679
 21
164.1793417518
  0
LINE
  5
3EE
100
AcDbEntity
  8
0
100
AcDbLine
 62
7
  6
CONTINUOUS
 10
194.1878499679
 20
158.1334976407
 11
194.1878499679
 21
157.9229842424
  0
LINE
  5
3EF
100
AcDbEntity
  8
0
100
AcDbLine
 62
7
  6
CONTINUOUS
 10
150.9141678999
 20
158.8964680843
 11
151.0731723698
 21
159.659438421
  0
LINE
  5
3F0
100
AcDbEntity
  8
0
100
AcDbLine
 62
7
  6
CONTINUOUS
 10
158.5463678999
 20
158.8964680843
 11
158.70537146
 21
159.659438421
  0
LINE
  5
3F1
100
AcDbEntity
  8
0
100
AcDbLine
 62
7
  6
CONTINUOUS
 10
150.1191473698
 20
159.659438421
 11
149.9601428999
 21
159.0490621516
  0
LINE
  5
3F2
100
AcDbEntity
  8
0
100
AcDbLine
 62
7
  6
CONTINUOUS
 10
150.1191473698
 20
159.4489250228
 11
149.9601428999
 21
158.8385487534
  0
LINE
  5
3F3
100
AcDbEntity
  8
0
100
AcDbLine
 62
7
  6
CONTINUOUS
 10
157.75134646
 20
159.659438421
 11
157.5923428999
 21
159.0490621516
  0
LINE
  5
3F4
100
AcDbEntity
  8
0
100
AcDbLine
 62
7
  6
CONTINUOUS
 10
157.75134646
 20
159.4489250228
 11
157.5923428999
 21
158.8385487534
  0
LINE
  5
3F5
100
AcDbEntity
  8
0
100
AcDbLine
 62
7
  6
CONTINUOUS
 10
142.9639594149
 20
162.2535377797
 11
142.8049553999
 21
161.7957555776
  0
LINE
  5
3F6
100
AcDbEntity
  8
0
100
AcDbLine
 62
7
  6
CONTINUOUS
 10
142.9639594149
 20
162.0430243815
 11
142.8049553999
 21
161.5852421794
  0
LINE
  5
3F7
100
AcDbEntity
  8
0
100
AcDbLine
 62
7
  6
CONTINUOUS
 10
143.7589803999
 20
161.6431615103
 11
143.9179844149
 21
162.1009437123
  0
LINE
  5
3F8
100
AcDbEntity
  8
0
100
AcDbLine
 62
7
  6
CONTINUOUS
 10
202.6792369262
 20
160.2698149042
 11
202.8457359986
 21
159.201656219
  0
LINE
  5
3F9
100
AcDbEntity
  8
0
100
AcDbLine
 62
7
  6
CONTINUOUS
 10
195.5198320678
 20
161.1853793082
 11
195.5198320678
 21
160.2698149042
  0
LINE
  5
3FA
100
AcDbEntity
  8
0
100
AcDbLine
 62
7
  6
CONTINUOUS
 10
195.6863301875
 20
164.3898551501
 11
195.6863301875
 21
164.1793417518
  0
LINE
  5
3FB
100
AcDbEntity
  8
0
100
AcDbLine
 62
7
  6
CONTINUOUS
 10
195.6863301875
 20
158.1334976407
 11
195.6863301875
 21
157.9229842424
  0
LINE
  5
3FC
100
AcDbEntity
  8
0
100
AcDbLine
 62
7
  6
CONTINUOUS
 10
196.3523207611
 20
158.286091708
 11
196.3523207611
 21
158.0755783098
  0
LINE
  5
3FD
100
AcDbEntity
  8
0
100
AcDbLine
 62
7
  6
CONTINUOUS
 10
196.5188188808
 20
164.2372610827
 11
196.5188188808
 21
164.0267476845
  0
LINE
  5
3FE
100
AcDbEntity
  8
0
100
AcDbLine
 62
7
  6
CONTINUOUS
 10
196.8518141676
 20
158.5912799496
 11
196.8518141676
 21
158.3807665514
  0
LINE
  5
3FF
100
AcDbEntity
  8
0
100
AcDbLine
 62
7
  6
CONTINUOUS
 10
197.0183122873
 20
160.2698149042
 11
197.0183122873
 21
158.8385487534
  0
LINE
  5
400
100
AcDbEntity
  8
0
100
AcDbLine
 62
7
  6
CONTINUOUS
 10
197.1848104071
 20
163.932072948
 11
197.1848104071
 21
163.7215595498
  0
LINE
  5
401
100
AcDbEntity
  8
KONSTRUKTIONSELEMENTE
100
AcDbLine
 62
7
  6
CONTINUOUS
 10
197.371536201
 20
131.4927751799
 11
197.371536201
 21
134.3846792203
  0
LINE
  5
402
100
AcDbEntity
  8
0
100
AcDbLine
 62
7
  6
CONTINUOUS
 10
197.8508019334
 20
163.3216966786
 11
197.8508019334
 21
163.1111832804
  0
LINE
  5
403
100
AcDbEntity
  8
0
100
AcDbLine
 62
7
  6
CONTINUOUS
 10
198.0172991004
 20
158.8964680843
 11
198.0172991004
 21
161.1853793082
  0
LINE
  5
404
100
AcDbEntity
  8
0
100
AcDbLine
 62
7
  6
CONTINUOUS
 10
199.3492821529
 20
163.3216966786
 11
199.3492821529
 21
162.1009437123
  0
LINE
  5
405
100
AcDbEntity
  8
0
100
AcDbLine
 62
7
  6
CONTINUOUS
 10
200.348268966
 20
164.3898551501
 11
200.348268966
 21
164.1793417518
  0
LINE
  5
406
100
AcDbEntity
  8
0
100
AcDbLine
 62
7
  6
CONTINUOUS
 10
200.348268966
 20
163.1691026113
 11
200.348268966
 21
157.2179331297
  0
LINE
  5
407
100
AcDbEntity
  8
0
100
AcDbLine
 62
7
  6
CONTINUOUS
 10
201.347255779
 20
157.2179331297
 11
201.347255779
 21
164.3898551501
  0
LINE
  5
408
100
AcDbEntity
  8
0
100
AcDbLine
 62
7
  6
CONTINUOUS
 10
202.6792369262
 20
161.3379733756
 11
202.6792369262
 21
160.2698149042
  0
LINE
  5
409
100
AcDbEntity
  8
0
100
AcDbLine
 62
7
  6
CONTINUOUS
 10
202.8457359986
 20
162.406131847
 11
202.8457359986
 21
162.1956184488
  0
LINE
  5
40A
100
AcDbEntity
  8
0
100
AcDbLine
 62
7
  6
CONTINUOUS
 10
203.1787303327
 20
163.1691026113
 11
203.1787303327
 21
162.958589213
  0
LINE
  5
40B
100
AcDbEntity
  8
0
100
AcDbLine
 62
7
  6
CONTINUOUS
 10
203.5117265722
 20
160.8222718427
 11
203.5117265722
 21
161.3379733756
  0
LINE
  5
40C
100
AcDbEntity
  8
0
100
AcDbLine
 62
7
  6
CONTINUOUS
 10
203.6782237392
 20
163.7794788807
 11
203.6782237392
 21
163.5689654824
  0
LINE
  5
40D
100
AcDbEntity
  8
0
100
AcDbLine
 62
7
  6
CONTINUOUS
 10
203.6782237392
 20
159.1437368881
 11
203.6782237392
 21
159.8120324884
  0
LINE
  5
40E
100
AcDbEntity
  8
0
100
AcDbLine
 62
7
  6
CONTINUOUS
 10
203.8447228117
 20
158.8964680843
 11
203.8447228117
 21
158.6859546861
  0
LINE
  5
40F
100
AcDbEntity
  8
0
100
AcDbLine
 62
7
  6
CONTINUOUS
 10
204.1777171458
 20
158.4386857754
 11
204.1777171458
 21
158.2281723771
  0
LINE
  5
410
100
AcDbEntity
  8
0
100
AcDbLine
 62
7
  6
CONTINUOUS
 10
204.5107133852
 20
164.2372610827
 11
204.5107133852
 21
164.0267476845
  0
LINE
  5
411
100
AcDbEntity
  8
0
100
AcDbLine
 62
7
  6
CONTINUOUS
 10
204.5107133852
 20
161.6431615103
 11
204.5107133852
 21
161.4326481121
  0
LINE
  5
412
100
AcDbEntity
  8
0
100
AcDbLine
 62
7
  6
CONTINUOUS
 10
204.6772105523
 20
158.1334976407
 11
204.6772105523
 21
157.9229842424
  0
LINE
  5
413
100
AcDbEntity
  8
0
100
AcDbLine
 62
7
  6
CONTINUOUS
 10
205.1767039588
 20
157.9809035733
 11
205.1767039588
 21
157.7703901751
  0
LINE
  5
414
100
AcDbEntity
  8
0
100
AcDbLine
 62
7
  6
CONTINUOUS
 10
205.3432030313
 20
164.3898551501
 11
205.3432030313
 21
164.1793417518
  0
LINE
  5
415
100
AcDbEntity
  8
0
100
AcDbLine
 62
7
  6
CONTINUOUS
 10
205.3432030313
 20
161.7957555776
 11
205.3432030313
 21
161.5852421794
  0
LINE
  5
416
100
AcDbEntity
  8
0
100
AcDbLine
 62
7
  6
CONTINUOUS
 10
206.0091936048
 20
164.3898551501
 11
206.0091936048
 21
164.1793417518
  0
LINE
  5
417
100
AcDbEntity
  8
0
100
AcDbLine
 62
7
  6
CONTINUOUS
 10
206.1756907719
 20
161.7957555776
 11
206.1756907719
 21
161.5852421794
  0
LINE
  5
418
100
AcDbEntity
  8
0
100
AcDbLine
 62
7
  6
CONTINUOUS
 10
206.3421898443
 20
157.9809035733
 11
206.3421898443
 21
157.7703901751
  0
LINE
  5
419
100
AcDbEntity
  8
0
100
AcDbLine
 62
7
  6
CONTINUOUS
 10
206.8416832508
 20
164.2372610827
 11
206.8416832508
 21
164.0267476845
  0
LINE
  5
41A
100
AcDbEntity
  8
0
100
AcDbLine
 62
7
  6
CONTINUOUS
 10
206.8416832508
 20
158.1334976407
 11
206.8416832508
 21
157.9229842424
  0
LINE
  5
41B
100
AcDbEntity
  8
0
100
AcDbLine
 62
7
  6
CONTINUOUS
 10
207.0081804179
 20
161.6431615103
 11
207.0081804179
 21
161.4326481121
  0
LINE
  5
41C
100
AcDbEntity
  8
0
100
AcDbLine
 62
7
  6
CONTINUOUS
 10
207.3411766574
 20
158.4386857754
 11
207.3411766574
 21
158.2281723771
  0
LINE
  5
41D
100
AcDbEntity
  8
0
100
AcDbLine
 62
7
  6
CONTINUOUS
 10
207.6741709914
 20
163.7794788807
 11
207.6741709914
 21
163.5689654824
  0
LINE
  5
41E
100
AcDbEntity
  8
0
100
AcDbLine
 62
7
  6
CONTINUOUS
 10
207.6741709914
 20
158.8964680843
 11
207.6741709914
 21
158.6859546861
  0
LINE
  5
41F
100
AcDbEntity
  8
0
100
AcDbLine
 62
7
  6
CONTINUOUS
 10
207.8406700639
 20
161.1853793082
 11
207.8406700639
 21
160.97486591
  0
LINE
  5
420
100
AcDbEntity
  8
0
100
AcDbLine
 62
7
  6
CONTINUOUS
 10
207.8406700639
 20
159.8120324884
 11
207.8406700639
 21
159.1437368881
  0
LINE
  5
421
100
AcDbEntity
  8
0
100
AcDbLine
 62
7
  6
CONTINUOUS
 10
208.173664398
 20
163.1691026113
 11
208.173664398
 21
162.958589213
  0
LINE
  5
422
100
AcDbEntity
  8
0
100
AcDbLine
 62
7
  6
CONTINUOUS
 10
208.3401634704
 20
160.7275971062
 11
208.3401634704
 21
160.517083708
  0
LINE
  5
423
100
AcDbEntity
  8
0
100
AcDbLine
 62
7
  6
CONTINUOUS
 10
208.6731578045
 20
159.201656219
 11
208.6731578045
 21
159.9646267695
  0
LINE
  5
424
100
AcDbEntity
  8
0
100
AcDbLine
 62
7
  6
CONTINUOUS
 10
210.0959949322
 20
98.8731432267
 11
210.0959949322
 21
98.1235718806
  0
LINE
  5
425
100
AcDbEntity
  8
RUNDUNGEN
100
AcDbLine
 62
7
  6
CONTINUOUS
 10
214.131456685
 20
23.4805823384
 11
214.131456685
 21
16.2680931703
  0
LINE
  5
426
100
AcDbEntity
  8
0
100
AcDbLine
 62
7
  6
CONTINUOUS
 10
217.481456685
 20
113.8014755032
 11
217.481456685
 21
105.7504473123
  0
LINE
  5
427
100
AcDbEntity
  8
RUNDUNGEN
100
AcDbLine
 62
7
  6
CONTINUOUS
 10
217.481456685
 20
113.8014755032
 11
217.481456685
 21
161.7592285748
  0
LINE
  5
428
100
AcDbEntity
  8
0
100
AcDbLine
 62
7
  6
CONTINUOUS
 10
219.948244446
 20
146.7645809345
 11
219.948244446
 21
165.0137086666
  0
LINE
  5
429
100
AcDbEntity
  8
RUNDUNGEN
100
AcDbLine
 62
7
  6
CONTINUOUS
 10
226.481456685
 20
21.3592619948
 11
226.481456685
 21
34.424905106
  0
LINE
  5
42A
100
AcDbEntity
  8
0
100
AcDbLine
 62
7
  6
CONTINUOUS
 10
227.3687323369
 20
187.7190161093
 11
227.3687323369
 21
190.6367310023
  0
LINE
  5
42B
100
AcDbEntity
  8
0
100
AcDbLine
 62
7
  6
CONTINUOUS
 10
202.8457359986
 20
162.406131847
 11
202.6792369262
 21
161.3379733756
  0
LINE
  5
42C
100
AcDbEntity
  8
0
100
AcDbLine
 62
7
  6
CONTINUOUS
 10
202.8457359986
 20
162.1956184488
 11
202.6792369262
 21
161.1274599774
  0
LINE
  5
42D
100
AcDbEntity
  8
0
100
AcDbLine
 62
7
  6
CONTINUOUS
 10
203.5117265722
 20
161.3379733756
 11
203.6782237392
 21
162.2535377797
  0
LINE
  5
42E
100
AcDbEntity
  8
0
100
AcDbLine
 62
7
  6
CONTINUOUS
 10
191.6903829353
 20
162.7113204092
 11
191.5238848155
 21
161.948349645
  0
LINE
  5
42F
100
AcDbEntity
  8
0
100
AcDbLine
 62
7
  6
CONTINUOUS
 10
191.6903829353
 20
162.500807011
 11
191.5238848155
 21
161.7378362468
  0
LINE
  5
430
100
AcDbEntity
  8
0
100
AcDbLine
 62
7
  6
CONTINUOUS
 10
192.5228716286
 20
161.948349645
 11
192.6893697483
 21
162.5587259144
  0
LINE
  5
431
100
AcDbEntity
  8
0
100
AcDbLine
 62
7
  6
CONTINUOUS
 10
197.8508019334
 20
158.286091708
 11
198.0172991004
 21
158.8964680843
  0
LINE
  5
432
100
AcDbEntity
  8
0
100
AcDbLine
 62
7
  6
CONTINUOUS
 10
150.5961598698
 20
158.286091708
 11
150.9141678999
 21
158.8964680843
  0
LINE
  5
433
100
AcDbEntity
  8
0
100
AcDbLine
 62
7
  6
CONTINUOUS
 10
158.22835896
 20
158.286091708
 11
158.5463678999
 21
158.8964680843
  0
LINE
  5
434
100
AcDbEntity
  8
0
100
AcDbLine
 62
7
  6
CONTINUOUS
 10
149.9601428999
 20
159.0490621516
 11
149.6421348698
 21
158.5912799496
  0
LINE
  5
435
100
AcDbEntity
  8
0
100
AcDbLine
 62
7
  6
CONTINUOUS
 10
149.9601428999
 20
158.8385487534
 11
149.6421348698
 21
158.3807665514
  0
LINE
  5
436
100
AcDbEntity
  8
RUNDUNGEN
100
AcDbLine
 62
7
  6
CONTINUOUS
 10
242.8125009006
 20
120.3465961686
 11
242.8125009006
 21
123.8821300746
  0
LINE
  5
437
100
AcDbEntity
  8
0
100
AcDbLine
 62
7
  6
CONTINUOUS
 10
219.948244446
 20
149.5012551113
 11
217.481456685
 21
138.5958178111
  0
LINE
  5
438
100
AcDbEntity
  8
0
100
AcDbLine
 62
7
  6
CONTINUOUS
 10
219.948244446
 20
146.7645809345
 11
217.481456685
 21
135.8591436342
  0
LINE
  5
439
100
AcDbEntity
  8
0
100
AcDbLine
 62
7
  6
CONTINUOUS
 10
189.0264177829
 20
162.2535377797
 11
188.8599201395
 21
161.7957555776
  0
LINE
  5
43A
100
AcDbEntity
  8
0
100
AcDbLine
 62
7
  6
CONTINUOUS
 10
189.0264177829
 20
162.0430243815
 11
188.8599201395
 21
161.5852421794
  0
LINE
  5
43B
100
AcDbEntity
  8
0
100
AcDbLine
 62
7
  6
CONTINUOUS
 10
189.8589064762
 20
161.6431615103
 11
190.025404596
 21
162.1009437123
  0
LINE
  5
43C
100
AcDbEntity
  8
0
100
AcDbLine
 62
7
  6
CONTINUOUS
 10
197.0183122873
 20
159.0490621516
 11
196.8518141676
 21
158.5912799496
  0
LINE
  5
43D
100
AcDbEntity
  8
0
100
AcDbLine
 62
7
  6
CONTINUOUS
 10
197.0183122873
 20
158.8385487534
 11
196.8518141676
 21
158.3807665514
  0
LINE
  5
43E
100
AcDbEntity
  8
0
100
AcDbLine
 62
7
  6
CONTINUOUS
 10
203.6782237392
 20
162.2535377797
 11
203.8447228117
 21
162.7113204092
  0
LINE
  5
43F
100
AcDbEntity
  8
0
100
AcDbLine
 62
7
  6
CONTINUOUS
 10
203.6782237392
 20
159.8120324884
 11
203.8447228117
 21
160.2698149042
  0
LINE
  5
440
100
AcDbEntity
  8
0
100
AcDbLine
 62
7
  6
CONTINUOUS
 10
207.8406700639
 20
159.3542502863
 11
207.6741709914
 21
158.8964680843
  0
LINE
  5
441
100
AcDbEntity
  8
0
100
AcDbLine
 62
7
  6
CONTINUOUS
 10
157.5923428999
 20
159.0490621516
 11
157.27433396
 21
158.5912799496
  0
LINE
  5
442
100
AcDbEntity
  8
0
100
AcDbLine
 62
7
  6
CONTINUOUS
 10
157.5923428999
 20
158.8385487534
 11
157.27433396
 21
158.3807665514
  0
LINE
  5
443
100
AcDbEntity
  8
0
100
AcDbLine
 62
7
  6
CONTINUOUS
 10
143.2819678999
 20
161.0327852409
 11
143.7589803999
 21
161.6431615103
  0
LINE
  5
444
100
AcDbEntity
  8
0
100
AcDbLine
 62
7
  6
CONTINUOUS
 10
142.8049553999
 20
161.7957555776
 11
142.4869469149
 21
161.4905674429
  0
LINE
  5
445
100
AcDbEntity
  8
0
100
AcDbLine
 62
7
  6
CONTINUOUS
 10
142.8049553999
 20
161.5852421794
 11
142.4869469149
 21
161.2800540447
  0
LINE
  5
446
100
AcDbEntity
  8
0
100
AcDbLine
 62
7
  6
CONTINUOUS
 10
224.3841694208
 20
176.9842433626
 11
219.948244446
 21
161.2950242294
  0
LINE
  5
447
100
AcDbEntity
  8
0
100
AcDbLine
 62
7
  6
CONTINUOUS
 10
224.3841694208
 20
180.4378952309
 11
219.948244446
 21
165.0137086666
  0
LINE
  5
448
100
AcDbEntity
  8
0
100
AcDbLine
 62
7
  6
CONTINUOUS
 10
207.8406700639
 20
159.1437368881
 11
207.6741709914
 21
158.6859546861
  0
LINE
  5
449
100
AcDbEntity
  8
0
100
AcDbLine
 62
7
  6
CONTINUOUS
 10
203.1787303327
 20
163.1691026113
 11
202.8457359986
 21
162.406131847
  0
LINE
  5
44A
100
AcDbEntity
  8
0
100
AcDbLine
 62
7
  6
CONTINUOUS
 10
203.1787303327
 20
162.958589213
 11
202.8457359986
 21
162.1956184488
  0
LINE
  5
44B
100
AcDbEntity
  8
0
100
AcDbLine
 62
7
  6
CONTINUOUS
 10
208.3401634704
 20
158.4386857754
 11
208.6731578045
 21
159.201656219
  0
LINE
  5
44C
100
AcDbEntity
  8
0
100
AcDbLine
 62
7
  6
CONTINUOUS
 10
192.0233782221
 20
163.3216966786
 11
191.6903829353
 21
162.7113204092
  0
LINE
  5
44D
100
AcDbEntity
  8
0
100
AcDbLine
 62
7
  6
CONTINUOUS
 10
192.0233782221
 20
163.1111832804
 11
191.6903829353
 21
162.500807011
  0
LINE
  5
44E
100
AcDbEntity
  8
0
100
AcDbLine
 62
7
  6
CONTINUOUS
 10
192.6893697483
 20
162.5587259144
 11
193.0223650351
 21
163.0165085439
  0
LINE
  5
44F
100
AcDbEntity
  8
0
100
AcDbLine
 62
7
  6
CONTINUOUS
 10
189.359413546
 20
161.0327852409
 11
189.8589064762
 21
161.6431615103
  0
LINE
  5
450
100
AcDbEntity
  8
0
100
AcDbLine
 62
7
  6
CONTINUOUS
 10
149.9601428999
 20
157.6757153852
 11
150.5961598698
 21
158.286091708
  0
LINE
  5
451
100
AcDbEntity
  8
0
100
AcDbLine
 62
7
  6
CONTINUOUS
 10
157.5923428999
 20
157.6757153852
 11
158.22835896
 21
158.286091708
  0
LINE
  5
452
100
AcDbEntity
  8
0
100
AcDbLine
 62
7
  6
CONTINUOUS
 10
203.8447228117
 20
162.7113204092
 11
204.1777171458
 21
163.1691026113
  0
LINE
  5
453
100
AcDbEntity
  8
0
100
AcDbLine
 62
7
  6
CONTINUOUS
 10
207.6741709914
 20
158.8964680843
 11
207.3411766574
 21
158.4386857754
  0
LINE
  5
454
100
AcDbEntity
  8
0
100
AcDbLine
 62
7
  6
CONTINUOUS
 10
207.6741709914
 20
158.6859546861
 11
207.3411766574
 21
158.2281723771
  0
LINE
  5
455
100
AcDbEntity
  8
0
100
AcDbLine
 62
7
  6
CONTINUOUS
 10
203.6782237392
 20
163.7794788807
 11
203.1787303327
 21
163.1691026113
  0
LINE
  5
456
100
AcDbEntity
  8
0
100
AcDbLine
 62
7
  6
CONTINUOUS
 10
203.6782237392
 20
163.5689654824
 11
203.1787303327
 21
162.958589213
  0
LINE
  5
457
100
AcDbEntity
  8
0
100
AcDbLine
 62
7
  6
CONTINUOUS
 10
207.8406700639
 20
157.8283094525
 11
208.3401634704
 21
158.4386857754
  0
LINE
  5
458
100
AcDbEntity
  8
0
100
AcDbLine
 62
7
  6
CONTINUOUS
 10
200.348268966
 20
164.3898551501
 11
199.3492821529
 21
163.3216966786
  0
LINE
  5
459
100
AcDbEntity
  8
0
100
AcDbLine
 62
7
  6
CONTINUOUS
 10
200.348268966
 20
164.1793417518
 11
199.3492821529
 21
163.1111832804
  0
LINE
  5
45A
100
AcDbEntity
  8
0
100
AcDbLine
 62
7
  6
CONTINUOUS
 10
199.3492821529
 20
162.1009437123
 11
200.348268966
 21
163.1691026113
  0
LINE
  5
45B
100
AcDbEntity
  8
0
100
AcDbLine
 62
7
  6
CONTINUOUS
 10
188.8599201395
 20
161.7957555776
 11
188.5269243764
 21
161.4905674429
  0
LINE
  5
45C
100
AcDbEntity
  8
0
100
AcDbLine
 62
7
  6
CONTINUOUS
 10
188.8599201395
 20
161.5852421794
 11
188.5269243764
 21
161.2800540447
  0
LINE
  5
45D
100
AcDbEntity
  8
0
100
AcDbLine
 62
7
  6
CONTINUOUS
 10
192.6893697483
 20
163.932072948
 11
192.0233782221
 21
163.3216966786
  0
LINE
  5
45E
100
AcDbEntity
  8
0
100
AcDbLine
 62
7
  6
CONTINUOUS
 10
192.6893697483
 20
163.7215595498
 11
192.0233782221
 21
163.1111832804
  0
LINE
  5
45F
100
AcDbEntity
  8
0
100
AcDbLine
 62
7
  6
CONTINUOUS
 10
149.6421348698
 20
158.5912799496
 11
149.1651223698
 21
158.286091708
  0
LINE
  5
460
100
AcDbEntity
  8
0
100
AcDbLine
 62
7
  6
CONTINUOUS
 10
149.6421348698
 20
158.3807665514
 11
149.1651223698
 21
158.0755783098
  0
LINE
  5
461
100
AcDbEntity
  8
0
100
AcDbLine
 62
7
  6
CONTINUOUS
 10
157.27433396
 20
158.5912799496
 11
156.79732146
 21
158.286091708
  0
LINE
  5
462
100
AcDbEntity
  8
0
100
AcDbLine
 62
7
  6
CONTINUOUS
 10
157.27433396
 20
158.3807665514
 11
156.79732146
 21
158.0755783098
  0
LINE
  5
463
100
AcDbEntity
  8
0
100
AcDbLine
 62
7
  6
CONTINUOUS
 10
142.6459513849
 20
160.7275971062
 11
143.2819678999
 21
161.0327852409
  0
LINE
  5
464
100
AcDbEntity
  8
0
100
AcDbLine
 62
7
  6
CONTINUOUS
 10
149.32412593
 20
157.3705272104
 11
149.9601428999
 21
157.6757153852
  0
LINE
  5
465
100
AcDbEntity
  8
0
100
AcDbLine
 62
7
  6
CONTINUOUS
 10
197.1848104071
 20
157.6757153852
 11
197.8508019334
 21
158.286091708
  0
LINE
  5
466
100
AcDbEntity
  8
0
100
AcDbLine
 62
7
  6
CONTINUOUS
 10
203.8447228117
 20
160.2698149042
 11
204.1777171458
 21
160.5750030389
  0
LINE
  5
467
100
AcDbEntity
  8
0
100
AcDbLine
 62
7
  6
CONTINUOUS
 10
193.0223650351
 20
163.0165085439
 11
193.5218584416
 21
163.3216966786
  0
LINE
  5
468
100
AcDbEntity
  8
0
100
AcDbLine
 62
7
  6
CONTINUOUS
 10
204.1777171458
 20
163.1691026113
 11
204.6772105523
 21
163.474290746
  0
LINE
  5
469
100
AcDbEntity
  8
0
100
AcDbLine
 62
7
  6
CONTINUOUS
 10
196.8518141676
 20
158.5912799496
 11
196.3523207611
 21
158.286091708
  0
LINE
  5
46A
100
AcDbEntity
  8
0
100
AcDbLine
 62
7
  6
CONTINUOUS
 10
196.8518141676
 20
158.3807665514
 11
196.3523207611
 21
158.0755783098
  0
LINE
  5
46B
100
AcDbEntity
  8
0
100
AcDbLine
 62
7
  6
CONTINUOUS
 10
204.5107133852
 20
161.6431615103
 11
203.5117265722
 21
161.0327852409
  0
LINE
  5
46C
100
AcDbEntity
  8
0
100
AcDbLine
 62
7
  6
CONTINUOUS
 10
204.5107133852
 20
161.4326481121
 11
203.5117265722
 21
160.8222718427
  0
LINE
  5
46D
100
AcDbEntity
  8
0
100
AcDbLine
 62
7
  6
CONTINUOUS
 10
204.1777171458
 20
160.5750030389
 11
204.6772105523
 21
160.8801911736
  0
LINE
  5
46E
100
AcDbEntity
  8
0
100
AcDbLine
 62
7
  6
CONTINUOUS
 10
207.3411766574
 20
158.4386857754
 11
206.8416832508
 21
158.1334976407
  0
LINE
  5
46F
100
AcDbEntity
  8
0
100
AcDbLine
 62
7
  6
CONTINUOUS
 10
207.3411766574
 20
158.2281723771
 11
206.8416832508
 21
157.9229842424
  0
LINE
  5
470
100
AcDbEntity
  8
0
100
AcDbLine
 62
7
  6
CONTINUOUS
 10
204.5107133852
 20
164.2372610827
 11
203.6782237392
 21
163.7794788807
  0
LINE
  5
471
100
AcDbEntity
  8
0
100
AcDbLine
 62
7
  6
CONTINUOUS
 10
204.5107133852
 20
164.0267476845
 11
203.6782237392
 21
163.5689654824
  0
LINE
  5
472
100
AcDbEntity
  8
RUNDUNGEN
100
AcDbLine
 62
7
  6
CONTINUOUS
 10
108.3601117106
 20
128.3720483955
 11
106.7218076221
 21
127.5608888201
  0
LINE
  5
473
100
AcDbEntity
  8
RUNDUNGEN
100
AcDbLine
 62
7
  6
CONTINUOUS
 10
108.3601117106
 20
124.8365144895
 11
106.7218076221
 21
124.0253549142
  0
LINE
  5
474
100
AcDbEntity
  8
0
100
AcDbLine
 62
7
  6
CONTINUOUS
 10
156.9563268398
 20
157.3705272104
 11
157.5923428999
 21
157.6757153852
  0
LINE
  5
475
100
AcDbEntity
  8
0
100
AcDbLine
 62
7
  6
CONTINUOUS
 10
193.3553603219
 20
164.2372610827
 11
192.6893697483
 21
163.932072948
  0
LINE
  5
476
100
AcDbEntity
  8
0
100
AcDbLine
 62
7
  6
CONTINUOUS
 10
193.3553603219
 20
164.0267476845
 11
192.6893697483
 21
163.7215595498
  0
LINE
  5
477
100
AcDbEntity
  8
0
100
AcDbLine
 62
7
  6
CONTINUOUS
 10
188.6934220198
 20
160.7275971062
 11
189.359413546
 21
161.0327852409
  0
LINE
  5
478
100
AcDbEntity
  8
0
100
AcDbLine
 62
7
  6
CONTINUOUS
 10
196.5188188808
 20
157.3705272104
 11
197.1848104071
 21
157.6757153852
  0
LINE
  5
479
100
AcDbEntity
  8
0
100
AcDbLine
 62
7
  6
CONTINUOUS
 10
142.4869469149
 20
161.4905674429
 11
142.0099344149
 21
161.3379733756
  0
LINE
  5
47A
100
AcDbEntity
  8
0
100
AcDbLine
 62
7
  6
CONTINUOUS
 10
142.4869469149
 20
161.2800540447
 11
142.0099344149
 21
161.1274599774
  0
LINE
  5
47B
100
AcDbEntity
  8
0
100
AcDbLine
 62
7
  6
CONTINUOUS
 10
188.5269243764
 20
161.4905674429
 11
188.0274309698
 21
161.3379733756
  0
LINE
  5
47C
100
AcDbEntity
  8
0
100
AcDbLine
 62
7
  6
CONTINUOUS
 10
188.5269243764
 20
161.2800540447
 11
188.0274309698
 21
161.1274599774
  0
LINE
  5
47D
100
AcDbEntity
  8
0
100
AcDbLine
 62
7
  6
CONTINUOUS
 10
204.6772105523
 20
163.474290746
 11
205.1767039588
 21
163.6268848133
  0
LINE
  5
47E
100
AcDbEntity
  8
RUNDUNGEN
100
AcDbLine
 62
7
  6
CONTINUOUS
 10
142.408499653
 20
61.3811570145
 11
118.9282403307
 21
37.6695434074
  0
LINE
  5
47F
100
AcDbEntity
  8
RUNDUNGEN
100
AcDbLine
 62
7
  6
CONTINUOUS
 10
142.408499653
 20
57.8456231086
 11
118.9282403307
 21
34.1340095014
  0
LINE
  5
480
100
AcDbEntity
  8
RUNDUNGEN
100
AcDbLine
 62
7
  6
CONTINUOUS
 10
217.481456685
 20
120.2427764477
 11
227.4108562031
 21
130.2700117304
  0
LINE
  5
481
100
AcDbEntity
  8
0
100
AcDbLine
 62
7
  6
CONTINUOUS
 10
207.0081804179
 20
157.3705272104
 11
207.8406700639
 21
157.8283094525
  0
LINE
  5
482
100
AcDbEntity
  8
RUNDUNGEN
100
AcDbLine
 62
7
  6
CONTINUOUS
 10
117.5785473025
 20
114.2944453084
 11
112.2540590146
 21
111.6581766885
  0
LINE
  5
483
100
AcDbEntity
  8
RUNDUNGEN
100
AcDbLine
 62
7
  6
CONTINUOUS
 10
121.2018514217
 20
106.1577543352
 11
126.481456685
 21
108.7718004047
  0
LINE
  5
484
100
AcDbEntity
  8
RUNDUNGEN
100
AcDbLine
 62
7
  6
CONTINUOUS
 10
121.2018514217
 20
102.6222204292
 11
126.5263397096
 21
105.2584890491
  0
LINE
  5
485
100
AcDbEntity
  8
0
100
AcDbLine
 62
7
  6
CONTINUOUS
 10
204.6772105523
 20
160.8801911736
 11
205.1767039588
 21
161.0327852409
  0
LINE
  5
486
100
AcDbEntity
  8
0
100
AcDbLine
 62
7
  6
CONTINUOUS
 10
206.8416832508
 20
158.1334976407
 11
206.3421898443
 21
157.9809035733
  0
LINE
  5
487
100
AcDbEntity
  8
0
100
AcDbLine
 62
7
  6
CONTINUOUS
 10
206.8416832508
 20
157.9229842424
 11
206.3421898443
 21
157.7703901751
  0
LINE
  5
488
100
AcDbEntity
  8
RUNDUNGEN
100
AcDbLine
 62
7
  6
CONTINUOUS
 10
217.481456685
 20
116.7072425418
 11
227.4108562031
 21
126.7344778245
  0
LINE
  5
489
100
AcDbEntity
  8
RUNDUNGEN
100
AcDbLine
 62
7
  6
CONTINUOUS
 10
155.4338857842
 20
31.549652536
 11
163.7899362421
 21
39.9880363297
  0
LINE
  5
48A
100
AcDbEntity
  8
RUNDUNGEN
100
AcDbLine
 62
7
  6
CONTINUOUS
 10
201.554413717
 20
78.1246124922
 11
242.3603810114
 21
119.3326466995
  0
LINE
  5
48B
100
AcDbEntity
  8
0
100
AcDbLine
 62
7
  6
CONTINUOUS
 10
140.9416607956
 20
96.7750687095
 11
140.9318007861
 21
96.771611498
  0
ARC
  5
48C
100
AcDbEntity
  8
KONSTRUKTIONSELEMENTE
100
AcDbCircle
 62
7
  6
CONTINUOUS
 10
500.2410864807
 20
131.9861179114
 40
9.55
100
AcDbArc
 50
58.6297070454
 51
135.0
  0
ARC
  5
48D
100
AcDbEntity
  8
KONSTRUKTIONSELEMENTE
100
AcDbCircle
 62
7
  6
CONTINUOUS
 10
500.2410864807
 20
131.9861179114
 40
9.55
100
AcDbArc
 50
315.0
 51
31.3702929546
  0
ARC
  5
48E
100
AcDbEntity
  8
KONSTRUKTIONSELEMENTE
100
AcDbCircle
 62
7
  6
CONTINUOUS
 10
491.8265157846
 20
123.5715472153
 40
9.55
100
AcDbArc
 50
240.1951355235
 51
315.0
  0
ARC
  5
48F
100
AcDbEntity
  8
KONSTRUKTIONSELEMENTE
100
AcDbCircle
 62
7
  6
CONTINUOUS
 10
491.8265157846
 20
123.5715472153
 40
9.55
100
AcDbArc
 50
135.0
 51
209.8048644765
  0
ARC
  5
490
100
AcDbEntity
  8
KONSTRUKTIONSELEMENTE
100
AcDbCircle
 62
7
  6
CONTINUOUS
 10
500.2410864807
 20
131.9861179114
 40
4.55
100
AcDbArc
 50
74.6522021472
 51
135.0
  0
ARC
  5
491
100
AcDbEntity
  8
KONSTRUKTIONSELEMENTE
100
AcDbCircle
 62
7
  6
CONTINUOUS
 10
500.2410864807
 20
131.9861179114
 40
4.55
100
AcDbArc
 50
315.0
 51
15.3477978529
  0
ARC
  5
492
100
AcDbEntity
  8
KONSTRUKTIONSELEMENTE
100
AcDbCircle
 62
7
  6
CONTINUOUS
 10
491.8265157846
 20
123.5715472153
 40
4.55
100
AcDbArc
 50
258.3583327703
 51
315.0
  0
ARC
  5
493
100
AcDbEntity
  8
KONSTRUKTIONSELEMENTE
100
AcDbCircle
 62
7
  6
CONTINUOUS
 10
491.8265157846
 20
123.5715472153
 40
4.55
100
AcDbArc
 50
135.0
 51
191.6416672297
  0
ARC
  5
494
100
AcDbEntity
  8
KONSTRUKTIONSELEMENTE
100
AcDbCircle
 62
7
  6
CONTINUOUS
 10
501.5138786868
 20
133.2589101176
 40
2.25
100
AcDbArc
 50
135.0
 51
315.0
  0
ARC
  5
495
100
AcDbEntity
  8
KONSTRUKTIONSELEMENTE
100
AcDbCircle
 62
7
  6
CONTINUOUS
 10
521.1360918647
 20
152.8811232955
 40
8.0
100
AcDbArc
 50
135.0
 51
208.6357041722
  0
ARC
  5
496
100
AcDbEntity
  8
KONSTRUKTIONSELEMENTE
100
AcDbCircle
 62
7
  6
CONTINUOUS
 10
521.1360918647
 20
152.8811232955
 40
8.0
100
AcDbArc
 50
241.3642958278
 51
315.0
  0
ARC
  5
497
100
AcDbEntity
  8
KONSTRUKTIONSELEMENTE
100
AcDbCircle
 62
7
  6
CONTINUOUS
 10
531.7426935825
 20
163.4877250133
 40
8.0
100
AcDbArc
 50
315.0
 51
28.6357041722
  0
ARC
  5
498
100
AcDbEntity
  8
KONSTRUKTIONSELEMENTE
100
AcDbCircle
 62
7
  6
CONTINUOUS
 10
531.7426935825
 20
163.4877250133
 40
8.0
100
AcDbArc
 50
61.3642958278
 51
135.0
  0
ARC
  5
499
100
AcDbEntity
  8
KONSTRUKTIONSELEMENTE
100
AcDbCircle
 62
7
  6
CONTINUOUS
 10
521.1360918647
 20
152.8811232955
 40
3.5
100
AcDbArc
 50
135.0
 51
184.8461224921
  0
ARC
  5
49A
100
AcDbEntity
  8
KONSTRUKTIONSELEMENTE
100
AcDbCircle
 62
7
  6
CONTINUOUS
 10
521.1360918647
 20
152.8811232955
 40
3.5
100
AcDbArc
 50
265.1538775079
 51
315.0
  0
ARC
  5
49B
100
AcDbEntity
  8
KONSTRUKTIONSELEMENTE
100
AcDbCircle
 62
7
  6
CONTINUOUS
 10
531.7426935825
 20
163.4877250133
 40
3.5
100
AcDbArc
 50
315.0
 51
4.8461224921
  0
ARC
  5
49C
100
AcDbEntity
  8
KONSTRUKTIONSELEMENTE
100
AcDbCircle
 62
7
  6
CONTINUOUS
 10
531.7426935825
 20
163.4877250133
 40
3.5
100
AcDbArc
 50
85.1538775079
 51
135.0
  0
ARC
  5
49D
100
AcDbEntity
  8
KONSTRUKTIONSELEMENTE
100
AcDbCircle
 62
7
  6
CONTINUOUS
 10
520.2522083883
 20
151.997239819
 40
2.25
100
AcDbArc
 50
315.0
 51
135.0
  0
ARC
  5
49E
100
AcDbEntity
  8
KONSTRUKTIONSELEMENTE
100
AcDbCircle
 62
7
  6
CONTINUOUS
 10
532.626577059
 20
164.3716084898
 40
2.25
100
AcDbArc
 50
135.0
 51
315.0
  0
ARC
  5
49F
100
AcDbEntity
  8
0
100
AcDbCircle
 62
7
  6
CONTINUOUS
 10
510.5601406495
 20
215.8147391605
 40
121.7052235045
100
AcDbArc
 50
341.3942966853
 51
346.6528451095
  0
ARC
  5
4A0
100
AcDbEntity
  8
KONSTRUKTIONSELEMENTE
100
AcDbCircle
 62
7
  6
CONTINUOUS
 10
561.4058230533
 20
193.1508544841
 40
9.55
100
AcDbArc
 50
69.7697649129
 51
135.0
  0
ARC
  5
4A1
100
AcDbEntity
  8
KONSTRUKTIONSELEMENTE
100
AcDbCircle
 62
7
  6
CONTINUOUS
 10
561.4058230533
 20
193.1508544841
 40
9.55
100
AcDbArc
 50
315.0
 51
20.2302350871
  0
ARC
  5
4A2
100
AcDbEntity
  8
KONSTRUKTIONSELEMENTE
100
AcDbCircle
 62
7
  6
CONTINUOUS
 10
552.9912523572
 20
184.7362837879
 40
9.55
100
AcDbArc
 50
238.6297070454
 51
315.0
  0
ARC
  5
4A3
100
AcDbEntity
  8
KONSTRUKTIONSELEMENTE
100
AcDbCircle
 62
7
  6
CONTINUOUS
 10
552.9912523572
 20
184.7362837879
 40
9.55
100
AcDbArc
 50
135.0
 51
211.3702929546
  0
ARC
  5
4A4
100
AcDbEntity
  8
KONSTRUKTIONSELEMENTE
100
AcDbCircle
 62
7
  6
CONTINUOUS
 10
561.4058230533
 20
193.1508544841
 40
4.55
100
AcDbArc
 50
106.8037408542
 51
135.0
  0
ARC
  5
4A5
100
AcDbEntity
  8
KONSTRUKTIONSELEMENTE
100
AcDbCircle
 62
7
  6
CONTINUOUS
 10
561.4058230533
 20
193.1508544841
 40
4.55
100
AcDbArc
 50
315.0
 51
343.1962591458
  0
ARC
  5
4A6
100
AcDbEntity
  8
KONSTRUKTIONSELEMENTE
100
AcDbCircle
 62
7
  6
CONTINUOUS
 10
552.9912523572
 20
184.7362837879
 40
4.55
100
AcDbArc
 50
254.6522021471
 51
315.0
  0
ARC
  5
4A7
100
AcDbEntity
  8
KONSTRUKTIONSELEMENTE
100
AcDbCircle
 62
7
  6
CONTINUOUS
 10
552.9912523572
 20
184.7362837879
 40
4.55
100
AcDbArc
 50
135.0
 51
195.3477978529
  0
ARC
  5
4A8
100
AcDbEntity
  8
KONSTRUKTIONSELEMENTE
100
AcDbCircle
 62
7
  6
CONTINUOUS
 10
561.794731783
 20
193.5397632137
 40
4.0
100
AcDbArc
 50
135.0
 51
315.0
  0
ARC
  5
4A9
100
AcDbEntity
  8
KONSTRUKTIONSELEMENTE
100
AcDbCircle
 62
7
  6
CONTINUOUS
 10
551.3649067605
 20
183.1099381912
 40
2.25
100
AcDbArc
 50
315.0
 51
135.0
  0
ARC
  5
4AA
100
AcDbEntity
  8
0
100
AcDbCircle
 62
7
  6
CONTINUOUS
 10
597.5016289402
 20
136.0417643561
 40
121.7052235046
100
AcDbArc
 50
21.3942966853
 51
26.6528451095
  0
ARC
  5
4AB
100
AcDbEntity
  8
0
100
AcDbCircle
 62
7
  6
CONTINUOUS
 10
600.657291116
 20
119.1758113915
 40
22.4042
100
AcDbArc
 50
254.1512750662
 51
340.0
  0
ARC
  5
4AC
100
AcDbEntity
  8
RUNDUNGEN
100
AcDbCircle
 62
7
  6
CONTINUOUS
 10
598.5978607683
 20
119.9253827376
 40
22.4042
100
AcDbArc
 50
160.0
 51
250.0
  0
ARC
  5
4AD
100
AcDbEntity
  8
0
100
AcDbCircle
 62
7
  6
CONTINUOUS
 10
600.5784629895
 20
118.9591601016
 40
22.1727789228
100
AcDbArc
 50
249.9999356663
 51
251.6737752871
  0
ARC
  5
4AE
100
AcDbEntity
  8
0
100
AcDbCircle
 62
7
  6
CONTINUOUS
 10
600.556178972
 20
118.8907087614
 40
22.1007926275
100
AcDbArc
 50
251.6728183024
 51
254.0189318338
  0
ARC
  5
4AF
100
AcDbEntity
  8
0
100
AcDbCircle
 62
7
  6
CONTINUOUS
 10
600.501392209
 20
118.6983272498
 40
21.9007622639
100
AcDbArc
 50
254.018154784
 51
256.3081521079
  0
ARC
  5
4B0
100
AcDbEntity
  8
0
100
AcDbCircle
 62
7
  6
CONTINUOUS
 10
600.4316324422
 20
118.4117069352
 40
21.6057747634
100
AcDbArc
 50
256.3079781114
 51
258.3573630969
  0
ARC
  5
4B1
100
AcDbEntity
  8
0
100
AcDbCircle
 62
7
  6
CONTINUOUS
 10
600.3426008614
 20
117.9747545767
 40
21.1598453912
100
AcDbArc
 50
258.3547090063
 51
260.9149596664
  0
ARC
  5
4B2
100
AcDbEntity
  8
0
100
AcDbCircle
 62
7
  6
CONTINUOUS
 10
600.2749406849
 20
117.5616004743
 40
20.74119078
100
AcDbArc
 50
260.9193083903
 51
262.1226539058
  0
CIRCLE
  5
4B3
100
AcDbEntity
  8
BEZUGSACHSEN
100
AcDbCircle
 62
7
  6
CONTINUOUS
 10
600.9956565155
 20
123.3093675477
 40
11.375
  0
ARC
  5
4B4
100
AcDbEntity
  8
0
100
AcDbCircle
 62
7
  6
CONTINUOUS
 10
624.4049902248
 20
156.9260371169
 40
7.5
100
AcDbArc
 50
340.0
 51
65.2676422534
  0
ARC
  5
4B5
100
AcDbEntity
  8
RUNDUNGEN
100
AcDbCircle
 62
7
  6
CONTINUOUS
 10
604.6714451883
 20
164.1084601267
 40
7.5
100
AcDbArc
 50
74.7323577466
 51
160.0
  0
ARC
  5
4B6
100
AcDbEntity
  8
0
100
AcDbCircle
 62
7
  6
CONTINUOUS
 10
626.9576690706
 20
162.4625568588
 40
1.4033455672
100
AcDbArc
 50
65.3557161564
 51
69.5466587561
  0
ARC
  5
4B7
100
AcDbEntity
  8
RUNDUNGEN
100
AcDbCircle
 62
7
  6
CONTINUOUS
 10
606.2747860344
 20
169.9905106428
 40
1.4033455673
100
AcDbArc
 50
70.4533412439
 51
74.6442838436
  0
ARC
  5
4B8
100
AcDbEntity
  8
BEZUGSACHSEN
100
AcDbCircle
 62
7
  6
CONTINUOUS
 10
636.9405370944
 20
222.0671152833
 40
12.0
100
AcDbArc
 50
136.638263733
 51
160.0
  0
ARC
  5
4B9
100
AcDbEntity
  8
BEZUGSACHSEN
100
AcDbCircle
 62
7
  6
CONTINUOUS
 10
636.9405370944
 20
222.0671152833
 40
12.0
100
AcDbArc
 50
340.0
 51
3.361736267
  0
ARC
  5
4BA
100
AcDbEntity
  8
KONSTRUKTIONSELEMENTE
100
AcDbCircle
 62
7
  6
CONTINUOUS
 10
602.8069250918
 20
234.5519565225
 40
4.0
100
AcDbArc
 50
315.0
 51
135.0
  0
ARC
  5
4BB
100
AcDbEntity
  8
0
100
AcDbCircle
 62
7
  6
CONTINUOUS
 10
729.7345876074
 20
136.0417643561
 40
121.7052235046
100
AcDbArc
 50
153.3471548905
 51
158.6057033147
  0
ARC
  5
4BC
100
AcDbEntity
  8
0
100
AcDbCircle
 62
7
  6
CONTINUOUS
 10
726.5789254316
 20
119.1758113915
 40
22.4042
100
AcDbArc
 50
200.0
 51
290.0
  0
ARC
  5
4BD
100
AcDbEntity
  8
RUNDUNGEN
100
AcDbCircle
 62
7
  6
CONTINUOUS
 10
728.6383557793
 20
119.9253827376
 40
22.4042
100
AcDbArc
 50
294.0706633568
 51
20.0
  0
ARC
  5
4BE
100
AcDbEntity
  8
RUNDUNGEN
100
AcDbCircle
 62
7
  6
CONTINUOUS
 10
728.7145178692
 20
119.7161275336
 40
22.1806408083
100
AcDbArc
 50
290.0000013974
 51
290.2848421362
  0
ARC
  5
4BF
100
AcDbEntity
  8
0
100
AcDbCircle
 62
7
  6
CONTINUOUS
 10
726.6643372177
 20
118.9400154039
 40
22.1525370508
100
AcDbArc
 50
286.6842159644
 51
290.0009987523
  0
ARC
  5
4C0
100
AcDbEntity
  8
RUNDUNGEN
100
AcDbCircle
 62
7
  6
CONTINUOUS
 10
728.7259455627
 20
119.6863002204
 40
22.1487015292
100
AcDbArc
 50
290.2838637861
 51
293.3159694596
  0
ARC
  5
4C1
100
AcDbEntity
  8
0
100
AcDbCircle
 62
7
  6
CONTINUOUS
 10
726.6951589548
 20
118.8392769649
 40
22.0471907276
100
AcDbArc
 50
286.020902303
 51
286.6826501372
  0
ARC
  5
4C2
100
AcDbEntity
  8
RUNDUNGEN
100
AcDbCircle
 62
7
  6
CONTINUOUS
 10
728.7669234466
 20
119.5899149583
 40
22.0439683627
100
AcDbArc
 50
293.3173157175
 51
294.0587811351
  0
ARC
  5
4C3
100
AcDbEntity
  8
RUNDUNGEN
100
AcDbCircle
 62
7
  6
CONTINUOUS
 10
728.8120343295
 20
119.4896485179
 40
21.9340217827
100
AcDbArc
 50
294.0579556574
 51
295.6632429226
  0
ARC
  5
4C4
100
AcDbEntity
  8
0
100
AcDbCircle
 62
7
  6
CONTINUOUS
 10
726.7433214219
 20
118.6668515165
 40
21.8681698727
100
AcDbArc
 50
283.1276709106
 51
286.0242965022
  0
ARC
  5
4C5
100
AcDbEntity
  8
RUNDUNGEN
100
AcDbCircle
 62
7
  6
CONTINUOUS
 10
728.8851791165
 20
119.3371236121
 40
21.7648650781
100
AcDbArc
 50
295.6635751554
 51
296.8755438613
  0
ARC
  5
4C6
100
AcDbEntity
  8
RUNDUNGEN
100
AcDbCircle
 62
7
  6
CONTINUOUS
 10
728.9375165569
 20
119.2332897659
 40
21.6485869185
100
AcDbArc
 50
296.8762161151
 51
297.2900267121
  0
ARC
  5
4C7
100
AcDbEntity
  8
0
100
AcDbCircle
 62
7
  6
CONTINUOUS
 10
726.794623768
 20
118.4533405723
 40
21.6485869155
100
AcDbArc
 50
282.7099732879
 51
283.1237838849
  0
ARC
  5
4C8
100
AcDbEntity
  8
RUNDUNGEN
100
AcDbCircle
 62
7
  6
CONTINUOUS
 10
728.9860586593
 20
119.1394656242
 40
21.5429493755
100
AcDbArc
 50
297.2897040063
 51
298.0658511453
  0
ARC
  5
4C9
100
AcDbEntity
  8
RUNDUNGEN
100
AcDbCircle
 62
7
  6
CONTINUOUS
 10
729.1311139872
 20
118.8704685584
 40
21.2373379058
100
AcDbArc
 50
298.0619701498
 51
300.4177290761
  0
ARC
  5
4CA
100
AcDbEntity
  8
RUNDUNGEN
100
AcDbCircle
 62
7
  6
CONTINUOUS
 10
729.3132951847
 20
118.5575747792
 40
20.8752733374
100
AcDbArc
 50
300.4213330439
 51
301.4726472152
  0
CIRCLE
  5
4CB
100
AcDbEntity
  8
BEZUGSACHSEN
100
AcDbCircle
 62
7
  6
CONTINUOUS
 10
726.2405600322
 20
123.3093675477
 40
11.375
  0
ARC
  5
4CC
100
AcDbEntity
  8
0
100
AcDbCircle
 62
7
  6
CONTINUOUS
 10
702.8312263228
 20
156.9260371169
 40
7.5
100
AcDbArc
 50
114.7389711817
 51
200.0
  0
ARC
  5
4CD
100
AcDbEntity
  8
RUNDUNGEN
100
AcDbCircle
 62
7
  6
CONTINUOUS
 10
722.5647713593
 20
164.1084601267
 40
7.5
100
AcDbArc
 50
20.0
 51
105.2610288183
  0
ARC
  5
4CE
100
AcDbEntity
  8
0
100
AcDbCircle
 62
7
  6
CONTINUOUS
 10
700.2781927294
 20
162.4634498167
 40
1.4023849396
100
AcDbArc
 50
110.4525100648
 51
114.6816907923
  0
ARC
  5
4CF
100
AcDbEntity
  8
RUNDUNGEN
100
AcDbCircle
 62
7
  6
CONTINUOUS
 10
720.9611282835
 20
169.9914227157
 40
1.4023849395
100
AcDbArc
 50
105.3183092076
 51
109.5474899353
  0
ARC
  5
4D0
100
AcDbEntity
  8
BEZUGSACHSEN
100
AcDbCircle
 62
7
  6
CONTINUOUS
 10
690.2956794532
 20
222.0671152833
 40
12.0
100
AcDbArc
 50
20.0
 51
43.361736267
  0
ARC
  5
4D1
100
AcDbEntity
  8
BEZUGSACHSEN
100
AcDbCircle
 62
7
  6
CONTINUOUS
 10
690.2956794532
 20
222.0671152833
 40
12.0
100
AcDbArc
 50
176.638263733
 51
200.0
  0
ARC
  5
4D2
100
AcDbEntity
  8
0
100
AcDbCircle
 62
7
  6
CONTINUOUS
 10
816.6760758981
 20
215.8147391605
 40
121.7052235045
100
AcDbArc
 50
193.3471548905
 51
198.6057033147
  0
ARC
  5
4D3
100
AcDbEntity
  8
0
100
AcDbCircle
 62
7
  6
CONTINUOUS
 10
663.6181082738
 20
295.3631397046
 40
126.0
100
AcDbArc
 50
295.465575457
 51
360.0
  0
ARC
  5
4D4
100
AcDbEntity
  8
0
100
AcDbCircle
 62
7
  6
CONTINUOUS
 10
663.6181082738
 20
295.3631397046
 40
126.0
100
AcDbArc
 50
255.465237612
 51
284.534762388
  0
ARC
  5
4D5
100
AcDbEntity
  8
0
100
AcDbCircle
 62
7
  6
CONTINUOUS
 10
663.6181082738
 20
295.3631397046
 40
126.0
100
AcDbArc
 50
226.8195304956
 51
244.534424543
  0
ARC
  5
4D6
100
AcDbEntity
  8
0
100
AcDbCircle
 62
7
  6
CONTINUOUS
 10
663.6181082738
 20
295.3631397046
 40
126.0
100
AcDbArc
 50
180.0
 51
223.1804695044
  0
ARC
  5
4D7
100
AcDbEntity
  8
0
100
AcDbCircle
 62
7
  6
CONTINUOUS
 10
663.6181082738
 20
455.3631397046
 40
126.0
100
AcDbArc
 50
0.0
 51
180.0
  0
ARC
  5
4D8
100
AcDbEntity
  8
0
100
AcDbCircle
 62
7
  6
CONTINUOUS
 10
663.6181082738
 20
295.3631397046
 40
90.0
100
AcDbArc
 50
297.6631739256
 51
360.0
  0
ARC
  5
4D9
100
AcDbEntity
  8
0
100
AcDbCircle
 62
7
  6
CONTINUOUS
 10
663.6181082738
 20
295.3631397046
 40
90.0
100
AcDbArc
 50
257.6627758782
 51
282.3372241218
  0
ARC
  5
4DA
100
AcDbEntity
  8
0
100
AcDbCircle
 62
7
  6
CONTINUOUS
 10
663.6181082738
 20
295.3631397046
 40
90.0
100
AcDbArc
 50
227.547622153
 51
242.3368260744
  0
ARC
  5
4DB
100
AcDbEntity
  8
0
100
AcDbCircle
 62
7
  6
CONTINUOUS
 10
663.6181082738
 20
295.3631397046
 40
90.0
100
AcDbArc
 50
180.0
 51
222.452377847
  0
ARC
  5
4DC
100
AcDbEntity
  8
0
100
AcDbCircle
 62
7
  6
CONTINUOUS
 10
663.6181082738
 20
455.3631397046
 40
90.0
100
AcDbArc
 50
0.0
 51
180.0
  0
ARC
  5
4DD
100
AcDbEntity
  8
0
100
AcDbCircle
 62
7
  6
CONTINUOUS
 10
1405.4546922475
 20
540.2755065222
 40
1336.2101243069
100
AcDbArc
 50
195.2985174124
 51
195.7762778498
  0
ARC
  5
4DE
100
AcDbEntity
  8
0
100
AcDbCircle
 62
7
  6
CONTINUOUS
 10
-1021.0113217208
 20
529.0208228779
 40
1294.1946077282
100
AcDbArc
 50
344.2159669511
 51
344.7092377867
  0
ARC
  5
4DF
100
AcDbEntity
  8
0
100
AcDbCircle
 62
7
  6
CONTINUOUS
 10
-955.283148636
 20
-132.5215061167
 40
1226.0084493129
100
AcDbArc
 50
15.2829289693
 51
16.5476027592
  0
ARC
  5
4E0
100
AcDbEntity
  8
0
100
AcDbCircle
 62
7
  6
CONTINUOUS
 10
1253.5417724612
 20
-119.4891302064
 40
1178.4854158812
100
AcDbArc
 50
163.4268968299
 51
164.7425714416
  0
ARC
  5
4E1
100
AcDbEntity
  8
0
100
AcDbCircle
 62
7
  6
CONTINUOUS
 10
-977.3732150185
 20
-135.0353878153
 40
1141.4144701198
100
AcDbArc
 50
16.0447480563
 51
16.5781734638
  0
ARC
  5
4E2
100
AcDbEntity
  8
0
100
AcDbCircle
 62
7
  6
CONTINUOUS
 10
1320.4695867892
 20
-134.7818051534
 40
1140.511596468
100
AcDbArc
 50
163.4216153945
 51
163.9554630855
  0
ARC
  5
4E3
100
AcDbEntity
  8
0
100
AcDbCircle
 62
7
  6
CONTINUOUS
 10
460.0779514705
 20
-120.6584548547
 40
476.1537887063
100
AcDbArc
 50
131.5451762616
 51
134.8931815258
  0
ARC
  5
4E4
100
AcDbEntity
  8
0
100
AcDbCircle
 62
7
  6
CONTINUOUS
 10
-116.1150380697
 20
-120.658454822
 40
476.1537886614
100
AcDbArc
 50
45.1068184741
 51
48.4548237385
  0
ARC
  5
4E5
100
AcDbEntity
  8
0
100
AcDbCircle
 62
7
  6
CONTINUOUS
 10
254.1666466869
 20
-140.8597109793
 40
392.2737335968
100
AcDbArc
 50
104.7971002914
 51
106.2666227239
  0
ARC
  5
4E6
100
AcDbEntity
  8
0
100
AcDbCircle
 62
7
  6
CONTINUOUS
 10
89.7962736087
 20
-140.8596863478
 40
392.2737080115
100
AcDbArc
 50
73.7333772395
 51
75.2028997655
  0
ARC
  5
4E7
100
AcDbEntity
  8
KONSTRUKTIONSELEMENTE
100
AcDbCircle
 62
7
  6
CONTINUOUS
 10
171.981456685
 20
48.2412018117
 40
57.6108
100
AcDbArc
 50
57.4170748811
 51
80.7605878645
  0
ARC
  5
4E8
100
AcDbEntity
  8
KONSTRUKTIONSELEMENTE
100
AcDbCircle
 62
7
  6
CONTINUOUS
 10
171.981456685
 20
48.2412018117
 40
57.6108
100
AcDbArc
 50
99.2394121355
 51
122.5829251189
  0
ARC
  5
4E9
100
AcDbEntity
  8
0
100
AcDbCircle
 62
7
  6
CONTINUOUS
 10
171.981456685
 20
563.3631397046
 40
18.0
100
AcDbArc
 50
0.0
 51
180.0
  0
ARC
  5
4EA
100
AcDbEntity
  8
0
100
AcDbCircle
 62
7
  6
CONTINUOUS
 10
171.981456685
 20
187.3631397046
 40
18.0
100
AcDbArc
 50
180.0
 51
241.1081704526
  0
ARC
  5
4EB
100
AcDbEntity
  8
0
100
AcDbCircle
 62
7
  6
CONTINUOUS
 10
171.981456685
 20
187.3631397046
 40
18.0
100
AcDbArc
 50
298.8918295474
 51
360.0
  0
ARC
  5
4EC
100
AcDbEntity
  8
0
100
AcDbCircle
 62
7
  6
CONTINUOUS
 10
209.981456685
 20
104.2716113915
 40
7.5
100
AcDbArc
 50
270.0
 51
277.62677601
  0
ARC
  5
4ED
100
AcDbEntity
  8
0
100
AcDbCircle
 62
7
  6
CONTINUOUS
 10
133.981456685
 20
104.2716113915
 40
7.5
100
AcDbArc
 50
262.4340396152
 51
270.0
  0
ARC
  5
4EE
100
AcDbEntity
  8
RUNDUNGEN
100
AcDbCircle
 62
7
  6
CONTINUOUS
 10
124.6275008002
 20
109.0935934895
 40
4.279441
100
AcDbArc
 50
296.3409560969
 51
296.5425996695
  0
ARC
  5
4EF
100
AcDbEntity
  8
0
100
AcDbCircle
 62
7
  6
CONTINUOUS
 10
191.9219091498
 20
99.7392530777
 40
3.406738993
100
AcDbArc
 50
350.5636876715
 51
355.3957076166
  0
ARC
  5
4F0
100
AcDbEntity
  8
BEZUGSACHSEN
100
AcDbCircle
 62
7
  6
CONTINUOUS
 10
143.3644265701
 20
131.1664491323
 40
2.6832372029
100
AcDbArc
 50
162.671236886
 51
171.206647889
  0
ARC
  5
4F1
100
AcDbEntity
  8
BEZUGSACHSEN
100
AcDbCircle
 62
7
  6
CONTINUOUS
 10
143.3535216175
 20
131.1682438557
 40
2.6721860664
100
AcDbArc
 50
171.2089330323
 51
174.3082611144
  0
ARC
  5
4F2
100
AcDbEntity
  8
BEZUGSACHSEN
100
AcDbCircle
 62
7
  6
CONTINUOUS
 10
144.0108642507
 20
131.1684453419
 40
2.6707000734
100
AcDbArc
 50
5.0667455742
 51
8.791623156
  0
ARC
  5
4F3
100
AcDbEntity
  8
BEZUGSACHSEN
100
AcDbCircle
 62
7
  6
CONTINUOUS
 10
144.0864071347
 20
131.7029499002
 40
2.5950496525
100
AcDbArc
 50
355.0558569317
 51
0.0160805659
  0
ARC
  5
4F4
100
AcDbEntity
  8
KONSTRUKTIONSELEMENTE
100
AcDbCircle
 62
7
  6
CONTINUOUS
 10
171.981456685
 20
139.0361179114
 40
2.5
100
AcDbArc
 50
0.0
 51
180.0
  0
ARC
  5
4F5
100
AcDbEntity
  8
BEZUGSACHSEN
100
AcDbCircle
 62
7
  6
CONTINUOUS
 10
144.2010178841
 20
131.6920253055
 40
2.4799240209
100
AcDbArc
 50
343.5043561316
 51
355.0791057183
  0
ARC
  5
4F6
100
AcDbEntity
  8
KONSTRUKTIONSELEMENTE
100
AcDbCircle
 62
7
  6
CONTINUOUS
 10
171.981456685
 20
147.1311232955
 40
2.25
100
AcDbArc
 50
180.0
 51
360.0
  0
ARC
  5
4F7
100
AcDbEntity
  8
0
100
AcDbCircle
 62
7
  6
CONTINUOUS
 10
154.641470608
 20
98.7284308288
 40
0.6671356336
100
AcDbArc
 50
78.8903114984
 51
89.9692795104
  0
SPLINE
  5
4F8
100
AcDbEntity
  8
0
100
AcDbSpline
 62
7
  6
CONTINUOUS
 70
0
 71
3
 72
11
 73
7
 74
0
 42
0.0000001
 43
0.0000001
 44
0.0000000001
 40
0.0
 40
0.0
 40
0.0
 40
0.0
 40
0.2552284564
 40
0.5000000008
 40
0.7447715449
 40
1.0
 40
1.0
 40
1.0
 40
1.0
 10
687.3309984052
 20
242.6837452178
 30
0.0
 10
687.7771614759
 20
242.2113094005
 30
0.0
 10
688.5781986107
 20
241.210473152
 30
0.0
 10
689.4336411731
 20
239.5006854557
 30
0.0
 10
689.8773644928
 20
237.6410442146
 30
0.0
 10
689.9070595883
 20
236.3594624274
 30
0.0
 10
689.8689547372
 20
235.7107675041
 30
0.0
  0
SPLINE
  5
4F9
100
AcDbEntity
  8
0
100
AcDbSpline
 62
7
  6
CONTINUOUS
 70
0
 71
3
 72
11
 73
7
 74
0
 42
0.0000001
 43
0.0000001
 44
0.0000000001
 40
0.0
 40
0.0
 40
0.0
 40
0.0
 40
0.2552284564
 40
0.5000000008
 40
0.7447715449
 40
1.0
 40
1.0
 40
1.0
 40
1.0
 10
679.3146426203
 20
239.7660303248
 30
0.0
 10
679.276537769
 20
239.1173353984
 30
0.0
 10
679.306232863
 20
237.8357536067
 30
0.0
 10
679.749956188
 20
235.9761123632
 30
0.0
 10
680.605398753
 20
234.2663246722
 30
0.0
 10
681.4064358837
 20
233.2654884262
 30
0.0
 10
681.8525989523
 20
232.7930526111
 30
0.0
  0
SPLINE
  5
4FA
100
AcDbEntity
  8
0
100
AcDbSpline
 62
7
  6
CONTINUOUS
 70
0
 71
3
 72
9
 73
5
 74
0
 42
0.0000001
 43
0.0000001
 44
0.0000000001
 40
0.0
 40
0.0
 40
0.0
 40
0.0
 40
0.5000000009
 40
1.0
 40
1.0
 40
1.0
 40
1.0
 10
696.8027803836
 20
216.6602381101
 30
0.0
 10
698.8731835921
 20
212.5261014952
 30
0.0
 10
702.57116159
 20
204.0242802538
 30
0.0
 10
705.2032114458
 20
195.1344928973
 30
0.0
 10
706.2745623621
 20
190.6367310023
 30
0.0
  0
LINE
  5
4FB
100
AcDbEntity
  8
0
100
AcDbLine
 62
7
  6
CONTINUOUS
 10
708.4779538804
 20
141.4117806585
 11
700.6214701973
 21
141.0687591729
  0
SPLINE
  5
4FC
100
AcDbEntity
  8
0
100
AcDbSpline
 62
7
  6
CONTINUOUS
 70
0
 71
3
 72
9
 73
5
 74
0
 42
0.0000001
 43
0.0000001
 44
0.0000000001
 40
0.0
 40
0.0
 40
0.0
 40
0.0
 40
0.2443167374
 40
1.0
 40
1.0
 40
1.0
 40
1.0
 10
699.7881561049
 20
163.7774314092
 30
0.0
 10
699.8281802122
 20
163.7924024562
 30
0.0
 10
699.9946811332
 20
163.8464394719
 30
0.0
 10
700.1704348438
 20
163.8703977884
 30
0.0
 10
700.3025729419
 20
163.8734551825
 30
0.0
  0
LINE
  5
4FD
100
AcDbEntity
  8
0
100
AcDbLine
 62
7
  6
CONTINUOUS
 10
705.9961490889
 20
132.1495590819
 11
698.1396654058
 21
131.8065375964
  0
SPLINE
  5
4FE
100
AcDbEntity
  8
0
100
AcDbSpline
 62
7
  6
CONTINUOUS
 70
0
 71
3
 72
9
 73
5
 74
0
 42
0.0000001
 43
0.0000001
 44
0.0000000001
 40
0.0
 40
0.0
 40
0.0
 40
0.0
 40
0.5000000009
 40
1.0
 40
1.0
 40
1.0
 40
1.0
 10
689.8689547372
 20
235.7107675041
 30
0.0
 10
691.5115326575
 20
232.7455601344
 30
0.0
 10
694.3704503955
 20
226.5620601576
 30
0.0
 10
696.1550695167
 20
219.987547462
 30
0.0
 10
696.8027803836
 20
216.6602381101
 30
0.0
  0
SPLINE
  5
4FF
100
AcDbEntity
  8
0
100
AcDbSpline
 62
7
  6
CONTINUOUS
 70
0
 71
3
 72
9
 73
5
 74
0
 42
0.0000001
 43
0.0000001
 44
0.0000000001
 40
0.0
 40
0.0
 40
0.0
 40
0.0
 40
0.5000000009
 40
1.0
 40
1.0
 40
1.0
 40
1.0
 10
688.7864245987
 20
213.7425232171
 30
0.0
 10
689.8577755186
 20
209.2447613067
 30
0.0
 10
692.4898253763
 20
200.3549739504
 30
0.0
 10
696.1878033758
 20
191.85315271
 30
0.0
 10
698.2582065772
 20
187.7190161093
 30
0.0
  0
SPLINE
  5
500
100
AcDbEntity
  8
0
100
AcDbSpline
 62
7
  6
CONTINUOUS
 70
0
 71
3
 72
9
 73
5
 74
0
 42
0.0000001
 43
0.0000001
 44
0.0000000001
 40
0.0
 40
0.0
 40
0.0
 40
0.0
 40
0.5000000009
 40
1.0
 40
1.0
 40
1.0
 40
1.0
 10
681.8525989523
 20
232.7930526111
 30
0.0
 10
682.5003098214
 20
229.4657432477
 30
0.0
 10
684.2849289444
 20
222.8912305524
 30
0.0
 10
687.143846684
 20
216.7077305766
 30
0.0
 10
688.7864245987
 20
213.7425232171
 30
0.0
  0
LINE
  5
501
100
AcDbEntity
  8
RUNDUNGEN
100
AcDbLine
 62
7
  6
CONTINUOUS
 10
728.2114989169
 20
148.5942036683
 11
734.4504045456
 21
153.3814843327
  0
SPLINE
  5
502
100
AcDbEntity
  8
RUNDUNGEN
100
AcDbSpline
 62
7
  6
CONTINUOUS
 70
0
 71
3
 72
9
 73
5
 74
0
 42
0.0000001
 43
0.0000001
 44
0.0000000001
 40
0.0
 40
0.0
 40
0.0
 40
0.0
 40
0.2443167374
 40
1.0
 40
1.0
 40
1.0
 40
1.0
 10
720.4919070296
 20
171.3129804835
 30
0.0
 10
720.4516235811
 20
171.2987219706
 30
0.0
 10
720.2893421516
 20
171.2330919971
 30
0.0
 10
720.1393068892
 20
171.1384728248
 30
0.0
 10
720.0361179784
 20
171.0558781924
 30
0.0
  0
LINE
  5
503
100
AcDbEntity
  8
RUNDUNGEN
100
AcDbLine
 62
7
  6
CONTINUOUS
 10
736.066312954
 20
143.0942036683
 11
742.3052185827
 21
147.8814843327
  0
SPLINE
  5
504
100
AcDbEntity
  8
0
100
AcDbSpline
 62
7
  6
CONTINUOUS
 70
0
 71
3
 72
20
 73
16
 74
0
 42
0.0000001
 43
0.0000001
 44
0.0000000001
 40
0.0
 40
0.0
 40
0.0
 40
0.0
 40
0.1327965428
 40
0.2638076759
 40
0.3919804128
 40
0.5161435177
 40
0.5765038426
 40
0.6355343203
 40
0.6932970419
 40
0.7502285255
 40
0.8076643071
 40
0.8375924048
 40
0.8686256393
 40
0.9333595622
 40
1.0
 40
1.0
 40
1.0
 40
1.0
 10
731.557659464
 20
97.3352249747
 30
0.0
 10
730.6319408086
 20
97.1264377181
 30
0.0
 10
728.7630534528
 20
96.8320632445
 30
0.0
 10
725.9518618469
 20
96.7915615499
 30
0.0
 10
723.2290776449
 20
97.1927936582
 30
0.0
 10
721.1027111095
 20
97.9455720204
 30
0.0
 10
719.6001384694
 20
98.8344305981
 30
0.0
 10
718.6184431292
 20
99.6436724565
 30
0.0
 10
717.8249416468
 20
100.611264629
 30
0.0
 10
717.3014654705
 20
101.7436069434
 30
0.0
 10
717.222591413
 20
102.8046609043
 30
0.0
 10
717.4529344274
 20
103.6267565946
 30
0.0
 10
717.8975668469
 20
104.4169964035
 30
0.0
 10
718.7970753061
 20
105.1992438372
 30
0.0
 10
719.6588109687
 20
105.5875717289
 30
0.0
 10
720.1063079563
 20
105.7504473123
 30
0.0
  0
SPLINE
  5
505
100
AcDbEntity
  8
RUNDUNGEN
100
AcDbSpline
 62
7
  6
CONTINUOUS
 70
0
 71
3
 72
19
 73
15
 74
0
 42
0.0000001
 43
0.0000001
 44
0.0000000001
 40
0.0
 40
0.0
 40
0.0
 40
0.0
 40
0.1326778677
 40
0.2632403415
 40
0.3907151391
 40
0.5140727586
 40
0.6324219978
 40
0.6900893656
 40
0.7472743707
 40
0.805512235
 40
0.8359912687
 40
0.8675446107
 40
0.9329816351
 40
1.0
 40
1.0
 40
1.0
 40
1.0
 10
740.2120970787
 20
100.7532732151
 30
0.0
 10
740.9622442574
 20
101.2124892623
 30
0.0
 10
742.3949973147
 20
102.2192181276
 30
0.0
 10
744.2932172569
 20
103.9945946064
 30
0.0
 10
745.8475733932
 20
106.0061883092
 30
0.0
 10
746.9459896319
 20
108.2120587553
 30
0.0
 10
747.3518178388
 20
110.1956348062
 30
0.0
 10
747.1983261112
 20
111.746833677
 30
0.0
 10
746.7847801361
 20
112.8363178476
 30
0.0
 10
746.1209383403
 20
113.5803720009
 30
0.0
 10
745.4196083274
 20
113.9725604147
 30
0.0
 10
744.6033049365
 20
114.2151878855
 30
0.0
 10
743.4928004049
 20
114.1964027061
 30
0.0
 10
742.6438097323
 20
113.9534271135
 30
0.0
 10
742.2263261143
 20
113.8014755032
 30
0.0
  0
LINE
  5
506
100
AcDbEntity
  8
0
100
AcDbLine
 62
7
  6
CONTINUOUS
 10
621.2400674588
 20
132.1495590819
 11
629.0965511419
 21
131.8065375964
  0
LINE
  5
507
100
AcDbEntity
  8
0
100
AcDbLine
 62
7
  6
CONTINUOUS
 10
618.7582626672
 20
141.4117806585
 11
626.6147463503
 21
141.0687591729
  0
SPLINE
  5
508
100
AcDbEntity
  8
0
100
AcDbSpline
 62
7
  6
CONTINUOUS
 70
0
 71
3
 72
9
 73
5
 74
0
 42
0.0000001
 43
0.0000001
 44
0.0000000001
 40
0.0
 40
0.0
 40
0.0
 40
0.0
 40
0.2443167337
 40
1.0
 40
1.0
 40
1.0
 40
1.0
 10
627.4480604427
 20
163.7774314092
 30
0.0
 10
627.4080363361
 20
163.792402456
 30
0.0
 10
627.2415354154
 20
163.8464394729
 30
0.0
 10
627.0657817045
 20
163.8703977884
 30
0.0
 10
626.9336436057
 20
163.8734551825
 30
0.0
  0
SPLINE
  5
509
100
AcDbEntity
  8
0
100
AcDbSpline
 62
7
  6
CONTINUOUS
 70
0
 71
3
 72
11
 73
7
 74
0
 42
0.0000001
 43
0.0000001
 44
0.0000000001
 40
0.0
 40
0.0
 40
0.0
 40
0.0
 40
0.2552284564
 40
0.5000000008
 40
0.7447715449
 40
1.0
 40
1.0
 40
1.0
 40
1.0
 10
637.3672618104
 20
235.7107675041
 30
0.0
 10
637.3291569591
 20
236.3594624305
 30
0.0
 10
637.3588520532
 20
237.6410442222
 30
0.0
 10
637.8025753782
 20
239.5006854657
 30
0.0
 10
638.6580179432
 20
241.2104731568
 30
0.0
 10
639.4590550738
 20
242.2113094027
 30
0.0
 10
639.9052181424
 20
242.6837452178
 30
0.0
  0
SPLINE
  5
50A
100
AcDbEntity
  8
0
100
AcDbSpline
 62
7
  6
CONTINUOUS
 70
0
 71
3
 72
9
 73
5
 74
0
 42
0.0000001
 43
0.0000001
 44
0.0000000001
 40
0.0
 40
0.0
 40
0.0
 40
0.0
 40
0.5000000009
 40
1.0
 40
1.0
 40
1.0
 40
1.0
 10
630.433436164
 20
216.6602381101
 30
0.0
 10
631.0811470331
 20
219.9875474734
 30
0.0
 10
632.8657661562
 20
226.5620601688
 30
0.0
 10
635.7246838957
 20
232.7455601446
 30
0.0
 10
637.3672618104
 20
235.7107675041
 30
0.0
  0
SPLINE
  5
50B
100
AcDbEntity
  8
0
100
AcDbSpline
 62
7
  6
CONTINUOUS
 70
0
 71
3
 72
9
 73
5
 74
0
 42
0.0000001
 43
0.0000001
 44
0.0000000001
 40
0.0
 40
0.0
 40
0.0
 40
0.0
 40
0.5000000009
 40
1.0
 40
1.0
 40
1.0
 40
1.0
 10
620.9616541856
 20
190.6367310023
 30
0.0
 10
622.0330051055
 20
195.1344929127
 30
0.0
 10
624.6650549631
 20
204.0242802689
 30
0.0
 10
628.3630329626
 20
212.5261015093
 30
0.0
 10
630.433436164
 20
216.6602381101
 30
0.0
  0
SPLINE
  5
50C
100
AcDbEntity
  8
0
100
AcDbSpline
 62
7
  6
CONTINUOUS
 70
0
 71
3
 72
11
 73
7
 74
0
 42
0.0000001
 43
0.0000001
 44
0.0000000001
 40
0.0
 40
0.0
 40
0.0
 40
0.0
 40
0.2552284564
 40
0.5000000008
 40
0.7447715449
 40
1.0
 40
1.0
 40
1.0
 40
1.0
 10
645.3836175954
 20
232.7930526111
 30
0.0
 10
645.8297806661
 20
233.2654884284
 30
0.0
 10
646.6308178008
 20
234.2663246769
 30
0.0
 10
647.4862603633
 20
235.9761123732
 30
0.0
 10
647.9299836829
 20
237.8357536143
 30
0.0
 10
647.9596787785
 20
239.1173354015
 30
0.0
 10
647.9215739274
 20
239.7660303248
 30
0.0
  0
SPLINE
  5
50D
100
AcDbEntity
  8
0
100
AcDbSpline
 62
7
  6
CONTINUOUS
 70
0
 71
3
 72
9
 73
5
 74
0
 42
0.0000001
 43
0.0000001
 44
0.0000000001
 40
0.0
 40
0.0
 40
0.0
 40
0.0
 40
0.5000000009
 40
1.0
 40
1.0
 40
1.0
 40
1.0
 10
638.4497919489
 20
213.7425232171
 30
0.0
 10
640.0923698692
 20
216.7077305867
 30
0.0
 10
642.9512876073
 20
222.8912305635
 30
0.0
 10
644.7359067285
 20
229.4657432591
 30
0.0
 10
645.3836175954
 20
232.7930526111
 30
0.0
  0
SPLINE
  5
50E
100
AcDbEntity
  8
0
100
AcDbSpline
 62
7
  6
CONTINUOUS
 70
0
 71
3
 72
9
 73
5
 74
0
 42
0.0000001
 43
0.0000001
 44
0.0000000001
 40
0.0
 40
0.0
 40
0.0
 40
0.0
 40
0.5000000009
 40
1.0
 40
1.0
 40
1.0
 40
1.0
 10
628.9780099705
 20
187.7190161093
 30
0.0
 10
631.048413179
 20
191.8531527242
 30
0.0
 10
634.7463911769
 20
200.3549739655
 30
0.0
 10
637.3784410327
 20
209.2447613221
 30
0.0
 10
638.4497919489
 20
213.7425232171
 30
0.0
  0
LINE
  5
50F
100
AcDbEntity
  8
RUNDUNGEN
100
AcDbLine
 62
7
  6
CONTINUOUS
 10
591.1699035936
 20
143.0942036683
 11
584.930997965
 21
147.8814843327
  0
LINE
  5
510
100
AcDbEntity
  8
RUNDUNGEN
100
AcDbLine
 62
7
  6
CONTINUOUS
 10
599.0247176307
 20
148.5942036683
 11
592.785812002
 21
153.3814843327
  0
SPLINE
  5
511
100
AcDbEntity
  8
RUNDUNGEN
100
AcDbSpline
 62
7
  6
CONTINUOUS
 70
0
 71
3
 72
9
 73
5
 74
0
 42
0.0000001
 43
0.0000001
 44
0.0000000001
 40
0.0
 40
0.0
 40
0.0
 40
0.0
 40
0.2443167337
 40
1.0
 40
1.0
 40
1.0
 40
1.0
 10
606.7443095181
 20
171.3129804835
 30
0.0
 10
606.784592966
 20
171.2987219708
 30
0.0
 10
606.946874396
 20
171.2330919985
 30
0.0
 10
607.0969096579
 20
171.1384728252
 30
0.0
 10
607.2000985692
 20
171.0558781924
 30
0.0
  0
SPLINE
  5
512
100
AcDbEntity
  8
RUNDUNGEN
100
AcDbSpline
 62
7
  6
CONTINUOUS
 70
0
 71
3
 72
21
 73
17
 74
0
 42
0.0000001
 43
0.0000001
 44
0.0000000001
 40
0.0
 40
0.0
 40
0.0
 40
0.0
 40
0.066036151
 40
0.0984821376
 40
0.1299149817
 40
0.1600761741
 40
0.1891672127
 40
0.2456450605
 40
0.3024737083
 40
0.3606070687
 40
0.4202283992
 40
0.4812668158
 40
0.6067591655
 40
0.7359301577
 40
0.867406379
 40
1.0
 40
1.0
 40
1.0
 40
1.0
 10
585.0098904333
 20
113.8014755032
 30
0.0
 10
584.5085753333
 20
113.9839392776
 30
0.0
 10
583.7284736809
 20
114.1946925418
 30
0.0
 10
582.6721894431
 20
114.1979692725
 30
0.0
 10
581.9237255159
 20
114.0264148271
 30
0.0
 10
581.2697477257
 20
113.6763623672
 30
0.0
 10
580.5839585778
 20
113.0263103344
 30
0.0
 10
580.0640065388
 20
111.9598327773
 30
0.0
 10
579.9068064134
 20
110.5670169222
 30
0.0
 10
580.0850727719
 20
109.157686776
 30
0.0
 10
580.5275719359
 20
107.7759218659
 30
0.0
 10
581.4098534636
 20
105.9874840559
 30
0.0
 10
582.9588825654
 20
103.932443525
 30
0.0
 10
585.2883678458
 20
101.8354826786
 30
0.0
 10
587.9737861256
 20
100.1150107829
 30
0.0
 10
589.9288844151
 20
99.2395112265
 30
0.0
 10
590.9354722217
 20
98.8731432267
 30
0.0
  0
SPLINE
  5
513
100
AcDbEntity
  8
0
100
AcDbSpline
 62
7
  6
CONTINUOUS
 70
0
 71
3
 72
19
 73
15
 74
0
 42
0.0000001
 43
0.0000001
 44
0.0000000001
 40
0.0
 40
0.0
 40
0.0
 40
0.0
 40
0.0670767108
 40
0.1326215844
 40
0.164257432
 40
0.1948211574
 40
0.253195568
 40
0.3104275403
 40
0.3680835941
 40
0.4863263985
 40
0.6095471521
 40
0.7368941794
 40
0.8673635602
 40
1.0
 40
1.0
 40
1.0
 40
1.0
 10
607.1299085913
 20
105.7504473123
 30
0.0
 10
607.542833756
 20
105.6001548434
 30
0.0
 10
608.3409730472
 20
105.2449006943
 30
0.0
 10
609.1977797073
 20
104.5575752649
 30
0.0
 10
609.6698574141
 20
103.8589349755
 30
0.0
 10
609.9623542872
 20
103.1187229485
 30
0.0
 10
610.0085007585
 20
102.1327942048
 30
0.0
 10
609.646204776
 20
101.0382292121
 30
0.0
 10
608.7953744199
 20
99.754494488
 30
0.0
 10
607.2447958828
 20
98.492019407
 30
0.0
 10
605.0253574199
 20
97.4956186775
 30
0.0
 10
602.5791082178
 20
96.9340091189
 30
0.0
 10
600.0177427886
 20
96.7682176841
 30
0.0
 10
598.2930174809
 20
96.8970624475
 30
0.0
 10
597.4323002876
 20
97.0161291839
 30
0.0
  0
SPLINE
  5
514
100
AcDbEntity
  8
KONSTRUKTIONSELEMENTE
100
AcDbSpline
 62
7
  6
CONTINUOUS
 70
0
 71
3
 72
10
 73
6
 74
0
 42
0.0000001
 43
0.0000001
 44
0.0000000001
 40
0.0
 40
0.0
 40
0.0
 40
0.0
 40
0.3192646009
 40
0.6086079864
 40
1.0
 40
1.0
 40
1.0
 40
1.0
 10
175.481456685
 20
137.3247741094
 30
0.0
 10
175.481456685
 20
137.1530343342
 30
0.0
 10
175.3394408984
 20
136.8321831192
 30
0.0
 10
174.9736348838
 20
136.4388307799
 30
0.0
 10
174.670347051
 20
136.2257908666
 30
0.0
 10
174.48781075
 20
136.1208762701
 30
0.0
  0
SPLINE
  5
515
100
AcDbEntity
  8
KONSTRUKTIONSELEMENTE
100
AcDbSpline
 62
7
  6
CONTINUOUS
 70
0
 71
3
 72
10
 73
6
 74
0
 42
0.0000001
 43
0.0000001
 44
0.0000000001
 40
0.0
 40
0.0
 40
0.0
 40
0.0
 40
0.3914026107
 40
0.6807340322
 40
1.0
 40
1.0
 40
1.0
 40
1.0
 10
169.4750110839
 20
136.1209287413
 30
0.0
 10
169.2924838405
 20
136.2258441508
 30
0.0
 10
168.9892442597
 20
136.4389032222
 30
0.0
 10
168.6234235551
 20
136.8322015829
 30
0.0
 10
168.481456685
 20
137.1530443237
 30
0.0
 10
168.481456685
 20
137.3247741094
 30
0.0
  0
SPLINE
  5
516
100
AcDbEntity
  8
KONSTRUKTIONSELEMENTE
100
AcDbSpline
 62
7
  6
CONTINUOUS
 70
0
 71
3
 72
9
 73
5
 74
0
 42
0.0000001
 43
0.0000001
 44
0.0000000001
 40
0.0
 40
0.0
 40
0.0
 40
0.0
 40
0.4981849869
 40
1.0
 40
1.0
 40
1.0
 40
1.0
 10
179.981456685
 20
137.3247741094
 30
0.0
 10
179.981456685
 20
136.8513270442
 30
0.0
 10
179.8477353197
 20
135.8963491405
 30
0.0
 10
179.4621400915
 20
135.0145842673
 30
0.0
 10
179.2190187424
 20
134.6043128886
 30
0.0
  0
SPLINE
  5
517
100
AcDbEntity
  8
KONSTRUKTIONSELEMENTE
100
AcDbSpline
 62
7
  6
CONTINUOUS
 70
0
 71
3
 72
9
 73
5
 74
0
 42
0.0000001
 43
0.0000001
 44
0.0000000001
 40
0.0
 40
0.0
 40
0.0
 40
0.0
 40
0.5018012461
 40
1.0
 40
1.0
 40
1.0
 40
1.0
 10
164.7430551945
 20
134.6056491804
 30
0.0
 10
164.5001520227
 20
135.0157312241
 30
0.0
 10
164.1150785809
 20
135.8971422877
 30
0.0
 10
163.981456685
 20
136.8515731049
 30
0.0
 10
163.981456685
 20
137.3247741094
 30
0.0
  0
SPLINE
  5
518
100
AcDbEntity
  8
KONSTRUKTIONSELEMENTE
100
AcDbSpline
 62
7
  6
CONTINUOUS
 70
0
 71
3
 72
9
 73
5
 74
0
 42
0.0000001
 43
0.0000001
 44
0.0000000001
 40
0.0
 40
0.0
 40
0.0
 40
0.0
 40
0.2468420305
 40
1.0
 40
1.0
 40
1.0
 40
1.0
 10
193.8507041198
 20
195.6366449564
 30
0.0
 10
193.5452851008
 20
195.4370809452
 30
0.0
 10
192.2940703639
 20
194.6500346398
 30
0.0
 10
190.9897447996
 20
193.9479763564
 30
0.0
 10
189.9859767977
 20
193.4666998853
 30
0.0
  0
SPLINE
  5
519
100
AcDbEntity
  8
KONSTRUKTIONSELEMENTE
100
AcDbSpline
 62
7
  6
CONTINUOUS
 70
0
 71
3
 72
9
 73
5
 74
0
 42
0.0000001
 43
0.0000001
 44
0.0000000001
 40
0.0
 40
0.0
 40
0.0
 40
0.0
 40
0.253249386
 40
1.0
 40
1.0
 40
1.0
 40
1.0
 10
153.9795154481
 20
193.4654630034
 30
0.0
 10
153.6423291336
 20
193.6270964623
 30
0.0
 10
152.3210339653
 20
194.2862011768
 30
0.0
 10
151.041527856
 20
195.0297341198
 30
0.0
 10
150.1183696023
 20
195.6326197086
 30
0.0
  0
SPLINE
  5
51A
100
AcDbEntity
  8
0
100
AcDbSpline
 62
7
  6
CONTINUOUS
 70
0
 71
3
 72
9
 73
5
 74
0
 42
0.0000001
 43
0.0000001
 44
0.0000000001
 40
0.0
 40
0.0
 40
0.0
 40
0.0
 40
0.4895052071
 40
1.0
 40
1.0
 40
1.0
 40
1.0
 10
195.3284412189
 20
99.1692921966
 30
0.0
 10
195.3284412189
 20
99.510482516
 30
0.0
 10
195.2195422362
 20
100.2112539463
 30
0.0
 10
194.9122840632
 20
100.8479438011
 30
0.0
 10
194.7189590658
 20
101.1466636019
 30
0.0
  0
SPLINE
  5
51B
100
AcDbEntity
  8
0
100
AcDbSpline
 62
7
  6
CONTINUOUS
 70
0
 71
3
 72
17
 73
13
 74
0
 42
0.0000001
 43
0.0000001
 44
0.0000000001
 40
0.0
 40
0.0
 40
0.0
 40
0.0
 40
0.0517809237
 40
0.1054811646
 40
0.2228479209
 40
0.3562855052
 40
0.5
 40
0.6437144948
 40
0.7771520791
 40
0.8945188354
 40
0.9482190763
 40
1.0
 40
1.0
 40
1.0
 40
1.0
 10
174.411110391
 20
97.9981371568
 30
0.0
 10
174.411110391
 20
97.8580026716
 30
0.0
 10
174.4519113093
 20
97.5711003389
 30
0.0
 10
174.6957206465
 20
97.0126431281
 30
0.0
 10
175.2982103655
 20
96.4097755142
 30
0.0
 10
176.2873452632
 20
95.9655107898
 30
0.0
 10
177.4304186794
 20
95.8100927585
 30
0.0
 10
178.5734920956
 20
95.9655107898
 30
0.0
 10
179.5626269933
 20
96.4097755142
 30
0.0
 10
180.1651167124
 20
97.0126431281
 30
0.0
 10
180.4089260496
 20
97.5711003389
 30
0.0
 10
180.4497269679
 20
97.8580026716
 30
0.0
 10
180.4497269679
 20
97.9981371568
 30
0.0
  0
SPLINE
  5
51C
100
AcDbEntity
  8
0
100
AcDbSpline
 62
7
  6
CONTINUOUS
 70
0
 71
3
 72
12
 73
8
 74
0
 42
0.0000001
 43
0.0000001
 44
0.0000000001
 40
0.0
 40
0.0
 40
0.0
 40
0.0
 40
0.1035930223
 40
0.210949621
 40
0.4457011106
 40
0.7125563401
 40
1.0
 40
1.0
 40
1.0
 40
1.0
 10
170.5601702868
 20
101.3271344777
 30
0.0
 10
170.5601480787
 20
101.4751754589
 30
0.0
 10
170.5169914827
 20
101.7781585605
 30
0.0
 10
170.2592334194
 20
102.3678171478
 30
0.0
 10
169.622856898
 20
103.0044255404
 30
0.0
 10
168.5789654124
 20
103.4736036468
 30
0.0
 10
167.7818855664
 20
103.5816385112
 30
0.0
 10
167.371110391
 20
103.5816385112
 30
0.0
  0
SPLINE
  5
51D
100
AcDbEntity
  8
0
100
AcDbSpline
 62
7
  6
CONTINUOUS
 70
0
 71
3
 72
9
 73
5
 74
0
 42
0.0000001
 43
0.0000001
 44
0.0000000001
 40
0.0
 40
0.0
 40
0.0
 40
0.0
 40
0.4402133985
 40
1.0
 40
1.0
 40
1.0
 40
1.0
 10
153.0818283086
 20
98.1171173062
 30
0.0
 10
153.0818283086
 20
98.080030564
 30
0.0
 10
153.1389447715
 20
97.9992697836
 30
0.0
 10
153.22666786
 20
97.9813528042
 30
0.0
 10
153.2738283086
 20
97.9813528042
 30
0.0
  0
SPLINE
  5
51E
100
AcDbEntity
  8
0
100
AcDbSpline
 62
7
  6
CONTINUOUS
 70
0
 71
3
 72
9
 73
5
 74
0
 42
0.0000001
 43
0.0000001
 44
0.0000000001
 40
0.0
 40
0.0
 40
0.0
 40
0.0
 40
0.4402133985
 40
1.0
 40
1.0
 40
1.0
 40
1.0
 10
154.4018283086
 20
98.1849995572
 30
0.0
 10
154.4018283086
 20
98.2220862993
 30
0.0
 10
154.3447118456
 20
98.3028470798
 30
0.0
 10
154.2569887571
 20
98.3207640591
 30
0.0
 10
154.2098283086
 20
98.3207640591
 30
0.0
  0
SPLINE
  5
51F
100
AcDbEntity
  8
0
100
AcDbSpline
 62
7
  6
CONTINUOUS
 70
0
 71
3
 72
9
 73
5
 74
0
 42
0.0000001
 43
0.0000001
 44
0.0000000001
 40
0.0
 40
0.0
 40
0.0
 40
0.0
 40
0.4402133985
 40
1.0
 40
1.0
 40
1.0
 40
1.0
 10
154.4018283086
 20
101.5791121068
 30
0.0
 10
154.4018283086
 20
101.616198849
 30
0.0
 10
154.3447118456
 20
101.6969596295
 30
0.0
 10
154.2569887571
 20
101.7148766088
 30
0.0
 10
154.2098283086
 20
101.7148766088
 30
0.0
  0
SPLINE
  5
520
100
AcDbEntity
  8
0
100
AcDbSpline
 62
7
  6
CONTINUOUS
 70
0
 71
3
 72
11
 73
7
 74
0
 42
0.0000001
 43
0.0000001
 44
0.0000000001
 40
0.0
 40
0.0
 40
0.0
 40
0.0
 40
0.2094668498
 40
0.4446559298
 40
0.7120302568
 40
1.0
 40
1.0
 40
1.0
 40
1.0
 10
151.7618283086
 20
99.8481147065
 30
0.0
 10
151.7618283086
 20
99.8031385869
 30
0.0
 10
151.7910370494
 20
99.706532272
 30
0.0
 10
151.9028876956
 20
99.5959031846
 30
0.0
 10
152.0600036799
 20
99.5248691011
 30
0.0
 10
152.1799962734
 20
99.5087034515
 30
0.0
 10
152.2418283086
 20
99.5087034515
 30
0.0
  0
SPLINE
  5
521
100
AcDbEntity
  8
0
100
AcDbSpline
 62
7
  6
CONTINUOUS
 70
0
 71
3
 72
11
 73
7
 74
0
 42
0.0000001
 43
0.0000001
 44
0.0000000001
 40
0.0
 40
0.0
 40
0.0
 40
0.0
 40
0.2094668498
 40
0.4446559298
 40
0.7120302568
 40
1.0
 40
1.0
 40
1.0
 40
1.0
 10
151.7618283086
 20
96.4540021568
 30
0.0
 10
151.7618283086
 20
96.4090260372
 30
0.0
 10
151.7910370494
 20
96.3124197223
 30
0.0
 10
151.9028876956
 20
96.2017906349
 30
0.0
 10
152.0600036799
 20
96.1307565514
 30
0.0
 10
152.1799962734
 20
96.1145909018
 30
0.0
 10
152.2418283086
 20
96.1145909018
 30
0.0
  0
SPLINE
  5
522
100
AcDbEntity
  8
0
100
AcDbSpline
 62
7
  6
CONTINUOUS
 70
0
 71
3
 72
9
 73
5
 74
0
 42
0.0000001
 43
0.0000001
 44
0.0000000001
 40
0.0
 40
0.0
 40
0.0
 40
0.0
 40
0.2432035461
 40
1.0
 40
1.0
 40
1.0
 40
1.0
 10
158.2418283086
 20
102.9028160012
 30
0.0
 10
158.2418283086
 20
102.9294521878
 30
0.0
 10
158.2327209459
 20
103.0389782197
 30
0.0
 10
158.1856549402
 20
103.1437509168
 30
0.0
 10
158.1371962287
 20
103.2109955741
 30
0.0
  0
SPLINE
  5
523
100
AcDbEntity
  8
0
100
AcDbSpline
 62
7
  6
CONTINUOUS
 70
0
 71
3
 72
9
 73
5
 74
0
 42
0.0000001
 43
0.0000001
 44
0.0000000001
 40
0.0
 40
0.0
 40
0.0
 40
0.0
 40
0.2250156934
 40
1.0
 40
1.0
 40
1.0
 40
1.0
 10
158.1371962287
 20
103.2109955741
 30
0.0
 10
158.0954429273
 20
103.2689353408
 30
0.0
 10
157.866271904
 20
103.4948561999
 30
0.0
 10
157.5277972609
 20
103.5816385112
 30
0.0
 10
157.2818283086
 20
103.5816385112
 30
0.0
  0
SPLINE
  5
524
100
AcDbEntity
  8
RUNDUNGEN
100
AcDbSpline
 62
7
  6
CONTINUOUS
 70
0
 71
3
 72
11
 73
7
 74
0
 42
0.0000001
 43
0.0000001
 44
0.0000000001
 40
0.0
 40
0.0
 40
0.0
 40
0.0
 40
0.2256933976
 40
0.4632957072
 40
0.7206234985
 40
1.0
 40
1.0
 40
1.0
 40
1.0
 10
120.1358124999
 20
104.7106727317
 30
0.0
 10
120.1359023912
 20
104.8526810165
 30
0.0
 10
120.1875424917
 20
105.1462348106
 30
0.0
 10
120.4086519319
 20
105.5497499011
 30
0.0
 10
120.7549366201
 20
105.8998330358
 30
0.0
 10
121.0443172504
 20
106.0797557802
 30
0.0
 10
121.2018514217
 20
106.1577543352
 30
0.0
  0
SPLINE
  5
525
100
AcDbEntity
  8
RUNDUNGEN
100
AcDbSpline
 62
7
  6
CONTINUOUS
 70
0
 71
3
 72
9
 73
5
 74
0
 42
0.0000001
 43
0.0000001
 44
0.0000000001
 40
0.0
 40
0.0
 40
0.0
 40
0.0
 40
0.4805183102
 40
1.0
 40
1.0
 40
1.0
 40
1.0
 10
120.1358103449
 20
101.1750683244
 30
0.0
 10
120.1357073306
 20
100.9935902953
 30
0.0
 10
120.2219455275
 20
100.6123569221
 30
0.0
 10
120.4498644773
 20
100.2996091768
 30
0.0
 10
120.5879124018
 20
100.1602010467
 30
0.0
  0
SPLINE
  5
526
100
AcDbEntity
  8
RUNDUNGEN
100
AcDbSpline
 62
7
  6
CONTINUOUS
 70
0
 71
3
 72
11
 73
7
 74
0
 42
0.0000001
 43
0.0000001
 44
0.0000000001
 40
0.0
 40
0.0
 40
0.0
 40
0.0
 40
0.2256919297
 40
0.4632773963
 40
0.7205986282
 40
1.0
 40
1.0
 40
1.0
 40
1.0
 10
103.3104229945
 20
122.9260428258
 30
0.0
 10
103.3103352634
 20
123.3807777869
 30
0.0
 10
103.4747819748
 20
124.3209288306
 30
0.0
 10
104.1820868704
 20
125.6134763343
 30
0.0
 10
105.290653412
 20
126.7348509797
 30
0.0
 10
106.2173080048
 20
127.3111002136
 30
0.0
 10
106.7218076221
 20
127.5608888201
 30
0.0
  0
SPLINE
  5
527
100
AcDbEntity
  8
RUNDUNGEN
100
AcDbSpline
 62
7
  6
CONTINUOUS
 70
0
 71
3
 72
10
 73
6
 74
0
 42
0.0000001
 43
0.0000001
 44
0.0000000001
 40
0.0
 40
0.0
 40
0.0
 40
0.0
 40
0.2382860828
 40
0.4819052527
 40
1.0
 40
1.0
 40
1.0
 40
1.0
 10
103.3104229945
 20
119.3905089198
 30
0.0
 10
103.3104786432
 20
119.1020657956
 30
0.0
 10
103.3748634179
 20
118.5167142201
 30
0.0
 10
103.7595046115
 20
117.361740181
 30
0.0
 10
104.3159208075
 20
116.592522854
 30
0.0
 10
104.7572027586
 20
116.1468928901
 30
0.0
  0
SPLINE
  5
528
100
AcDbEntity
  8
RUNDUNGEN
100
AcDbSpline
 62
7
  6
CONTINUOUS
 70
0
 71
3
 72
11
 73
7
 74
0
 42
0.0000001
 43
0.0000001
 44
0.0000000001
 40
0.0
 40
0.0
 40
0.0
 40
0.0
 40
0.2377805486
 40
0.4809056598
 40
0.733919361
 40
1.0
 40
1.0
 40
1.0
 40
1.0
 10
197.0332148242
 20
67.9851185258
 30
0.0
 10
197.0332148551
 20
68.8867493711
 30
0.0
 10
197.2332311136
 20
70.7161000658
 30
0.0
 10
198.1200972903
 20
73.3739848362
 30
0.0
 10
199.5666743285
 20
75.8958367283
 30
0.0
 10
200.8444908502
 20
77.4076946559
 30
0.0
 10
201.554413717
 20
78.1246124922
 30
0.0
  0
SPLINE
  5
529
100
AcDbEntity
  8
RUNDUNGEN
100
AcDbSpline
 62
7
  6
CONTINUOUS
 70
0
 71
3
 72
10
 73
6
 74
0
 42
0.0000001
 43
0.0000001
 44
0.0000000001
 40
0.0
 40
0.0
 40
0.0
 40
0.0
 40
0.2381555918
 40
0.4827085932
 40
1.0
 40
1.0
 40
1.0
 40
1.0
 10
197.1587131426
 20
69.7517710089
 30
0.0
 10
197.2659430441
 20
68.9976626887
 30
0.0
 10
197.623019194
 20
67.4855124537
 30
0.0
 10
198.8848744763
 20
64.5341942601
 30
0.0
 10
200.3902865676
 20
62.5567544718
 30
0.0
 10
201.554413717
 20
61.3811570145
 30
0.0
  0
SPLINE
  5
52A
100
AcDbEntity
  8
RUNDUNGEN
100
AcDbSpline
 62
7
  6
CONTINUOUS
 70
0
 71
3
 72
10
 73
6
 74
0
 42
0.0000001
 43
0.0000001
 44
0.0000000001
 40
0.0
 40
0.0
 40
0.0
 40
0.0
 40
0.2382826319
 40
0.4819247904
 40
1.0
 40
1.0
 40
1.0
 40
1.0
 10
117.481456685
 20
34.424905106
 30
0.0
 10
117.481456685
 20
34.7134250319
 30
0.0
 10
117.545649123
 20
35.298990382
 30
0.0
 10
117.9303321464
 20
36.4543285265
 30
0.0
 10
118.4868511441
 20
37.2238051513
 30
0.0
 10
118.9282403307
 20
37.6695434074
 30
0.0
  0
SPLINE
  5
52B
100
AcDbEntity
  8
RUNDUNGEN
100
AcDbSpline
 62
7
  6
CONTINUOUS
 70
0
 71
3
 72
10
 73
6
 74
0
 42
0.0000001
 43
0.0000001
 44
0.0000000001
 40
0.0
 40
0.0
 40
0.0
 40
0.0
 40
0.5180750537
 40
0.7617172794
 40
1.0
 40
1.0
 40
1.0
 40
1.0
 10
225.0346730393
 20
37.6695434074
 30
0.0
 10
225.4760620937
 20
37.2238052848
 30
0.0
 10
226.0325810613
 20
36.4543287945
 30
0.0
 10
226.417264187
 20
35.2989906793
 30
0.0
 10
226.481456685
 20
34.7134251397
 30
0.0
 10
226.481456685
 20
34.424905106
 30
0.0
  0
SPLINE
  5
52C
100
AcDbEntity
  8
RUNDUNGEN
100
AcDbSpline
 62
7
  6
CONTINUOUS
 70
0
 71
3
 72
11
 73
7
 74
0
 42
0.0000001
 43
0.0000001
 44
0.0000000001
 40
0.0
 40
0.0
 40
0.0
 40
0.0
 40
0.2793754766
 40
0.5367190768
 40
0.7743209476
 40
1.0
 40
1.0
 40
1.0
 40
1.0
 10
241.7464419915
 20
125.3301999879
 30
0.0
 10
241.9039785359
 20
125.252200258
 30
0.0
 10
242.1933713337
 20
125.0722677425
 30
0.0
 10
242.53966808
 20
124.7221689116
 30
0.0
 10
242.7607671161
 20
124.3186369557
 30
0.0
 10
242.812398095
 20
124.0250858611
 30
0.0
 10
242.8124828173
 20
123.8830839393
 30
0.0
  0
SPLINE
  5
52D
100
AcDbEntity
  8
RUNDUNGEN
100
AcDbSpline
 62
7
  6
CONTINUOUS
 70
0
 71
3
 72
10
 73
6
 74
0
 42
0.0000001
 43
0.0000001
 44
0.0000000001
 40
0.0
 40
0.0
 40
0.0
 40
0.0
 40
0.480919227
 40
0.7459271703
 40
1.0
 40
1.0
 40
1.0
 40
1.0
 10
227.4108562031
 20
130.2700117304
 30
0.0
 10
227.8259856469
 20
130.6892315028
 30
0.0
 10
228.7619509541
 20
131.0490950761
 30
0.0
 10
229.9901141342
 20
131.027466001
 30
0.0
 10
230.6133496111
 20
130.8424333703
 30
0.0
 10
230.8926774047
 20
130.7041321746
 30
0.0
  0
SPLINE
  5
52E
100
AcDbEntity
  8
RUNDUNGEN
100
AcDbSpline
 62
7
  6
CONTINUOUS
 70
0
 71
3
 72
10
 73
6
 74
0
 42
0.0000001
 43
0.0000001
 44
0.0000000001
 40
0.0
 40
0.0
 40
0.0
 40
0.0
 40
0.4897407204
 40
0.7453751697
 40
1.0
 40
1.0
 40
1.0
 40
1.0
 10
108.3601117106
 20
128.3720483955
 30
0.0
 10
111.0699877978
 20
129.7137663045
 30
0.0
 10
115.6076097486
 20
130.9882173447
 30
0.0
 10
121.7847024425
 20
131.2942012844
 30
0.0
 10
124.93570528
 20
130.9732985461
 30
0.0
 10
126.4822557512
 20
130.6907435416
 30
0.0
  0
SPLINE
  5
52F
100
AcDbEntity
  8
0
100
AcDbSpline
 62
7
  6
CONTINUOUS
 70
0
 71
3
 72
11
 73
7
 74
0
 42
0.0000001
 43
0.0000001
 44
0.0000000001
 40
0.0
 40
0.0
 40
0.0
 40
0.0
 40
0.2879697432
 40
0.5553440702
 40
0.7905331502
 40
1.0
 40
1.0
 40
1.0
 40
1.0
 10
154.6418283086
 20
99.5087034515
 30
0.0
 10
154.7036603437
 20
99.5087034515
 30
0.0
 10
154.8236529372
 20
99.5248691011
 30
0.0
 10
154.9807689215
 20
99.5959031846
 30
0.0
 10
155.0926195678
 20
99.706532272
 30
0.0
 10
155.1218283086
 20
99.8031385869
 30
0.0
 10
155.1218283086
 20
99.8481147065
 30
0.0
  0
SPLINE
  5
530
100
AcDbEntity
  8
0
100
AcDbSpline
 62
7
  6
CONTINUOUS
 70
0
 71
3
 72
11
 73
7
 74
0
 42
0.0000001
 43
0.0000001
 44
0.0000000001
 40
0.0
 40
0.0
 40
0.0
 40
0.0
 40
0.2879697432
 40
0.5553440702
 40
0.7905331502
 40
1.0
 40
1.0
 40
1.0
 40
1.0
 10
154.6418283086
 20
96.1145909018
 30
0.0
 10
154.7036603437
 20
96.1145909018
 30
0.0
 10
154.8236529372
 20
96.1307565514
 30
0.0
 10
154.9807689215
 20
96.2017906349
 30
0.0
 10
155.0926195678
 20
96.3124197223
 30
0.0
 10
155.1218283086
 20
96.4090260372
 30
0.0
 10
155.1218283086
 20
96.4540021568
 30
0.0
  0
SPLINE
  5
531
100
AcDbEntity
  8
0
100
AcDbSpline
 62
7
  6
CONTINUOUS
 70
0
 71
3
 72
9
 73
5
 74
0
 42
0.0000001
 43
0.0000001
 44
0.0000000001
 40
0.0
 40
0.0
 40
0.0
 40
0.0
 40
0.5597866015
 40
1.0
 40
1.0
 40
1.0
 40
1.0
 10
152.6738283086
 20
101.7148766088
 30
0.0
 10
152.62666786
 20
101.7148766088
 30
0.0
 10
152.5389447715
 20
101.6969596295
 30
0.0
 10
152.4818283086
 20
101.616198849
 30
0.0
 10
152.4818283086
 20
101.5791121068
 30
0.0
  0
SPLINE
  5
532
100
AcDbEntity
  8
0
100
AcDbSpline
 62
7
  6
CONTINUOUS
 70
0
 71
3
 72
9
 73
5
 74
0
 42
0.0000001
 43
0.0000001
 44
0.0000000001
 40
0.0
 40
0.0
 40
0.0
 40
0.0
 40
0.5597866015
 40
1.0
 40
1.0
 40
1.0
 40
1.0
 10
152.6738283086
 20
98.3207640591
 30
0.0
 10
152.62666786
 20
98.3207640591
 30
0.0
 10
152.5389447715
 20
98.3028470798
 30
0.0
 10
152.4818283086
 20
98.2220862993
 30
0.0
 10
152.4818283086
 20
98.1849995572
 30
0.0
  0
SPLINE
  5
533
100
AcDbEntity
  8
0
100
AcDbSpline
 62
7
  6
CONTINUOUS
 70
0
 71
3
 72
9
 73
5
 74
0
 42
0.0000001
 43
0.0000001
 44
0.0000000001
 40
0.0
 40
0.0
 40
0.0
 40
0.0
 40
0.5597866015
 40
1.0
 40
1.0
 40
1.0
 40
1.0
 10
153.6098283086
 20
97.9813528042
 30
0.0
 10
153.6569887571
 20
97.9813528042
 30
0.0
 10
153.7447118456
 20
97.9992697836
 30
0.0
 10
153.8018283086
 20
98.080030564
 30
0.0
 10
153.8018283086
 20
98.1171173062
 30
0.0
  0
SPLINE
  5
534
100
AcDbEntity
  8
0
100
AcDbSpline
 62
7
  6
CONTINUOUS
 70
0
 71
3
 72
11
 73
7
 74
0
 42
0.0000001
 43
0.0000001
 44
0.0000000001
 40
0.0
 40
0.0
 40
0.0
 40
0.0
 40
0.2880001164
 40
0.5553425139
 40
0.7905343079
 40
1.0
 40
1.0
 40
1.0
 40
1.0
 10
167.371110391
 20
100.1011645627
 30
0.0
 10
167.5943802223
 20
100.1011645627
 30
0.0
 10
168.02762377
 20
100.1595245946
 30
0.0
 10
168.5948624708
 20
100.4160446616
 30
0.0
 10
168.9987243334
 20
100.8154262613
 30
0.0
 10
169.1041472058
 20
101.1642411654
 30
0.0
 10
169.1041472058
 20
101.3266278002
 30
0.0
  0
SPLINE
  5
535
100
AcDbEntity
  8
0
100
AcDbSpline
 62
7
  6
CONTINUOUS
 70
0
 71
3
 72
11
 73
7
 74
0
 42
0.0000001
 43
0.0000001
 44
0.0000000001
 40
0.0
 40
0.0
 40
0.0
 40
0.0
 40
0.2779817175
 40
0.5346952233
 40
0.772857858
 40
1.0
 40
1.0
 40
1.0
 40
1.0
 10
191.235971156
 20
95.9582560208
 30
0.0
 10
191.5724590219
 20
96.1404644349
 30
0.0
 10
192.1889597184
 20
96.5541499252
 30
0.0
 10
192.9215750845
 20
97.3404622369
 30
0.0
 10
193.3862868832
 20
98.2344807198
 30
0.0
 10
193.4938801869
 20
98.8792486142
 30
0.0
 10
193.4938801869
 20
99.1919196136
 30
0.0
  0
SPLINE
  5
536
100
AcDbEntity
  8
0
100
AcDbSpline
 62
7
  6
CONTINUOUS
 70
0
 71
3
 72
9
 73
5
 74
0
 42
0.0000001
 43
0.0000001
 44
0.0000000001
 40
0.0
 40
0.0
 40
0.0
 40
0.0
 40
0.2591205677
 40
1.0
 40
1.0
 40
1.0
 40
1.0
 10
190.9441326407
 20
95.8883167319
 30
0.0
 10
190.970196234
 20
95.8883167319
 30
0.0
 10
191.0706019743
 20
95.8940691636
 30
0.0
 10
191.1704406938
 20
95.9227712298
 30
0.0
 10
191.235971156
 20
95.9582560208
 30
0.0
  0
SPLINE
  5
537
100
AcDbEntity
  8
RUNDUNGEN
100
AcDbSpline
 62
7
  6
CONTINUOUS
 70
0
 71
3
 72
11
 73
7
 74
0
 42
0.0000001
 43
0.0000001
 44
0.0000000001
 40
0.0
 40
0.0
 40
0.0
 40
0.0
 40
0.2880068215
 40
0.5553366529
 40
0.7905059061
 40
1.0
 40
1.0
 40
1.0
 40
1.0
 10
129.031456685
 20
15.7024077453
 30
0.0
 10
129.1345226375
 20
15.7024077453
 30
0.0
 10
129.3345177297
 20
15.7293309697
 30
0.0
 10
129.5963223563
 20
15.8477897011
 30
0.0
 10
129.7827860352
 20
16.0320987546
 30
0.0
 10
129.831456685
 20
16.1931237365
 30
0.0
 10
129.831456685
 20
16.2680931703
 30
0.0
  0
SPLINE
  5
538
100
AcDbEntity
  8
RUNDUNGEN
100
AcDbSpline
 62
7
  6
CONTINUOUS
 70
0
 71
3
 72
13
 73
9
 74
0
 42
0.0000001
 43
0.0000001
 44
0.0000000001
 40
0.0
 40
0.0
 40
0.0
 40
0.0
 40
0.1034546555
 40
0.2106690395
 40
0.3244963599
 40
0.4464318111
 40
0.7129511617
 40
1.0
 40
1.0
 40
1.0
 40
1.0
 10
117.481456685
 20
21.3592619948
 30
0.0
 10
117.481456685
 20
20.9878495845
 30
0.0
 10
117.5892418269
 20
20.2276693112
 30
0.0
 10
118.0609034433
 20
19.1489999547
 30
0.0
 10
118.8174979869
 20
18.1638495102
 30
0.0
 10
120.200395961
 20
16.9894241217
 30
0.0
 10
122.4534208529
 20
15.9707448708
 30
0.0
 10
124.4509230621
 20
15.7024077453
 30
0.0
 10
125.481456685
 20
15.7024077453
 30
0.0
  0
SPLINE
  5
539
100
AcDbEntity
  8
RUNDUNGEN
100
AcDbSpline
 62
7
  6
CONTINUOUS
 70
0
 71
3
 72
10
 73
6
 74
0
 42
0.0000001
 43
0.0000001
 44
0.0000000001
 40
0.0
 40
0.0
 40
0.0
 40
0.0
 40
0.4808964971
 40
0.7459158261
 40
1.0
 40
1.0
 40
1.0
 40
1.0
 10
108.772237813
 20
112.0922971327
 30
0.0
 10
109.1873479233
 20
111.6730968844
 30
0.0
 10
110.1232870253
 20
111.3132264606
 30
0.0
 10
111.3514530334
 20
111.334833089
 30
0.0
 10
111.9747185562
 20
111.5198692222
 30
0.0
 10
112.2540590146
 20
111.6581766885
 30
0.0
  0
SPLINE
  5
53A
100
AcDbEntity
  8
RUNDUNGEN
100
AcDbSpline
 62
7
  6
CONTINUOUS
 70
0
 71
3
 72
9
 73
5
 74
0
 42
0.0000001
 43
0.0000001
 44
0.0000000001
 40
0.0
 40
0.0
 40
0.0
 40
0.0
 40
0.5194816315
 40
1.0
 40
1.0
 40
1.0
 40
1.0
 10
242.3603810114
 20
119.3326466995
 30
0.0
 10
242.4984404875
 20
119.4720664949
 30
0.0
 10
242.7263761884
 20
119.7848445313
 30
0.0
 10
242.8125995914
 20
120.1661182129
 30
0.0
 10
242.8124807498
 20
120.3476114603
 30
0.0
  0
SPLINE
  5
53B
100
AcDbEntity
  8
RUNDUNGEN
100
AcDbSpline
 62
7
  6
CONTINUOUS
 70
0
 71
3
 72
13
 73
9
 74
0
 42
0.0000001
 43
0.0000001
 44
0.0000000001
 40
0.0
 40
0.0
 40
0.0
 40
0.0
 40
0.2870490624
 40
0.5535683755
 40
0.6755038246
 40
0.7893311355
 40
0.8965454157
 40
1.0
 40
1.0
 40
1.0
 40
1.0
 10
218.481456685
 20
15.7024077453
 30
0.0
 10
219.5119911121
 20
15.7024077453
 30
0.0
 10
221.5094940382
 20
15.9707451264
 30
0.0
 10
223.7625192607
 20
16.9894252654
 30
0.0
 10
225.1454167877
 20
18.1638509289
 30
0.0
 10
225.9020106514
 20
19.1490013667
 30
0.0
 10
226.373671771
 20
20.2276701875
 30
0.0
 10
226.481456685
 20
20.9878498401
 30
0.0
 10
226.481456685
 20
21.3592619948
 30
0.0
  0
SPLINE
  5
53C
100
AcDbEntity
  8
RUNDUNGEN
100
AcDbSpline
 62
7
  6
CONTINUOUS
 70
0
 71
3
 72
11
 73
7
 74
0
 42
0.0000001
 43
0.0000001
 44
0.0000000001
 40
0.0
 40
0.0
 40
0.0
 40
0.0
 40
0.2094942263
 40
0.444667264
 40
0.7119932261
 40
1.0
 40
1.0
 40
1.0
 40
1.0
 10
214.131456685
 20
16.2680931703
 30
0.0
 10
214.131456685
 20
16.1931236954
 30
0.0
 10
214.1801282698
 20
16.032097477
 30
0.0
 10
214.3665924434
 20
15.8477887887
 30
0.0
 10
214.6283970139
 20
15.7293304178
 30
0.0
 10
214.8283907581
 20
15.7024077453
 30
0.0
 10
214.931456685
 20
15.7024077453
 30
0.0
  0
SPLINE
  5
53D
100
AcDbEntity
  8
RUNDUNGEN
100
AcDbSpline
 62
7
  6
CONTINUOUS
 70
0
 71
3
 72
10
 73
6
 74
0
 42
0.0000001
 43
0.0000001
 44
0.0000000001
 40
0.0
 40
0.0
 40
0.0
 40
0.0
 40
0.47201694
 40
0.7322443513
 40
1.0
 40
1.0
 40
1.0
 40
1.0
 10
188.5290275858
 20
31.549652536
 30
0.0
 10
189.3181180608
 20
30.7527870419
 30
0.0
 10
190.8860860004
 20
29.8448522199
 30
0.0
 10
193.1874077205
 20
29.2437701667
 30
0.0
 10
194.4460897334
 20
29.1374365878
 30
0.0
 10
195.0822439401
 20
29.1374365878
 30
0.0
  0
SPLINE
  5
53E
100
AcDbEntity
  8
RUNDUNGEN
100
AcDbSpline
 62
7
  6
CONTINUOUS
 70
0
 71
3
 72
10
 73
6
 74
0
 42
0.0000001
 43
0.0000001
 44
0.0000000001
 40
0.0
 40
0.0
 40
0.0
 40
0.0
 40
0.2677558652
 40
0.5279833681
 40
1.0
 40
1.0
 40
1.0
 40
1.0
 10
148.8806694299
 20
29.1374365878
 30
0.0
 10
149.5168241543
 20
29.1374365878
 30
0.0
 10
150.7755069144
 20
29.2437702995
 30
0.0
 10
153.0768285527
 20
29.8448527982
 30
0.0
 10
154.6447958201
 20
30.7527875579
 30
0.0
 10
155.4338857842
 20
31.549652536
 30
0.0
  0
SPLINE
  5
53F
100
AcDbEntity
  8
RUNDUNGEN
100
AcDbSpline
 62
7
  6
CONTINUOUS
 70
0
 71
3
 72
13
 73
9
 74
0
 42
0.0000001
 43
0.0000001
 44
0.0000000001
 40
0.0
 40
0.0
 40
0.0
 40
0.0
 40
0.1034546555
 40
0.2106690395
 40
0.3244963599
 40
0.4464318111
 40
0.7129511617
 40
1.0
 40
1.0
 40
1.0
 40
1.0
 10
129.831456685
 20
23.4805823384
 30
0.0
 10
129.831456685
 20
23.8519947486
 30
0.0
 10
129.9392418269
 20
24.6121750219
 30
0.0
 10
130.4109034433
 20
25.6908443785
 30
0.0
 10
131.1674979869
 20
26.675994823
 30
0.0
 10
132.550395961
 20
27.8504202115
 30
0.0
 10
134.8034208529
 20
28.8690994623
 30
0.0
 10
136.8009230621
 20
29.1374365878
 30
0.0
 10
137.831456685
 20
29.1374365878
 30
0.0
  0
SPLINE
  5
540
100
AcDbEntity
  8
RUNDUNGEN
100
AcDbSpline
 62
7
  6
CONTINUOUS
 70
0
 71
3
 72
13
 73
9
 74
0
 42
0.0000001
 43
0.0000001
 44
0.0000000001
 40
0.0
 40
0.0
 40
0.0
 40
0.0
 40
0.2870490624
 40
0.5535683755
 40
0.6755038246
 40
0.7893311355
 40
0.8965454157
 40
1.0
 40
1.0
 40
1.0
 40
1.0
 10
206.131456685
 20
29.1374365878
 30
0.0
 10
207.1619911121
 20
29.1374365878
 30
0.0
 10
209.1594940382
 20
28.8690992067
 30
0.0
 10
211.4125192607
 20
27.8504190677
 30
0.0
 10
212.7954167877
 20
26.6759934042
 30
0.0
 10
213.5520106514
 20
25.6908429665
 30
0.0
 10
214.023671771
 20
24.6121741457
 30
0.0
 10
214.131456685
 20
23.8519944931
 30
0.0
 10
214.131456685
 20
23.4805823384
 30
0.0
  0
SPLINE
  5
541
100
AcDbEntity
  8
RUNDUNGEN
100
AcDbSpline
 62
7
  6
CONTINUOUS
 70
0
 71
3
 72
13
 73
9
 74
0
 42
0.0000001
 43
0.0000001
 44
0.0000000001
 40
0.0
 40
0.0
 40
0.0
 40
0.0
 40
0.2360077452
 40
0.3661261418
 40
0.5000000756
 40
0.6338740402
 40
0.7639924068
 40
1.0
 40
1.0
 40
1.0
 40
1.0
 10
163.7899362421
 20
39.9880363297
 30
0.0
 10
164.7762962752
 20
40.9841151064
 30
0.0
 10
166.7358969477
 20
42.1190765692
 30
0.0
 10
169.613625942
 20
42.8703601242
 30
0.0
 10
171.9814582598
 20
43.0707251054
 30
0.0
 10
174.3492903595
 20
42.8703596467
 30
0.0
 10
177.2270183404
 20
42.1190757035
 30
0.0
 10
179.18661773
 20
40.9841144649
 30
0.0
 10
180.1729771279
 20
39.9880363297
 30
0.0
  0
SPLINE
  5
542
100
AcDbEntity
  8
RUNDUNGEN
100
AcDbSpline
 62
7
  6
CONTINUOUS
 70
0
 71
3
 72
10
 73
6
 74
0
 42
0.0000001
 43
0.0000001
 44
0.0000000001
 40
0.0
 40
0.0
 40
0.0
 40
0.0
 40
0.5172913397
 40
0.7618443771
 40
1.0
 40
1.0
 40
1.0
 40
1.0
 10
142.408499653
 20
61.3811570145
 30
0.0
 10
143.5726221182
 20
62.5567497415
 30
0.0
 10
145.0780290456
 20
64.534180597
 30
0.0
 10
146.3398845393
 20
67.4854849832
 30
0.0
 10
146.6969631585
 20
68.9976285463
 30
0.0
 10
146.8041949056
 20
69.7517337086
 30
0.0
  0
SPLINE
  5
543
100
AcDbEntity
  8
RUNDUNGEN
100
AcDbSpline
 62
7
  6
CONTINUOUS
 70
0
 71
3
 72
11
 73
7
 74
0
 42
0.0000001
 43
0.0000001
 44
0.0000000001
 40
0.0
 40
0.0
 40
0.0
 40
0.0
 40
0.2660806618
 40
0.5190943778
 40
0.7622194713
 40
1.0
 40
1.0
 40
1.0
 40
1.0
 10
142.408499653
 20
78.1246124922
 30
0.0
 10
143.1184226707
 20
77.4076945035
 30
0.0
 10
144.3962394048
 20
75.8958362339
 30
0.0
 10
145.8428165561
 20
73.3739838881
 30
0.0
 10
146.729682564
 20
70.7160987638
 30
0.0
 10
146.9296985767
 20
68.8867479591
 30
0.0
 10
146.9296985458
 20
67.985117075
 30
0.0
  0
SPLINE
  5
544
100
AcDbEntity
  8
RUNDUNGEN
100
AcDbSpline
 62
7
  6
CONTINUOUS
 70
0
 71
3
 72
11
 73
7
 74
0
 42
0.0000001
 43
0.0000001
 44
0.0000000001
 40
0.0
 40
0.0
 40
0.0
 40
0.0
 40
0.2524507309
 40
0.5157647478
 40
0.7702968692
 40
1.0
 40
1.0
 40
1.0
 40
1.0
 10
117.5785473025
 20
114.2944453084
 30
0.0
 10
118.0254923633
 20
114.5157374167
 30
0.0
 10
119.0193069606
 20
114.8129376651
 30
0.0
 10
120.5584937184
 20
114.8344706738
 30
0.0
 10
122.0049161941
 20
114.4547526938
 30
0.0
 10
122.830160507
 20
113.9222994305
 30
0.0
 10
123.149461225
 20
113.5998525978
 30
0.0
  0
SPLINE
  5
545
100
AcDbEntity
  8
0
100
AcDbSpline
 62
7
  6
CONTINUOUS
 70
0
 71
3
 72
11
 73
7
 74
0
 42
0.0000001
 43
0.0000001
 44
0.0000000001
 40
0.0
 40
0.0
 40
0.0
 40
0.0
 40
0.2094656921
 40
0.4446574861
 40
0.7119998836
 40
1.0
 40
1.0
 40
1.0
 40
1.0
 10
169.1041472058
 20
101.3266278002
 30
0.0
 10
169.1041472058
 20
101.4890144351
 30
0.0
 10
168.9987243334
 20
101.8378293392
 30
0.0
 10
168.5948624708
 20
102.2372109388
 30
0.0
 10
168.02762377
 20
102.4937310059
 30
0.0
 10
167.5943802223
 20
102.5520910378
 30
0.0
 10
167.371110391
 20
102.5520910378
 30
0.0
  0
SPLINE
  5
546
100
AcDbEntity
  8
0
100
AcDbSpline
 62
7
  6
CONTINUOUS
 70
0
 71
3
 72
9
 73
5
 74
0
 42
0.0000001
 43
0.0000001
 44
0.0000000001
 40
0.0
 40
0.0
 40
0.0
 40
0.0
 40
0.4402133985
 40
1.0
 40
1.0
 40
1.0
 40
1.0
 10
152.4818283086
 20
100.153584836
 30
0.0
 10
152.4818283086
 20
100.1164980939
 30
0.0
 10
152.5389447715
 20
100.0357373134
 30
0.0
 10
152.62666786
 20
100.017820334
 30
0.0
 10
152.6738283086
 20
100.017820334
 30
0.0
  0
SPLINE
  5
547
100
AcDbEntity
  8
0
100
AcDbSpline
 62
7
  6
CONTINUOUS
 70
0
 71
3
 72
11
 73
7
 74
0
 42
0.0000001
 43
0.0000001
 44
0.0000000001
 40
0.0
 40
0.0
 40
0.0
 40
0.0
 40
0.2094929298
 40
0.4446655277
 40
0.7119947494
 40
1.0
 40
1.0
 40
1.0
 40
1.0
 10
148.6418283086
 20
95.4357683919
 30
0.0
 10
148.6418283086
 20
95.3458055832
 30
0.0
 10
148.7002326693
 20
95.1525744014
 30
0.0
 10
148.923991358
 20
94.9314045701
 30
0.0
 10
149.2381563861
 20
94.7892525211
 30
0.0
 10
149.4781498565
 20
94.756945882
 30
0.0
 10
149.6018283086
 20
94.756945882
 30
0.0
  0
SPLINE
  5
548
100
AcDbEntity
  8
0
100
AcDbSpline
 62
7
  6
CONTINUOUS
 70
0
 71
3
 72
11
 73
7
 74
0
 42
0.0000001
 43
0.0000001
 44
0.0000000001
 40
0.0
 40
0.0
 40
0.0
 40
0.0
 40
0.2094668498
 40
0.4446559298
 40
0.7120302568
 40
1.0
 40
1.0
 40
1.0
 40
1.0
 10
155.1218283086
 20
98.4904696866
 30
0.0
 10
155.1218283086
 20
98.5354458062
 30
0.0
 10
155.0926195678
 20
98.6320521211
 30
0.0
 10
154.9807689215
 20
98.7426812085
 30
0.0
 10
154.8236529372
 20
98.8137152921
 30
0.0
 10
154.7036603437
 20
98.8298809416
 30
0.0
 10
154.6418283086
 20
98.8298809416
 30
0.0
  0
SPLINE
  5
549
100
AcDbEntity
  8
0
100
AcDbSpline
 62
7
  6
CONTINUOUS
 70
0
 71
3
 72
9
 73
5
 74
0
 42
0.0000001
 43
0.0000001
 44
0.0000000001
 40
0.0
 40
0.0
 40
0.0
 40
0.0
 40
0.2445376398
 40
1.0
 40
1.0
 40
1.0
 40
1.0
 10
148.6418283086
 20
96.0014538168
 30
0.0
 10
148.6418283086
 20
95.9793086604
 30
0.0
 10
148.6481888527
 20
95.888779421
 30
0.0
 10
148.6803633463
 20
95.8007342453
 30
0.0
 10
148.7149039574
 20
95.7416796888
 30
0.0
  0
SPLINE
  5
54A
100
AcDbEntity
  8
0
100
AcDbSpline
 62
7
  6
CONTINUOUS
 70
0
 71
3
 72
9
 73
5
 74
0
 42
0.0000001
 43
0.0000001
 44
0.0000000001
 40
0.0
 40
0.0
 40
0.0
 40
0.0
 40
0.461013727
 40
1.0
 40
1.0
 40
1.0
 40
1.0
 10
148.7149039574
 20
95.7416796888
 30
0.0
 10
148.7934343364
 20
95.6074152225
 30
0.0
 10
149.0788076588
 20
95.386470887
 30
0.0
 10
149.4199765972
 20
95.3226313069
 30
0.0
 10
149.6018283086
 20
95.3226313069
 30
0.0
  0
SPLINE
  5
54B
100
AcDbEntity
  8
0
100
AcDbSpline
 62
7
  6
CONTINUOUS
 70
0
 71
3
 72
11
 73
7
 74
0
 42
0.0000001
 43
0.0000001
 44
0.0000000001
 40
0.0
 40
0.0
 40
0.0
 40
0.0
 40
0.2880052506
 40
0.5553344723
 40
0.7905070702
 40
1.0
 40
1.0
 40
1.0
 40
1.0
 10
157.2818283086
 20
94.756945882
 30
0.0
 10
157.4055067606
 20
94.756945882
 30
0.0
 10
157.6455002311
 20
94.7892525211
 30
0.0
 10
157.9596652592
 20
94.9314045701
 30
0.0
 10
158.1834239479
 20
95.1525744014
 30
0.0
 10
158.2418283086
 20
95.3458055832
 30
0.0
 10
158.2418283086
 20
95.4357683919
 30
0.0
  0
SPLINE
  5
54C
100
AcDbEntity
  8
0
100
AcDbSpline
 62
7
  6
CONTINUOUS
 70
0
 71
3
 72
11
 73
7
 74
0
 42
0.0000001
 43
0.0000001
 44
0.0000000001
 40
0.0
 40
0.0
 40
0.0
 40
0.0
 40
0.2879697432
 40
0.5553440702
 40
0.7905331502
 40
1.0
 40
1.0
 40
1.0
 40
1.0
 10
152.2418283086
 20
98.8298809416
 30
0.0
 10
152.1799962734
 20
98.8298809416
 30
0.0
 10
152.0600036799
 20
98.8137152921
 30
0.0
 10
151.9028876956
 20
98.7426812085
 30
0.0
 10
151.7910370494
 20
98.6320521211
 30
0.0
 10
151.7618283086
 20
98.5354458062
 30
0.0
 10
151.7618283086
 20
98.4904696866
 30
0.0
  0
SPLINE
  5
54D
100
AcDbEntity
  8
0
100
AcDbSpline
 62
7
  6
CONTINUOUS
 70
0
 71
3
 72
11
 73
7
 74
0
 42
0.0000001
 43
0.0000001
 44
0.0000000001
 40
0.0
 40
0.0
 40
0.0
 40
0.0
 40
0.2879697432
 40
0.5553440702
 40
0.7905331502
 40
1.0
 40
1.0
 40
1.0
 40
1.0
 10
152.2418283086
 20
102.2239934913
 30
0.0
 10
152.1799962734
 20
102.2239934913
 30
0.0
 10
152.0600036799
 20
102.2078278418
 30
0.0
 10
151.9028876956
 20
102.1367937582
 30
0.0
 10
151.7910370494
 20
102.0261646708
 30
0.0
 10
151.7618283086
 20
101.9295583559
 30
0.0
 10
151.7618283086
 20
101.8845822363
 30
0.0
  0
SPLINE
  5
54E
100
AcDbEntity
  8
RUNDUNGEN
100
AcDbSpline
 62
7
  6
CONTINUOUS
 70
0
 71
3
 72
11
 73
7
 74
0
 42
0.0000001
 43
0.0000001
 44
0.0000000001
 40
0.0
 40
0.0
 40
0.0
 40
0.0
 40
0.2377805486
 40
0.4809056598
 40
0.733919361
 40
1.0
 40
1.0
 40
1.0
 40
1.0
 10
146.9296985458
 20
67.985117075
 30
0.0
 10
146.9296985149
 20
67.0834862297
 30
0.0
 10
146.7296822563
 20
65.254135535
 30
0.0
 10
145.8428160797
 20
62.5962507645
 30
0.0
 10
144.3962390415
 20
60.0743988725
 30
0.0
 10
143.1184225198
 20
58.5625409448
 30
0.0
 10
142.408499653
 20
57.8456231086
 30
0.0
  0
SPLINE
  5
54F
100
AcDbEntity
  8
0
100
AcDbSpline
 62
7
  6
CONTINUOUS
 70
0
 71
3
 72
9
 73
5
 74
0
 42
0.0000001
 43
0.0000001
 44
0.0000000001
 40
0.0
 40
0.0
 40
0.0
 40
0.0
 40
0.5597866015
 40
1.0
 40
1.0
 40
1.0
 40
1.0
 10
153.2738283086
 20
100.357231589
 30
0.0
 10
153.22666786
 20
100.357231589
 30
0.0
 10
153.1389447715
 20
100.3393146096
 30
0.0
 10
153.0818283086
 20
100.2585538291
 30
0.0
 10
153.0818283086
 20
100.221467087
 30
0.0
  0
SPLINE
  5
550
100
AcDbEntity
  8
RUNDUNGEN
100
AcDbSpline
 62
7
  6
CONTINUOUS
 70
0
 71
3
 72
10
 73
6
 74
0
 42
0.0000001
 43
0.0000001
 44
0.0000000001
 40
0.0
 40
0.0
 40
0.0
 40
0.0
 40
0.2382827206
 40
0.4819249463
 40
1.0
 40
1.0
 40
1.0
 40
1.0
 10
226.481456685
 20
30.8893712001
 30
0.0
 10
226.481456685
 20
31.1778912338
 30
0.0
 10
226.417264187
 20
31.7634567734
 30
0.0
 10
226.0325810613
 20
32.9187948885
 30
0.0
 10
225.4760620937
 20
33.6882713788
 30
0.0
 10
225.0346730393
 20
34.1340095014
 30
0.0
  0
SPLINE
  5
551
100
AcDbEntity
  8
0
100
AcDbSpline
 62
7
  6
CONTINUOUS
 70
0
 71
3
 72
9
 73
5
 74
0
 42
0.0000001
 43
0.0000001
 44
0.0000000001
 40
0.0
 40
0.0
 40
0.0
 40
0.0
 40
0.5597866015
 40
1.0
 40
1.0
 40
1.0
 40
1.0
 10
154.2098283086
 20
100.017820334
 30
0.0
 10
154.2569887571
 20
100.017820334
 30
0.0
 10
154.3447118456
 20
100.0357373134
 30
0.0
 10
154.4018283086
 20
100.1164980939
 30
0.0
 10
154.4018283086
 20
100.153584836
 30
0.0
  0
SPLINE
  5
552
100
AcDbEntity
  8
0
100
AcDbSpline
 62
7
  6
CONTINUOUS
 70
0
 71
3
 72
9
 73
5
 74
0
 42
0.0000001
 43
0.0000001
 44
0.0000000001
 40
0.0
 40
0.0
 40
0.0
 40
0.0
 40
0.5597866015
 40
1.0
 40
1.0
 40
1.0
 40
1.0
 10
154.2098283086
 20
96.6237077843
 30
0.0
 10
154.2569887571
 20
96.6237077843
 30
0.0
 10
154.3447118456
 20
96.6416247637
 30
0.0
 10
154.4018283086
 20
96.7223855442
 30
0.0
 10
154.4018283086
 20
96.7594722863
 30
0.0
  0
SPLINE
  5
553
100
AcDbEntity
  8
0
100
AcDbSpline
 62
7
  6
CONTINUOUS
 70
0
 71
3
 72
11
 73
7
 74
0
 42
0.0000001
 43
0.0000001
 44
0.0000000001
 40
0.0
 40
0.0
 40
0.0
 40
0.0
 40
0.2865059912
 40
0.5484241175
 40
0.7833822346
 40
1.0
 40
1.0
 40
1.0
 40
1.0
 10
168.3665480213
 20
99.1842867283
 30
0.0
 10
168.6724422184
 20
99.2553535156
 30
0.0
 10
169.2459346647
 20
99.4575632796
 30
0.0
 10
169.9631537639
 20
99.9506893025
 30
0.0
 10
170.4433376867
 20
100.5895737863
 30
0.0
 10
170.5602059054
 20
101.0896984016
 30
0.0
 10
170.5601702868
 20
101.3271344777
 30
0.0
  0
SPLINE
  5
554
100
AcDbEntity
  8
RUNDUNGEN
100
AcDbSpline
 62
7
  6
CONTINUOUS
 70
0
 71
3
 72
11
 73
7
 74
0
 42
0.0000001
 43
0.0000001
 44
0.0000000001
 40
0.0
 40
0.0
 40
0.0
 40
0.0
 40
0.22569408
 40
0.4632959224
 40
0.7206237489
 40
1.0
 40
1.0
 40
1.0
 40
1.0
 10
242.8124807498
 20
120.3476114603
 30
0.0
 10
242.8123877639
 20
120.4896181631
 30
0.0
 10
242.7607427156
 20
120.7831667061
 30
0.0
 10
242.5396318068
 20
121.1866733518
 30
0.0
 10
242.19335034
 20
121.5367489986
 30
0.0
 10
241.9039737926
 20
121.7166687006
 30
0.0
 10
241.7464419915
 20
121.794666082
 30
0.0
  0
SPLINE
  5
555
100
AcDbEntity
  8
0
100
AcDbSpline
 62
7
  6
CONTINUOUS
 70
0
 71
3
 72
9
 73
5
 74
0
 42
0.0000001
 43
0.0000001
 44
0.0000000001
 40
0.0
 40
0.0
 40
0.0
 40
0.0
 40
0.2536121958
 40
1.0
 40
1.0
 40
1.0
 40
1.0
 10
190.910474276
 20
94.756945882
 30
0.0
 10
190.9433265436
 20
94.756945882
 30
0.0
 10
191.0728030768
 20
94.761639278
 30
0.0
 10
191.2017466431
 20
94.7850304405
 30
0.0
 10
191.2941407979
 20
94.8135144245
 30
0.0
  0
SPLINE
  5
556
100
AcDbEntity
  8
0
100
AcDbSpline
 62
7
  6
CONTINUOUS
 70
0
 71
3
 72
11
 73
7
 74
0
 42
0.0000001
 43
0.0000001
 44
0.0000000001
 40
0.0
 40
0.0
 40
0.0
 40
0.0
 40
0.2847819434
 40
0.5451774547
 40
0.7807010719
 40
1.0
 40
1.0
 40
1.0
 40
1.0
 10
191.2941407979
 20
94.8135144245
 30
0.0
 10
191.8678932663
 20
94.9903952685
 30
0.0
 10
192.9357198699
 20
95.4479162982
 30
0.0
 10
194.2529866934
 20
96.4696110501
 30
0.0
 10
195.1205391803
 20
97.7390204081
 30
0.0
 10
195.3284412189
 20
98.706949629
 30
0.0
 10
195.3284412189
 20
99.1692921966
 30
0.0
  0
SPLINE
  5
557
100
AcDbEntity
  8
0
100
AcDbSpline
 62
7
  6
CONTINUOUS
 70
0
 71
3
 72
9
 73
5
 74
0
 42
0.0000001
 43
0.0000001
 44
0.0000000001
 40
0.0
 40
0.0
 40
0.0
 40
0.0
 40
0.239729366
 40
1.0
 40
1.0
 40
1.0
 40
1.0
 10
191.235971156
 20
102.4255832064
 30
0.0
 10
191.2147609039
 20
102.4370685727
 30
0.0
 10
191.1228700232
 20
102.4785601626
 30
0.0
 10
191.0206270194
 20
102.4955224953
 30
0.0
 10
190.9441326407
 20
102.4955224953
 30
0.0
  0
SPLINE
  5
558
100
AcDbEntity
  8
0
100
AcDbSpline
 62
7
  6
CONTINUOUS
 70
0
 71
3
 72
9
 73
5
 74
0
 42
0.0000001
 43
0.0000001
 44
0.0000000001
 40
0.0
 40
0.0
 40
0.0
 40
0.0
 40
0.4402133985
 40
1.0
 40
1.0
 40
1.0
 40
1.0
 10
152.4818283086
 20
100.7192702609
 30
0.0
 10
152.4818283086
 20
100.6821835188
 30
0.0
 10
152.5389447715
 20
100.6014227383
 30
0.0
 10
152.62666786
 20
100.5835057589
 30
0.0
 10
152.6738283086
 20
100.5835057589
 30
0.0
  0
SPLINE
  5
559
100
AcDbEntity
  8
0
100
AcDbSpline
 62
7
  6
CONTINUOUS
 70
0
 71
3
 72
11
 73
7
 74
0
 42
0.0000001
 43
0.0000001
 44
0.0000000001
 40
0.0
 40
0.0
 40
0.0
 40
0.0
 40
0.2094668498
 40
0.4446559298
 40
0.7120302568
 40
1.0
 40
1.0
 40
1.0
 40
1.0
 10
155.1218283086
 20
101.8845822363
 30
0.0
 10
155.1218283086
 20
101.9295583559
 30
0.0
 10
155.0926195678
 20
102.0261646708
 30
0.0
 10
154.9807689215
 20
102.1367937582
 30
0.0
 10
154.8236529372
 20
102.2078278418
 30
0.0
 10
154.7036603437
 20
102.2239934913
 30
0.0
 10
154.6418283086
 20
102.2239934913
 30
0.0
  0
SPLINE
  5
55A
100
AcDbEntity
  8
BEZUGSACHSEN
100
AcDbSpline
 62
7
  6
CONTINUOUS
 70
0
 71
3
 72
9
 73
5
 74
0
 42
0.0000001
 43
0.0000001
 44
0.0000000001
 40
0.0
 40
0.0
 40
0.0
 40
0.0
 40
0.2488169694
 40
1.0
 40
1.0
 40
1.0
 40
1.0
 10
169.6678942714
 20
112.0055659981
 30
0.0
 10
170.0386965402
 20
111.8959781025
 30
0.0
 10
171.5601537825
 20
111.5696890093
 30
0.0
 10
173.1755601941
 20
111.6747181155
 30
0.0
 10
174.2950190986
 20
112.0055659981
 30
0.0
  0
SPLINE
  5
55B
100
AcDbEntity
  8
0
100
AcDbSpline
 62
7
  6
CONTINUOUS
 70
0
 71
3
 72
11
 73
7
 74
0
 42
0.0000001
 43
0.0000001
 44
0.0000000001
 40
0.0
 40
0.0
 40
0.0
 40
0.0
 40
0.227142142
 40
0.4653047767
 40
0.7220182825
 40
1.0
 40
1.0
 40
1.0
 40
1.0
 10
193.4938801869
 20
99.1919196136
 30
0.0
 10
193.4938801869
 20
99.504590613
 30
0.0
 10
193.3862868832
 20
100.1493585073
 30
0.0
 10
192.9215750845
 20
101.0433769903
 30
0.0
 10
192.1889597184
 20
101.8296893019
 30
0.0
 10
191.5724590219
 20
102.2433747922
 30
0.0
 10
191.235971156
 20
102.4255832064
 30
0.0
  0
SPLINE
  5
55C
100
AcDbEntity
  8
0
100
AcDbSpline
 62
7
  6
CONTINUOUS
 70
0
 71
3
 72
19
 73
15
 74
0
 42
0.0000001
 43
0.0000001
 44
0.0000000001
 40
0.0
 40
0.0
 40
0.0
 40
0.0
 40
0.0517234907
 40
0.1053372095
 40
0.1622487312
 40
0.2232163938
 40
0.3564752704
 40
0.5
 40
0.6435247296
 40
0.7767836062
 40
0.8377512688
 40
0.8946627905
 40
0.9482765093
 40
1.0
 40
1.0
 40
1.0
 40
1.0
 10
172.875110391
 20
97.9981371568
 30
0.0
 10
172.875110391
 20
97.7866663418
 30
0.0
 10
172.9365247105
 20
97.3538102372
 30
0.0
 10
173.2050276662
 20
96.7395713171
 30
0.0
 10
173.6359367162
 20
96.1786485499
 30
0.0
 10
174.4232321961
 20
95.509893712
 30
0.0
 10
175.7069847382
 20
94.9298607969
 30
0.0
 10
177.4304186794
 20
94.6978073616
 30
0.0
 10
179.1538526206
 20
94.9298607969
 30
0.0
 10
180.4376051627
 20
95.509893712
 30
0.0
 10
181.2249006426
 20
96.1786485499
 30
0.0
 10
181.6558096927
 20
96.7395713171
 30
0.0
 10
181.9243126484
 20
97.3538102372
 30
0.0
 10
181.9857269679
 20
97.7866663418
 30
0.0
 10
181.9857269679
 20
97.9981371568
 30
0.0
  0
SPLINE
  5
55D
100
AcDbEntity
  8
RUNDUNGEN
100
AcDbSpline
 62
7
  6
CONTINUOUS
 70
0
 71
3
 72
10
 73
6
 74
0
 42
0.0000001
 43
0.0000001
 44
0.0000000001
 40
0.0
 40
0.0
 40
0.0
 40
0.0
 40
0.5180752096
 40
0.7617173681
 40
1.0
 40
1.0
 40
1.0
 40
1.0
 10
118.9282403307
 20
34.1340095014
 30
0.0
 10
118.4868511441
 20
33.6882712454
 30
0.0
 10
117.9303321464
 20
32.9187946205
 30
0.0
 10
117.545649123
 20
31.7634564761
 30
0.0
 10
117.481456685
 20
31.177891126
 30
0.0
 10
117.481456685
 20
30.8893712001
 30
0.0
  0
SPLINE
  5
55E
100
AcDbEntity
  8
RUNDUNGEN
100
AcDbSpline
 62
7
  6
CONTINUOUS
 70
0
 71
3
 72
11
 73
7
 74
0
 42
0.0000001
 43
0.0000001
 44
0.0000000001
 40
0.0
 40
0.0
 40
0.0
 40
0.0
 40
0.2793751981
 40
0.5367195601
 40
0.7743217724
 40
1.0
 40
1.0
 40
1.0
 40
1.0
 10
121.2018514217
 20
102.6222204292
 30
0.0
 10
121.044312055
 20
102.544219302
 30
0.0
 10
120.7549137671
 20
102.3642826342
 30
0.0
 10
120.408612363
 20
102.0141741187
 30
0.0
 10
120.1875154793
 20
101.6106303478
 30
0.0
 10
120.1358909522
 20
101.3170724152
 30
0.0
 10
120.1358103449
 20
101.1750683244
 30
0.0
  0
SPLINE
  5
55F
100
AcDbEntity
  8
0
100
AcDbSpline
 62
7
  6
CONTINUOUS
 70
0
 71
3
 72
9
 73
5
 74
0
 42
0.0000001
 43
0.0000001
 44
0.0000000001
 40
0.0
 40
0.0
 40
0.0
 40
0.0
 40
0.4402133985
 40
1.0
 40
1.0
 40
1.0
 40
1.0
 10
152.4818283086
 20
96.7594722863
 30
0.0
 10
152.4818283086
 20
96.7223855442
 30
0.0
 10
152.5389447715
 20
96.6416247637
 30
0.0
 10
152.62666786
 20
96.6237077843
 30
0.0
 10
152.6738283086
 20
96.6237077843
 30
0.0
  0
SPLINE
  5
560
100
AcDbEntity
  8
RUNDUNGEN
100
AcDbSpline
 62
7
  6
CONTINUOUS
 70
0
 71
3
 72
11
 73
7
 74
0
 42
0.0000001
 43
0.0000001
 44
0.0000000001
 40
0.0
 40
0.0
 40
0.0
 40
0.0
 40
0.2794013718
 40
0.5367226037
 40
0.7743080703
 40
1.0
 40
1.0
 40
1.0
 40
1.0
 10
106.7218076221
 20
124.0253549142
 30
0.0
 10
106.2173080048
 20
123.7755663077
 30
0.0
 10
105.290653412
 20
123.1993170738
 30
0.0
 10
104.1820868704
 20
122.0779424283
 30
0.0
 10
103.4747819748
 20
120.7853949247
 30
0.0
 10
103.3103352634
 20
119.845243881
 30
0.0
 10
103.3104229945
 20
119.3905089198
 30
0.0
  0
SPLINE
  5
561
100
AcDbEntity
  8
RUNDUNGEN
100
AcDbSpline
 62
7
  6
CONTINUOUS
 70
0
 71
3
 72
9
 73
5
 74
0
 42
0.0000001
 43
0.0000001
 44
0.0000000001
 40
0.0
 40
0.0
 40
0.0
 40
0.0
 40
0.5095267524
 40
1.0
 40
1.0
 40
1.0
 40
1.0
 10
126.4818059152
 20
127.155291607
 30
0.0
 10
123.3917118787
 20
127.7197979235
 30
0.0
 10
117.1265483539
 20
127.8831349215
 30
0.0
 10
111.0699198983
 20
126.1781987801
 30
0.0
 10
108.3601117106
 20
124.8365144895
 30
0.0
  0
SPLINE
  5
562
100
AcDbEntity
  8
RUNDUNGEN
100
AcDbSpline
 62
7
  6
CONTINUOUS
 70
0
 71
3
 72
10
 73
6
 74
0
 42
0.0000001
 43
0.0000001
 44
0.0000000001
 40
0.0
 40
0.0
 40
0.0
 40
0.0
 40
0.2540840942
 40
0.5191023916
 40
1.0
 40
1.0
 40
1.0
 40
1.0
 10
230.8926774047
 20
127.1685982687
 30
0.0
 10
230.613337043
 20
127.3069056871
 30
0.0
 10
229.9900728994
 20
127.4919415352
 30
0.0
 10
228.7619070745
 20
127.513548842
 30
0.0
 10
227.825967259
 20
127.1536790278
 30
0.0
 10
227.4108562031
 20
126.7344778245
 30
0.0
  0
SPLINE
  5
563
100
AcDbEntity
  8
0
100
AcDbSpline
 62
7
  6
CONTINUOUS
 70
0
 71
3
 72
9
 73
5
 74
0
 42
0.0000001
 43
0.0000001
 44
0.0000000001
 40
0.0
 40
0.0
 40
0.0
 40
0.0
 40
0.4402133985
 40
1.0
 40
1.0
 40
1.0
 40
1.0
 10
152.4818283086
 20
97.3251577112
 30
0.0
 10
152.4818283086
 20
97.2880709691
 30
0.0
 10
152.5389447715
 20
97.2073101886
 30
0.0
 10
152.62666786
 20
97.1893932092
 30
0.0
 10
152.6738283086
 20
97.1893932092
 30
0.0
  0
SPLINE
  5
564
100
AcDbEntity
  8
0
100
AcDbSpline
 62
7
  6
CONTINUOUS
 70
0
 71
3
 72
9
 73
5
 74
0
 42
0.0000001
 43
0.0000001
 44
0.0000000001
 40
0.0
 40
0.0
 40
0.0
 40
0.0
 40
0.2536121958
 40
1.0
 40
1.0
 40
1.0
 40
1.0
 10
190.910474276
 20
95.3226313069
 30
0.0
 10
190.9433265436
 20
95.3226313069
 30
0.0
 10
191.0728030768
 20
95.3273247029
 30
0.0
 10
191.2017466431
 20
95.3507158655
 30
0.0
 10
191.2941407979
 20
95.3791998494
 30
0.0
  0
SPLINE
  5
565
100
AcDbEntity
  8
0
100
AcDbSpline
 62
7
  6
CONTINUOUS
 70
0
 71
3
 72
11
 73
7
 74
0
 42
0.0000001
 43
0.0000001
 44
0.0000000001
 40
0.0
 40
0.0
 40
0.0
 40
0.0
 40
0.2816347582
 40
0.5420479832
 40
0.7798483853
 40
1.0
 40
1.0
 40
1.0
 40
1.0
 10
191.2941407979
 20
95.3791998494
 30
0.0
 10
191.8123410418
 20
95.5389546245
 30
0.0
 10
192.7839992989
 20
95.9438330968
 30
0.0
 10
194.0174741154
 20
96.825757505
 30
0.0
 10
194.9010883279
 20
97.9150179591
 30
0.0
 10
195.2130962154
 20
98.7625574132
 30
0.0
 10
195.2825496921
 20
99.1807141694
 30
0.0
  0
SPLINE
  5
566
100
AcDbEntity
  8
0
100
AcDbSpline
 62
7
  6
CONTINUOUS
 70
0
 71
3
 72
9
 73
5
 74
0
 42
0.0000001
 43
0.0000001
 44
0.0000000001
 40
0.0
 40
0.0
 40
0.0
 40
0.0
 40
0.5189505106
 40
1.0
 40
1.0
 40
1.0
 40
1.0
 10
192.48257158
 20
102.0627995208
 30
0.0
 10
192.791723739
 20
101.7443504211
 30
0.0
 10
193.3012040425
 20
101.0319949621
 30
0.0
 10
193.4939089725
 20
100.1690201768
 30
0.0
 10
193.4939089725
 20
99.7576050385
 30
0.0
  0
SPLINE
  5
567
100
AcDbEntity
  8
0
100
AcDbSpline
 62
7
  6
CONTINUOUS
 70
0
 71
3
 72
11
 73
7
 74
0
 42
0.0000001
 43
0.0000001
 44
0.0000000001
 40
0.0
 40
0.0
 40
0.0
 40
0.0
 40
0.2782911642
 40
0.539206302
 40
0.7792454761
 40
1.0
 40
1.0
 40
1.0
 40
1.0
 10
168.3665480213
 20
99.7499721533
 30
0.0
 10
168.6098296363
 20
99.8064924892
 30
0.0
 10
169.0728725809
 20
99.9584216068
 30
0.0
 10
169.6850241659
 20
100.3075849683
 30
0.0
 10
170.1627641718
 20
100.7547642885
 30
0.0
 10
170.3779312373
 20
101.1169544995
 30
0.0
 10
170.4488939612
 20
101.3019327699
 30
0.0
  0
SPLINE
  5
568
100
AcDbEntity
  8
0
100
AcDbSpline
 62
7
  6
CONTINUOUS
 70
0
 71
3
 72
8
 73
4
 74
0
 42
0.0000001
 43
0.0000001
 44
0.0000000001
 40
0.0
 40
0.0
 40
0.0
 40
0.0
 40
1.0
 40
1.0
 40
1.0
 40
1.0
 10
170.4488939612
 20
101.3019327699
 30
0.0
 10
170.4856076057
 20
101.3976340915
 30
0.0
 10
170.5140730123
 20
101.496987875
 30
0.0
 10
170.5328529269
 20
101.5977546823
 30
0.0
  0
SPLINE
  5
569
100
AcDbEntity
  8
0
100
AcDbSpline
 62
7
  6
CONTINUOUS
 70
0
 71
3
 72
11
 73
7
 74
0
 42
0.0000001
 43
0.0000001
 44
0.0000000001
 40
0.0
 40
0.0
 40
0.0
 40
0.0
 40
0.2880066977
 40
0.5553334191
 40
0.790532629
 40
1.0
 40
1.0
 40
1.0
 40
1.0
 10
167.371110391
 20
103.1177764627
 30
0.0
 10
167.594384474
 20
103.1177764627
 30
0.0
 10
168.0276268864
 20
103.0594391829
 30
0.0
 10
168.5948358435
 20
102.8028583697
 30
0.0
 10
168.998696396
 20
102.4035105281
 30
0.0
 10
169.1041771217
 20
102.0547005431
 30
0.0
 10
169.1041771217
 20
101.8923132252
 30
0.0
  0
SPLINE
  5
56A
100
AcDbEntity
  8
0
100
AcDbSpline
 62
7
  6
CONTINUOUS
 70
0
 71
3
 72
9
 73
5
 74
0
 42
0.0000001
 43
0.0000001
 44
0.0000000001
 40
0.0
 40
0.0
 40
0.0
 40
0.0
 40
0.5597866015
 40
1.0
 40
1.0
 40
1.0
 40
1.0
 10
154.2098283086
 20
97.1893932092
 30
0.0
 10
154.2569887571
 20
97.1893932092
 30
0.0
 10
154.3447118456
 20
97.2073101886
 30
0.0
 10
154.4018283086
 20
97.2880709691
 30
0.0
 10
154.4018283086
 20
97.3251577112
 30
0.0
  0
SPLINE
  5
56B
100
AcDbEntity
  8
0
100
AcDbSpline
 62
7
  6
CONTINUOUS
 70
0
 71
3
 72
9
 73
5
 74
0
 42
0.0000001
 43
0.0000001
 44
0.0000000001
 40
0.0
 40
0.0
 40
0.0
 40
0.0
 40
0.4402133985
 40
1.0
 40
1.0
 40
1.0
 40
1.0
 10
153.0818283086
 20
100.7871525119
 30
0.0
 10
153.0818283086
 20
100.824239254
 30
0.0
 10
153.1389447715
 20
100.9050000345
 30
0.0
 10
153.22666786
 20
100.9229170139
 30
0.0
 10
153.2738283086
 20
100.9229170139
 30
0.0
  0
SPLINE
  5
56C
100
AcDbEntity
  8
0
100
AcDbSpline
 62
7
  6
CONTINUOUS
 70
0
 71
3
 72
9
 73
5
 74
0
 42
0.0000001
 43
0.0000001
 44
0.0000000001
 40
0.0
 40
0.0
 40
0.0
 40
0.0
 40
0.5597866015
 40
1.0
 40
1.0
 40
1.0
 40
1.0
 10
153.6098283086
 20
100.9229170139
 30
0.0
 10
153.6569887571
 20
100.9229170139
 30
0.0
 10
153.7447118456
 20
100.9050000345
 30
0.0
 10
153.8018283086
 20
100.824239254
 30
0.0
 10
153.8018283086
 20
100.7871525119
 30
0.0
  0
SPLINE
  5
56D
100
AcDbEntity
  8
0
100
AcDbSpline
 62
7
  6
CONTINUOUS
 70
0
 71
3
 72
9
 73
5
 74
0
 42
0.0000001
 43
0.0000001
 44
0.0000000001
 40
0.0
 40
0.0
 40
0.0
 40
0.0
 40
0.5597866015
 40
1.0
 40
1.0
 40
1.0
 40
1.0
 10
154.2098283086
 20
100.5835057589
 30
0.0
 10
154.2569887571
 20
100.5835057589
 30
0.0
 10
154.3447118456
 20
100.6014227383
 30
0.0
 10
154.4018283086
 20
100.6821835188
 30
0.0
 10
154.4018283086
 20
100.7192702609
 30
0.0
  0
SPLINE
  5
56E
100
AcDbEntity
  8
0
100
AcDbSpline
 62
7
  6
CONTINUOUS
 70
0
 71
3
 72
11
 73
7
 74
0
 42
0.0000001
 43
0.0000001
 44
0.0000000001
 40
0.0
 40
0.0
 40
0.0
 40
0.0
 40
0.2876567391
 40
0.555407049
 40
0.7907201247
 40
1.0
 40
1.0
 40
1.0
 40
1.0
 10
154.6418283086
 20
102.7896789162
 30
0.0
 10
154.7035841888
 20
102.7896789162
 30
0.0
 10
154.8234837269
 20
102.7732681482
 30
0.0
 10
154.9808932274
 20
102.7026869259
 30
0.0
 10
155.0923715272
 20
102.5916495596
 30
0.0
 10
155.1218283086
 20
102.4951971247
 30
0.0
 10
155.1218283086
 20
102.4502676613
 30
0.0
  0
SPLINE
  5
56F
100
AcDbEntity
  8
0
100
AcDbSpline
 62
7
  6
CONTINUOUS
 70
0
 71
3
 72
8
 73
4
 74
0
 42
0.0000001
 43
0.0000001
 44
0.0000000001
 40
0.0
 40
0.0
 40
0.0
 40
0.0
 40
1.0
 40
1.0
 40
1.0
 40
1.0
 10
154.7700195701
 20
99.3830644042
 30
0.0
 10
154.808148239
 20
99.3755804148
 30
0.0
 10
154.8458297133
 20
99.3647194279
 30
0.0
 10
154.8818283086
 20
99.3500938807
 30
0.0
  0
SPLINE
  5
570
100
AcDbEntity
  8
0
100
AcDbSpline
 62
7
  6
CONTINUOUS
 70
0
 71
3
 72
9
 73
5
 74
0
 42
0.0000001
 43
0.0000001
 44
0.0000000001
 40
0.0
 40
0.0
 40
0.0
 40
0.0
 40
0.5424756321
 40
1.0
 40
1.0
 40
1.0
 40
1.0
 10
154.8818283086
 20
99.3500938807
 30
0.0
 10
154.9482793657
 20
99.3230960752
 30
0.0
 10
155.0654634229
 20
99.2496014804
 30
0.0
 10
155.1218283086
 20
99.1166489073
 30
0.0
 10
155.1218283086
 20
99.0561551116
 30
0.0
  0
SPLINE
  5
571
100
AcDbEntity
  8
0
100
AcDbSpline
 62
7
  6
CONTINUOUS
 70
0
 71
3
 72
9
 73
5
 74
0
 42
0.0000001
 43
0.0000001
 44
0.0000000001
 40
0.0
 40
0.0
 40
0.0
 40
0.0
 40
0.4575243679
 40
1.0
 40
1.0
 40
1.0
 40
1.0
 10
151.7618283086
 20
99.0561551116
 30
0.0
 10
151.7618283086
 20
99.1166489073
 30
0.0
 10
151.8181931942
 20
99.2496014804
 30
0.0
 10
151.9353772514
 20
99.3230960752
 30
0.0
 10
152.0018283086
 20
99.3500938807
 30
0.0
  0
SPLINE
  5
572
100
AcDbEntity
  8
0
100
AcDbSpline
 62
7
  6
CONTINUOUS
 70
0
 71
3
 72
9
 73
5
 74
0
 42
0.0000001
 43
0.0000001
 44
0.0000000001
 40
0.0
 40
0.0
 40
0.0
 40
0.0
 40
0.2441493338
 40
1.0
 40
1.0
 40
1.0
 40
1.0
 10
152.0018283086
 20
99.3500938807
 30
0.0
 10
152.0203091999
 20
99.3576023167
 30
0.0
 10
152.0976549255
 20
99.3841699744
 30
0.0
 10
152.1800724283
 20
99.3955663665
 30
0.0
 10
152.2418283086
 20
99.3955663665
 30
0.0
  0
SPLINE
  5
573
100
AcDbEntity
  8
RUNDUNGEN
100
AcDbSpline
 62
7
  6
CONTINUOUS
 70
0
 71
3
 72
11
 73
7
 74
0
 42
0.0000001
 43
0.0000001
 44
0.0000000001
 40
0.0
 40
0.0
 40
0.0
 40
0.0
 40
0.2660806618
 40
0.5190943778
 40
0.7622194713
 40
1.0
 40
1.0
 40
1.0
 40
1.0
 10
201.554413717
 20
57.8456231086
 30
0.0
 10
200.8444906993
 20
58.5625410972
 30
0.0
 10
199.5666739652
 20
60.0743993669
 30
0.0
 10
198.1200968139
 20
62.5962517127
 30
0.0
 10
197.233230806
 20
65.2541368369
 30
0.0
 10
197.0332147933
 20
67.0834876417
 30
0.0
 10
197.0332148242
 20
67.9851185258
 30
0.0
  0
SPLINE
  5
574
100
AcDbEntity
  8
0
100
AcDbSpline
 62
7
  6
CONTINUOUS
 70
0
 71
3
 72
17
 73
13
 74
0
 42
0.0000001
 43
0.0000001
 44
0.0000000001
 40
0.0
 40
0.0
 40
0.0
 40
0.0
 40
0.0519082659
 40
0.1062678596
 40
0.2250851405
 40
0.3581749994
 40
0.5
 40
0.6418250006
 40
0.7749148595
 40
0.8937321404
 40
0.9480917341
 40
1.0
 40
1.0
 40
1.0
 40
1.0
 10
172.9088975395
 20
98.1727710102
 30
0.0
 10
172.9427549803
 20
97.9770881197
 30
0.0
 10
173.0642949771
 20
97.5839633022
 30
0.0
 10
173.5085855602
 20
96.8385938914
 30
0.0
 10
174.419611832
 20
96.0540393738
 30
0.0
 10
175.8311614997
 20
95.4752879993
 30
0.0
 10
177.4304186794
 20
95.2743942416
 30
0.0
 10
179.0296758591
 20
95.4752879993
 30
0.0
 10
180.4412255268
 20
96.0540393738
 30
0.0
 10
181.3522517986
 20
96.8385938914
 30
0.0
 10
181.7965423817
 20
97.5839633022
 30
0.0
 10
181.9180823786
 20
97.9770881197
 30
0.0
 10
181.9519398194
 20
98.1727710102
 30
0.0
  0
SPLINE
  5
575
100
AcDbEntity
  8
0
100
AcDbSpline
 62
7
  6
CONTINUOUS
 70
0
 71
3
 72
9
 73
5
 74
0
 42
0.0000001
 43
0.0000001
 44
0.0000000001
 40
0.0
 40
0.0
 40
0.0
 40
0.0
 40
0.4402133985
 40
1.0
 40
1.0
 40
1.0
 40
1.0
 10
153.8018283086
 20
100.221467087
 30
0.0
 10
153.8018283086
 20
100.2585538291
 30
0.0
 10
153.7447118456
 20
100.3393146096
 30
0.0
 10
153.6569887571
 20
100.357231589
 30
0.0
 10
153.6098283086
 20
100.357231589
 30
0.0
  0
SPLINE
  5
576
100
AcDbEntity
  8
0
100
AcDbSpline
 62
7
  6
CONTINUOUS
 70
0
 71
3
 72
9
 73
5
 74
0
 42
0.0000001
 43
0.0000001
 44
0.0000000001
 40
0.0
 40
0.0
 40
0.0
 40
0.0
 40
0.538986273
 40
1.0
 40
1.0
 40
1.0
 40
1.0
 10
157.2818283086
 20
95.3226313069
 30
0.0
 10
157.46368002
 20
95.3226313069
 30
0.0
 10
157.8048489583
 20
95.386470887
 30
0.0
 10
158.0902222808
 20
95.6074152225
 30
0.0
 10
158.1687526598
 20
95.7416796888
 30
0.0
  0
SPLINE
  5
577
100
AcDbEntity
  8
0
100
AcDbSpline
 62
7
  6
CONTINUOUS
 70
0
 71
3
 72
9
 73
5
 74
0
 42
0.0000001
 43
0.0000001
 44
0.0000000001
 40
0.0
 40
0.0
 40
0.0
 40
0.0
 40
0.2592261758
 40
1.0
 40
1.0
 40
1.0
 40
1.0
 10
158.1687526598
 20
95.7416796888
 30
0.0
 10
158.1806021053
 20
95.7619388484
 30
0.0
 10
158.2215994424
 20
95.8427049408
 30
0.0
 10
158.2418283086
 20
95.9343849982
 30
0.0
 10
158.2418283086
 20
96.0014538168
 30
0.0
  0
SPLINE
  5
578
100
AcDbEntity
  8
0
100
AcDbSpline
 62
7
  6
CONTINUOUS
 70
0
 71
3
 72
17
 73
13
 74
0
 42
0.0000001
 43
0.0000001
 44
0.0000000001
 40
0.0
 40
0.0
 40
0.0
 40
0.0
 40
0.0404569841
 40
0.0993867967
 40
0.1796798929
 40
0.2744087031
 40
0.4661804369
 40
0.6322264065
 40
0.7664462556
 40
0.8703066146
 40
0.9467497891
 40
1.0
 40
1.0
 40
1.0
 40
1.0
 10
217.481456685
 20
105.7504473123
 30
0.0
 10
217.481456685
 20
105.5971712339
 30
0.0
 10
217.4318095727
 20
105.2209335006
 30
0.0
 10
217.2317896918
 20
104.5684437166
 30
0.0
 10
216.8808107384
 20
103.7531340736
 30
0.0
 10
216.2369460314
 20
102.5207511446
 30
0.0
 10
215.3243582042
 20
101.0662127899
 30
0.0
 10
214.2166436906
 20
99.5648179604
 30
0.0
 10
213.2142502593
 20
98.4056731047
 30
0.0
 10
212.3496861404
 20
97.5804807333
 30
0.0
 10
211.6326981843
 20
97.0601981877
 30
0.0
 10
211.168643474
 20
96.8641969389
 30
0.0
 10
210.968755785
 20
96.8368866937
 30
0.0
  0
SPLINE
  5
579
100
AcDbEntity
  8
0
100
AcDbSpline
 62
7
  6
CONTINUOUS
 70
0
 71
3
 72
17
 73
13
 74
0
 42
0.0000001
 43
0.0000001
 44
0.0000000001
 40
0.0
 40
0.0
 40
0.0
 40
0.0
 40
0.0531621821
 40
0.1295191304
 40
0.2333115862
 40
0.3674919098
 40
0.533543699
 40
0.7253936569
 40
0.8201868232
 40
0.9005426745
 40
0.959518744
 40
1.0
 40
1.0
 40
1.0
 40
1.0
 10
132.9971943086
 20
96.8364775554
 30
0.0
 10
132.7975034895
 20
96.8631540336
 30
0.0
 10
132.3335157038
 20
97.0582090843
 30
0.0
 10
131.6166818419
 20
97.5775316791
 30
0.0
 10
130.752034286
 20
98.4020609957
 30
0.0
 10
129.7493166589
 20
99.5609557538
 30
0.0
 10
128.6409204158
 20
101.0626790456
 30
0.0
 10
127.7275807129
 20
102.5179502039
 30
0.0
 10
127.0829915016
 20
103.7512494031
 30
0.0
 10
126.731519019
 20
104.5673201112
 30
0.0
 10
126.5311935026
 20
105.2204355748
 30
0.0
 10
126.481456685
 20
105.5970384973
 30
0.0
 10
126.481456685
 20
105.7504473123
 30
0.0
  0
SPLINE
  5
57A
100
AcDbEntity
  8
BEZUGSACHSEN
100
AcDbSpline
 62
7
  6
CONTINUOUS
 70
0
 71
3
 72
15
 73
11
 74
0
 42
0.0000001
 43
0.0000001
 44
0.0000000001
 40
0.0
 40
0.0
 40
0.0
 40
0.0
 40
0.1210152067
 40
0.2438477406
 40
0.3694063433
 40
0.4971979893
 40
0.6256777657
 40
0.7529828361
 40
0.877784609
 40
1.0
 40
1.0
 40
1.0
 40
1.0
 10
140.681456685
 20
131.7187712552
 30
0.0
 10
140.681456685
 20
131.3816416198
 30
0.0
 10
140.8149462804
 20
130.6954824696
 30
0.0
 10
141.3847262121
 20
129.8111819287
 30
0.0
 10
142.2449038163
 20
129.1744061604
 30
0.0
 10
143.2837151909
 20
128.8632358428
 30
0.0
 10
144.3714949599
 20
128.9126087985
 30
0.0
 10
145.3741766236
 20
129.3177847745
 30
0.0
 10
146.1653566172
 20
130.0296966836
 30
0.0
 10
146.4853473647
 20
130.660493366
 30
0.0
 10
146.5788715193
 20
130.9878696133
 30
0.0
  0
SPLINE
  5
57B
100
AcDbEntity
  8
RUNDUNGEN
100
AcDbSpline
 62
7
  6
CONTINUOUS
 70
0
 71
3
 72
13
 73
9
 74
0
 42
0.0000001
 43
0.0000001
 44
0.0000000001
 40
0.0
 40
0.0
 40
0.0
 40
0.0
 40
0.249842741
 40
0.4993858433
 40
0.6246234317
 40
0.7497904537
 40
0.87490704
 40
1.0
 40
1.0
 40
1.0
 40
1.0
 10
207.481456685
 20
171.6084601267
 30
0.0
 10
208.7747201294
 20
171.6084599674
 30
0.0
 10
211.3860611043
 20
171.1051540048
 30
0.0
 10
214.1628976836
 20
169.2859300775
 30
0.0
 10
215.8340241982
 20
167.2911028866
 30
0.0
 10
216.7721851711
 20
165.5733844157
 30
0.0
 10
217.3509374239
 20
163.705656794
 30
0.0
 10
217.481456685
 20
162.4067484974
 30
0.0
 10
217.481456685
 20
161.7592285748
 30
0.0
  0
SPLINE
  5
57C
100
AcDbEntity
  8
RUNDUNGEN
100
AcDbSpline
 62
7
  6
CONTINUOUS
 70
0
 71
3
 72
13
 73
9
 74
0
 42
0.0000001
 43
0.0000001
 44
0.0000000001
 40
0.0
 40
0.0
 40
0.0
 40
0.0
 40
0.2498427268
 40
0.4993858333
 40
0.6246234241
 40
0.7497904489
 40
0.874907037
 40
1.0
 40
1.0
 40
1.0
 40
1.0
 10
136.481456685
 20
171.6084601267
 30
0.0
 10
135.1881933136
 20
171.6084601267
 30
0.0
 10
132.5768523914
 20
171.1051539791
 30
0.0
 10
129.800015814
 20
169.2859301983
 30
0.0
 10
128.1288892351
 20
167.2911029848
 30
0.0
 10
127.1907282323
 20
165.5733844898
 30
0.0
 10
126.611975948
 20
163.7056568352
 30
0.0
 10
126.481456685
 20
162.406748513
 30
0.0
 10
126.481456685
 20
161.7592285748
 30
0.0
  0
SPLINE
  5
57D
100
AcDbEntity
  8
BEZUGSACHSEN
100
AcDbSpline
 62
7
  6
CONTINUOUS
 70
0
 71
3
 72
15
 73
11
 74
0
 42
0.0000001
 43
0.0000001
 44
0.0000000001
 40
0.0
 40
0.0
 40
0.0
 40
0.0
 40
0.1330342319
 40
0.2619666735
 40
0.3869344667
 40
0.5088515438
 40
0.6292923263
 40
0.7501737512
 40
0.8733077237
 40
1.0
 40
1.0
 40
1.0
 40
1.0
 10
159.574909609
 20
171.5964917553
 30
0.0
 10
158.2099701192
 20
172.3920789726
 30
0.0
 10
155.6724080511
 20
174.2373828332
 30
0.0
 10
152.5825511836
 20
177.6840639736
 30
0.0
 10
150.3722409267
 20
181.6035656825
 30
0.0
 10
149.1144662638
 20
185.8192529261
 30
0.0
 10
148.8421991324
 20
190.1618907598
 30
0.0
 10
149.5624583766
 20
194.4680000794
 30
0.0
 10
151.2557054108
 20
198.5699189538
 30
0.0
 10
152.9777458701
 20
201.0198423053
 30
0.0
 10
153.9677554716
 20
202.1528002784
 30
0.0
  0
SPLINE
  5
57E
100
AcDbEntity
  8
BEZUGSACHSEN
100
AcDbSpline
 62
7
  6
CONTINUOUS
 70
0
 71
3
 72
15
 73
11
 74
0
 42
0.0000001
 43
0.0000001
 44
0.0000000001
 40
0.0
 40
0.0
 40
0.0
 40
0.0
 40
0.1266928219
 40
0.2498271031
 40
0.3707087457
 40
0.4911496931
 40
0.6130667856
 40
0.7380344494
 40
0.8669664316
 40
1.0
 40
1.0
 40
1.0
 40
1.0
 10
189.9956471593
 20
202.1522368585
 30
0.0
 10
190.9856079433
 20
201.0192555939
 30
0.0
 10
192.7075484369
 20
198.569300682
 30
0.0
 10
194.4006339767
 20
194.4673682057
 30
0.0
 10
195.1207398578
 20
190.1612877457
 30
0.0
 10
194.8483464087
 20
185.8187154731
 30
0.0
 10
193.590480008
 20
181.6031202747
 30
0.0
 10
191.3801137112
 20
177.6837318665
 30
0.0
 10
188.2902518322
 20
174.2371653996
 30
0.0
 10
185.7527157807
 20
172.3919248585
 30
0.0
 10
184.3877934574
 20
171.5963677582
 30
0.0
  0
SPLINE
  5
57F
100
AcDbEntity
  8
0
100
AcDbSpline
 62
7
  6
CONTINUOUS
 70
0
 71
3
 72
15
 73
11
 74
0
 42
0.0000001
 43
0.0000001
 44
0.0000000001
 40
0.0
 40
0.0
 40
0.0
 40
0.0
 40
0.1216419959
 40
0.2456040819
 40
0.3720295791
 40
0.5
 40
0.6279704209
 40
0.7543959181
 40
0.8783580041
 40
1.0
 40
1.0
 40
1.0
 40
1.0
 10
180.9888013475
 20
141.0687591729
 30
0.0
 10
180.7531359844
 20
142.0164455178
 30
0.0
 10
179.9257573177
 20
143.8589624776
 30
0.0
 10
177.8136630149
 20
146.0469723671
 30
0.0
 10
175.0639308228
 20
147.4593004742
 30
0.0
 10
171.981456685
 20
147.9458264405
 30
0.0
 10
168.8989825472
 20
147.4593004742
 30
0.0
 10
166.1492503551
 20
146.0469723671
 30
0.0
 10
164.0371560523
 20
143.8589624776
 30
0.0
 10
163.2097773856
 20
142.0164455178
 30
0.0
 10
162.9741120225
 20
141.0687591729
 30
0.0
  0
SPLINE
  5
580
100
AcDbEntity
  8
0
100
AcDbSpline
 62
7
  6
CONTINUOUS
 70
0
 71
3
 72
13
 73
9
 74
0
 42
0.0000001
 43
0.0000001
 44
0.0000000001
 40
0.0
 40
0.0
 40
0.0
 40
0.0
 40
0.0198523103
 40
0.0666704448
 40
0.1443257486
 40
0.2533289489
 40
0.5652847017
 40
1.0
 40
1.0
 40
1.0
 40
1.0
 10
140.9318354449
 20
96.7716461451
 30
0.0
 10
140.9227548616
 20
96.7715878567
 30
0.0
 10
140.9067913314
 20
96.8087254561
 30
0.0
 10
140.9088548143
 20
96.8685749865
 30
0.0
 10
140.9119125841
 20
96.9787433321
 30
0.0
 10
140.9380919259
 20
97.2034463522
 30
0.0
 10
140.997096245
 20
97.5919251203
 30
0.0
 10
141.0585843721
 20
97.9273911132
 30
0.0
 10
141.0956598596
 20
98.1227499769
 30
0.0
  0
SPLINE
  5
581
100
AcDbEntity
  8
BEZUGSACHSEN
100
AcDbSpline
 62
7
  6
CONTINUOUS
 70
0
 71
3
 72
15
 73
11
 74
0
 42
0.0000001
 43
0.0000001
 44
0.0000000001
 40
0.0
 40
0.0
 40
0.0
 40
0.0
 40
0.1213108881
 40
0.2447048839
 40
0.3706654301
 40
0.4984666553
 40
0.6266190688
 40
0.7534886883
 40
0.8779777174
 40
1.0
 40
1.0
 40
1.0
 40
1.0
 10
146.6501855691
 20
131.5766387524
 30
0.0
 10
146.6014176763
 20
131.8920266406
 30
0.0
 10
146.3850567224
 20
132.5155831894
 30
0.0
 10
145.7544759925
 20
133.2836039483
 30
0.0
 10
144.8919669923
 20
133.8099585153
 30
0.0
 10
143.8956995901
 20
134.0373991209
 30
0.0
 10
142.8759490623
 20
133.9430644964
 30
0.0
 10
141.9447510751
 20
133.5361760099
 30
0.0
 10
141.2071513252
 20
132.860606906
 30
0.0
 10
140.8986364062
 20
132.2720857871
 30
0.0
 10
140.8029777641
 20
131.9656624339
 30
0.0
  0
SPLINE
  5
582
100
AcDbEntity
  8
RUNDUNGEN
100
AcDbSpline
 62
7
  6
CONTINUOUS
 70
0
 71
3
 72
31
 73
27
 74
0
 42
0.0000001
 43
0.0000001
 44
0.0000000001
 40
0.0
 40
0.0
 40
0.0
 40
0.0
 40
0.0072823108
 40
0.0134763183
 40
0.0225883808
 40
0.0268495225
 40
0.0323890337
 40
0.0400353084
 40
0.0501040792
 40
0.0626201576
 40
0.0773963079
 40
0.1124581968
 40
0.1526988919
 40
0.1959831431
 40
0.2408398648
 40
0.2863094326
 40
0.3768040419
 40
0.4644606495
 40
0.5477482051
 40
0.6258037412
 40
0.6981114014
 40
0.7643531743
 40
0.8243284912
 40
0.9250276148
 40
0.9657243946
 40
1.0
 40
1.0
 40
1.0
 40
1.0
 10
217.481456685
 20
113.8014755032
 30
0.0
 10
217.481456685
 20
113.8443875522
 30
0.0
 10
217.4782868471
 20
113.9245526574
 30
0.0
 10
217.4589400749
 20
114.0534754692
 30
0.0
 10
217.4028424892
 20
114.1734316383
 30
0.0
 10
217.2866843465
 20
114.1972687747
 30
0.0
 10
217.186287165
 20
114.1667943894
 30
0.0
 10
217.0679876442
 20
114.0966021291
 30
0.0
 10
216.9292652132
 20
113.9841116045
 30
0.0
 10
216.7715418745
 20
113.8302802789
 30
0.0
 10
216.5248536751
 20
113.557738528
 30
0.0
 10
216.1960210966
 20
113.140438533
 30
0.0
 10
215.7912254942
 20
112.5706755573
 30
0.0
 10
215.3752213074
 20
111.9386543866
 30
0.0
 10
214.9601658064
 20
111.2695410767
 30
0.0
 10
214.4186311535
 20
110.3518253121
 30
0.0
 10
213.7812274803
 20
109.1981965771
 30
0.0
 10
213.0787930963
 20
107.8268478135
 30
0.0
 10
212.4482056715
 20
106.5017722052
 30
0.0
 10
211.8925864968
 20
105.2418168325
 30
0.0
 10
211.4128172288
 20
104.0588575165
 30
0.0
 10
211.0082823509
 20
102.9608384727
 30
0.0
 10
210.5928968782
 20
101.6899270098
 30
0.0
 10
210.2884220495
 20
100.5400830927
 30
0.0
 10
210.126496074
 20
99.5169049741
 30
0.0
 10
210.0959949322
 20
99.0751170903
 30
0.0
 10
210.0959949322
 20
98.8731432267
 30
0.0
  0
SPLINE
  5
583
100
AcDbEntity
  8
KONSTRUKTIONSELEMENTE
100
AcDbSpline
 62
7
  6
CONTINUOUS
 70
0
 71
3
 72
9
 73
5
 74
0
 42
0.0000001
 43
0.0000001
 44
0.0000000001
 40
0.0
 40
0.0
 40
0.0
 40
0.0
 40
0.4989947154
 40
1.0
 40
1.0
 40
1.0
 40
1.0
 10
197.371536201
 20
131.4927751799
 30
0.0
 10
197.371536201
 20
130.8294853141
 30
0.0
 10
197.5043567315
 20
129.4973336295
 30
0.0
 10
197.872997959
 20
128.213808059
 30
0.0
 10
198.1009417398
 20
127.5880704327
 30
0.0
  0
SPLINE
  5
584
100
AcDbEntity
  8
KONSTRUKTIONSELEMENTE
100
AcDbSpline
 62
7
  6
CONTINUOUS
 70
0
 71
3
 72
16
 73
12
 74
0
 42
0.0000001
 43
0.0000001
 44
0.0000000001
 40
0.0
 40
0.0
 40
0.0
 40
0.0
 40
0.2546488898
 40
0.3814319555
 40
0.5075960043
 40
0.6328893395
 40
0.756898431
 40
0.8183525196
 40
0.8793203993
 40
0.9398147209
 40
1.0
 40
1.0
 40
1.0
 40
1.0
 10
181.231456685
 20
146.4488110013
 30
0.0
 10
183.0080654425
 20
146.0557997398
 30
0.0
 10
185.6364574177
 20
145.287061501
 30
0.0
 10
188.974066147
 20
143.8588843836
 30
0.0
 10
191.3542811522
 20
142.5680811446
 30
0.0
 10
193.5579798517
 20
141.0270462246
 30
0.0
 10
195.1764802121
 20
139.4855413254
 30
0.0
 10
196.2321988177
 20
138.0707627942
 30
0.0
 10
196.860280136
 20
136.9181743434
 30
0.0
 10
197.2740591856
 20
135.6797952231
 30
0.0
 10
197.371536201
 20
134.8147250471
 30
0.0
 10
197.371536201
 20
134.3846792203
 30
0.0
  0
SPLINE
  5
585
100
AcDbEntity
  8
BEZUGSACHSEN
100
AcDbSpline
 62
7
  6
CONTINUOUS
 70
0
 71
3
 72
15
 73
11
 74
0
 42
0.0000001
 43
0.0000001
 44
0.0000000001
 40
0.0
 40
0.0
 40
0.0
 40
0.0
 40
0.1221400304
 40
0.2468628212
 40
0.3741257681
 40
0.5026200336
 40
0.6304650437
 40
0.7560840116
 40
0.8789631964
 40
1.0
 40
1.0
 40
1.0
 40
1.0
 10
146.591377169
 20
132.4044010109
 30
0.0
 10
146.5031687439
 20
132.7349784153
 30
0.0
 10
146.1917997758
 20
133.3742372238
 30
0.0
 10
145.406092298
 20
134.1005673263
 30
0.0
 10
144.4023122209
 20
134.5187515965
 30
0.0
 10
143.3086854929
 20
134.5780681478
 30
0.0
 10
142.2614846099
 20
134.2720664184
 30
0.0
 10
141.3926561831
 20
133.6359202321
 30
0.0
 10
140.8165515605
 20
132.7480288558
 30
0.0
 10
140.681456685
 20
132.0578243119
 30
0.0
 10
140.681456685
 20
131.7187712552
 30
0.0
  0
SPLINE
  5
586
100
AcDbEntity
  8
BEZUGSACHSEN
100
AcDbSpline
 62
7
  6
CONTINUOUS
 70
0
 71
3
 72
9
 73
5
 74
0
 42
0.0000001
 43
0.0000001
 44
0.0000000001
 40
0.0
 40
0.0
 40
0.0
 40
0.0
 40
0.5009441899
 40
1.0
 40
1.0
 40
1.0
 40
1.0
 10
145.8619716302
 20
127.5880704327
 30
0.0
 10
146.0611234909
 20
128.134770203
 30
0.0
 10
146.3927109693
 20
129.2520407604
 30
0.0
 10
146.5502052598
 20
130.4089285159
 30
0.0
 10
146.5788715193
 20
130.9878696133
 30
0.0
  0
SPLINE
  5
587
100
AcDbEntity
  8
KONSTRUKTIONSELEMENTE
100
AcDbSpline
 62
7
  6
CONTINUOUS
 70
0
 71
3
 72
16
 73
12
 74
0
 42
0.0000001
 43
0.0000001
 44
0.0000000001
 40
0.0
 40
0.0
 40
0.0
 40
0.0
 40
0.0601856204
 40
0.1206800826
 40
0.1816482484
 40
0.2431025632
 40
0.3671117297
 40
0.4924047464
 40
0.6185683639
 40
0.7453509862
 40
1.0
 40
1.0
 40
1.0
 40
1.0
 10
146.591377169
 20
134.3846792203
 30
0.0
 10
146.591377169
 20
134.8147274874
 30
0.0
 10
146.6888544874
 20
135.6798012749
 30
0.0
 10
147.1026381513
 20
136.9181847307
 30
0.0
 10
147.7307232192
 20
138.0707764205
 30
0.0
 10
148.7864466082
 20
139.4855566848
 30
0.0
 10
150.4049488901
 20
141.0270592675
 30
0.0
 10
152.6086449491
 20
142.5680895493
 30
0.0
 10
154.9888537198
 20
143.8588862945
 30
0.0
 10
158.3264572766
 20
145.2870616667
 30
0.0
 10
160.9548470538
 20
146.0557995465
 30
0.0
 10
162.731456685
 20
146.4488110013
 30
0.0
  0
SPLINE
  5
588
100
AcDbEntity
  8
RUNDUNGEN
100
AcDbSpline
 62
7
  6
CONTINUOUS
 70
0
 71
3
 72
13
 73
9
 74
0
 42
0.0000001
 43
0.0000001
 44
0.0000000001
 40
0.0
 40
0.0
 40
0.0
 40
0.0
 40
0.0948151861
 40
0.1947066484
 40
0.303595302
 40
0.423673588
 40
0.6966143757
 40
1.0
 40
1.0
 40
1.0
 40
1.0
 10
217.481456685
 20
143.0942036683
 30
0.0
 10
217.481456685
 20
143.4019865142
 30
0.0
 10
217.3831519907
 20
144.0376516303
 30
0.0
 10
216.9542076955
 20
144.9377604229
 30
0.0
 10
216.2636235671
 20
145.764438346
 30
0.0
 10
214.9720855382
 20
146.7734999121
 30
0.0
 10
212.8448528622
 20
147.6503039157
 30
0.0
 10
210.9662872243
 20
147.8814843327
 30
0.0
 10
209.981456685
 20
147.8814843327
 30
0.0
  0
SPLINE
  5
589
100
AcDbEntity
  8
RUNDUNGEN
100
AcDbSpline
 62
7
  6
CONTINUOUS
 70
0
 71
3
 72
13
 73
9
 74
0
 42
0.0000001
 43
0.0000001
 44
0.0000000001
 40
0.0
 40
0.0
 40
0.0
 40
0.0
 40
0.0948151861
 40
0.1947066484
 40
0.303595302
 40
0.423673588
 40
0.6966143757
 40
1.0
 40
1.0
 40
1.0
 40
1.0
 10
217.481456685
 20
148.5942036683
 30
0.0
 10
217.481456685
 20
148.9019865142
 30
0.0
 10
217.3831519907
 20
149.5376516303
 30
0.0
 10
216.9542076955
 20
150.4377604229
 30
0.0
 10
216.2636235671
 20
151.264438346
 30
0.0
 10
214.9720855382
 20
152.2734999121
 30
0.0
 10
212.8448528622
 20
153.1503039157
 30
0.0
 10
210.9662872243
 20
153.3814843327
 30
0.0
 10
209.981456685
 20
153.3814843327
 30
0.0
  0
SPLINE
  5
58A
100
AcDbEntity
  8
RUNDUNGEN
100
AcDbSpline
 62
7
  6
CONTINUOUS
 70
0
 71
3
 72
13
 73
9
 74
0
 42
0.0000001
 43
0.0000001
 44
0.0000000001
 40
0.0
 40
0.0
 40
0.0
 40
0.0
 40
0.0948151861
 40
0.1947066484
 40
0.303595302
 40
0.423673588
 40
0.6966143757
 40
1.0
 40
1.0
 40
1.0
 40
1.0
 10
126.481456685
 20
148.5942036683
 30
0.0
 10
126.481456685
 20
148.9019865142
 30
0.0
 10
126.5797613793
 20
149.5376516303
 30
0.0
 10
127.0087056745
 20
150.4377604229
 30
0.0
 10
127.6992898029
 20
151.264438346
 30
0.0
 10
128.9908278317
 20
152.2734999121
 30
0.0
 10
131.1180605078
 20
153.1503039157
 30
0.0
 10
132.9966261456
 20
153.3814843327
 30
0.0
 10
133.981456685
 20
153.3814843327
 30
0.0
  0
SPLINE
  5
58B
100
AcDbEntity
  8
RUNDUNGEN
100
AcDbSpline
 62
7
  6
CONTINUOUS
 70
0
 71
3
 72
13
 73
9
 74
0
 42
0.0000001
 43
0.0000001
 44
0.0000000001
 40
0.0
 40
0.0
 40
0.0
 40
0.0
 40
0.0948151861
 40
0.1947066484
 40
0.303595302
 40
0.423673588
 40
0.6966143757
 40
1.0
 40
1.0
 40
1.0
 40
1.0
 10
126.481456685
 20
143.0942036683
 30
0.0
 10
126.481456685
 20
143.4019865142
 30
0.0
 10
126.5797613793
 20
144.0376516303
 30
0.0
 10
127.0087056745
 20
144.9377604229
 30
0.0
 10
127.6992898029
 20
145.764438346
 30
0.0
 10
128.9908278317
 20
146.7734999121
 30
0.0
 10
131.1180605078
 20
147.6503039157
 30
0.0
 10
132.9966261456
 20
147.8814843327
 30
0.0
 10
133.981456685
 20
147.8814843327
 30
0.0
  0
SPLINE
  5
58C
100
AcDbEntity
  8
KONSTRUKTIONSELEMENTE
100
AcDbSpline
 62
7
  6
CONTINUOUS
 70
0
 71
3
 72
16
 73
12
 74
0
 42
0.0000001
 43
0.0000001
 44
0.0000000001
 40
0.0
 40
0.0
 40
0.0
 40
0.0
 40
0.1478896057
 40
0.2999141705
 40
0.4509585282
 40
0.5953786509
 40
0.7274358505
 40
0.84173199
 40
0.9336624322
 40
0.9701672213
 40
1.0
 40
1.0
 40
1.0
 40
1.0
 10
145.8619716302
 20
127.5880704327
 30
0.0
 10
145.3677257105
 20
126.2312961112
 30
0.0
 10
144.4634199945
 20
123.4436075612
 30
0.0
 10
143.3396231427
 20
119.1845459507
 30
0.0
 10
142.4228973536
 20
114.911025038
 30
0.0
 10
141.7177382707
 20
110.795620875
 30
0.0
 10
141.2254478016
 20
107.010682997
 30
0.0
 10
140.9475788982
 20
103.7186019188
 30
0.0
 10
140.88234855
 20
101.3464136673
 30
0.0
 10
140.9613931956
 20
99.8024777732
 30
0.0
 10
141.0413484053
 20
99.1585002707
 30
0.0
 10
141.0956598596
 20
98.872321323
 30
0.0
  0
SPLINE
  5
58D
100
AcDbEntity
  8
KONSTRUKTIONSELEMENTE
100
AcDbSpline
 62
7
  6
CONTINUOUS
 70
0
 71
3
 72
16
 73
12
 74
0
 42
0.0000001
 43
0.0000001
 44
0.0000000001
 40
0.0
 40
0.0
 40
0.0
 40
0.0
 40
0.0298327787
 40
0.0663375678
 40
0.15826801
 40
0.2725641495
 40
0.4046213491
 40
0.5490414718
 40
0.7000858295
 40
0.8521103943
 40
1.0
 40
1.0
 40
1.0
 40
1.0
 10
202.8672535104
 20
98.872321323
 30
0.0
 10
202.9215649647
 20
99.1585002707
 30
0.0
 10
203.0015201744
 20
99.8024777732
 30
0.0
 10
203.0805648199
 20
101.3464136673
 30
0.0
 10
203.0153344718
 20
103.7186019188
 30
0.0
 10
202.7374655684
 20
107.010682997
 30
0.0
 10
202.2451750993
 20
110.795620875
 30
0.0
 10
201.5400160164
 20
114.911025038
 30
0.0
 10
200.6232902273
 20
119.1845459507
 30
0.0
 10
199.4994933755
 20
123.4436075612
 30
0.0
 10
198.5951876595
 20
126.2312961112
 30
0.0
 10
198.1009417398
 20
127.5880704327
 30
0.0
  0
SPLINE
  5
58E
100
AcDbEntity
  8
0
100
AcDbSpline
 62
7
  6
CONTINUOUS
 70
0
 71
3
 72
13
 73
9
 74
0
 42
0.0000001
 43
0.0000001
 44
0.0000000001
 40
0.0
 40
0.0
 40
0.0
 40
0.0
 40
0.3310519228
 40
0.4655145981
 40
0.582459273
 40
0.6866560907
 40
0.7853430607
 40
1.0
 40
1.0
 40
1.0
 40
1.0
 10
133.8669184378
 20
98.1235718806
 30
0.0
 10
133.8669184378
 20
97.9258615391
 30
0.0
 10
133.8494154419
 20
97.6454423475
 30
0.0
 10
133.7557113829
 20
97.3091166483
 30
0.0
 10
133.6619610549
 20
97.1168036016
 30
0.0
 10
133.5375999512
 20
96.9686380845
 30
0.0
 10
133.3240468546
 20
96.8320145191
 30
0.0
 10
133.1242625935
 20
96.8195026422
 30
0.0
 10
132.9971943086
 20
96.8364775554
 30
0.0
  0
SPLINE
  5
58F
100
AcDbEntity
  8
RUNDUNGEN
100
AcDbSpline
 62
7
  6
CONTINUOUS
 70
0
 71
3
 72
30
 73
26
 74
0
 42
0.0000001
 43
0.0000001
 44
0.0000000001
 40
0.0
 40
0.0
 40
0.0
 40
0.0
 40
0.0748870292
 40
0.1755864099
 40
0.2355658274
 40
0.3018139405
 40
0.3741304032
 40
0.4521950339
 40
0.5354912567
 40
0.6231569148
 40
0.7136626088
 40
0.7591382498
 40
0.804001786
 40
0.8472924747
 40
0.8875386664
 40
0.9226053442
 40
0.9373799176
 40
0.9498983233
 40
0.9599641907
 40
0.9676101272
 40
0.9731490815
 40
0.9774102459
 40
0.9865227834
 40
0.992717191
 40
1.0
 40
1.0
 40
1.0
 40
1.0
 10
133.8669184378
 20
98.8731432267
 30
0.0
 10
133.8669184378
 20
99.3143914541
 30
0.0
 10
133.7237186695
 20
100.3463807996
 30
0.0
 10
133.3705376274
 20
101.6893106149
 30
0.0
 10
132.9546544342
 20
102.9605571814
 30
0.0
 10
132.550252041
 20
104.0585106499
 30
0.0
 10
132.0704386988
 20
105.2415432944
 30
0.0
 10
131.5148179052
 20
106.5015388408
 30
0.0
 10
130.8842137706
 20
107.8266596378
 30
0.0
 10
130.181762489
 20
109.1980550212
 30
0.0
 10
129.5443370956
 20
110.3517318167
 30
0.0
 10
129.0027733792
 20
111.2694985826
 30
0.0
 10
128.5876916209
 20
111.9386575173
 30
0.0
 10
128.1716595311
 20
112.5707233567
 30
0.0
 10
127.7668241221
 20
113.1405100001
 30
0.0
 10
127.4380112051
 20
113.5578427677
 30
0.0
 10
127.1912769402
 20
113.8303462483
 30
0.0
 10
127.0336006484
 20
113.9841842932
 30
0.0
 10
126.8948715507
 20
114.0966367818
 30
0.0
 10
126.7766003508
 20
114.1668098316
 30
0.0
 10
126.6762119865
 20
114.1972732171
 30
0.0
 10
126.5600681136
 20
114.1734202205
 30
0.0
 10
126.5039739443
 20
114.0534729091
 30
0.0
 10
126.4846271208
 20
113.924551112
 30
0.0
 10
126.481456685
 20
113.8443871611
 30
0.0
 10
126.481456685
 20
113.8014755032
 30
0.0
  0
SPLINE
  5
590
100
AcDbEntity
  8
0
100
AcDbSpline
 62
7
  6
CONTINUOUS
 70
0
 71
3
 72
8
 73
4
 74
0
 42
0.0000001
 43
0.0000001
 44
0.0000000001
 40
0.0
 40
0.0
 40
0.0
 40
0.0
 40
1.0
 40
1.0
 40
1.0
 40
1.0
 10
202.8672535104
 20
98.872321323
 30
0.0
 10
202.8206668014
 20
98.6268457506
 30
0.0
 10
202.8206668014
 20
98.3682255493
 30
0.0
 10
202.8672535104
 20
98.1227499769
 30
0.0
  0
SPLINE
  5
591
100
AcDbEntity
  8
0
100
AcDbSpline
 62
7
  6
CONTINUOUS
 70
0
 71
3
 72
8
 73
4
 74
0
 42
0.0000001
 43
0.0000001
 44
0.0000000001
 40
0.0
 40
0.0
 40
0.0
 40
0.0
 40
1.0
 40
1.0
 40
1.0
 40
1.0
 10
141.0956598596
 20
98.1227499769
 30
0.0
 10
141.1422465685
 20
98.3682255493
 30
0.0
 10
141.1422465685
 20
98.6268457506
 30
0.0
 10
141.0956598596
 20
98.872321323
 30
0.0
  0
SPLINE
  5
592
100
AcDbEntity
  8
0
100
AcDbSpline
 62
7
  6
CONTINUOUS
 70
0
 71
3
 72
13
 73
9
 74
0
 42
0.0000001
 43
0.0000001
 44
0.0000000001
 40
0.0
 40
0.0
 40
0.0
 40
0.0
 40
0.2149486937
 40
0.3136162005
 40
0.4177405387
 40
0.5346055747
 40
0.6690049431
 40
1.0
 40
1.0
 40
1.0
 40
1.0
 10
210.968755785
 20
96.8368866937
 30
0.0
 10
210.8413503015
 20
96.8194795436
 30
0.0
 10
210.641019554
 20
96.8312810849
 30
0.0
 10
210.4265192301
 20
96.9674857757
 30
0.0
 10
210.3016946869
 20
97.1155835287
 30
0.0
 10
210.2076013335
 20
97.3079980424
 30
0.0
 10
210.1135439293
 20
97.6447244548
 30
0.0
 10
210.0959949322
 20
97.925560123
 30
0.0
 10
210.0959949322
 20
98.1235718806
 30
0.0
  0
SPLINE
  5
593
100
AcDbEntity
  8
BEZUGSACHSEN
100
AcDbSpline
 62
7
  6
CONTINUOUS
 70
0
 71
3
 72
9
 73
5
 74
0
 42
0.0000001
 43
0.0000001
 44
0.0000000001
 40
0.0
 40
0.0
 40
0.0
 40
0.0
 40
0.2536499174
 40
1.0
 40
1.0
 40
1.0
 40
1.0
 10
146.591377169
 20
132.4044010109
 30
0.0
 10
146.6061793981
 20
132.3464413016
 30
0.0
 10
146.6577718409
 20
132.1162873355
 30
0.0
 10
146.681456685
 20
131.87969512
 30
0.0
 10
146.681456685
 20
131.7036782237
 30
0.0
  0
SPLINE
  5
594
100
AcDbEntity
  8
KONSTRUKTIONSELEMENTE
100
AcDbSpline
 62
7
  6
CONTINUOUS
 70
0
 71
3
 72
15
 73
11
 74
0
 42
0.0000001
 43
0.0000001
 44
0.0000000001
 40
0.0
 40
0.0
 40
0.0
 40
0.0
 40
0.1216419959
 40
0.2456040819
 40
0.3720295791
 40
0.5
 40
0.6279704209
 40
0.7543959181
 40
0.8783580041
 40
1.0
 40
1.0
 40
1.0
 40
1.0
 10
180.9888013475
 20
153.3814843327
 30
0.0
 10
180.7531359844
 20
154.3291706776
 30
0.0
 10
179.9257573177
 20
156.1716876373
 30
0.0
 10
177.8136630149
 20
158.3596975269
 30
0.0
 10
175.0639308228
 20
159.7720256339
 30
0.0
 10
171.981456685
 20
160.2585516002
 30
0.0
 10
168.8989825472
 20
159.7720256339
 30
0.0
 10
166.1492503551
 20
158.3596975269
 30
0.0
 10
164.0371560523
 20
156.1716876373
 30
0.0
 10
163.2097773856
 20
154.3291706776
 30
0.0
 10
162.9741120225
 20
153.3814843327
 30
0.0
  0
SPLINE
  5
595
100
AcDbEntity
  8
0
100
AcDbSpline
 62
7
  6
CONTINUOUS
 70
0
 71
3
 72
13
 73
9
 74
0
 42
0.0000001
 43
0.0000001
 44
0.0000000001
 40
0.0
 40
0.0
 40
0.0
 40
0.0
 40
0.4347152983
 40
0.7466710511
 40
0.8556742514
 40
0.9333295552
 40
0.9801476897
 40
1.0
 40
1.0
 40
1.0
 40
1.0
 10
202.8672535104
 20
98.1227499769
 30
0.0
 10
202.9043289979
 20
97.9273911132
 30
0.0
 10
202.965817125
 20
97.5919251203
 30
0.0
 10
203.0248214441
 20
97.2034463522
 30
0.0
 10
203.0510007859
 20
96.9787433321
 30
0.0
 10
203.0540585557
 20
96.8685749865
 30
0.0
 10
203.0561220386
 20
96.8087254561
 30
0.0
 10
203.0401585084
 20
96.7715878567
 30
0.0
 10
203.0310779251
 20
96.7716461451
 30
0.0
  0
ELLIPSE
  5
596
100
AcDbEntity
  8
0
100
AcDbEllipse
 62
7
  6
CONTINUOUS
 10
703.9427087385
 20
154.6701392009
 30
0.0
 11
-4.440706401
 21
9.0144242286
 31
0.0
 40
0.418407714
 41
-1.6164095607
 42
-0.1918339244
  0
ELLIPSE
  5
597
100
AcDbEntity
  8
RUNDUNGEN
100
AcDbEllipse
 62
7
  6
CONTINUOUS
 10
723.1633896602
 20
161.6658949387
 30
0.0
 11
-2.3925817405
 21
9.7598806411
 31
0.0
 40
0.418407714
 41
0.1918339244
 42
1.6164095607
  0
ELLIPSE
  5
598
100
AcDbEntity
  8
0
100
AcDbEllipse
 62
7
  6
CONTINUOUS
 10
623.2935078091
 20
154.6701392009
 30
0.0
 11
4.440706401
 21
9.0144242286
 31
0.0
 40
0.418407714
 41
0.1918339244
 42
1.6164095607
  0
ELLIPSE
  5
599
100
AcDbEntity
  8
RUNDUNGEN
100
AcDbEllipse
 62
7
  6
CONTINUOUS
 10
604.0728268874
 20
161.6658949387
 30
0.0
 11
2.3925817405
 21
9.7598806411
 31
0.0
 40
0.418407714
 41
-1.6164095607
 42
-0.1918339244
  0
ELLIPSE
  5
59A
100
AcDbEntity
  8
0
100
AcDbEllipse
 62
7
  6
CONTINUOUS
 10
171.981456685
 20
138.5868093907
 30
0.0
 11
0.0
 21
10.9073937561
 31
0.0
 40
0.8480485996
 41
-1.5707963268
 42
-1.3412379954
  0
ELLIPSE
  5
59B
100
AcDbEntity
  8
0
100
AcDbEllipse
 62
7
  6
CONTINUOUS
 10
171.981456685
 20
138.5868093907
 30
0.0
 11
0.0
 21
10.9073937561
 31
0.0
 40
0.8480485996
 41
1.3412379954
 42
1.5707963268
  0
ELLIPSE
  5
59C
100
AcDbEntity
  8
KONSTRUKTIONSELEMENTE
100
AcDbEllipse
 62
7
  6
CONTINUOUS
 10
171.981456685
 20
151.9076776774
 30
0.0
 11
9.25
 21
0.0
 31
0.0
 40
0.7002075382
 41
2.9120343222
 42
3.1415926536
  0
ELLIPSE
  5
59D
100
AcDbEntity
  8
KONSTRUKTIONSELEMENTE
100
AcDbEllipse
 62
7
  6
CONTINUOUS
 10
171.981456685
 20
151.9076776774
 30
0.0
 11
9.25
 21
0.0
 31
0.0
 40
0.7002075382
 41
0.0
 42
0.2295583314
  0
ENDSEC
  0
SECTION
  2
OBJECTS
  0
DICTIONARY
  5
C
100
AcDbDictionary
280
0
281
1
  3
ACAD_GROUP
350
D
  3
ACAD_MLINESTYLE
350
17
  3
ACAD_LAYOUT
350
1A
  3
ACAD_PLOTSETTINGS
350
19
  3
ACAD_PLOTSTYLENAME
350
E
  0
DICTIONARY
  5
D
102
{ACAD_REACTORS
330
C
102
}
100
AcDbDictionary
280
0
281
1
  0
ACDBDICTIONARYWDFLT
  5
E
102
{ACAD_REACTORS
330
C
102
}
100
AcDbDictionary
281
1
  3
Normal
350
F
100
AcDbDictionaryWithDefault
340
F
  0
DICTIONARY
  5
17
102
{ACAD_REACTORS
330
C
102
}
100
AcDbDictionary
280
0
281
1
  3
Standard
350
18
  0
DICTIONARY
  5
19
102
{ACAD_REACTORS
330
C
102
}
100
AcDbDictionary
281
1
  0
DICTIONARY
  5
1A
102
{ACAD_REACTORS
330
C
102
}
100
AcDbDictionary
281
1
  3
Model
350
59E
  3
Layout1
350
59F
  0
ACDBPLACEHOLDER
  5
F
102
{ACAD_REACTORS
330
E
102
}
  0
MLINESTYLE
  5
18
102
{ACAD_REACTORS
330
17
102
}
100
AcDbMlineStyle
  2
STANDARD
 70
0
  3

 62
256
 51
90.0
 52
90.0
 71
2
 49
0.5
 62
256
  6
BYLAYER
 49
-0.5
 62
256
  6
BYLAYER
  0
LAYOUT
  5
59E
102
{ACAD_REACTORS
330
1A
102
}
100
AcDbPlotSettings
  1

  2
none_device
  4
ISO_A1_(594.00_x_841.00_MM)
  6

 40
0.0
 41
0.0
 42
0.0
 43
0.0
 44
841.0
 45
594.0
 46
0.0
 47
0.0
 48
0.0
 49
0.0
140
0.0
141
0.0
142
1.0
143
1.0
 70
1024
 72
1
 73
0
 74
0
  7

 75
0
147
1.0
148
0.0
149
0.0
100
AcDbLayout
  1
Model
 70
0
 71
0
 10
0.0
 20
0.0
 11
841.0
 21
594.0
 12
0.0
 22
0.0
 32
0.0
 14
0.0
 24
0.0
 34
0.0
 15
0.0
 25
0.0
 35
0.0
146
0.0
 13
0.0
 23
0.0
 33
0.0
 16
1.0
 26
0.0
 36
0.0
 17
0.0
 27
1.0
 37
0.0
 76
0
330
20A
345
0
346
0
  0
LAYOUT
  5
59F
102
{ACAD_REACTORS
330
1A
102
}
100
AcDbPlotSettings
  1

  2
none_device
  4
ISO_A1_(594.00_x_841.00_MM)
  6

 40
0.0
 41
0.0
 42
0.0
 43
0.0
 44
841.0
 45
594.0
 46
0.0
 47
0.0
 48
0.0
 49
0.0
140
0.0
141
0.0
142
1.0
143
1.0
 70
0
 72
1
 73
0
 74
0
  7

 75
0
147
1.0
148
0.0
149
0.0
100
AcDbLayout
  1
Layout1
 70
0
 71
1
 10
0.0
 20
0.0
 11
841.0
 21
594.0
 12
0.0
 22
0.0
 32
0.0
 14
0.0
 24
0.0
 34
0.0
 15
0.0
 25
0.0
 35
0.0
146
0.0
 13
0.0
 23
0.0
 33
0.0
 16
1.0
 26
0.0
 36
0.0
 17
0.0
 27
1.0
 37
0.0
 76
0
330
20B
345
0
346
0
  0
ENDSEC
  0
EOF
