999
DXF file: IAK-RG-2-10_7903053_M34547-P-3.dxf
999
Pro/ENGINEER 2010140 by Parametric Technology Corporation
  0
SECTION
  2
HEADER
  9
$ACADVER
  1
AC1015
  9
$DWGCODEPAGE
  3
ANSI_1252
  9
$EXTMAX
 10
594.0
 20
420.0
 30
0.0
  9
$EXTMIN
 10
0.0
 20
0.0
 30
0.0
  9
$LIMMIN
 10
0.0
 20
0.0
  9
$LIMMAX
 10
594.0
 20
420.0
  9
$VIEWCTR
 10
297.0
 20
210.0
  9
$VIEWSIZE
 40
420.0
  9
$CLAYER
  8
0
  9
$LTSCALE
 40
32.67
  9
$CELTYPE
  6
BYLAYER
  9
$DIMSCALE
 40
1.0
  9
$DIMASZ
 40
3.5
  9
$DIMEXO
 40
3.7125
  9
$DIMDLI
 40
22.572
  9
$DIMEXE
 40
10.692
  9
$DIMCEN
 40
5.346
  9
$DIMLFAC
 40
1.0
  9
$DIMBLK
  1
_FILLED
  9
$DIMTXT
 40
3.5
  9
$DIMTOL
 70
1
  9
$DIMLIM
 70
0
  9
$DIMTFAC
 40
1.0
  9
$DIMTP
 40
0.005
  9
$DIMTM
 40
0.005
  9
$PDMODE
 70
3
  9
$PDSIZE
 40
0.3125
  9
$HANDSEED
  5
59E
  9
$TILEMODE
 70
1
  9
$MEASUREMENT
 70
1
  9
$INSUNITS
 70
4
  0
ENDSEC
  0
SECTION
  2
CLASSES
  0
CLASS
  1
ACDBDICTIONARYWDFLT
  2
AcDbDictionaryWithDefault
  3
AutoCAD 2000
 90
0
280
0
281
0
  0
CLASS
  1
ACDBPLACEHOLDER
  2
AcDbPlaceHolder
  3
AutoCAD 2000
 90
0
280
0
281
0
  0
CLASS
  1
LAYOUT
  2
AcDbLayout
  3
AutoCAD 2000
 90
0
280
0
281
0
  0
ENDSEC
  0
SECTION
  2
TABLES
  0
TABLE
  2
VPORT
  5
8
100
AcDbSymbolTable
 70
2
  0
VPORT
  5
1F4
100
AcDbSymbolTableRecord
100
AcDbViewportTableRecord
  2
*ACTIVE
 70
0
 10
0.0
 20
0.0
 11
1.0
 21
1.0
 12
297.0
 22
210.0
 13
0.0
 23
0.0
 14
1.0
 24
1.0
 15
0.0
 25
0.0
 16
0.0
 26
0.0
 36
1.0
 17
0.0
 27
0.0
 37
0.0
 40
420.0
 41
1.4142857143
 42
50.0
 43
0.0
 44
0.0
 50
0.0
 51
0.0
 71
0
 72
100
 73
1
 74
1
 75
0
 76
0
 77
0
 78
0
  0
ENDTAB
  0
TABLE
  2
LTYPE
  5
5
100
AcDbSymbolTable
 70
6
  0
LTYPE
  5
14
100
AcDbSymbolTableRecord
100
AcDbLinetypeTableRecord
  2
BYBLOCK
 70
0
  3

 72
65
 73
0
 40
0.0
  0
LTYPE
  5
15
100
AcDbSymbolTableRecord
100
AcDbLinetypeTableRecord
  2
BYLAYER
 70
0
  3

 72
65
 73
0
 40
0.0
  0
LTYPE
  5
16
100
AcDbSymbolTableRecord
100
AcDbLinetypeTableRecord
  2
CONTINUOUS
 70
64
  3
Solid line
 72
65
 73
0
 40
0.0
  0
LTYPE
  5
1F5
100
AcDbSymbolTableRecord
100
AcDbLinetypeTableRecord
  2
CENTER
 70
64
  3
____ _ ____ _ ____ _ ____ _ ____ _ ____ _ ____
 72
65
 73
4
 40
0.6
 49
0.375
 74
0
 49
-0.075
 74
0
 49
0.075
 74
0
 49
-0.075
 74
0
  0
LTYPE
  5
1F6
100
AcDbSymbolTableRecord
100
AcDbLinetypeTableRecord
  2
HIDDEN
 70
64
  3
- - - - - - - - - - - - - - - - - - - -
 72
65
 73
2
 40
0.2
 49
0.1
 74
0
 49
-0.1
 74
0
  0
LTYPE
  5
1F7
100
AcDbSymbolTableRecord
100
AcDbLinetypeTableRecord
  2
PHANTOM
 70
64
  3
_____ _ _ _____ _ _ _____ _ _ _____
 72
65
 73
6
 40
0.8
 49
0.45
 74
0
 49
-0.05
 74
0
 49
0.1
 74
0
 49
-0.05
 74
0
 49
0.1
 74
0
 49
-0.05
 74
0
  0
LTYPE
  5
1F8
100
AcDbSymbolTableRecord
100
AcDbLinetypeTableRecord
  2
DOT
 70
64
  3
. . . . . . . . . . . . . . . . . . . .
 72
65
 73
2
 40
0.2
 49
0.1
 74
0
 49
-0.1
 74
0
  0
LTYPE
  5
1F9
100
AcDbSymbolTableRecord
100
AcDbLinetypeTableRecord
  2
DASHED
 70
64
  3
- - - - - - - - - - - - - - - - - - - -
 72
65
 73
2
 40
0.2
 49
0.1
 74
0
 49
-0.1
 74
0
  0
ENDTAB
  0
TABLE
  2
LAYER
  5
2
100
AcDbSymbolTable
 70
36
  0
LAYER
  5
10
100
AcDbSymbolTableRecord
100
AcDbLayerTableRecord
  2
0
 70
0
 62
7
  6
CONTINUOUS
370
-3
390
F
  0
LAYER
  5
1FA
100
AcDbSymbolTableRecord
100
AcDbLayerTableRecord
  2
DEFAULT_1
 70
0
 62
7
  6
CENTER
370
-3
390
F
  0
LAYER
  5
1FB
100
AcDbSymbolTableRecord
100
AcDbLayerTableRecord
  2
DEFAULT_2
 70
0
 62
8
  6
HIDDEN
370
-3
390
F
  0
LAYER
  5
1FC
100
AcDbSymbolTableRecord
100
AcDbLayerTableRecord
  2
DEFAULT_3
 70
0
 62
7
  6
PHANTOM
370
-3
390
F
  0
LAYER
  5
1FD
100
AcDbSymbolTableRecord
100
AcDbLayerTableRecord
  2
BEZUGSACHSEN
 70
0
 62
7
  6
CONTINUOUS
370
-3
390
F
  0
LAYER
  5
1FE
100
AcDbSymbolTableRecord
100
AcDbLayerTableRecord
  2
BEZUGSEBENEN
 70
0
 62
7
  6
CONTINUOUS
370
-3
390
F
  0
LAYER
  5
1FF
100
AcDbSymbolTableRecord
100
AcDbLayerTableRecord
  2
BG_STARTBEZUEGE
 70
0
 62
7
  6
CONTINUOUS
370
-3
390
F
  0
LAYER
  5
200
100
AcDbSymbolTableRecord
100
AcDbLayerTableRecord
  2
FASEN
 70
0
 62
7
  6
CONTINUOUS
370
-3
390
F
  0
LAYER
  5
201
100
AcDbSymbolTableRecord
100
AcDbLayerTableRecord
  2
HILFEN
 70
0
 62
7
  6
CONTINUOUS
370
-3
390
F
  0
LAYER
  5
202
100
AcDbSymbolTableRecord
100
AcDbLayerTableRecord
  2
KONSTRUKTIONSELEMENTE
 70
0
 62
7
  6
CONTINUOUS
370
-3
390
F
  0
LAYER
  5
203
100
AcDbSymbolTableRecord
100
AcDbLayerTableRecord
  2
NORM
 70
0
 62
7
  6
CONTINUOUS
370
-3
390
F
  0
LAYER
  5
204
100
AcDbSymbolTableRecord
100
AcDbLayerTableRecord
  2
PLATZIERUNG
 70
0
 62
7
  6
CONTINUOUS
370
-3
390
F
  0
LAYER
  5
205
100
AcDbSymbolTableRecord
100
AcDbLayerTableRecord
  2
RUNDUNGEN
 70
0
 62
7
  6
CONTINUOUS
370
-3
390
F
  0
LAYER
  5
206
100
AcDbSymbolTableRecord
100
AcDbLayerTableRecord
  2
TEIL_STARTBEZUEGE
 70
0
 62
7
  6
CONTINUOUS
370
-3
390
F
  0
LAYER
  5
207
100
AcDbSymbolTableRecord
100
AcDbLayerTableRecord
  2
T_STARTBEZUEGE
 70
0
 62
7
  6
CONTINUOUS
370
-3
390
F
  0
ENDTAB
  0
TABLE
  2
STYLE
  5
3
100
AcDbSymbolTable
 70
1
  0
STYLE
  5
11
100
AcDbSymbolTableRecord
100
AcDbTextStyleTableRecord
  2
STANDARD
 70
0
 40
0.0
 41
0.7
 50
0.0
 71
0
 42
0.2
  3
txt
  4

  0
STYLE
  5
208
100
AcDbSymbolTableRecord
100
AcDbTextStyleTableRecord
  2
TEXTSTYLE_1
 70
0
 40
0.0
 41
0.8
 50
0.0
 71
0
 42
0.2
  3
gdt
  4

  0
ENDTAB
  0
TABLE
  2
VIEW
  5
6
100
AcDbSymbolTable
 70
0
  0
ENDTAB
  0
TABLE
  2
UCS
  5
7
100
AcDbSymbolTable
 70
0
  0
ENDTAB
  0
TABLE
  2
APPID
  5
9
100
AcDbSymbolTable
 70
1
  0
APPID
  5
209
100
AcDbSymbolTableRecord
100
AcDbRegAppTableRecord
  2
ACAD
 70
0
  0
ENDTAB
  0
TABLE
  2
BLOCK_RECORD
  5
1
100
AcDbSymbolTable
 70
0
  0
BLOCK_RECORD
  5
20A
100
AcDbSymbolTableRecord
100
AcDbBlockTableRecord
  2
*Model_Space
  0
BLOCK_RECORD
  5
20B
100
AcDbSymbolTableRecord
100
AcDbBlockTableRecord
  2
*Paper_Space
  0
ENDTAB
  0
TABLE
  2
DIMSTYLE
  5
A
100
AcDbSymbolTable
 70
1
100
AcDbDimStyleTable
 71
0
  0
DIMSTYLE
105
20C
100
AcDbSymbolTableRecord
100
AcDbDimStyleTableRecord
  2
STANDARD
 70
0
  3

  4

 40
1.0
 41
3.5
 42
0.0625
 43
0.38
 44
0.18
 45
0.0
 46
0.0
 47
0.005
 48
0.005
140
3.5
141
0.09
142
0.0
143
25.4
144
1.0
145
0.0
146
1.0
147
0.09
 71
1.0
 72
0.0
 73
0
 74
0
 75
0
 76
0
 77
1
 78
8
170
0
171
2
172
0
173
0
174
0
175
0
176
0
177
0
178
5
270
2
271
3
272
3
273
2
274
2
275
0
280
0
281
0
282
0
283
1
284
8
285
0
286
0
287
3
288
0
340
11
  0
ENDTAB
  0
ENDSEC
  0
SECTION
  2
BLOCKS
  0
BLOCK
  5
20
100
AcDbEntity
  8
0
100
AcDbBlockBegin
  2
*Model_Space
 70
0
 10
0.0
 20
0.0
 30
0.0
  3
*Model_Space
  1

  0
ENDBLK
  5
21
100
AcDbEntity
  8
0
100
AcDbBlockEnd
  0
BLOCK
  5
1C
100
AcDbEntity
  8
0
100
AcDbBlockBegin
  2
*Paper_Space
 70
0
 10
0.0
 20
0.0
 30
0.0
  3
*Paper_Space
  1

  0
ENDBLK
  5
1D
100
AcDbEntity
  8
0
100
AcDbBlockEnd
  0
ENDSEC
  0
SECTION
  2
ENTITIES
  0
MTEXT
  5
20D
100
AcDbEntity
  8
0
100
AcDbMText
 62
5
  6
CONTINUOUS
  7
STANDARD
 71
1
 72
1
 10
409.1375919118
 20
258.8563287815
 30
0.0
 11
0.0
 21
1.0
 31
0.0
 44
0.9
  1
RUD
 40
8.0
 41
21.3333333333
  0
MTEXT
  5
20E
100
AcDbEntity
  8
0
100
AcDbMText
 62
5
  6
CONTINUOUS
  7
STANDARD
 71
1
 72
1
 10
535.2346822479
 20
238.640362395
 30
0.0
 11
0.0
 21
1.0
 31
0.0
 44
0.9
  1
IAK-RG 2-10
 40
8.0
 41
67.2380952381
  0
MTEXT
  5
20F
100
AcDbEntity
  8
0
100
AcDbMText
 62
5
  6
CONTINUOUS
  7
STANDARD
 71
1
 72
1
 10
116.8484112395
 20
225.584217437
 30
0.0
 11
0.0
 21
1.0
 31
0.0
 44
0.9
  1
RUD IAK-RG 2-10
 40
8.0
 41
93.3333333333
  0
LINE
  5
210
100
AcDbEntity
  8
0
100
AcDbLine
 62
7
  6
CONTINUOUS
 10
0.0
 20
0.0
 11
0.0
 21
420.0
  0
LINE
  5
211
100
AcDbEntity
  8
0
100
AcDbLine
 62
7
  6
CONTINUOUS
 10
0.0
 20
0.0
 11
594.0
 21
0.0
  0
LINE
  5
212
100
AcDbEntity
  8
0
100
AcDbLine
 62
7
  6
CONTINUOUS
 10
0.0
 20
420.0
 11
594.0
 21
420.0
  0
LINE
  5
213
100
AcDbEntity
  8
0
100
AcDbLine
 62
7
  6
CONTINUOUS
 10
594.0
 20
0.0
 11
594.0
 21
420.0
  0
LINE
  5
214
100
AcDbEntity
  8
RUNDUNGEN
100
AcDbLine
 62
7
  6
CONTINUOUS
 10
276.019088703
 20
28.4635155509
 11
272.483554797
 21
31.9990494569
  0
LINE
  5
215
100
AcDbEntity
  8
RUNDUNGEN
100
AcDbLine
 62
7
  6
CONTINUOUS
 10
332.139425857
 20
91.6549205168
 11
335.6749597629
 21
88.1193866109
  0
LINE
  5
216
100
AcDbEntity
  8
KONSTRUKTIONSELEMENTE
100
AcDbLine
 62
7
  6
CONTINUOUS
 10
337.3252466318
 20
106.8109469064
 11
340.8607805378
 21
103.2754130005
  0
LINE
  5
217
100
AcDbEntity
  8
RUNDUNGEN
100
AcDbLine
 62
7
  6
CONTINUOUS
 10
345.8536980718
 20
98.2981249198
 11
342.3181641659
 21
101.8336588257
  0
LINE
  5
218
100
AcDbEntity
  8
RUNDUNGEN
100
AcDbLine
 62
7
  6
CONTINUOUS
 10
342.4636720548
 20
101.9791667146
 11
345.9992059607
 21
98.4436328087
  0
LINE
  5
219
100
AcDbEntity
  8
KONSTRUKTIONSELEMENTE
100
AcDbLine
 62
7
  6
CONTINUOUS
 10
337.6788000224
 20
107.164500297
 11
341.2143339284
 21
103.6289663911
  0
LINE
  5
21A
100
AcDbEntity
  8
0
100
AcDbLine
 62
7
  6
CONTINUOUS
 10
432.0305695366
 20
112.960830902
 11
433.722016254
 21
112.3451946441
  0
LINE
  5
21B
100
AcDbEntity
  8
0
100
AcDbLine
 62
7
  6
CONTINUOUS
 10
428.086553893
 20
122.3752740934
 11
442.7947949569
 21
117.0219121477
  0
LINE
  5
21C
100
AcDbEntity
  8
0
100
AcDbLine
 62
7
  6
CONTINUOUS
 10
439.684877277
 20
138.6667627673
 11
444.381930842
 21
136.9571750809
  0
LINE
  5
21D
100
AcDbEntity
  8
0
100
AcDbLine
 62
7
  6
CONTINUOUS
 10
446.9884303567
 20
144.1184736412
 11
442.2913767917
 21
145.8280613276
  0
LINE
  5
21E
100
AcDbEntity
  8
0
100
AcDbLine
 62
7
  6
CONTINUOUS
 10
451.6863450738
 20
153.4602904565
 11
444.6973694292
 21
156.0040695592
  0
LINE
  5
21F
100
AcDbEntity
  8
KONSTRUKTIONSELEMENTE
100
AcDbLine
 62
7
  6
CONTINUOUS
 10
398.4899832045
 20
167.975683479
 11
402.0255171104
 21
164.4401495731
  0
LINE
  5
220
100
AcDbEntity
  8
KONSTRUKTIONSELEMENTE
100
AcDbLine
 62
7
  6
CONTINUOUS
 10
398.8435365951
 20
168.3292368696
 11
402.379070501
 21
164.7937029637
  0
LINE
  5
221
100
AcDbEntity
  8
0
100
AcDbLine
 62
7
  6
CONTINUOUS
 10
456.9126233468
 20
170.1495702844
 11
451.4214702879
 21
172.1481865496
  0
LINE
  5
222
100
AcDbEntity
  8
0
100
AcDbLine
 62
7
  6
CONTINUOUS
 10
400.4838611694
 20
232.4638219233
 11
400.4838611694
 21
312.4638219233
  0
LINE
  5
223
100
AcDbEntity
  8
0
100
AcDbLine
 62
7
  6
CONTINUOUS
 10
462.8878129126
 20
186.5662686935
 11
457.3966598537
 21
188.5648849587
  0
LINE
  5
224
100
AcDbEntity
  8
0
100
AcDbLine
 62
7
  6
CONTINUOUS
 10
426.4838611694
 20
232.4638219233
 11
426.4838611694
 21
312.4638219233
  0
LINE
  5
225
100
AcDbEntity
  8
0
100
AcDbLine
 62
7
  6
CONTINUOUS
 10
467.2619552597
 20
198.5841260215
 11
461.7708022008
 21
200.5827422867
  0
LINE
  5
226
100
AcDbEntity
  8
0
100
AcDbLine
 62
7
  6
CONTINUOUS
 10
463.3718494196
 20
204.9815833678
 11
468.8630024785
 21
202.9829671026
  0
LINE
  5
227
100
AcDbEntity
  8
KONSTRUKTIONSELEMENTE
100
AcDbLine
 62
7
  6
CONTINUOUS
 10
333.2947379791
 20
102.7804382536
 11
337.3252466318
 21
106.8109469064
  0
LINE
  5
228
100
AcDbEntity
  8
KONSTRUKTIONSELEMENTE
100
AcDbLine
 62
7
  6
CONTINUOUS
 10
337.6788000224
 20
107.164500297
 11
341.7093086752
 21
111.1950089498
  0
LINE
  5
229
100
AcDbEntity
  8
KONSTRUKTIONSELEMENTE
100
AcDbLine
 62
7
  6
CONTINUOUS
 10
394.4594745517
 20
163.9451748263
 11
398.4899832045
 21
167.975683479
  0
LINE
  5
22A
100
AcDbEntity
  8
KONSTRUKTIONSELEMENTE
100
AcDbLine
 62
7
  6
CONTINUOUS
 10
398.8435365951
 20
168.3292368696
 11
402.8740452478
 21
172.3597455224
  0
LINE
  5
22B
100
AcDbEntity
  8
KONSTRUKTIONSELEMENTE
100
AcDbLine
 62
7
  6
CONTINUOUS
 10
374.3069312879
 20
141.6006005408
 11
363.7003295701
 21
130.993998823
  0
LINE
  5
22C
100
AcDbEntity
  8
KONSTRUKTIONSELEMENTE
100
AcDbLine
 62
7
  6
CONTINUOUS
 10
336.830271885
 20
99.2449043477
 11
340.8607805378
 21
103.2754130005
  0
LINE
  5
22D
100
AcDbEntity
  8
KONSTRUKTIONSELEMENTE
100
AcDbLine
 62
7
  6
CONTINUOUS
 10
341.2143339284
 20
103.6289663911
 11
345.2448425811
 21
107.6594750438
  0
LINE
  5
22E
100
AcDbEntity
  8
KONSTRUKTIONSELEMENTE
100
AcDbLine
 62
7
  6
CONTINUOUS
 10
397.9950084576
 20
160.4096409203
 11
402.0255171104
 21
164.4401495731
  0
LINE
  5
22F
100
AcDbEntity
  8
KONSTRUKTIONSELEMENTE
100
AcDbLine
 62
7
  6
CONTINUOUS
 10
402.379070501
 20
164.7937029637
 11
406.4095791538
 21
168.8242116165
  0
LINE
  5
230
100
AcDbEntity
  8
KONSTRUKTIONSELEMENTE
100
AcDbLine
 62
7
  6
CONTINUOUS
 10
441.12852211
 20
202.0582303322
 11
407.8945033943
 21
168.8242116165
  0
LINE
  5
231
100
AcDbEntity
  8
KONSTRUKTIONSELEMENTE
100
AcDbLine
 62
7
  6
CONTINUOUS
 10
377.4889118032
 20
138.4186200254
 11
366.8823100854
 21
127.8120183076
  0
LINE
  5
232
100
AcDbEntity
  8
RUNDUNGEN
100
AcDbLine
 62
7
  6
CONTINUOUS
 10
272.483554797
 20
31.9990494569
 11
342.4635400062
 21
101.979034666
  0
LINE
  5
233
100
AcDbEntity
  8
KONSTRUKTIONSELEMENTE
100
AcDbLine
 62
7
  6
CONTINUOUS
 10
348.143980384
 20
107.3059216532
 11
366.8526653592
 21
126.0146066284
  0
LINE
  5
234
100
AcDbEntity
  8
KONSTRUKTIONSELEMENTE
100
AcDbLine
 62
7
  6
CONTINUOUS
 10
379.2566787562
 20
138.4186200254
 11
397.9653637314
 21
157.1273050006
  0
LINE
  5
235
100
AcDbEntity
  8
KONSTRUKTIONSELEMENTE
100
AcDbLine
 62
7
  6
CONTINUOUS
 10
351.3259608993
 20
104.1239411379
 11
370.0346458745
 21
122.8326261131
  0
LINE
  5
236
100
AcDbEntity
  8
KONSTRUKTIONSELEMENTE
100
AcDbLine
 62
7
  6
CONTINUOUS
 10
382.4386592715
 20
135.2366395101
 11
401.1473442467
 21
153.9453244853
  0
LINE
  5
237
100
AcDbEntity
  8
RUNDUNGEN
100
AcDbLine
 62
7
  6
CONTINUOUS
 10
276.019088703
 20
28.4635155509
 11
345.9990553832
 21
98.4434822312
  0
LINE
  5
238
100
AcDbEntity
  8
KONSTRUKTIONSELEMENTE
100
AcDbLine
 62
7
  6
CONTINUOUS
 10
446.0782695783
 20
197.1084828639
 11
412.890715391
 21
163.9209286766
  0
LINE
  5
239
100
AcDbEntity
  8
KONSTRUKTIONSELEMENTE
100
AcDbLine
 62
7
  6
CONTINUOUS
 10
371.8320575537
 20
122.8622708393
 11
382.4386592715
 21
133.4688725571
  0
LINE
  5
23A
100
AcDbEntity
  8
0
100
AcDbLine
 62
7
  6
CONTINUOUS
 10
489.5958729191
 20
204.9815833678
 11
484.1047198602
 21
202.9829671026
  0
LINE
  5
23B
100
AcDbEntity
  8
RUNDUNGEN
100
AcDbLine
 62
7
  6
CONTINUOUS
 10
525.5423459099
 20
141.2414284283
 11
520.3332436967
 21
145.6123841741
  0
LINE
  5
23C
100
AcDbEntity
  8
0
100
AcDbLine
 62
7
  6
CONTINUOUS
 10
454.24740892
 20
137.7459208776
 11
455.4282165282
 21
131.0492281571
  0
LINE
  5
23D
100
AcDbEntity
  8
RUNDUNGEN
100
AcDbLine
 62
7
  6
CONTINUOUS
 10
439.684877277
 20
138.6667627673
 11
442.8649369924
 21
152.1166434263
  0
LINE
  5
23E
100
AcDbEntity
  8
0
100
AcDbLine
 62
7
  6
CONTINUOUS
 10
442.2913767917
 20
145.8280613276
 11
444.6973694292
 21
156.0040695592
  0
LINE
  5
23F
100
AcDbEntity
  8
RUNDUNGEN
100
AcDbLine
 62
7
  6
CONTINUOUS
 10
423.6631548522
 20
130.9048095996
 11
427.4253764288
 21
141.2414284283
  0
LINE
  5
240
100
AcDbEntity
  8
RUNDUNGEN
100
AcDbLine
 62
7
  6
CONTINUOUS
 10
432.634478642
 20
145.6123841741
 11
436.6056838476
 21
156.5231808047
  0
LINE
  5
241
100
AcDbEntity
  8
BEZUGSACHSEN
100
AcDbLine
 62
7
  6
CONTINUOUS
 10
454.6014741834
 20
195.7328929969
 11
444.8607021906
 21
168.9703418986
  0
LINE
  5
242
100
AcDbEntity
  8
RUNDUNGEN
100
AcDbLine
 62
7
  6
CONTINUOUS
 10
444.8605721087
 20
168.9699845017
 11
441.3952153091
 21
159.4489949443
  0
LINE
  5
243
100
AcDbEntity
  8
KONSTRUKTIONSELEMENTE
100
AcDbLine
 62
7
  6
CONTINUOUS
 10
412.8442508626
 20
162.3895399077
 11
404.4296801664
 21
153.9749692115
  0
LINE
  5
244
100
AcDbEntity
  8
KONSTRUKTIONSELEMENTE
100
AcDbLine
 62
7
  6
CONTINUOUS
 10
351.6795142899
 20
101.224803335
 11
343.2649435938
 21
92.8102326389
  0
LINE
  5
245
100
AcDbEntity
  8
KONSTRUKTIONSELEMENTE
100
AcDbLine
 62
7
  6
CONTINUOUS
 10
375.0140380691
 20
119.680290324
 11
385.6206397869
 21
130.2868920418
  0
LINE
  5
246
100
AcDbEntity
  8
KONSTRUKTIONSELEMENTE
100
AcDbLine
 62
7
  6
CONTINUOUS
 10
416.3797847685
 20
158.8540060017
 11
407.9652140724
 21
150.4394353056
  0
LINE
  5
247
100
AcDbEntity
  8
KONSTRUKTIONSELEMENTE
100
AcDbLine
 62
7
  6
CONTINUOUS
 10
355.2150481959
 20
97.6892694291
 11
346.8004774997
 21
89.274698733
  0
LINE
  5
248
100
AcDbEntity
  8
KONSTRUKTIONSELEMENTE
100
AcDbLine
 62
7
  6
CONTINUOUS
 10
463.3718494196
 20
204.9815833678
 11
456.720997997
 21
198.9010870919
  0
LINE
  5
249
100
AcDbEntity
  8
0
100
AcDbLine
 62
7
  6
CONTINUOUS
 10
485.705767079
 20
198.5841260215
 11
491.1969201379
 21
200.5827422867
  0
LINE
  5
24A
100
AcDbEntity
  8
0
100
AcDbLine
 62
7
  6
CONTINUOUS
 10
490.0799094261
 20
186.5662686935
 11
495.571062485
 21
188.5648849587
  0
LINE
  5
24B
100
AcDbEntity
  8
0
100
AcDbLine
 62
7
  6
CONTINUOUS
 10
454.8883105355
 20
162.8020931481
 11
451.6863450738
 21
153.4602904565
  0
LINE
  5
24C
100
AcDbEntity
  8
0
100
AcDbLine
 62
7
  6
CONTINUOUS
 10
442.2913767917
 20
145.8280613276
 11
439.684877277
 21
138.6667627673
  0
LINE
  5
24D
100
AcDbEntity
  8
0
100
AcDbLine
 62
7
  6
CONTINUOUS
 10
446.9884303567
 20
144.1184736412
 11
444.381930842
 21
136.9571750809
  0
LINE
  5
24E
100
AcDbEntity
  8
BEZUGSACHSEN
100
AcDbLine
 62
7
  6
CONTINUOUS
 10
469.636556116
 20
190.2605707036
 11
459.8957841232
 21
163.4980196054
  0
LINE
  5
24F
100
AcDbEntity
  8
0
100
AcDbLine
 62
7
  6
CONTINUOUS
 10
459.8956540413
 20
163.4976622084
 11
456.4302972417
 21
153.9766726511
  0
LINE
  5
250
100
AcDbEntity
  8
0
100
AcDbLine
 62
7
  6
CONTINUOUS
 10
448.2493166025
 20
165.2184893252
 11
444.6973694292
 21
156.0040695592
  0
LINE
  5
251
100
AcDbEntity
  8
0
100
AcDbLine
 62
7
  6
CONTINUOUS
 10
446.9884303567
 20
144.1184736412
 11
451.6863450738
 21
153.4602904565
  0
LINE
  5
252
100
AcDbEntity
  8
0
100
AcDbLine
 62
7
  6
CONTINUOUS
 10
444.381930842
 20
136.9571750809
 11
450.5912804076
 21
149.3044844035
  0
LINE
  5
253
100
AcDbEntity
  8
RUNDUNGEN
100
AcDbLine
 62
7
  6
CONTINUOUS
 10
432.634478642
 20
145.6123841741
 11
427.4253764288
 21
141.2414284283
  0
LINE
  5
254
100
AcDbEntity
  8
KONSTRUKTIONSELEMENTE
100
AcDbLine
 62
7
  6
CONTINUOUS
 10
489.5958729191
 20
204.9815833678
 11
496.2467243417
 21
198.9010870919
  0
LINE
  5
255
100
AcDbEntity
  8
0
100
AcDbLine
 62
7
  6
CONTINUOUS
 10
508.5857914967
 20
136.9571750809
 11
502.3764419311
 21
149.3044844035
  0
LINE
  5
256
100
AcDbEntity
  8
0
100
AcDbLine
 62
7
  6
CONTINUOUS
 10
505.979291982
 20
144.1184736412
 11
501.2813772649
 21
153.4602904565
  0
LINE
  5
257
100
AcDbEntity
  8
0
100
AcDbLine
 62
7
  6
CONTINUOUS
 10
501.3017273871
 20
120.7126093285
 11
497.5395058105
 21
131.0492281571
  0
LINE
  5
258
100
AcDbEntity
  8
0
100
AcDbLine
 62
7
  6
CONTINUOUS
 10
494.749108213
 20
148.6567175082
 11
498.7203134187
 21
137.7459208776
  0
LINE
  5
259
100
AcDbEntity
  8
0
100
AcDbLine
 62
7
  6
CONTINUOUS
 10
493.0720460943
 20
163.4977232109
 11
496.537425097
 21
153.9766726511
  0
LINE
  5
25A
100
AcDbEntity
  8
BEZUGSACHSEN
100
AcDbLine
 62
7
  6
CONTINUOUS
 10
493.0719382155
 20
163.4980196054
 11
483.3311662227
 21
190.2605707036
  0
LINE
  5
25B
100
AcDbEntity
  8
0
100
AcDbLine
 62
7
  6
CONTINUOUS
 10
470.0493825858
 20
194.0499518307
 11
468.8630024785
 21
202.9829671026
  0
LINE
  5
25C
100
AcDbEntity
  8
0
100
AcDbLine
 62
7
  6
CONTINUOUS
 10
482.9183397529
 20
194.0499518307
 11
484.1047198602
 21
202.9829671026
  0
LINE
  5
25D
100
AcDbEntity
  8
0
100
AcDbLine
 62
7
  6
CONTINUOUS
 10
454.24740892
 20
137.7459208776
 11
458.2186141257
 21
148.6567175082
  0
LINE
  5
25E
100
AcDbEntity
  8
0
100
AcDbLine
 62
7
  6
CONTINUOUS
 10
455.4282165282
 20
131.0492281571
 11
451.6659949516
 21
120.7126093285
  0
LINE
  5
25F
100
AcDbEntity
  8
0
100
AcDbLine
 62
7
  6
CONTINUOUS
 10
496.0550989919
 20
170.1495702844
 11
501.5462520508
 21
172.1481865496
  0
LINE
  5
260
100
AcDbEntity
  8
0
100
AcDbLine
 62
7
  6
CONTINUOUS
 10
504.7184057362
 20
165.2184893252
 11
508.2703529095
 21
156.0040695592
  0
LINE
  5
261
100
AcDbEntity
  8
0
100
AcDbLine
 62
7
  6
CONTINUOUS
 10
505.979291982
 20
144.1184736412
 11
508.5857914967
 21
136.9571750809
  0
LINE
  5
262
100
AcDbEntity
  8
0
100
AcDbLine
 62
7
  6
CONTINUOUS
 10
510.676345547
 20
145.8280613276
 11
513.2828450617
 21
138.6667627673
  0
LINE
  5
263
100
AcDbEntity
  8
RUNDUNGEN
100
AcDbLine
 62
7
  6
CONTINUOUS
 10
508.1071280269
 20
168.9700455041
 11
511.5725070296
 21
159.4489949443
  0
LINE
  5
264
100
AcDbEntity
  8
BEZUGSACHSEN
100
AcDbLine
 62
7
  6
CONTINUOUS
 10
508.1070201481
 20
168.9703418986
 11
498.3662481553
 21
195.7328929969
  0
LINE
  5
265
100
AcDbEntity
  8
0
100
AcDbLine
 62
7
  6
CONTINUOUS
 10
498.0794118032
 20
162.8020931481
 11
501.2813772649
 21
153.4602904565
  0
LINE
  5
266
100
AcDbEntity
  8
0
100
AcDbLine
 62
7
  6
CONTINUOUS
 10
501.2813772649
 20
153.4602904565
 11
508.2703529095
 21
156.0040695592
  0
LINE
  5
267
100
AcDbEntity
  8
0
100
AcDbLine
 62
7
  6
CONTINUOUS
 10
510.676345547
 20
145.8280613276
 11
505.979291982
 21
144.1184736412
  0
LINE
  5
268
100
AcDbEntity
  8
RUNDUNGEN
100
AcDbLine
 62
7
  6
CONTINUOUS
 10
516.3620384911
 20
156.5231808047
 11
520.3332436967
 21
145.6123841741
  0
LINE
  5
269
100
AcDbEntity
  8
RUNDUNGEN
100
AcDbLine
 62
7
  6
CONTINUOUS
 10
529.3045674865
 20
130.9048095996
 11
525.5423459099
 21
141.2414284283
  0
LINE
  5
26A
100
AcDbEntity
  8
0
100
AcDbLine
 62
7
  6
CONTINUOUS
 10
510.676345547
 20
145.8280613276
 11
508.2703529095
 21
156.0040695592
  0
LINE
  5
26B
100
AcDbEntity
  8
RUNDUNGEN
100
AcDbLine
 62
7
  6
CONTINUOUS
 10
513.2828450617
 20
138.6667627673
 11
510.1027853463
 21
152.1166434263
  0
LINE
  5
26C
100
AcDbEntity
  8
0
100
AcDbLine
 62
7
  6
CONTINUOUS
 10
497.5395058105
 20
131.0492281571
 11
498.7203134187
 21
137.7459208776
  0
LINE
  5
26D
100
AcDbEntity
  8
0
100
AcDbLine
 62
7
  6
CONTINUOUS
 10
508.5857914967
 20
136.9571750809
 11
513.2828450617
 21
138.6667627673
  0
LINE
  5
26E
100
AcDbEntity
  8
0
100
AcDbLine
 62
7
  6
CONTINUOUS
 10
526.4838611694
 20
312.4638219233
 11
526.4838611694
 21
232.4638219233
  0
LINE
  5
26F
100
AcDbEntity
  8
0
100
AcDbLine
 62
7
  6
CONTINUOUS
 10
510.1729273818
 20
117.0219121477
 11
524.8811684457
 21
122.3752740934
  0
LINE
  5
270
100
AcDbEntity
  8
0
100
AcDbLine
 62
7
  6
CONTINUOUS
 10
519.2457060847
 20
112.3451946441
 11
520.9371528021
 21
112.960830902
  0
LINE
  5
271
100
AcDbEntity
  8
0
100
AcDbLine
 62
7
  6
CONTINUOUS
 10
552.4838611694
 20
312.4638219233
 11
552.4838611694
 21
232.4638219233
  0
LINE
  5
272
100
AcDbEntity
  8
RUNDUNGEN
100
AcDbLine
 62
7
  6
CONTINUOUS
 10
92.0032861089
 20
28.4635155509
 11
94.3532861089
 21
28.4635155509
  0
LINE
  5
273
100
AcDbEntity
  8
RUNDUNGEN
100
AcDbLine
 62
7
  6
CONTINUOUS
 10
147.6532861089
 20
28.4635155509
 11
150.0032861089
 21
28.4635155509
  0
LINE
  5
274
100
AcDbEntity
  8
RUNDUNGEN
100
AcDbLine
 62
7
  6
CONTINUOUS
 10
99.8532861089
 20
36.9487969252
 11
106.7153200167
 21
36.9487969252
  0
LINE
  5
275
100
AcDbEntity
  8
RUNDUNGEN
100
AcDbLine
 62
7
  6
CONTINUOUS
 10
135.291252201
 20
36.9487969252
 11
142.1532861089
 21
36.9487969252
  0
LINE
  5
276
100
AcDbEntity
  8
0
100
AcDbLine
 62
7
  6
CONTINUOUS
 10
107.0160183736
 20
77.960990234
 11
111.8160183736
 21
77.960990234
  0
LINE
  5
277
100
AcDbEntity
  8
0
100
AcDbLine
 62
7
  6
CONTINUOUS
 10
114.3618196751
 20
77.960990234
 11
115.3218196751
 21
77.960990234
  0
LINE
  5
278
100
AcDbEntity
  8
0
100
AcDbLine
 62
7
  6
CONTINUOUS
 10
119.894773592
 20
77.960990234
 11
121.0032861089
 21
77.960990234
  0
LINE
  5
279
100
AcDbEntity
  8
0
100
AcDbLine
 62
7
  6
CONTINUOUS
 10
129.3559550357
 20
77.960990234
 11
132.8339221033
 21
77.960990234
  0
LINE
  5
27A
100
AcDbEntity
  8
0
100
AcDbLine
 62
7
  6
CONTINUOUS
 10
107.0160183736
 20
78.3145436246
 11
111.8160183736
 21
78.3145436246
  0
LINE
  5
27B
100
AcDbEntity
  8
0
100
AcDbLine
 62
7
  6
CONTINUOUS
 10
114.3618196751
 20
78.3145436246
 11
115.3218196751
 21
78.3145436246
  0
LINE
  5
27C
100
AcDbEntity
  8
0
100
AcDbLine
 62
7
  6
CONTINUOUS
 10
119.894773592
 20
78.3145436246
 11
120.7146109743
 21
78.3145436246
  0
LINE
  5
27D
100
AcDbEntity
  8
0
100
AcDbLine
 62
7
  6
CONTINUOUS
 10
129.3559550357
 20
78.3145436246
 11
132.8339221033
 21
78.3145436246
  0
LINE
  5
27E
100
AcDbEntity
  8
0
100
AcDbLine
 62
7
  6
CONTINUOUS
 10
132.8549585812
 20
78.6680970152
 11
130.3159550357
 21
78.6680970152
  0
LINE
  5
27F
100
AcDbEntity
  8
0
100
AcDbLine
 62
7
  6
CONTINUOUS
 10
110.1660183736
 20
78.8095183714
 11
108.6660183736
 21
78.8095183714
  0
LINE
  5
280
100
AcDbEntity
  8
0
100
AcDbLine
 62
7
  6
CONTINUOUS
 10
108.9360183736
 20
79.127716423
 11
109.8960183736
 21
79.127716423
  0
LINE
  5
281
100
AcDbEntity
  8
0
100
AcDbLine
 62
7
  6
CONTINUOUS
 10
108.9360183736
 20
79.4812698135
 11
109.8960183736
 21
79.4812698135
  0
LINE
  5
282
100
AcDbEntity
  8
0
100
AcDbLine
 62
7
  6
CONTINUOUS
 10
109.5210183736
 20
79.9762445604
 11
109.3110183736
 21
79.9762445604
  0
LINE
  5
283
100
AcDbEntity
  8
0
100
AcDbLine
 62
7
  6
CONTINUOUS
 10
109.8960183736
 20
80.1883765947
 11
109.6410183736
 21
80.1883765947
  0
LINE
  5
284
100
AcDbEntity
  8
0
100
AcDbLine
 62
7
  6
CONTINUOUS
 10
109.1910183736
 20
80.1883765947
 11
108.9360183736
 21
80.1883765947
  0
LINE
  5
285
100
AcDbEntity
  8
0
100
AcDbLine
 62
7
  6
CONTINUOUS
 10
108.6660183736
 20
80.5065746463
 11
109.1910183736
 21
80.5065746463
  0
LINE
  5
286
100
AcDbEntity
  8
0
100
AcDbLine
 62
7
  6
CONTINUOUS
 10
109.6410183736
 20
80.5065746463
 11
110.1660183736
 21
80.5065746463
  0
LINE
  5
287
100
AcDbEntity
  8
0
100
AcDbLine
 62
7
  6
CONTINUOUS
 10
115.3218196751
 20
80.6223043995
 11
117.7218196751
 21
80.6223043995
  0
LINE
  5
288
100
AcDbEntity
  8
0
100
AcDbLine
 62
7
  6
CONTINUOUS
 10
108.6660183736
 20
80.8601280369
 11
109.1910183736
 21
80.8601280369
  0
LINE
  5
289
100
AcDbEntity
  8
0
100
AcDbLine
 62
7
  6
CONTINUOUS
 10
109.6410183736
 20
80.8601280369
 11
110.1660183736
 21
80.8601280369
  0
LINE
  5
28A
100
AcDbEntity
  8
0
100
AcDbLine
 62
7
  6
CONTINUOUS
 10
110.1660183736
 20
80.930838715
 11
109.6410183736
 21
80.930838715
  0
LINE
  5
28B
100
AcDbEntity
  8
0
100
AcDbLine
 62
7
  6
CONTINUOUS
 10
109.1910183736
 20
80.930838715
 11
108.6660183736
 21
80.930838715
  0
LINE
  5
28C
100
AcDbEntity
  8
0
100
AcDbLine
 62
7
  6
CONTINUOUS
 10
115.3218196751
 20
80.9758577901
 11
117.7218196751
 21
80.9758577901
  0
LINE
  5
28D
100
AcDbEntity
  8
0
100
AcDbLine
 62
7
  6
CONTINUOUS
 10
108.9360183736
 20
81.2490367665
 11
109.1910183736
 21
81.2490367665
  0
LINE
  5
28E
100
AcDbEntity
  8
0
100
AcDbLine
 62
7
  6
CONTINUOUS
 10
109.6410183736
 20
81.2490367665
 11
109.8960183736
 21
81.2490367665
  0
LINE
  5
28F
100
AcDbEntity
  8
0
100
AcDbLine
 62
7
  6
CONTINUOUS
 10
118.1218196751
 20
81.3011269095
 11
115.3218196751
 21
81.3011269095
  0
LINE
  5
290
100
AcDbEntity
  8
0
100
AcDbLine
 62
7
  6
CONTINUOUS
 10
109.3110183736
 20
81.4611688009
 11
109.5210183736
 21
81.4611688009
  0
LINE
  5
291
100
AcDbEntity
  8
0
100
AcDbLine
 62
7
  6
CONTINUOUS
 10
108.9360183736
 20
81.6025901571
 11
109.1910183736
 21
81.6025901571
  0
LINE
  5
292
100
AcDbEntity
  8
0
100
AcDbLine
 62
7
  6
CONTINUOUS
 10
109.6410183736
 20
81.6025901571
 11
109.8960183736
 21
81.6025901571
  0
LINE
  5
293
100
AcDbEntity
  8
0
100
AcDbLine
 62
7
  6
CONTINUOUS
 10
109.3110183736
 20
81.8147221915
 11
109.5210183736
 21
81.8147221915
  0
LINE
  5
294
100
AcDbEntity
  8
0
100
AcDbLine
 62
7
  6
CONTINUOUS
 10
130.3159550357
 20
82.2036309211
 11
129.3559550357
 21
82.2036309211
  0
LINE
  5
295
100
AcDbEntity
  8
0
100
AcDbLine
 62
7
  6
CONTINUOUS
 10
115.3218196751
 20
82.2389862602
 11
114.3618196751
 21
82.2389862602
  0
LINE
  5
296
100
AcDbEntity
  8
0
100
AcDbLine
 62
7
  6
CONTINUOUS
 10
109.8960183736
 20
82.3096969383
 11
108.9360183736
 21
82.3096969383
  0
LINE
  5
297
100
AcDbEntity
  8
0
100
AcDbLine
 62
7
  6
CONTINUOUS
 10
108.6660183736
 20
82.6278949898
 11
110.1660183736
 21
82.6278949898
  0
LINE
  5
298
100
AcDbEntity
  8
0
100
AcDbLine
 62
7
  6
CONTINUOUS
 10
129.3559550357
 20
82.7976006173
 11
132.8549585812
 21
82.7976006173
  0
LINE
  5
299
100
AcDbEntity
  8
0
100
AcDbLine
 62
7
  6
CONTINUOUS
 10
114.3618196751
 20
82.8329559564
 11
118.1218196751
 21
82.8329559564
  0
LINE
  5
29A
100
AcDbEntity
  8
0
100
AcDbLine
 62
7
  6
CONTINUOUS
 10
108.6660183736
 20
82.9814483804
 11
110.1660183736
 21
82.9814483804
  0
LINE
  5
29B
100
AcDbEntity
  8
0
100
AcDbLine
 62
7
  6
CONTINUOUS
 10
129.3559550357
 20
83.1511540079
 11
132.8549585812
 21
83.1511540079
  0
LINE
  5
29C
100
AcDbEntity
  8
0
100
AcDbLine
 62
7
  6
CONTINUOUS
 10
114.3618196751
 20
83.186509347
 11
118.1218196751
 21
83.186509347
  0
LINE
  5
29D
100
AcDbEntity
  8
0
100
AcDbLine
 62
7
  6
CONTINUOUS
 10
132.8339221033
 20
83.4764231272
 11
129.3559550357
 21
83.4764231272
  0
LINE
  5
29E
100
AcDbEntity
  8
0
100
AcDbLine
 62
7
  6
CONTINUOUS
 10
127.2559550357
 20
83.4764231272
 11
126.2959550357
 21
83.4764231272
  0
LINE
  5
29F
100
AcDbEntity
  8
0
100
AcDbLine
 62
7
  6
CONTINUOUS
 10
122.5218196751
 20
83.4764231272
 11
121.5618196751
 21
83.4764231272
  0
LINE
  5
2A0
100
AcDbEntity
  8
0
100
AcDbLine
 62
7
  6
CONTINUOUS
 10
118.1218196751
 20
83.4764231272
 11
114.3618196751
 21
83.4764231272
  0
LINE
  5
2A1
100
AcDbEntity
  8
0
100
AcDbLine
 62
7
  6
CONTINUOUS
 10
111.8160183736
 20
83.4764231272
 11
107.0160183736
 21
83.4764231272
  0
LINE
  5
2A2
100
AcDbEntity
  8
RUNDUNGEN
100
AcDbLine
 62
7
  6
CONTINUOUS
 10
78.9881274048
 20
91.1782029452
 11
81.5692213684
 21
88.5716771011
  0
LINE
  5
2A3
100
AcDbEntity
  8
RUNDUNGEN
100
AcDbLine
 62
7
  6
CONTINUOUS
 10
88.7962844664
 20
81.2734047379
 11
102.7712020542
 21
67.1607903292
  0
LINE
  5
2A4
100
AcDbEntity
  8
RUNDUNGEN
100
AcDbLine
 62
7
  6
CONTINUOUS
 10
125.9181983746
 20
43.785723411
 11
131.1954919796
 21
38.4564318927
  0
LINE
  5
2A5
100
AcDbEntity
  8
0
100
AcDbLine
 62
7
  6
CONTINUOUS
 10
145.0032861089
 20
111.5008913351
 11
145.4332191232
 21
111.5214764622
  0
LINE
  5
2A6
100
AcDbEntity
  8
0
100
AcDbLine
 62
7
  6
CONTINUOUS
 10
96.5733076129
 20
111.5214808278
 11
97.0032861089
 21
111.5008913351
  0
LINE
  5
2A7
100
AcDbEntity
  8
RUNDUNGEN
100
AcDbLine
 62
7
  6
CONTINUOUS
 10
140.4197396387
 20
89.0679208333
 11
129.6069326541
 21
94.4215740306
  0
LINE
  5
2A8
100
AcDbEntity
  8
RUNDUNGEN
100
AcDbLine
 62
7
  6
CONTINUOUS
 10
93.0551950753
 20
86.8349549006
 11
90.4167434681
 21
89.4994035412
  0
LINE
  5
2A9
100
AcDbEntity
  8
0
100
AcDbLine
 62
7
  6
CONTINUOUS
 10
97.0032861089
 20
111.5008913351
 11
101.7059546907
 21
111.5008913351
  0
LINE
  5
2AA
100
AcDbEntity
  8
0
100
AcDbLine
 62
7
  6
CONTINUOUS
 10
140.300617527
 20
111.5008913351
 11
145.0032861089
 21
111.5008913351
  0
LINE
  5
2AB
100
AcDbEntity
  8
BEZUGSACHSEN
100
AcDbLine
 62
7
  6
CONTINUOUS
 10
114.7532861089
 20
122.0420586368
 11
127.2532861089
 21
122.0420586368
  0
LINE
  5
2AC
100
AcDbEntity
  8
0
100
AcDbLine
 62
7
  6
CONTINUOUS
 10
140.3094730816
 20
111.5008914147
 11
140.3031672761
 21
111.5031282074
  0
LINE
  5
2AD
100
AcDbEntity
  8
RUNDUNGEN
100
AcDbLine
 62
7
  6
CONTINUOUS
 10
129.6069326541
 20
97.9571079366
 11
140.4197396387
 21
92.6034547393
  0
LINE
  5
2AE
100
AcDbEntity
  8
RUNDUNGEN
100
AcDbLine
 62
7
  6
CONTINUOUS
 10
154.0990463303
 20
39.9832666485
 11
139.2353701636
 21
54.993396699
  0
LINE
  5
2AF
100
AcDbEntity
  8
RUNDUNGEN
100
AcDbLine
 62
7
  6
CONTINUOUS
 10
101.3402369389
 20
93.2619159806
 11
100.5333562178
 21
94.0767470106
  0
LINE
  5
2B0
100
AcDbEntity
  8
RUNDUNGEN
100
AcDbLine
 62
7
  6
CONTINUOUS
 10
154.0990463303
 20
43.5188005544
 11
139.2353701636
 21
58.5289306049
  0
LINE
  5
2B1
100
AcDbEntity
  8
RUNDUNGEN
100
AcDbLine
 62
7
  6
CONTINUOUS
 10
101.3402369389
 20
96.7974498865
 11
100.5333562178
 21
97.6122809165
  0
LINE
  5
2B2
100
AcDbEntity
  8
BEZUGSACHSEN
100
AcDbLine
 62
7
  6
CONTINUOUS
 10
114.7532861089
 20
128.113994091
 11
127.2532861089
 21
128.113994091
  0
LINE
  5
2B3
100
AcDbEntity
  8
BEZUGSACHSEN
100
AcDbLine
 62
7
  6
CONTINUOUS
 10
114.7532861089
 20
134.3420917242
 11
127.2532861089
 21
134.3420917242
  0
LINE
  5
2B4
100
AcDbEntity
  8
RUNDUNGEN
100
AcDbLine
 62
7
  6
CONTINUOUS
 10
164.6575989282
 20
94.6827124534
 11
157.4490609385
 21
98.2518145849
  0
LINE
  5
2B5
100
AcDbEntity
  8
RUNDUNGEN
100
AcDbLine
 62
7
  6
CONTINUOUS
 10
164.6575989282
 20
98.2182463593
 11
157.4490609385
 21
101.7873484908
  0
LINE
  5
2B6
100
AcDbEntity
  8
0
100
AcDbLine
 62
7
  6
CONTINUOUS
 10
117.7218196751
 20
80.6223043995
 11
119.894773592
 21
77.960990234
  0
LINE
  5
2B7
100
AcDbEntity
  8
0
100
AcDbLine
 62
7
  6
CONTINUOUS
 10
117.7218196751
 20
80.9758577901
 11
119.894773592
 21
78.3145436246
  0
LINE
  5
2B8
100
AcDbEntity
  8
0
100
AcDbLine
 62
7
  6
CONTINUOUS
 10
121.0032861089
 20
77.960990234
 11
118.7439681941
 21
80.728078263
  0
LINE
  5
2B9
100
AcDbEntity
  8
0
100
AcDbLine
 62
7
  6
CONTINUOUS
 10
142.5722870195
 20
150.8826592375
 11
142.0522345923
 21
150.7873344302
  0
LINE
  5
2BA
100
AcDbEntity
  8
0
100
AcDbLine
 62
7
  6
CONTINUOUS
 10
142.5722870195
 20
151.0141659826
 11
142.0522345923
 21
150.9188411753
  0
LINE
  5
2BB
100
AcDbEntity
  8
0
100
AcDbLine
 62
7
  6
CONTINUOUS
 10
142.0522345923
 20
150.4422170721
 11
142.6762970288
 21
150.5375418877
  0
LINE
  5
2BC
100
AcDbEntity
  8
BEZUGSACHSEN
100
AcDbLine
 62
7
  6
CONTINUOUS
 10
114.7532861089
 20
136.1532086368
 11
127.2532861089
 21
136.1532086368
  0
LINE
  5
2BD
100
AcDbEntity
  8
RUNDUNGEN
100
AcDbLine
 62
7
  6
CONTINUOUS
 10
97.0032861089
 20
141.2414284283
 11
107.8891950303
 21
141.2414284283
  0
LINE
  5
2BE
100
AcDbEntity
  8
RUNDUNGEN
100
AcDbLine
 62
7
  6
CONTINUOUS
 10
134.1173771874
 20
141.2414284283
 11
145.0032861089
 21
141.2414284283
  0
LINE
  5
2BF
100
AcDbEntity
  8
RUNDUNGEN
100
AcDbLine
 62
7
  6
CONTINUOUS
 10
145.0032861089
 20
145.6123841741
 11
127.2440871374
 21
145.6123841741
  0
LINE
  5
2C0
100
AcDbEntity
  8
RUNDUNGEN
100
AcDbLine
 62
7
  6
CONTINUOUS
 10
114.7624850803
 20
145.6123841741
 11
97.0032861089
 21
145.6123841741
  0
LINE
  5
2C1
100
AcDbEntity
  8
0
100
AcDbLine
 62
7
  6
CONTINUOUS
 10
111.5178271422
 20
150.9779840448
 11
111.1205108544
 21
150.8826592375
  0
LINE
  5
2C2
100
AcDbEntity
  8
0
100
AcDbLine
 62
7
  6
CONTINUOUS
 10
111.5178271422
 20
151.1094907899
 11
111.1205108544
 21
151.0141659826
  0
LINE
  5
2C3
100
AcDbEntity
  8
0
100
AcDbLine
 62
7
  6
CONTINUOUS
 10
106.7500277105
 20
150.9779840448
 11
106.3527108544
 21
150.8826592375
  0
LINE
  5
2C4
100
AcDbEntity
  8
0
100
AcDbLine
 62
7
  6
CONTINUOUS
 10
106.7500277105
 20
151.1094907899
 11
106.3527108544
 21
151.0141659826
  0
LINE
  5
2C5
100
AcDbEntity
  8
0
100
AcDbLine
 62
7
  6
CONTINUOUS
 10
136.2276520508
 20
150.9779840448
 11
135.8116108233
 21
150.8826592375
  0
LINE
  5
2C6
100
AcDbEntity
  8
0
100
AcDbLine
 62
7
  6
CONTINUOUS
 10
136.2276520508
 20
151.1094907899
 11
135.8116108233
 21
151.0141659826
  0
LINE
  5
2C7
100
AcDbEntity
  8
0
100
AcDbLine
 62
7
  6
CONTINUOUS
 10
134.4594753459
 20
154.2552098983
 11
134.8755171686
 21
154.3505347056
  0
LINE
  5
2C8
100
AcDbEntity
  8
0
100
AcDbLine
 62
7
  6
CONTINUOUS
 10
111.1205108544
 20
150.4422170721
 11
111.6171570666
 21
150.5375418877
  0
LINE
  5
2C9
100
AcDbEntity
  8
0
100
AcDbLine
 62
7
  6
CONTINUOUS
 10
106.3527108544
 20
150.4422170721
 11
106.8493564983
 21
150.5375418877
  0
LINE
  5
2CA
100
AcDbEntity
  8
0
100
AcDbLine
 62
7
  6
CONTINUOUS
 10
135.8116108233
 20
150.4422170721
 11
136.3316626552
 21
150.5375418877
  0
LINE
  5
2CB
100
AcDbEntity
  8
0
100
AcDbLine
 62
7
  6
CONTINUOUS
 10
141.5321833555
 20
154.3505347056
 11
142.0522345923
 21
154.4458595129
  0
LINE
  5
2CC
100
AcDbEntity
  8
0
100
AcDbLine
 62
7
  6
CONTINUOUS
 10
134.8755171686
 20
154.7909768043
 11
134.3554647415
 21
154.695651997
  0
LINE
  5
2CD
100
AcDbEntity
  8
0
100
AcDbLine
 62
7
  6
CONTINUOUS
 10
134.8755171686
 20
154.9224835494
 11
134.3554647415
 21
154.8271587421
  0
LINE
  5
2CE
100
AcDbEntity
  8
0
100
AcDbLine
 62
7
  6
CONTINUOUS
 10
142.0522345923
 20
154.7909768043
 11
141.4281721559
 21
154.695651997
  0
LINE
  5
2CF
100
AcDbEntity
  8
0
100
AcDbLine
 62
7
  6
CONTINUOUS
 10
142.0522345923
 20
154.9224835494
 11
141.4281721559
 21
154.8271587421
  0
LINE
  5
2D0
100
AcDbEntity
  8
0
100
AcDbLine
 62
7
  6
CONTINUOUS
 10
99.7969858544
 20
150.4422170721
 11
100.3929608544
 21
150.4422170721
  0
LINE
  5
2D1
100
AcDbEntity
  8
0
100
AcDbLine
 62
7
  6
CONTINUOUS
 10
102.8761899263
 20
150.4422170721
 11
103.5714942825
 21
150.4422170721
  0
LINE
  5
2D2
100
AcDbEntity
  8
0
100
AcDbLine
 62
7
  6
CONTINUOUS
 10
105.9553939983
 20
150.4422170721
 11
106.3527108544
 21
150.4422170721
  0
LINE
  5
2D3
100
AcDbEntity
  8
0
100
AcDbLine
 62
7
  6
CONTINUOUS
 10
108.7366108544
 20
150.4422170721
 11
111.1205108544
 21
150.4422170721
  0
LINE
  5
2D4
100
AcDbEntity
  8
0
100
AcDbLine
 62
7
  6
CONTINUOUS
 10
126.9707261089
 20
150.4422170721
 11
127.5947885453
 21
150.4422170721
  0
LINE
  5
2D5
100
AcDbEntity
  8
0
100
AcDbLine
 62
7
  6
CONTINUOUS
 10
128.4268717442
 20
150.4422170721
 11
129.0509341807
 21
150.4422170721
  0
LINE
  5
2D6
100
AcDbEntity
  8
0
100
AcDbLine
 62
7
  6
CONTINUOUS
 10
131.651194382
 20
150.4422170721
 11
132.3792674229
 21
150.4422170721
  0
LINE
  5
2D7
100
AcDbEntity
  8
0
100
AcDbLine
 62
7
  6
CONTINUOUS
 10
134.8755171686
 20
150.4422170721
 11
135.8116108233
 21
150.4422170721
  0
LINE
  5
2D8
100
AcDbEntity
  8
0
100
AcDbLine
 62
7
  6
CONTINUOUS
 10
138.7239023916
 20
150.4422170721
 11
139.347964828
 21
150.4422170721
  0
LINE
  5
2D9
100
AcDbEntity
  8
0
100
AcDbLine
 62
7
  6
CONTINUOUS
 10
135.8116108233
 20
150.8826592375
 11
134.8755171686
 21
150.8826592375
  0
LINE
  5
2DA
100
AcDbEntity
  8
0
100
AcDbLine
 62
7
  6
CONTINUOUS
 10
111.1205108544
 20
150.8826592375
 11
109.3325858544
 21
150.8826592375
  0
LINE
  5
2DB
100
AcDbEntity
  8
0
100
AcDbLine
 62
7
  6
CONTINUOUS
 10
106.3527108544
 20
150.8826592375
 11
105.9553939983
 21
150.8826592375
  0
LINE
  5
2DC
100
AcDbEntity
  8
0
100
AcDbLine
 62
7
  6
CONTINUOUS
 10
135.8116108233
 20
151.0141659826
 11
134.8755171686
 21
151.0141659826
  0
LINE
  5
2DD
100
AcDbEntity
  8
0
100
AcDbLine
 62
7
  6
CONTINUOUS
 10
111.1205108544
 20
151.0141659826
 11
109.3325858544
 21
151.0141659826
  0
LINE
  5
2DE
100
AcDbEntity
  8
0
100
AcDbLine
 62
7
  6
CONTINUOUS
 10
106.3527108544
 20
151.0141659826
 11
105.9553939983
 21
151.0141659826
  0
LINE
  5
2DF
100
AcDbEntity
  8
0
100
AcDbLine
 62
7
  6
CONTINUOUS
 10
135.7076002188
 20
152.3487134852
 11
136.6436938734
 21
152.3487134852
  0
LINE
  5
2E0
100
AcDbEntity
  8
0
100
AcDbLine
 62
7
  6
CONTINUOUS
 10
100.3929608544
 20
152.4440382925
 11
102.0815566404
 21
152.4440382925
  0
LINE
  5
2E1
100
AcDbEntity
  8
0
100
AcDbLine
 62
7
  6
CONTINUOUS
 10
129.0509341807
 20
152.4440382925
 11
130.8191110343
 21
152.4440382925
  0
LINE
  5
2E2
100
AcDbEntity
  8
0
100
AcDbLine
 62
7
  6
CONTINUOUS
 10
137.2677563099
 20
152.7891555839
 11
135.7076002188
 21
152.7891555839
  0
LINE
  5
2E3
100
AcDbEntity
  8
0
100
AcDbLine
 62
7
  6
CONTINUOUS
 10
131.0271319456
 20
152.8844803912
 11
129.0509341807
 21
152.8844803912
  0
LINE
  5
2E4
100
AcDbEntity
  8
0
100
AcDbLine
 62
7
  6
CONTINUOUS
 10
102.2802149263
 20
152.8844803912
 11
100.3929608544
 21
152.8844803912
  0
LINE
  5
2E5
100
AcDbEntity
  8
0
100
AcDbLine
 62
7
  6
CONTINUOUS
 10
137.2677563099
 20
152.920662329
 11
135.7076002188
 21
152.920662329
  0
LINE
  5
2E6
100
AcDbEntity
  8
0
100
AcDbLine
 62
7
  6
CONTINUOUS
 10
131.0271319456
 20
153.0159871363
 11
129.0509341807
 21
153.0159871363
  0
LINE
  5
2E7
100
AcDbEntity
  8
0
100
AcDbLine
 62
7
  6
CONTINUOUS
 10
102.2802149263
 20
153.0159871363
 11
100.3929608544
 21
153.0159871363
  0
LINE
  5
2E8
100
AcDbEntity
  8
0
100
AcDbLine
 62
7
  6
CONTINUOUS
 10
136.6436938734
 20
153.7785855947
 11
137.2677563099
 21
153.7785855947
  0
LINE
  5
2E9
100
AcDbEntity
  8
0
100
AcDbLine
 62
7
  6
CONTINUOUS
 10
109.3325858544
 20
154.3505347056
 11
111.1205108544
 21
154.3505347056
  0
LINE
  5
2EA
100
AcDbEntity
  8
0
100
AcDbLine
 62
7
  6
CONTINUOUS
 10
134.8755171686
 20
154.3505347056
 11
135.8116108233
 21
154.3505347056
  0
LINE
  5
2EB
100
AcDbEntity
  8
0
100
AcDbLine
 62
7
  6
CONTINUOUS
 10
100.3929608544
 20
154.4458595129
 11
102.2802149263
 21
154.4458595129
  0
LINE
  5
2EC
100
AcDbEntity
  8
0
100
AcDbLine
 62
7
  6
CONTINUOUS
 10
129.0509341807
 20
154.4458595129
 11
131.0271319456
 21
154.4458595129
  0
LINE
  5
2ED
100
AcDbEntity
  8
0
100
AcDbLine
 62
7
  6
CONTINUOUS
 10
139.347964828
 20
154.7909768043
 11
138.7239023916
 21
154.7909768043
  0
LINE
  5
2EE
100
AcDbEntity
  8
0
100
AcDbLine
 62
7
  6
CONTINUOUS
 10
135.8116108233
 20
154.7909768043
 11
134.8755171686
 21
154.7909768043
  0
LINE
  5
2EF
100
AcDbEntity
  8
0
100
AcDbLine
 62
7
  6
CONTINUOUS
 10
130.9231216387
 20
154.7909768043
 11
128.4268717442
 21
154.7909768043
  0
LINE
  5
2F0
100
AcDbEntity
  8
0
100
AcDbLine
 62
7
  6
CONTINUOUS
 10
127.5947885453
 20
154.7909768043
 11
126.9707261089
 21
154.7909768043
  0
LINE
  5
2F1
100
AcDbEntity
  8
0
100
AcDbLine
 62
7
  6
CONTINUOUS
 10
111.1205108544
 20
154.7909768043
 11
108.7366108544
 21
154.7909768043
  0
LINE
  5
2F2
100
AcDbEntity
  8
0
100
AcDbLine
 62
7
  6
CONTINUOUS
 10
107.9419777105
 20
154.7909768043
 11
107.3460027105
 21
154.7909768043
  0
LINE
  5
2F3
100
AcDbEntity
  8
0
100
AcDbLine
 62
7
  6
CONTINUOUS
 10
104.9621027105
 20
154.7909768043
 11
104.3661274263
 21
154.7909768043
  0
LINE
  5
2F4
100
AcDbEntity
  8
0
100
AcDbLine
 62
7
  6
CONTINUOUS
 10
102.1808858544
 20
154.7909768043
 11
99.7969858544
 21
154.7909768043
  0
LINE
  5
2F5
100
AcDbEntity
  8
0
100
AcDbLine
 62
7
  6
CONTINUOUS
 10
139.347964828
 20
154.9224835494
 11
138.7239023916
 21
154.9224835494
  0
LINE
  5
2F6
100
AcDbEntity
  8
0
100
AcDbLine
 62
7
  6
CONTINUOUS
 10
135.8116108233
 20
154.9224835494
 11
134.8755171686
 21
154.9224835494
  0
LINE
  5
2F7
100
AcDbEntity
  8
0
100
AcDbLine
 62
7
  6
CONTINUOUS
 10
130.9231216387
 20
154.9224835494
 11
128.4268717442
 21
154.9224835494
  0
LINE
  5
2F8
100
AcDbEntity
  8
0
100
AcDbLine
 62
7
  6
CONTINUOUS
 10
127.5947885453
 20
154.9224835494
 11
126.9707261089
 21
154.9224835494
  0
LINE
  5
2F9
100
AcDbEntity
  8
0
100
AcDbLine
 62
7
  6
CONTINUOUS
 10
111.1205108544
 20
154.9224835494
 11
108.7366108544
 21
154.9224835494
  0
LINE
  5
2FA
100
AcDbEntity
  8
0
100
AcDbLine
 62
7
  6
CONTINUOUS
 10
107.9419777105
 20
154.9224835494
 11
107.3460027105
 21
154.9224835494
  0
LINE
  5
2FB
100
AcDbEntity
  8
0
100
AcDbLine
 62
7
  6
CONTINUOUS
 10
104.9621027105
 20
154.9224835494
 11
104.3661274263
 21
154.9224835494
  0
LINE
  5
2FC
100
AcDbEntity
  8
0
100
AcDbLine
 62
7
  6
CONTINUOUS
 10
102.1808858544
 20
154.9224835494
 11
99.7969858544
 21
154.9224835494
  0
LINE
  5
2FD
100
AcDbEntity
  8
RUNDUNGEN
100
AcDbLine
 62
7
  6
CONTINUOUS
 10
99.0032861089
 20
159.4840901597
 11
143.0035387499
 21
159.4840901597
  0
LINE
  5
2FE
100
AcDbEntity
  8
0
100
AcDbLine
 62
7
  6
CONTINUOUS
 10
141.4281721559
 20
150.5375418877
 11
142.0522345923
 21
150.4422170721
  0
LINE
  5
2FF
100
AcDbEntity
  8
0
100
AcDbLine
 62
7
  6
CONTINUOUS
 10
142.6762970288
 20
154.695651997
 11
142.0522345923
 21
154.7909768043
  0
LINE
  5
300
100
AcDbEntity
  8
0
100
AcDbLine
 62
7
  6
CONTINUOUS
 10
142.6762970288
 20
154.8271587421
 11
142.0522345923
 21
154.9224835494
  0
LINE
  5
301
100
AcDbEntity
  8
0
100
AcDbLine
 62
7
  6
CONTINUOUS
 10
134.3554647415
 20
150.5375418877
 11
134.8755171686
 21
150.4422170721
  0
LINE
  5
302
100
AcDbEntity
  8
0
100
AcDbLine
 62
7
  6
CONTINUOUS
 10
142.0522345923
 20
150.7873344302
 11
141.5321833555
 21
150.8826592375
  0
LINE
  5
303
100
AcDbEntity
  8
0
100
AcDbLine
 62
7
  6
CONTINUOUS
 10
142.0522345923
 20
150.9188411753
 11
141.5321833555
 21
151.0141659826
  0
LINE
  5
304
100
AcDbEntity
  8
0
100
AcDbLine
 62
7
  6
CONTINUOUS
 10
131.4431734707
 20
154.695651997
 11
130.9231216387
 21
154.7909768043
  0
LINE
  5
305
100
AcDbEntity
  8
0
100
AcDbLine
 62
7
  6
CONTINUOUS
 10
131.4431734707
 20
154.8271587421
 11
130.9231216387
 21
154.9224835494
  0
LINE
  5
306
100
AcDbEntity
  8
0
100
AcDbLine
 62
7
  6
CONTINUOUS
 10
136.3316626552
 20
154.695651997
 11
135.8116108233
 21
154.7909768043
  0
LINE
  5
307
100
AcDbEntity
  8
0
100
AcDbLine
 62
7
  6
CONTINUOUS
 10
136.3316626552
 20
154.8271587421
 11
135.8116108233
 21
154.9224835494
  0
LINE
  5
308
100
AcDbEntity
  8
0
100
AcDbLine
 62
7
  6
CONTINUOUS
 10
142.0522345923
 20
154.4458595129
 11
142.5722870195
 21
154.3505347056
  0
LINE
  5
309
100
AcDbEntity
  8
0
100
AcDbLine
 62
7
  6
CONTINUOUS
 10
105.4587483544
 20
150.5375418877
 11
105.9553939983
 21
150.4422170721
  0
LINE
  5
30A
100
AcDbEntity
  8
0
100
AcDbLine
 62
7
  6
CONTINUOUS
 10
102.6775317825
 20
154.695651997
 11
102.1808858544
 21
154.7909768043
  0
LINE
  5
30B
100
AcDbEntity
  8
0
100
AcDbLine
 62
7
  6
CONTINUOUS
 10
102.6775317825
 20
154.8271587421
 11
102.1808858544
 21
154.9224835494
  0
LINE
  5
30C
100
AcDbEntity
  8
0
100
AcDbLine
 62
7
  6
CONTINUOUS
 10
111.6171570666
 20
154.695651997
 11
111.1205108544
 21
154.7909768043
  0
LINE
  5
30D
100
AcDbEntity
  8
0
100
AcDbLine
 62
7
  6
CONTINUOUS
 10
111.6171570666
 20
154.8271587421
 11
111.1205108544
 21
154.9224835494
  0
LINE
  5
30E
100
AcDbEntity
  8
0
100
AcDbLine
 62
7
  6
CONTINUOUS
 10
134.8755171686
 20
150.8826592375
 11
134.4594753459
 21
150.9779840448
  0
LINE
  5
30F
100
AcDbEntity
  8
0
100
AcDbLine
 62
7
  6
CONTINUOUS
 10
134.8755171686
 20
151.0141659826
 11
134.4594753459
 21
151.1094907899
  0
LINE
  5
310
100
AcDbEntity
  8
0
100
AcDbLine
 62
7
  6
CONTINUOUS
 10
135.8116108233
 20
154.3505347056
 11
136.2276520508
 21
154.2552098983
  0
LINE
  5
311
100
AcDbEntity
  8
0
100
AcDbLine
 62
7
  6
CONTINUOUS
 10
105.9553939983
 20
150.8826592375
 11
105.5580777105
 21
150.9779840448
  0
LINE
  5
312
100
AcDbEntity
  8
0
100
AcDbLine
 62
7
  6
CONTINUOUS
 10
105.9553939983
 20
151.0141659826
 11
105.5580777105
 21
151.1094907899
  0
LINE
  5
313
100
AcDbEntity
  8
0
100
AcDbLine
 62
7
  6
CONTINUOUS
 10
111.1205108544
 20
154.3505347056
 11
111.5178271422
 21
154.2552098983
  0
LINE
  5
314
100
AcDbEntity
  8
0
100
AcDbLine
 62
7
  6
CONTINUOUS
 10
131.0271319456
 20
154.4458595129
 11
131.3391631638
 21
154.3505347056
  0
LINE
  5
315
100
AcDbEntity
  8
0
100
AcDbLine
 62
7
  6
CONTINUOUS
 10
102.2802149263
 20
154.4458595129
 11
102.5782024263
 21
154.3505347056
  0
LINE
  5
316
100
AcDbEntity
  8
0
100
AcDbLine
 62
7
  6
CONTINUOUS
 10
105.0614314983
 20
150.7281915273
 11
105.4587483544
 21
150.5375418877
  0
LINE
  5
317
100
AcDbEntity
  8
0
100
AcDbLine
 62
7
  6
CONTINUOUS
 10
112.0144733544
 20
154.5050023824
 11
111.6171570666
 21
154.695651997
  0
LINE
  5
318
100
AcDbEntity
  8
0
100
AcDbLine
 62
7
  6
CONTINUOUS
 10
112.0144733544
 20
154.6365091275
 11
111.6171570666
 21
154.8271587421
  0
LINE
  5
319
100
AcDbEntity
  8
0
100
AcDbLine
 62
7
  6
CONTINUOUS
 10
105.5580777105
 20
150.9779840448
 11
105.2600902105
 21
151.1686337262
  0
LINE
  5
31A
100
AcDbEntity
  8
0
100
AcDbLine
 62
7
  6
CONTINUOUS
 10
105.5580777105
 20
151.1094907899
 11
105.2600902105
 21
151.3001404713
  0
LINE
  5
31B
100
AcDbEntity
  8
0
100
AcDbLine
 62
7
  6
CONTINUOUS
 10
111.5178271422
 20
154.2552098983
 11
111.8158146422
 21
154.0645602837
  0
LINE
  5
31C
100
AcDbEntity
  8
0
100
AcDbLine
 62
7
  6
CONTINUOUS
 10
103.0748483544
 20
154.4096775751
 11
102.6775317825
 21
154.695651997
  0
LINE
  5
31D
100
AcDbEntity
  8
0
100
AcDbLine
 62
7
  6
CONTINUOUS
 10
103.0748483544
 20
154.5411843202
 11
102.6775317825
 21
154.8271587421
  0
LINE
  5
31E
100
AcDbEntity
  8
0
100
AcDbLine
 62
7
  6
CONTINUOUS
 10
104.6641152105
 20
151.1094907899
 11
105.0614314983
 21
150.7281915273
  0
LINE
  5
31F
100
AcDbEntity
  8
0
100
AcDbLine
 62
7
  6
CONTINUOUS
 10
102.5782024263
 20
154.3505347056
 11
102.7768608544
 21
154.159885091
  0
LINE
  5
320
100
AcDbEntity
  8
0
100
AcDbLine
 62
7
  6
CONTINUOUS
 10
103.3728358544
 20
154.0283783459
 11
103.0748483544
 21
154.4096775751
  0
LINE
  5
321
100
AcDbEntity
  8
0
100
AcDbLine
 62
7
  6
CONTINUOUS
 10
103.3728358544
 20
154.159885091
 11
103.0748483544
 21
154.5411843202
  0
LINE
  5
322
100
AcDbEntity
  8
RUNDUNGEN
100
AcDbLine
 62
7
  6
CONTINUOUS
 10
78.0838876263
 20
93.2061018835
 11
78.0838876263
 21
96.7416357895
  0
LINE
  5
323
100
AcDbEntity
  8
0
100
AcDbLine
 62
7
  6
CONTINUOUS
 10
86.06271502
 20
170.1495702844
 11
86.06271502
 21
172.1481865496
  0
LINE
  5
324
100
AcDbEntity
  8
0
100
AcDbLine
 62
7
  6
CONTINUOUS
 10
133.939423514
 20
150.7281915273
 11
134.3554647415
 21
150.5375418877
  0
LINE
  5
325
100
AcDbEntity
  8
0
100
AcDbLine
 62
7
  6
CONTINUOUS
 10
136.7477044779
 20
154.5050023824
 11
136.3316626552
 21
154.695651997
  0
LINE
  5
326
100
AcDbEntity
  8
0
100
AcDbLine
 62
7
  6
CONTINUOUS
 10
136.7477044779
 20
154.6365091275
 11
136.3316626552
 21
154.8271587421
  0
LINE
  5
327
100
AcDbEntity
  8
0
100
AcDbLine
 62
7
  6
CONTINUOUS
 10
140.9081209191
 20
150.8235163347
 11
141.4281721559
 21
150.5375418877
  0
LINE
  5
328
100
AcDbEntity
  8
0
100
AcDbLine
 62
7
  6
CONTINUOUS
 10
143.1963494559
 20
154.4096775751
 11
142.6762970288
 21
154.695651997
  0
LINE
  5
329
100
AcDbEntity
  8
0
100
AcDbLine
 62
7
  6
CONTINUOUS
 10
143.1963494559
 20
154.5411843202
 11
142.6762970288
 21
154.8271587421
  0
LINE
  5
32A
100
AcDbEntity
  8
0
100
AcDbLine
 62
7
  6
CONTINUOUS
 10
134.4594753459
 20
150.9779840448
 11
134.1474441277
 21
151.1686337262
  0
LINE
  5
32B
100
AcDbEntity
  8
0
100
AcDbLine
 62
7
  6
CONTINUOUS
 10
134.4594753459
 20
151.1094907899
 11
134.1474441277
 21
151.3001404713
  0
LINE
  5
32C
100
AcDbEntity
  8
0
100
AcDbLine
 62
7
  6
CONTINUOUS
 10
141.5321833555
 20
150.8826592375
 11
141.2201521373
 21
151.0733088521
  0
LINE
  5
32D
100
AcDbEntity
  8
0
100
AcDbLine
 62
7
  6
CONTINUOUS
 10
141.5321833555
 20
151.0141659826
 11
141.2201521373
 21
151.2048155972
  0
LINE
  5
32E
100
AcDbEntity
  8
0
100
AcDbLine
 62
7
  6
CONTINUOUS
 10
136.2276520508
 20
154.2552098983
 11
136.539683269
 21
154.0645602837
  0
LINE
  5
32F
100
AcDbEntity
  8
0
100
AcDbLine
 62
7
  6
CONTINUOUS
 10
131.8592152934
 20
154.4096775751
 11
131.4431734707
 21
154.695651997
  0
LINE
  5
330
100
AcDbEntity
  8
0
100
AcDbLine
 62
7
  6
CONTINUOUS
 10
131.8592152934
 20
154.5411843202
 11
131.4431734707
 21
154.8271587421
  0
LINE
  5
331
100
AcDbEntity
  8
0
100
AcDbLine
 62
7
  6
CONTINUOUS
 10
112.4117896422
 20
154.1237031532
 11
112.0144733544
 21
154.5050023824
  0
LINE
  5
332
100
AcDbEntity
  8
0
100
AcDbLine
 62
7
  6
CONTINUOUS
 10
112.4117896422
 20
154.2552098983
 11
112.0144733544
 21
154.6365091275
  0
LINE
  5
333
100
AcDbEntity
  8
0
100
AcDbLine
 62
7
  6
CONTINUOUS
 10
105.2600902105
 20
151.1686337262
 11
105.0614314983
 21
151.4546081481
  0
LINE
  5
334
100
AcDbEntity
  8
0
100
AcDbLine
 62
7
  6
CONTINUOUS
 10
105.2600902105
 20
151.3001404713
 11
105.0614314983
 21
151.5861148932
  0
LINE
  5
335
100
AcDbEntity
  8
0
100
AcDbLine
 62
7
  6
CONTINUOUS
 10
111.8158146422
 20
154.0645602837
 11
112.0144733544
 21
153.7785855947
  0
LINE
  5
336
100
AcDbEntity
  8
0
100
AcDbLine
 62
7
  6
CONTINUOUS
 10
104.4654567825
 20
151.4907900859
 11
104.6641152105
 21
151.1094907899
  0
LINE
  5
337
100
AcDbEntity
  8
0
100
AcDbLine
 62
7
  6
CONTINUOUS
 10
103.5178734558
 20
150.4422170721
 11
102.6775317825
 21
152.503181162
  0
LINE
  5
338
100
AcDbEntity
  8
0
100
AcDbLine
 62
7
  6
CONTINUOUS
 10
103.5714942825
 20
150.4422170721
 11
102.6775317825
 21
152.6346879071
  0
LINE
  5
339
100
AcDbEntity
  8
0
100
AcDbLine
 62
7
  6
CONTINUOUS
 10
102.0815566404
 20
152.4440382925
 11
102.8761899263
 21
150.4422170721
  0
LINE
  5
33A
100
AcDbEntity
  8
0
100
AcDbLine
 62
7
  6
CONTINUOUS
 10
102.7768608544
 20
154.159885091
 11
102.8761899263
 21
153.8739106691
  0
LINE
  5
33B
100
AcDbEntity
  8
0
100
AcDbLine
 62
7
  6
CONTINUOUS
 10
88.0982515644
 20
165.2184893252
 11
90.7438639232
 21
156.0040695592
  0
LINE
  5
33C
100
AcDbEntity
  8
0
100
AcDbLine
 62
7
  6
CONTINUOUS
 10
88.0982515644
 20
162.8020931481
 11
90.7438639232
 21
153.4602904565
  0
LINE
  5
33D
100
AcDbEntity
  8
0
100
AcDbLine
 62
7
  6
CONTINUOUS
 10
90.7438639232
 20
144.1184736412
 11
92.5032861089
 21
136.9571750809
  0
LINE
  5
33E
100
AcDbEntity
  8
0
100
AcDbLine
 62
7
  6
CONTINUOUS
 10
90.7438639232
 20
145.8280613276
 11
92.5032861089
 21
138.6667627673
  0
LINE
  5
33F
100
AcDbEntity
  8
RUNDUNGEN
100
AcDbLine
 62
7
  6
CONTINUOUS
 10
87.0032861089
 20
31.9990494569
 11
87.0032861089
 21
41.4909016161
  0
LINE
  5
340
100
AcDbEntity
  8
RUNDUNGEN
100
AcDbLine
 62
7
  6
CONTINUOUS
 10
88.5250125329
 20
81.8817744194
 11
88.5250125329
 21
85.4173083253
  0
LINE
  5
341
100
AcDbEntity
  8
0
100
AcDbLine
 62
7
  6
CONTINUOUS
 10
90.7438639232
 20
144.1184736412
 11
90.7438639232
 21
156.0040695592
  0
LINE
  5
342
100
AcDbEntity
  8
0
100
AcDbLine
 62
7
  6
CONTINUOUS
 10
92.5032861089
 20
117.0219121477
 11
92.5032861089
 21
122.3752740934
  0
LINE
  5
343
100
AcDbEntity
  8
RUNDUNGEN
100
AcDbLine
 62
7
  6
CONTINUOUS
 10
92.5032861089
 20
122.3752740934
 11
92.5032861089
 21
153.1047049182
  0
LINE
  5
344
100
AcDbEntity
  8
RUNDUNGEN
100
AcDbLine
 62
7
  6
CONTINUOUS
 10
94.8532861089
 20
28.8170689415
 11
94.8532861089
 21
33.4132630192
  0
LINE
  5
345
100
AcDbEntity
  8
0
100
AcDbLine
 62
7
  6
CONTINUOUS
 10
97.1172861089
 20
112.3451946441
 11
97.1172861089
 21
112.960830902
  0
LINE
  5
346
100
AcDbEntity
  8
0
100
AcDbLine
 62
7
  6
CONTINUOUS
 10
142.5722870195
 20
154.3505347056
 11
142.8843182377
 21
154.159885091
  0
LINE
  5
347
100
AcDbEntity
  8
0
100
AcDbLine
 62
7
  6
CONTINUOUS
 10
133.5233816913
 20
151.1094907899
 11
133.939423514
 21
150.7281915273
  0
LINE
  5
348
100
AcDbEntity
  8
0
100
AcDbLine
 62
7
  6
CONTINUOUS
 10
131.3391631638
 20
154.3505347056
 11
131.5471840752
 21
154.159885091
  0
LINE
  5
349
100
AcDbEntity
  8
0
100
AcDbLine
 62
7
  6
CONTINUOUS
 10
137.1637463006
 20
154.1237031532
 11
136.7477044779
 21
154.5050023824
  0
LINE
  5
34A
100
AcDbEntity
  8
0
100
AcDbLine
 62
7
  6
CONTINUOUS
 10
137.1637463006
 20
154.2552098983
 11
136.7477044779
 21
154.6365091275
  0
LINE
  5
34B
100
AcDbEntity
  8
0
100
AcDbLine
 62
7
  6
CONTINUOUS
 10
140.5960897009
 20
151.1094907899
 11
140.9081209191
 21
150.8235163347
  0
LINE
  5
34C
100
AcDbEntity
  8
0
100
AcDbLine
 62
7
  6
CONTINUOUS
 10
143.5083806741
 20
154.1237031532
 11
143.1963494559
 21
154.4096775751
  0
LINE
  5
34D
100
AcDbEntity
  8
0
100
AcDbLine
 62
7
  6
CONTINUOUS
 10
143.5083806741
 20
154.2552098983
 11
143.1963494559
 21
154.5411843202
  0
LINE
  5
34E
100
AcDbEntity
  8
0
100
AcDbLine
 62
7
  6
CONTINUOUS
 10
132.171246214
 20
154.0283783459
 11
131.8592152934
 21
154.4096775751
  0
LINE
  5
34F
100
AcDbEntity
  8
0
100
AcDbLine
 62
7
  6
CONTINUOUS
 10
132.171246214
 20
154.159885091
 11
131.8592152934
 21
154.5411843202
  0
LINE
  5
350
100
AcDbEntity
  8
0
100
AcDbLine
 62
7
  6
CONTINUOUS
 10
134.1474441277
 20
151.1686337262
 11
133.939423514
 21
151.4546081481
  0
LINE
  5
351
100
AcDbEntity
  8
0
100
AcDbLine
 62
7
  6
CONTINUOUS
 10
134.1474441277
 20
151.3001404713
 11
133.939423514
 21
151.5861148932
  0
LINE
  5
352
100
AcDbEntity
  8
0
100
AcDbLine
 62
7
  6
CONTINUOUS
 10
112.6104483544
 20
153.742403924
 11
112.4117896422
 21
154.1237031532
  0
LINE
  5
353
100
AcDbEntity
  8
0
100
AcDbLine
 62
7
  6
CONTINUOUS
 10
112.6104483544
 20
153.8739106691
 11
112.4117896422
 21
154.2552098983
  0
LINE
  5
354
100
AcDbEntity
  8
0
100
AcDbLine
 62
7
  6
CONTINUOUS
 10
103.4721649263
 20
153.742403924
 11
103.3728358544
 21
154.0283783459
  0
LINE
  5
355
100
AcDbEntity
  8
0
100
AcDbLine
 62
7
  6
CONTINUOUS
 10
103.4721649263
 20
153.8739106691
 11
103.3728358544
 21
154.159885091
  0
LINE
  5
356
100
AcDbEntity
  8
0
100
AcDbLine
 62
7
  6
CONTINUOUS
 10
105.0614314983
 20
151.4546081481
 11
104.9621027105
 21
151.8359073773
  0
LINE
  5
357
100
AcDbEntity
  8
0
100
AcDbLine
 62
7
  6
CONTINUOUS
 10
105.0614314983
 20
151.5861148932
 11
104.9621027105
 21
151.9674141224
  0
LINE
  5
358
100
AcDbEntity
  8
0
100
AcDbLine
 62
7
  6
CONTINUOUS
 10
112.0144733544
 20
153.7785855947
 11
112.1138021422
 21
153.3972863655
  0
LINE
  5
359
100
AcDbEntity
  8
0
100
AcDbLine
 62
7
  6
CONTINUOUS
 10
104.3661274263
 20
151.9674141224
 11
104.4654567825
 21
151.4907900859
  0
LINE
  5
35A
100
AcDbEntity
  8
0
100
AcDbLine
 62
7
  6
CONTINUOUS
 10
99.7969858544
 20
154.9224835494
 11
99.7969858544
 21
150.4422170721
  0
LINE
  5
35B
100
AcDbEntity
  8
0
100
AcDbLine
 62
7
  6
CONTINUOUS
 10
100.3929608544
 20
150.4422170721
 11
100.3929608544
 21
152.4440382925
  0
LINE
  5
35C
100
AcDbEntity
  8
0
100
AcDbLine
 62
7
  6
CONTINUOUS
 10
100.3929608544
 20
152.8844803912
 11
100.3929608544
 21
154.4458595129
  0
LINE
  5
35D
100
AcDbEntity
  8
0
100
AcDbLine
 62
7
  6
CONTINUOUS
 10
102.1808858544
 20
154.9224835494
 11
102.1808858544
 21
154.7909768043
  0
LINE
  5
35E
100
AcDbEntity
  8
0
100
AcDbLine
 62
7
  6
CONTINUOUS
 10
102.2802149263
 20
153.0159871363
 11
102.2802149263
 21
152.8844803912
  0
LINE
  5
35F
100
AcDbEntity
  8
0
100
AcDbLine
 62
7
  6
CONTINUOUS
 10
102.5782024263
 20
153.1113119436
 11
102.5782024263
 21
152.9798051985
  0
LINE
  5
360
100
AcDbEntity
  8
0
100
AcDbLine
 62
7
  6
CONTINUOUS
 10
102.6775317825
 20
154.8271587421
 11
102.6775317825
 21
154.695651997
  0
LINE
  5
361
100
AcDbEntity
  8
0
100
AcDbLine
 62
7
  6
CONTINUOUS
 10
102.6775317825
 20
152.6346879071
 11
102.6775317825
 21
152.503181162
  0
LINE
  5
362
100
AcDbEntity
  8
0
100
AcDbLine
 62
7
  6
CONTINUOUS
 10
102.7768608544
 20
153.3019615582
 11
102.7768608544
 21
153.1704548131
  0
LINE
  5
363
100
AcDbEntity
  8
0
100
AcDbLine
 62
7
  6
CONTINUOUS
 10
102.8761899263
 20
153.8739106691
 11
102.8761899263
 21
153.456429235
  0
LINE
  5
364
100
AcDbEntity
  8
0
100
AcDbLine
 62
7
  6
CONTINUOUS
 10
103.0748483544
 20
154.5411843202
 11
103.0748483544
 21
154.4096775751
  0
LINE
  5
365
100
AcDbEntity
  8
0
100
AcDbLine
 62
7
  6
CONTINUOUS
 10
103.3728358544
 20
154.159885091
 11
103.3728358544
 21
154.0283783459
  0
LINE
  5
366
100
AcDbEntity
  8
0
100
AcDbLine
 62
7
  6
CONTINUOUS
 10
103.4721649263
 20
153.4926111728
 11
103.4721649263
 21
153.8739106691
  0
LINE
  5
367
100
AcDbEntity
  8
0
100
AcDbLine
 62
7
  6
CONTINUOUS
 10
104.3661274263
 20
154.9224835494
 11
104.3661274263
 21
151.9674141224
  0
LINE
  5
368
100
AcDbEntity
  8
0
100
AcDbLine
 62
7
  6
CONTINUOUS
 10
104.9621027105
 20
151.8359073773
 11
104.9621027105
 21
154.9224835494
  0
LINE
  5
369
100
AcDbEntity
  8
0
100
AcDbLine
 62
7
  6
CONTINUOUS
 10
105.0614314983
 20
151.5861148932
 11
105.0614314983
 21
151.4546081481
  0
LINE
  5
36A
100
AcDbEntity
  8
0
100
AcDbLine
 62
7
  6
CONTINUOUS
 10
105.2600902105
 20
151.3001404713
 11
105.2600902105
 21
151.1686337262
  0
LINE
  5
36B
100
AcDbEntity
  8
0
100
AcDbLine
 62
7
  6
CONTINUOUS
 10
105.5580777105
 20
151.1094907899
 11
105.5580777105
 21
150.9779840448
  0
LINE
  5
36C
100
AcDbEntity
  8
0
100
AcDbLine
 62
7
  6
CONTINUOUS
 10
105.9553939983
 20
151.0141659826
 11
105.9553939983
 21
150.8826592375
  0
LINE
  5
36D
100
AcDbEntity
  8
KONSTRUKTIONSELEMENTE
100
AcDbLine
 62
7
  6
CONTINUOUS
 10
106.1678258868
 20
133.9118259861
 11
106.1678258868
 21
137.8237663665
  0
LINE
  5
36E
100
AcDbEntity
  8
0
100
AcDbLine
 62
7
  6
CONTINUOUS
 10
106.3527108544
 20
151.0141659826
 11
106.3527108544
 21
150.8826592375
  0
LINE
  5
36F
100
AcDbEntity
  8
0
100
AcDbLine
 62
7
  6
CONTINUOUS
 10
106.4160183736
 20
83.0521590585
 11
106.4160183736
 21
78.3852543027
  0
LINE
  5
370
100
AcDbEntity
  8
0
100
AcDbLine
 62
7
  6
CONTINUOUS
 10
106.7500277105
 20
151.1094907899
 11
106.7500277105
 21
150.9779840448
  0
LINE
  5
371
100
AcDbEntity
  8
0
100
AcDbLine
 62
7
  6
CONTINUOUS
 10
107.0480152105
 20
151.3001404713
 11
107.0480152105
 21
151.1686337262
  0
LINE
  5
372
100
AcDbEntity
  8
0
100
AcDbLine
 62
7
  6
CONTINUOUS
 10
107.2466733544
 20
151.5861148932
 11
107.2466733544
 21
151.4546081481
  0
LINE
  5
373
100
AcDbEntity
  8
0
100
AcDbLine
 62
7
  6
CONTINUOUS
 10
107.3460027105
 20
154.9224835494
 11
107.3460027105
 21
151.8359073773
  0
LINE
  5
374
100
AcDbEntity
  8
0
100
AcDbLine
 62
7
  6
CONTINUOUS
 10
107.9419777105
 20
151.9674141224
 11
107.9419777105
 21
154.9224835494
  0
LINE
  5
375
100
AcDbEntity
  8
0
100
AcDbLine
 62
7
  6
CONTINUOUS
 10
108.0032861089
 20
375.4003851154
 11
108.0032861089
 21
169.5272587312
  0
LINE
  5
376
100
AcDbEntity
  8
0
100
AcDbLine
 62
7
  6
CONTINUOUS
 10
108.3660183736
 20
79.0216504058
 11
108.3660183736
 21
80.6479960025
  0
LINE
  5
377
100
AcDbEntity
  8
0
100
AcDbLine
 62
7
  6
CONTINUOUS
 10
108.3660183736
 20
81.1429707493
 11
108.3660183736
 21
82.7693163461
  0
LINE
  5
378
100
AcDbEntity
  8
0
100
AcDbLine
 62
7
  6
CONTINUOUS
 10
108.7366108544
 20
154.9224835494
 11
108.7366108544
 21
150.4422170721
  0
LINE
  5
379
100
AcDbEntity
  8
0
100
AcDbLine
 62
7
  6
CONTINUOUS
 10
108.8160183736
 20
82.2248441245
 11
108.8160183736
 21
81.3338895803
  0
LINE
  5
37A
100
AcDbEntity
  8
0
100
AcDbLine
 62
7
  6
CONTINUOUS
 10
108.8160183736
 20
80.103523781
 11
108.8160183736
 21
79.2125692367
  0
LINE
  5
37B
100
AcDbEntity
  8
0
100
AcDbLine
 62
7
  6
CONTINUOUS
 10
109.1910183736
 20
80.0610973741
 11
109.1910183736
 21
80.1883765947
  0
LINE
  5
37C
100
AcDbEntity
  8
0
100
AcDbLine
 62
7
  6
CONTINUOUS
 10
109.1910183736
 20
80.5065746463
 11
109.1910183736
 21
80.930838715
  0
LINE
  5
37D
100
AcDbEntity
  8
0
100
AcDbLine
 62
7
  6
CONTINUOUS
 10
109.1910183736
 20
81.2490367665
 11
109.1910183736
 21
81.7298693777
  0
LINE
  5
37E
100
AcDbEntity
  8
0
100
AcDbLine
 62
7
  6
CONTINUOUS
 10
109.3325858544
 20
150.8826592375
 11
109.3325858544
 21
154.3505347056
  0
LINE
  5
37F
100
AcDbEntity
  8
0
100
AcDbLine
 62
7
  6
CONTINUOUS
 10
109.6410183736
 20
81.7298693777
 11
109.6410183736
 21
81.2490367665
  0
LINE
  5
380
100
AcDbEntity
  8
0
100
AcDbLine
 62
7
  6
CONTINUOUS
 10
109.6410183736
 20
80.930838715
 11
109.6410183736
 21
80.5065746463
  0
LINE
  5
381
100
AcDbEntity
  8
0
100
AcDbLine
 62
7
  6
CONTINUOUS
 10
109.6410183736
 20
80.1883765947
 11
109.6410183736
 21
80.0610973741
  0
LINE
  5
382
100
AcDbEntity
  8
0
100
AcDbLine
 62
7
  6
CONTINUOUS
 10
110.0160183736
 20
79.2125692367
 11
110.0160183736
 21
80.103523781
  0
LINE
  5
383
100
AcDbEntity
  8
0
100
AcDbLine
 62
7
  6
CONTINUOUS
 10
110.0160183736
 20
81.3338895803
 11
110.0160183736
 21
82.2248441245
  0
LINE
  5
384
100
AcDbEntity
  8
0
100
AcDbLine
 62
7
  6
CONTINUOUS
 10
110.4660183736
 20
82.7693163461
 11
110.4660183736
 21
81.1429707493
  0
LINE
  5
385
100
AcDbEntity
  8
0
100
AcDbLine
 62
7
  6
CONTINUOUS
 10
110.4660183736
 20
80.6479960025
 11
110.4660183736
 21
79.0216504058
  0
LINE
  5
386
100
AcDbEntity
  8
0
100
AcDbLine
 62
7
  6
CONTINUOUS
 10
141.2201521373
 20
151.0733088521
 11
140.8041097195
 21
151.6452577627
  0
LINE
  5
387
100
AcDbEntity
  8
0
100
AcDbLine
 62
7
  6
CONTINUOUS
 10
141.2201521373
 20
151.2048155972
 11
140.8041097195
 21
151.7767645078
  0
LINE
  5
388
100
AcDbEntity
  8
0
100
AcDbLine
 62
7
  6
CONTINUOUS
 10
142.8843182377
 20
154.159885091
 11
143.3003594652
 21
153.5879359801
  0
LINE
  5
389
100
AcDbEntity
  8
0
100
AcDbLine
 62
7
  6
CONTINUOUS
 10
133.3153610776
 20
151.4907900859
 11
133.5233816913
 21
151.1094907899
  0
LINE
  5
38A
100
AcDbEntity
  8
0
100
AcDbLine
 62
7
  6
CONTINUOUS
 10
140.388068492
 20
151.4907900859
 11
140.5960897009
 21
151.1094907899
  0
LINE
  5
38B
100
AcDbEntity
  8
0
100
AcDbLine
 62
7
  6
CONTINUOUS
 10
132.3231195067
 20
150.4422170721
 11
131.4431734707
 21
152.503181162
  0
LINE
  5
38C
100
AcDbEntity
  8
0
100
AcDbLine
 62
7
  6
CONTINUOUS
 10
132.3792674229
 20
150.4422170721
 11
131.4431734707
 21
152.6346879071
  0
LINE
  5
38D
100
AcDbEntity
  8
0
100
AcDbLine
 62
7
  6
CONTINUOUS
 10
130.8191110343
 20
152.4440382925
 11
131.651194382
 21
150.4422170721
  0
LINE
  5
38E
100
AcDbEntity
  8
0
100
AcDbLine
 62
7
  6
CONTINUOUS
 10
112.7097771422
 20
153.2657796204
 11
112.6104483544
 21
153.742403924
  0
LINE
  5
38F
100
AcDbEntity
  8
0
100
AcDbLine
 62
7
  6
CONTINUOUS
 10
112.7097771422
 20
153.3972863655
 11
112.6104483544
 21
153.8739106691
  0
LINE
  5
390
100
AcDbEntity
  8
0
100
AcDbLine
 62
7
  6
CONTINUOUS
 10
111.1205108544
 20
154.9224835494
 11
111.1205108544
 21
154.7909768043
  0
LINE
  5
391
100
AcDbEntity
  8
0
100
AcDbLine
 62
7
  6
CONTINUOUS
 10
111.1205108544
 20
151.0141659826
 11
111.1205108544
 21
150.8826592375
  0
LINE
  5
392
100
AcDbEntity
  8
0
100
AcDbLine
 62
7
  6
CONTINUOUS
 10
111.5178271422
 20
151.1094907899
 11
111.5178271422
 21
150.9779840448
  0
LINE
  5
393
100
AcDbEntity
  8
0
100
AcDbLine
 62
7
  6
CONTINUOUS
 10
111.6171570666
 20
154.8271587421
 11
111.6171570666
 21
154.695651997
  0
LINE
  5
394
100
AcDbEntity
  8
0
100
AcDbLine
 62
7
  6
CONTINUOUS
 10
111.8158146422
 20
151.3001404713
 11
111.8158146422
 21
151.1686337262
  0
LINE
  5
395
100
AcDbEntity
  8
0
100
AcDbLine
 62
7
  6
CONTINUOUS
 10
112.0144733544
 20
154.6365091275
 11
112.0144733544
 21
154.5050023824
  0
LINE
  5
396
100
AcDbEntity
  8
0
100
AcDbLine
 62
7
  6
CONTINUOUS
 10
112.0144733544
 20
151.5861148932
 11
112.0144733544
 21
151.4546081481
  0
LINE
  5
397
100
AcDbEntity
  8
0
100
AcDbLine
 62
7
  6
CONTINUOUS
 10
112.1138021422
 20
153.3972863655
 11
112.1138021422
 21
151.8359073773
  0
LINE
  5
398
100
AcDbEntity
  8
0
100
AcDbLine
 62
7
  6
CONTINUOUS
 10
112.4117896422
 20
154.2552098983
 11
112.4117896422
 21
154.1237031532
  0
LINE
  5
399
100
AcDbEntity
  8
0
100
AcDbLine
 62
7
  6
CONTINUOUS
 10
112.4160183736
 20
78.3852543027
 11
112.4160183736
 21
83.0521590585
  0
LINE
  5
39A
100
AcDbEntity
  8
0
100
AcDbLine
 62
7
  6
CONTINUOUS
 10
112.6104483544
 20
153.8739106691
 11
112.6104483544
 21
153.742403924
  0
LINE
  5
39B
100
AcDbEntity
  8
0
100
AcDbLine
 62
7
  6
CONTINUOUS
 10
112.7097771422
 20
151.9674141224
 11
112.7097771422
 21
153.3972863655
  0
LINE
  5
39C
100
AcDbEntity
  8
KONSTRUKTIONSELEMENTE
100
AcDbLine
 62
7
  6
CONTINUOUS
 10
113.0032861089
 20
109.7807953874
 11
113.0032861089
 21
116.1973000792
  0
LINE
  5
39D
100
AcDbEntity
  8
0
100
AcDbLine
 62
7
  6
CONTINUOUS
 10
114.3618196751
 20
83.4764231272
 11
114.3618196751
 21
82.8329559564
  0
LINE
  5
39E
100
AcDbEntity
  8
0
100
AcDbLine
 62
7
  6
CONTINUOUS
 10
114.3618196751
 20
82.2389862602
 11
114.3618196751
 21
77.960990234
  0
LINE
  5
39F
100
AcDbEntity
  8
0
100
AcDbLine
 62
7
  6
CONTINUOUS
 10
114.7532861089
 20
133.0043959998
 11
114.7532861089
 21
116.5690671797
  0
LINE
  5
3A0
100
AcDbEntity
  8
KONSTRUKTIONSELEMENTE
100
AcDbLine
 62
7
  6
CONTINUOUS
 10
114.7532861089
 20
133.0043959998
 11
114.7532861089
 21
145.3607893825
  0
LINE
  5
3A1
100
AcDbEntity
  8
0
100
AcDbLine
 62
7
  6
CONTINUOUS
 10
115.3218196751
 20
77.960990234
 11
115.3218196751
 21
80.9758577901
  0
LINE
  5
3A2
100
AcDbEntity
  8
0
100
AcDbLine
 62
7
  6
CONTINUOUS
 10
115.3218196751
 20
81.3011269095
 11
115.3218196751
 21
82.2389862602
  0
LINE
  5
3A3
100
AcDbEntity
  8
KONSTRUKTIONSELEMENTE
100
AcDbLine
 62
7
  6
CONTINUOUS
 10
117.5032861089
 20
109.7807953874
 11
117.5032861089
 21
120.3873971052
  0
LINE
  5
3A4
100
AcDbEntity
  8
KONSTRUKTIONSELEMENTE
100
AcDbLine
 62
7
  6
CONTINUOUS
 10
117.5032861089
 20
140.8934937596
 11
117.5032861089
 21
142.2867843455
  0
LINE
  5
3A5
100
AcDbEntity
  8
0
100
AcDbLine
 62
7
  6
CONTINUOUS
 10
117.7218196751
 20
80.6223043995
 11
117.7218196751
 21
80.9758577901
  0
LINE
  5
3A6
100
AcDbEntity
  8
KONSTRUKTIONSELEMENTE
100
AcDbLine
 62
7
  6
CONTINUOUS
 10
118.5032861089
 20
111.4921391894
 11
118.5032861089
 21
88.990430836
  0
LINE
  5
3A7
100
AcDbEntity
  8
0
100
AcDbLine
 62
7
  6
CONTINUOUS
 10
118.7439681941
 20
80.728078263
 11
118.7439681941
 21
81.0816316536
  0
LINE
  5
3A8
100
AcDbEntity
  8
KONSTRUKTIONSELEMENTE
100
AcDbLine
 62
7
  6
CONTINUOUS
 10
118.7532861089
 20
119.6363366206
 11
118.7532861089
 21
122.0420586368
  0
LINE
  5
3A9
100
AcDbEntity
  8
KONSTRUKTIONSELEMENTE
100
AcDbLine
 62
7
  6
CONTINUOUS
 10
118.7532861089
 20
136.1532086368
 11
118.7532861089
 21
141.6445542442
  0
LINE
  5
3AA
100
AcDbEntity
  8
0
100
AcDbLine
 62
7
  6
CONTINUOUS
 10
119.2049863818
 20
82.4205948235
 11
119.2049863818
 21
82.0670414329
  0
LINE
  5
3AB
100
AcDbEntity
  8
0
100
AcDbLine
 62
7
  6
CONTINUOUS
 10
119.894773592
 20
77.960990234
 11
119.894773592
 21
78.3145436246
  0
LINE
  5
3AC
100
AcDbEntity
  8
0
100
AcDbLine
 62
7
  6
CONTINUOUS
 10
121.5618196751
 20
83.4764231272
 11
121.5618196751
 21
79.9867347808
  0
LINE
  5
3AD
100
AcDbEntity
  8
0
100
AcDbLine
 62
7
  6
CONTINUOUS
 10
122.5218196751
 20
79.9867347808
 11
122.5218196751
 21
83.4764231272
  0
LINE
  5
3AE
100
AcDbEntity
  8
KONSTRUKTIONSELEMENTE
100
AcDbLine
 62
7
  6
CONTINUOUS
 10
123.2532861089
 20
119.6363366206
 11
123.2532861089
 21
122.0420586368
  0
LINE
  5
3AF
100
AcDbEntity
  8
KONSTRUKTIONSELEMENTE
100
AcDbLine
 62
7
  6
CONTINUOUS
 10
123.2532861089
 20
136.1532086368
 11
123.2532861089
 21
141.6445542442
  0
LINE
  5
3B0
100
AcDbEntity
  8
0
100
AcDbLine
 62
7
  6
CONTINUOUS
 10
107.8426483544
 20
151.4907900859
 11
107.9419777105
 21
151.9674141224
  0
LINE
  5
3B1
100
AcDbEntity
  8
0
100
AcDbLine
 62
7
  6
CONTINUOUS
 10
107.3460027105
 20
151.9674141224
 11
107.2466733544
 21
151.5861148932
  0
LINE
  5
3B2
100
AcDbEntity
  8
0
100
AcDbLine
 62
7
  6
CONTINUOUS
 10
107.3460027105
 20
151.8359073773
 11
107.2466733544
 21
151.4546081481
  0
LINE
  5
3B3
100
AcDbEntity
  8
0
100
AcDbLine
 62
7
  6
CONTINUOUS
 10
102.8761899263
 20
153.5879359801
 11
102.7768608544
 21
153.3019615582
  0
LINE
  5
3B4
100
AcDbEntity
  8
0
100
AcDbLine
 62
7
  6
CONTINUOUS
 10
102.8761899263
 20
153.456429235
 11
102.7768608544
 21
153.1704548131
  0
LINE
  5
3B5
100
AcDbEntity
  8
0
100
AcDbLine
 62
7
  6
CONTINUOUS
 10
103.3728358544
 20
153.2066367509
 11
103.4721649263
 21
153.4926111728
  0
LINE
  5
3B6
100
AcDbEntity
  8
0
100
AcDbLine
 62
7
  6
CONTINUOUS
 10
143.716401883
 20
153.742403924
 11
143.5083806741
 21
154.1237031532
  0
LINE
  5
3B7
100
AcDbEntity
  8
0
100
AcDbLine
 62
7
  6
CONTINUOUS
 10
143.716401883
 20
153.8739106691
 11
143.5083806741
 21
154.2552098983
  0
LINE
  5
3B8
100
AcDbEntity
  8
0
100
AcDbLine
 62
7
  6
CONTINUOUS
 10
131.5471840752
 20
154.159885091
 11
131.651194382
 21
153.8739106691
  0
LINE
  5
3B9
100
AcDbEntity
  8
0
100
AcDbLine
 62
7
  6
CONTINUOUS
 10
132.2752568185
 20
153.742403924
 11
132.171246214
 21
154.0283783459
  0
LINE
  5
3BA
100
AcDbEntity
  8
0
100
AcDbLine
 62
7
  6
CONTINUOUS
 10
132.2752568185
 20
153.8739106691
 11
132.171246214
 21
154.159885091
  0
LINE
  5
3BB
100
AcDbEntity
  8
0
100
AcDbLine
 62
7
  6
CONTINUOUS
 10
136.539683269
 20
154.0645602837
 11
136.6436938734
 21
153.7785855947
  0
LINE
  5
3BC
100
AcDbEntity
  8
0
100
AcDbLine
 62
7
  6
CONTINUOUS
 10
140.2840584827
 20
151.7767645078
 11
140.388068492
 21
151.4907900859
  0
LINE
  5
3BD
100
AcDbEntity
  8
0
100
AcDbLine
 62
7
  6
CONTINUOUS
 10
133.939423514
 20
151.4546081481
 11
133.8354129095
 21
151.8359073773
  0
LINE
  5
3BE
100
AcDbEntity
  8
0
100
AcDbLine
 62
7
  6
CONTINUOUS
 10
133.939423514
 20
151.5861148932
 11
133.8354129095
 21
151.9674141224
  0
LINE
  5
3BF
100
AcDbEntity
  8
0
100
AcDbLine
 62
7
  6
CONTINUOUS
 10
133.2113504731
 20
151.9674141224
 11
133.3153610776
 21
151.4907900859
  0
LINE
  5
3C0
100
AcDbEntity
  8
KONSTRUKTIONSELEMENTE
100
AcDbLine
 62
7
  6
CONTINUOUS
 10
123.5032861089
 20
111.4921391894
 11
123.5032861089
 21
88.990430836
  0
LINE
  5
3C1
100
AcDbEntity
  8
KONSTRUKTIONSELEMENTE
100
AcDbLine
 62
7
  6
CONTINUOUS
 10
124.5032861089
 20
142.2867843455
 11
124.5032861089
 21
140.8934937596
  0
LINE
  5
3C2
100
AcDbEntity
  8
KONSTRUKTIONSELEMENTE
100
AcDbLine
 62
7
  6
CONTINUOUS
 10
124.5032861089
 20
120.3873971052
 11
124.5032861089
 21
109.7807953874
  0
LINE
  5
3C3
100
AcDbEntity
  8
0
100
AcDbLine
 62
7
  6
CONTINUOUS
 10
126.2959550357
 20
83.4764231272
 11
126.2959550357
 21
79.9867347808
  0
LINE
  5
3C4
100
AcDbEntity
  8
0
100
AcDbLine
 62
7
  6
CONTINUOUS
 10
126.9707261089
 20
154.9224835494
 11
126.9707261089
 21
150.4422170721
  0
LINE
  5
3C5
100
AcDbEntity
  8
0
100
AcDbLine
 62
7
  6
CONTINUOUS
 10
127.2532861089
 20
116.5690671797
 11
127.2532861089
 21
133.0043959998
  0
LINE
  5
3C6
100
AcDbEntity
  8
KONSTRUKTIONSELEMENTE
100
AcDbLine
 62
7
  6
CONTINUOUS
 10
127.2532861089
 20
133.0043959998
 11
127.2532861089
 21
145.3607893825
  0
LINE
  5
3C7
100
AcDbEntity
  8
0
100
AcDbLine
 62
7
  6
CONTINUOUS
 10
127.2559550357
 20
79.9867347808
 11
127.2559550357
 21
83.4764231272
  0
LINE
  5
3C8
100
AcDbEntity
  8
0
100
AcDbLine
 62
7
  6
CONTINUOUS
 10
127.5947885453
 20
150.4422170721
 11
127.5947885453
 21
154.9224835494
  0
LINE
  5
3C9
100
AcDbEntity
  8
0
100
AcDbLine
 62
7
  6
CONTINUOUS
 10
128.4268717442
 20
154.9224835494
 11
128.4268717442
 21
150.4422170721
  0
LINE
  5
3CA
100
AcDbEntity
  8
KONSTRUKTIONSELEMENTE
100
AcDbLine
 62
7
  6
CONTINUOUS
 10
129.0032861089
 20
116.1973000792
 11
129.0032861089
 21
109.7807953874
  0
LINE
  5
3CB
100
AcDbEntity
  8
0
100
AcDbLine
 62
7
  6
CONTINUOUS
 10
129.0509341807
 20
150.4422170721
 11
129.0509341807
 21
152.4440382925
  0
LINE
  5
3CC
100
AcDbEntity
  8
0
100
AcDbLine
 62
7
  6
CONTINUOUS
 10
129.0509341807
 20
152.8844803912
 11
129.0509341807
 21
154.4458595129
  0
LINE
  5
3CD
100
AcDbEntity
  8
0
100
AcDbLine
 62
7
  6
CONTINUOUS
 10
129.3559550357
 20
83.4764231272
 11
129.3559550357
 21
82.7976006173
  0
LINE
  5
3CE
100
AcDbEntity
  8
0
100
AcDbLine
 62
7
  6
CONTINUOUS
 10
129.3559550357
 20
82.2036309211
 11
129.3559550357
 21
77.960990234
  0
LINE
  5
3CF
100
AcDbEntity
  8
0
100
AcDbLine
 62
7
  6
CONTINUOUS
 10
130.3159550357
 20
78.6680970152
 11
130.3159550357
 21
82.2036309211
  0
LINE
  5
3D0
100
AcDbEntity
  8
0
100
AcDbLine
 62
7
  6
CONTINUOUS
 10
130.9231216387
 20
154.9224835494
 11
130.9231216387
 21
154.7909768043
  0
LINE
  5
3D1
100
AcDbEntity
  8
0
100
AcDbLine
 62
7
  6
CONTINUOUS
 10
131.0271319456
 20
153.0159871363
 11
131.0271319456
 21
152.8844803912
  0
LINE
  5
3D2
100
AcDbEntity
  8
0
100
AcDbLine
 62
7
  6
CONTINUOUS
 10
131.3391631638
 20
153.1113119436
 11
131.3391631638
 21
152.9798051985
  0
LINE
  5
3D3
100
AcDbEntity
  8
0
100
AcDbLine
 62
7
  6
CONTINUOUS
 10
131.4431734707
 20
154.8271587421
 11
131.4431734707
 21
154.695651997
  0
LINE
  5
3D4
100
AcDbEntity
  8
0
100
AcDbLine
 62
7
  6
CONTINUOUS
 10
131.4431734707
 20
152.6346879071
 11
131.4431734707
 21
152.503181162
  0
LINE
  5
3D5
100
AcDbEntity
  8
0
100
AcDbLine
 62
7
  6
CONTINUOUS
 10
131.5471840752
 20
153.3019615582
 11
131.5471840752
 21
153.1704548131
  0
LINE
  5
3D6
100
AcDbEntity
  8
0
100
AcDbLine
 62
7
  6
CONTINUOUS
 10
131.651194382
 20
153.8739106691
 11
131.651194382
 21
153.456429235
  0
LINE
  5
3D7
100
AcDbEntity
  8
0
100
AcDbLine
 62
7
  6
CONTINUOUS
 10
131.8592152934
 20
154.5411843202
 11
131.8592152934
 21
154.4096775751
  0
LINE
  5
3D8
100
AcDbEntity
  8
0
100
AcDbLine
 62
7
  6
CONTINUOUS
 10
132.171246214
 20
154.159885091
 11
132.171246214
 21
154.0283783459
  0
LINE
  5
3D9
100
AcDbEntity
  8
0
100
AcDbLine
 62
7
  6
CONTINUOUS
 10
132.2752568185
 20
153.4926111728
 11
132.2752568185
 21
153.8739106691
  0
LINE
  5
3DA
100
AcDbEntity
  8
0
100
AcDbLine
 62
7
  6
CONTINUOUS
 10
133.2113504731
 20
153.3972863655
 11
133.2113504731
 21
151.9674141224
  0
LINE
  5
3DB
100
AcDbEntity
  8
0
100
AcDbLine
 62
7
  6
CONTINUOUS
 10
133.3153610776
 20
153.8739106691
 11
133.3153610776
 21
153.742403924
  0
LINE
  5
3DC
100
AcDbEntity
  8
0
100
AcDbLine
 62
7
  6
CONTINUOUS
 10
133.5233816913
 20
154.2552098983
 11
133.5233816913
 21
154.1237031532
  0
LINE
  5
3DD
100
AcDbEntity
  8
0
100
AcDbLine
 62
7
  6
CONTINUOUS
 10
133.8354129095
 20
151.8359073773
 11
133.8354129095
 21
153.3972863655
  0
LINE
  5
3DE
100
AcDbEntity
  8
0
100
AcDbLine
 62
7
  6
CONTINUOUS
 10
133.939423514
 20
154.6365091275
 11
133.939423514
 21
154.5050023824
  0
LINE
  5
3DF
100
AcDbEntity
  8
0
100
AcDbLine
 62
7
  6
CONTINUOUS
 10
133.939423514
 20
151.5861148932
 11
133.939423514
 21
151.4546081481
  0
LINE
  5
3E0
100
AcDbEntity
  8
0
100
AcDbLine
 62
7
  6
CONTINUOUS
 10
134.0032861089
 20
375.4003851154
 11
134.0032861089
 21
169.5272587312
  0
LINE
  5
3E1
100
AcDbEntity
  8
0
100
AcDbLine
 62
7
  6
CONTINUOUS
 10
134.1474441277
 20
151.3001404713
 11
134.1474441277
 21
151.1686337262
  0
LINE
  5
3E2
100
AcDbEntity
  8
0
100
AcDbLine
 62
7
  6
CONTINUOUS
 10
134.3554647415
 20
154.8271587421
 11
134.3554647415
 21
154.695651997
  0
LINE
  5
3E3
100
AcDbEntity
  8
0
100
AcDbLine
 62
7
  6
CONTINUOUS
 10
134.4485687885
 20
81.0864022068
 11
134.4485687885
 21
80.7328488162
  0
LINE
  5
3E4
100
AcDbEntity
  8
0
100
AcDbLine
 62
7
  6
CONTINUOUS
 10
134.4594753459
 20
151.1094907899
 11
134.4594753459
 21
150.9779840448
  0
LINE
  5
3E5
100
AcDbEntity
  8
0
100
AcDbLine
 62
7
  6
CONTINUOUS
 10
134.8755171686
 20
154.9224835494
 11
134.8755171686
 21
154.7909768043
  0
LINE
  5
3E6
100
AcDbEntity
  8
0
100
AcDbLine
 62
7
  6
CONTINUOUS
 10
134.8755171686
 20
151.0141659826
 11
134.8755171686
 21
150.8826592375
  0
LINE
  5
3E7
100
AcDbEntity
  8
0
100
AcDbLine
 62
7
  6
CONTINUOUS
 10
112.6104483544
 20
151.4907900859
 11
112.7097771422
 21
151.9674141224
  0
LINE
  5
3E8
100
AcDbEntity
  8
0
100
AcDbLine
 62
7
  6
CONTINUOUS
 10
112.1138021422
 20
151.9674141224
 11
112.0144733544
 21
151.5861148932
  0
LINE
  5
3E9
100
AcDbEntity
  8
0
100
AcDbLine
 62
7
  6
CONTINUOUS
 10
112.1138021422
 20
151.8359073773
 11
112.0144733544
 21
151.4546081481
  0
LINE
  5
3EA
100
AcDbEntity
  8
0
100
AcDbLine
 62
7
  6
CONTINUOUS
 10
143.8204118923
 20
153.456429235
 11
143.716401883
 21
153.742403924
  0
LINE
  5
3EB
100
AcDbEntity
  8
0
100
AcDbLine
 62
7
  6
CONTINUOUS
 10
143.8204118923
 20
153.5879359801
 11
143.716401883
 21
153.8739106691
  0
LINE
  5
3EC
100
AcDbEntity
  8
0
100
AcDbLine
 62
7
  6
CONTINUOUS
 10
137.2403631071
 20
153.7726077895
 11
137.1637463006
 21
154.1237031532
  0
LINE
  5
3ED
100
AcDbEntity
  8
0
100
AcDbLine
 62
7
  6
CONTINUOUS
 10
137.2677563099
 20
153.7785855947
 11
137.1637463006
 21
154.2552098983
  0
LINE
  5
3EE
100
AcDbEntity
  8
0
100
AcDbLine
 62
7
  6
CONTINUOUS
 10
140.1800472831
 20
152.2533886779
 11
140.2840584827
 21
151.7767645078
  0
LINE
  5
3EF
100
AcDbEntity
  8
0
100
AcDbLine
 62
7
  6
CONTINUOUS
 10
143.9244219016
 20
152.9798051985
 11
143.8204118923
 21
153.456429235
  0
LINE
  5
3F0
100
AcDbEntity
  8
0
100
AcDbLine
 62
7
  6
CONTINUOUS
 10
143.9244219016
 20
153.1113119436
 11
143.8204118923
 21
153.5879359801
  0
LINE
  5
3F1
100
AcDbEntity
  8
0
100
AcDbLine
 62
7
  6
CONTINUOUS
 10
140.8041097195
 20
151.6452577627
 11
140.7000997102
 21
152.2172067401
  0
LINE
  5
3F2
100
AcDbEntity
  8
0
100
AcDbLine
 62
7
  6
CONTINUOUS
 10
140.8041097195
 20
151.7767645078
 11
140.7000997102
 21
152.3487134852
  0
LINE
  5
3F3
100
AcDbEntity
  8
0
100
AcDbLine
 62
7
  6
CONTINUOUS
 10
143.3003594652
 20
153.5879359801
 11
143.4043706648
 21
153.0159871363
  0
LINE
  5
3F4
100
AcDbEntity
  8
0
100
AcDbLine
 62
7
  6
CONTINUOUS
 10
135.7076002188
 20
152.920662329
 11
135.7076002188
 21
152.3487134852
  0
LINE
  5
3F5
100
AcDbEntity
  8
0
100
AcDbLine
 62
7
  6
CONTINUOUS
 10
135.8116108233
 20
154.9224835494
 11
135.8116108233
 21
154.7909768043
  0
LINE
  5
3F6
100
AcDbEntity
  8
0
100
AcDbLine
 62
7
  6
CONTINUOUS
 10
135.8116108233
 20
151.0141659826
 11
135.8116108233
 21
150.8826592375
  0
LINE
  5
3F7
100
AcDbEntity
  8
KONSTRUKTIONSELEMENTE
100
AcDbLine
 62
7
  6
CONTINUOUS
 10
135.8387463309
 20
133.9118259861
 11
135.8387463309
 21
137.8237663665
  0
LINE
  5
3F8
100
AcDbEntity
  8
0
100
AcDbLine
 62
7
  6
CONTINUOUS
 10
136.2276520508
 20
151.1094907899
 11
136.2276520508
 21
150.9779840448
  0
LINE
  5
3F9
100
AcDbEntity
  8
0
100
AcDbLine
 62
7
  6
CONTINUOUS
 10
136.3316626552
 20
154.8271587421
 11
136.3316626552
 21
154.695651997
  0
LINE
  5
3FA
100
AcDbEntity
  8
0
100
AcDbLine
 62
7
  6
CONTINUOUS
 10
136.539683269
 20
151.3001404713
 11
136.539683269
 21
151.1686337262
  0
LINE
  5
3FB
100
AcDbEntity
  8
0
100
AcDbLine
 62
7
  6
CONTINUOUS
 10
136.6436938734
 20
152.3487134852
 11
136.6436938734
 21
151.4546081481
  0
LINE
  5
3FC
100
AcDbEntity
  8
0
100
AcDbLine
 62
7
  6
CONTINUOUS
 10
136.7477044779
 20
154.6365091275
 11
136.7477044779
 21
154.5050023824
  0
LINE
  5
3FD
100
AcDbEntity
  8
0
100
AcDbLine
 62
7
  6
CONTINUOUS
 10
137.1637463006
 20
154.2552098983
 11
137.1637463006
 21
154.1237031532
  0
LINE
  5
3FE
100
AcDbEntity
  8
0
100
AcDbLine
 62
7
  6
CONTINUOUS
 10
137.2677563099
 20
151.4907900859
 11
137.2677563099
 21
152.920662329
  0
LINE
  5
3FF
100
AcDbEntity
  8
0
100
AcDbLine
 62
7
  6
CONTINUOUS
 10
138.0998399552
 20
154.2552098983
 11
138.0998399552
 21
153.4926111728
  0
LINE
  5
400
100
AcDbEntity
  8
0
100
AcDbLine
 62
7
  6
CONTINUOUS
 10
138.7239023916
 20
154.9224835494
 11
138.7239023916
 21
154.7909768043
  0
LINE
  5
401
100
AcDbEntity
  8
0
100
AcDbLine
 62
7
  6
CONTINUOUS
 10
138.7239023916
 20
154.159885091
 11
138.7239023916
 21
150.4422170721
  0
LINE
  5
402
100
AcDbEntity
  8
0
100
AcDbLine
 62
7
  6
CONTINUOUS
 10
139.347964828
 20
150.4422170721
 11
139.347964828
 21
154.9224835494
  0
LINE
  5
403
100
AcDbEntity
  8
0
100
AcDbLine
 62
7
  6
CONTINUOUS
 10
140.1800472831
 20
153.1113119436
 11
140.1800472831
 21
152.2533886779
  0
LINE
  5
404
100
AcDbEntity
  8
0
100
AcDbLine
 62
7
  6
CONTINUOUS
 10
140.2840584827
 20
153.5879359801
 11
140.2840584827
 21
153.456429235
  0
LINE
  5
405
100
AcDbEntity
  8
0
100
AcDbLine
 62
7
  6
CONTINUOUS
 10
140.388068492
 20
153.8739106691
 11
140.388068492
 21
153.742403924
  0
LINE
  5
406
100
AcDbEntity
  8
0
100
AcDbLine
 62
7
  6
CONTINUOUS
 10
140.5960897009
 20
154.2552098983
 11
140.5960897009
 21
154.1237031532
  0
LINE
  5
407
100
AcDbEntity
  8
0
100
AcDbLine
 62
7
  6
CONTINUOUS
 10
140.7000997102
 20
152.2172067401
 11
140.7000997102
 21
153.0159871363
  0
LINE
  5
408
100
AcDbEntity
  8
0
100
AcDbLine
 62
7
  6
CONTINUOUS
 10
140.8041097195
 20
151.7767645078
 11
140.8041097195
 21
151.6452577627
  0
LINE
  5
409
100
AcDbEntity
  8
0
100
AcDbLine
 62
7
  6
CONTINUOUS
 10
140.9081209191
 20
154.5411843202
 11
140.9081209191
 21
154.4096775751
  0
LINE
  5
40A
100
AcDbEntity
  8
0
100
AcDbLine
 62
7
  6
CONTINUOUS
 10
141.2201521373
 20
151.2048155972
 11
141.2201521373
 21
151.0733088521
  0
LINE
  5
40B
100
AcDbEntity
  8
0
100
AcDbLine
 62
7
  6
CONTINUOUS
 10
141.4281721559
 20
154.8271587421
 11
141.4281721559
 21
154.695651997
  0
LINE
  5
40C
100
AcDbEntity
  8
0
100
AcDbLine
 62
7
  6
CONTINUOUS
 10
141.5321833555
 20
151.0141659826
 11
141.5321833555
 21
150.8826592375
  0
LINE
  5
40D
100
AcDbEntity
  8
0
100
AcDbLine
 62
7
  6
CONTINUOUS
 10
142.0522345923
 20
154.9224835494
 11
142.0522345923
 21
154.7909768043
  0
LINE
  5
40E
100
AcDbEntity
  8
0
100
AcDbLine
 62
7
  6
CONTINUOUS
 10
142.0522345923
 20
150.9188411753
 11
142.0522345923
 21
150.7873344302
  0
LINE
  5
40F
100
AcDbEntity
  8
0
100
AcDbLine
 62
7
  6
CONTINUOUS
 10
142.5722870195
 20
151.0141659826
 11
142.5722870195
 21
150.8826592375
  0
LINE
  5
410
100
AcDbEntity
  8
0
100
AcDbLine
 62
7
  6
CONTINUOUS
 10
142.6762970288
 20
154.8271587421
 11
142.6762970288
 21
154.695651997
  0
LINE
  5
411
100
AcDbEntity
  8
0
100
AcDbLine
 62
7
  6
CONTINUOUS
 10
142.8843182377
 20
151.2048155972
 11
142.8843182377
 21
151.0733088521
  0
LINE
  5
412
100
AcDbEntity
  8
0
100
AcDbLine
 62
7
  6
CONTINUOUS
 10
143.1963494559
 20
154.5411843202
 11
143.1963494559
 21
154.4096775751
  0
LINE
  5
413
100
AcDbEntity
  8
0
100
AcDbLine
 62
7
  6
CONTINUOUS
 10
143.3003594652
 20
151.7767645078
 11
143.3003594652
 21
151.6452577627
  0
LINE
  5
414
100
AcDbEntity
  8
0
100
AcDbLine
 62
7
  6
CONTINUOUS
 10
143.4043706648
 20
153.0159871363
 11
143.4043706648
 21
152.2172067401
  0
LINE
  5
415
100
AcDbEntity
  8
0
100
AcDbLine
 62
7
  6
CONTINUOUS
 10
143.5083806741
 20
154.2552098983
 11
143.5083806741
 21
154.1237031532
  0
LINE
  5
416
100
AcDbEntity
  8
0
100
AcDbLine
 62
7
  6
CONTINUOUS
 10
143.716401883
 20
153.8739106691
 11
143.716401883
 21
153.742403924
  0
LINE
  5
417
100
AcDbEntity
  8
0
100
AcDbLine
 62
7
  6
CONTINUOUS
 10
143.8204118923
 20
153.5879359801
 11
143.8204118923
 21
153.456429235
  0
LINE
  5
418
100
AcDbEntity
  8
0
100
AcDbLine
 62
7
  6
CONTINUOUS
 10
143.9244219016
 20
152.2533886779
 11
143.9244219016
 21
153.1113119436
  0
LINE
  5
419
100
AcDbEntity
  8
0
100
AcDbLine
 62
7
  6
CONTINUOUS
 10
144.8892861089
 20
112.960830902
 11
144.8892861089
 21
112.3451946441
  0
LINE
  5
41A
100
AcDbEntity
  8
RUNDUNGEN
100
AcDbLine
 62
7
  6
CONTINUOUS
 10
147.1532861089
 20
33.4132630192
 11
147.1532861089
 21
28.8170689415
  0
LINE
  5
41B
100
AcDbEntity
  8
0
100
AcDbLine
 62
7
  6
CONTINUOUS
 10
133.3153610776
 20
153.8739106691
 11
133.2113504731
 21
153.3972863655
  0
LINE
  5
41C
100
AcDbEntity
  8
0
100
AcDbLine
 62
7
  6
CONTINUOUS
 10
133.3153610776
 20
153.742403924
 11
133.2113504731
 21
153.2657796204
  0
LINE
  5
41D
100
AcDbEntity
  8
0
100
AcDbLine
 62
7
  6
CONTINUOUS
 10
133.8354129095
 20
153.3972863655
 11
133.939423514
 21
153.7785855947
  0
LINE
  5
41E
100
AcDbEntity
  8
0
100
AcDbLine
 62
7
  6
CONTINUOUS
 10
107.6439902105
 20
151.1094907899
 11
107.8426483544
 21
151.4907900859
  0
LINE
  5
41F
100
AcDbEntity
  8
0
100
AcDbLine
 62
7
  6
CONTINUOUS
 10
112.4117896422
 20
151.1094907899
 11
112.6104483544
 21
151.4907900859
  0
LINE
  5
420
100
AcDbEntity
  8
0
100
AcDbLine
 62
7
  6
CONTINUOUS
 10
107.2466733544
 20
151.5861148932
 11
107.0480152105
 21
151.3001404713
  0
LINE
  5
421
100
AcDbEntity
  8
0
100
AcDbLine
 62
7
  6
CONTINUOUS
 10
107.2466733544
 20
151.4546081481
 11
107.0480152105
 21
151.1686337262
  0
LINE
  5
422
100
AcDbEntity
  8
0
100
AcDbLine
 62
7
  6
CONTINUOUS
 10
112.0144733544
 20
151.5861148932
 11
111.8158146422
 21
151.3001404713
  0
LINE
  5
423
100
AcDbEntity
  8
0
100
AcDbLine
 62
7
  6
CONTINUOUS
 10
112.0144733544
 20
151.4546081481
 11
111.8158146422
 21
151.1686337262
  0
LINE
  5
424
100
AcDbEntity
  8
0
100
AcDbLine
 62
7
  6
CONTINUOUS
 10
103.0748483544
 20
152.8253375217
 11
103.3728358544
 21
153.2066367509
  0
LINE
  5
425
100
AcDbEntity
  8
0
100
AcDbLine
 62
7
  6
CONTINUOUS
 10
149.5032861089
 20
122.3752740934
 11
149.5032861089
 21
117.0219121477
  0
LINE
  5
426
100
AcDbEntity
  8
RUNDUNGEN
100
AcDbLine
 62
7
  6
CONTINUOUS
 10
149.5032861089
 20
122.3752740934
 11
149.5032861089
 21
153.1047049182
  0
LINE
  5
427
100
AcDbEntity
  8
0
100
AcDbLine
 62
7
  6
CONTINUOUS
 10
151.2627082945
 20
144.1184736412
 11
151.2627082945
 21
156.0040695592
  0
LINE
  5
428
100
AcDbEntity
  8
RUNDUNGEN
100
AcDbLine
 62
7
  6
CONTINUOUS
 10
155.0032861089
 20
31.9990494569
 11
155.0032861089
 21
41.4909016161
  0
LINE
  5
429
100
AcDbEntity
  8
0
100
AcDbLine
 62
7
  6
CONTINUOUS
 10
155.9438571977
 20
170.1495702844
 11
155.9438571977
 21
172.1481865496
  0
LINE
  5
42A
100
AcDbEntity
  8
0
100
AcDbLine
 62
7
  6
CONTINUOUS
 10
140.7000997102
 20
153.0159871363
 11
140.8041097195
 21
153.5879359801
  0
LINE
  5
42B
100
AcDbEntity
  8
0
100
AcDbLine
 62
7
  6
CONTINUOUS
 10
143.4043706648
 20
152.3487134852
 11
143.3003594652
 21
151.7767645078
  0
LINE
  5
42C
100
AcDbEntity
  8
0
100
AcDbLine
 62
7
  6
CONTINUOUS
 10
143.4043706648
 20
152.2172067401
 11
143.3003594652
 21
151.6452577627
  0
LINE
  5
42D
100
AcDbEntity
  8
0
100
AcDbLine
 62
7
  6
CONTINUOUS
 10
140.2840584827
 20
153.5879359801
 11
140.1800472831
 21
153.1113119436
  0
LINE
  5
42E
100
AcDbEntity
  8
0
100
AcDbLine
 62
7
  6
CONTINUOUS
 10
140.2840584827
 20
153.456429235
 11
140.1800472831
 21
152.9798051985
  0
LINE
  5
42F
100
AcDbEntity
  8
0
100
AcDbLine
 62
7
  6
CONTINUOUS
 10
143.8204118923
 20
151.7767645078
 11
143.9244219016
 21
152.2533886779
  0
LINE
  5
430
100
AcDbEntity
  8
0
100
AcDbLine
 62
7
  6
CONTINUOUS
 10
137.1637463006
 20
151.1094907899
 11
137.2677563099
 21
151.4907900859
  0
LINE
  5
431
100
AcDbEntity
  8
0
100
AcDbLine
 62
7
  6
CONTINUOUS
 10
131.651194382
 20
153.5879359801
 11
131.5471840752
 21
153.3019615582
  0
LINE
  5
432
100
AcDbEntity
  8
0
100
AcDbLine
 62
7
  6
CONTINUOUS
 10
131.651194382
 20
153.456429235
 11
131.5471840752
 21
153.1704548131
  0
LINE
  5
433
100
AcDbEntity
  8
0
100
AcDbLine
 62
7
  6
CONTINUOUS
 10
132.171246214
 20
153.2066367509
 11
132.2752568185
 21
153.4926111728
  0
LINE
  5
434
100
AcDbEntity
  8
0
100
AcDbLine
 62
7
  6
CONTINUOUS
 10
136.6436938734
 20
151.5861148932
 11
136.539683269
 21
151.3001404713
  0
LINE
  5
435
100
AcDbEntity
  8
0
100
AcDbLine
 62
7
  6
CONTINUOUS
 10
136.6436938734
 20
151.4546081481
 11
136.539683269
 21
151.1686337262
  0
LINE
  5
436
100
AcDbEntity
  8
0
100
AcDbLine
 62
7
  6
CONTINUOUS
 10
140.388068492
 20
153.8739106691
 11
140.2840584827
 21
153.5879359801
  0
LINE
  5
437
100
AcDbEntity
  8
0
100
AcDbLine
 62
7
  6
CONTINUOUS
 10
140.388068492
 20
153.742403924
 11
140.2840584827
 21
153.456429235
  0
LINE
  5
438
100
AcDbEntity
  8
0
100
AcDbLine
 62
7
  6
CONTINUOUS
 10
133.5233816913
 20
154.2552098983
 11
133.3153610776
 21
153.8739106691
  0
LINE
  5
439
100
AcDbEntity
  8
0
100
AcDbLine
 62
7
  6
CONTINUOUS
 10
133.5233816913
 20
154.1237031532
 11
133.3153610776
 21
153.742403924
  0
LINE
  5
43A
100
AcDbEntity
  8
0
100
AcDbLine
 62
7
  6
CONTINUOUS
 10
102.7768608544
 20
153.3019615582
 11
102.5782024263
 21
153.1113119436
  0
LINE
  5
43B
100
AcDbEntity
  8
0
100
AcDbLine
 62
7
  6
CONTINUOUS
 10
102.7768608544
 20
153.1704548131
 11
102.5782024263
 21
152.9798051985
  0
LINE
  5
43C
100
AcDbEntity
  8
0
100
AcDbLine
 62
7
  6
CONTINUOUS
 10
107.2466733544
 20
150.7281915273
 11
107.6439902105
 21
151.1094907899
  0
LINE
  5
43D
100
AcDbEntity
  8
0
100
AcDbLine
 62
7
  6
CONTINUOUS
 10
112.0144733544
 20
150.7281915273
 11
112.4117896422
 21
151.1094907899
  0
LINE
  5
43E
100
AcDbEntity
  8
RUNDUNGEN
100
AcDbLine
 62
7
  6
CONTINUOUS
 10
165.2972342737
 20
93.8138705054
 11
165.2972342737
 21
97.3494044113
  0
LINE
  5
43F
100
AcDbEntity
  8
0
100
AcDbLine
 62
7
  6
CONTINUOUS
 10
151.2627082945
 20
145.8280613276
 11
149.5032861089
 21
138.6667627673
  0
LINE
  5
440
100
AcDbEntity
  8
0
100
AcDbLine
 62
7
  6
CONTINUOUS
 10
151.2627082945
 20
144.1184736412
 11
149.5032861089
 21
136.9571750809
  0
LINE
  5
441
100
AcDbEntity
  8
0
100
AcDbLine
 62
7
  6
CONTINUOUS
 10
153.9083206533
 20
162.8020931481
 11
151.2627082945
 21
153.4602904565
  0
LINE
  5
442
100
AcDbEntity
  8
0
100
AcDbLine
 62
7
  6
CONTINUOUS
 10
153.9083206533
 20
165.2184893252
 11
151.2627082945
 21
156.0040695592
  0
LINE
  5
443
100
AcDbEntity
  8
0
100
AcDbLine
 62
7
  6
CONTINUOUS
 10
143.716401883
 20
151.4907900859
 11
143.8204118923
 21
151.7767645078
  0
LINE
  5
444
100
AcDbEntity
  8
0
100
AcDbLine
 62
7
  6
CONTINUOUS
 10
140.5960897009
 20
154.2552098983
 11
140.388068492
 21
153.8739106691
  0
LINE
  5
445
100
AcDbEntity
  8
0
100
AcDbLine
 62
7
  6
CONTINUOUS
 10
140.5960897009
 20
154.1237031532
 11
140.388068492
 21
153.742403924
  0
LINE
  5
446
100
AcDbEntity
  8
0
100
AcDbLine
 62
7
  6
CONTINUOUS
 10
143.5083806741
 20
151.1094907899
 11
143.716401883
 21
151.4907900859
  0
LINE
  5
447
100
AcDbEntity
  8
0
100
AcDbLine
 62
7
  6
CONTINUOUS
 10
133.939423514
 20
153.7785855947
 11
134.1474441277
 21
154.0645602837
  0
LINE
  5
448
100
AcDbEntity
  8
0
100
AcDbLine
 62
7
  6
CONTINUOUS
 10
140.8041097195
 20
153.5879359801
 11
141.2201521373
 21
154.159885091
  0
LINE
  5
449
100
AcDbEntity
  8
0
100
AcDbLine
 62
7
  6
CONTINUOUS
 10
143.3003594652
 20
151.7767645078
 11
142.8843182377
 21
151.2048155972
  0
LINE
  5
44A
100
AcDbEntity
  8
0
100
AcDbLine
 62
7
  6
CONTINUOUS
 10
143.3003594652
 20
151.6452577627
 11
142.8843182377
 21
151.0733088521
  0
LINE
  5
44B
100
AcDbEntity
  8
0
100
AcDbLine
 62
7
  6
CONTINUOUS
 10
131.8592152934
 20
152.8253375217
 11
132.171246214
 21
153.2066367509
  0
LINE
  5
44C
100
AcDbEntity
  8
0
100
AcDbLine
 62
7
  6
CONTINUOUS
 10
138.7239023916
 20
154.9224835494
 11
138.0998399552
 21
154.2552098983
  0
LINE
  5
44D
100
AcDbEntity
  8
0
100
AcDbLine
 62
7
  6
CONTINUOUS
 10
138.7239023916
 20
154.7909768043
 11
138.0998399552
 21
154.1237031532
  0
LINE
  5
44E
100
AcDbEntity
  8
0
100
AcDbLine
 62
7
  6
CONTINUOUS
 10
138.0998399552
 20
153.4926111728
 11
138.7239023916
 21
154.159885091
  0
LINE
  5
44F
100
AcDbEntity
  8
0
100
AcDbLine
 62
7
  6
CONTINUOUS
 10
131.5471840752
 20
153.3019615582
 11
131.3391631638
 21
153.1113119436
  0
LINE
  5
450
100
AcDbEntity
  8
0
100
AcDbLine
 62
7
  6
CONTINUOUS
 10
131.5471840752
 20
153.1704548131
 11
131.3391631638
 21
152.9798051985
  0
LINE
  5
451
100
AcDbEntity
  8
0
100
AcDbLine
 62
7
  6
CONTINUOUS
 10
133.939423514
 20
154.6365091275
 11
133.5233816913
 21
154.2552098983
  0
LINE
  5
452
100
AcDbEntity
  8
0
100
AcDbLine
 62
7
  6
CONTINUOUS
 10
133.939423514
 20
154.5050023824
 11
133.5233816913
 21
154.1237031532
  0
LINE
  5
453
100
AcDbEntity
  8
0
100
AcDbLine
 62
7
  6
CONTINUOUS
 10
107.0480152105
 20
151.3001404713
 11
106.7500277105
 21
151.1094907899
  0
LINE
  5
454
100
AcDbEntity
  8
0
100
AcDbLine
 62
7
  6
CONTINUOUS
 10
107.0480152105
 20
151.1686337262
 11
106.7500277105
 21
150.9779840448
  0
LINE
  5
455
100
AcDbEntity
  8
0
100
AcDbLine
 62
7
  6
CONTINUOUS
 10
111.8158146422
 20
151.3001404713
 11
111.5178271422
 21
151.1094907899
  0
LINE
  5
456
100
AcDbEntity
  8
0
100
AcDbLine
 62
7
  6
CONTINUOUS
 10
111.8158146422
 20
151.1686337262
 11
111.5178271422
 21
150.9779840448
  0
LINE
  5
457
100
AcDbEntity
  8
0
100
AcDbLine
 62
7
  6
CONTINUOUS
 10
102.6775317825
 20
152.6346879071
 11
103.0748483544
 21
152.8253375217
  0
LINE
  5
458
100
AcDbEntity
  8
0
100
AcDbLine
 62
7
  6
CONTINUOUS
 10
106.8493564983
 20
150.5375418877
 11
107.2466733544
 21
150.7281915273
  0
LINE
  5
459
100
AcDbEntity
  8
0
100
AcDbLine
 62
7
  6
CONTINUOUS
 10
111.6171570666
 20
150.5375418877
 11
112.0144733544
 21
150.7281915273
  0
LINE
  5
45A
100
AcDbEntity
  8
0
100
AcDbLine
 62
7
  6
CONTINUOUS
 10
102.5782024263
 20
153.1113119436
 11
102.2802149263
 21
153.0159871363
  0
LINE
  5
45B
100
AcDbEntity
  8
0
100
AcDbLine
 62
7
  6
CONTINUOUS
 10
102.5782024263
 20
152.9798051985
 11
102.2802149263
 21
152.8844803912
  0
LINE
  5
45C
100
AcDbEntity
  8
0
100
AcDbLine
 62
7
  6
CONTINUOUS
 10
140.9081209191
 20
154.5411843202
 11
140.5960897009
 21
154.2552098983
  0
LINE
  5
45D
100
AcDbEntity
  8
0
100
AcDbLine
 62
7
  6
CONTINUOUS
 10
136.7477044779
 20
150.7281915273
 11
137.1637463006
 21
151.1094907899
  0
LINE
  5
45E
100
AcDbEntity
  8
0
100
AcDbLine
 62
7
  6
CONTINUOUS
 10
140.9081209191
 20
154.4096775751
 11
140.5960897009
 21
154.1237031532
  0
LINE
  5
45F
100
AcDbEntity
  8
0
100
AcDbLine
 62
7
  6
CONTINUOUS
 10
143.1963494559
 20
150.8235163347
 11
143.5083806741
 21
151.1094907899
  0
LINE
  5
460
100
AcDbEntity
  8
0
100
AcDbLine
 62
7
  6
CONTINUOUS
 10
134.1474441277
 20
154.0645602837
 11
134.4594753459
 21
154.2552098983
  0
LINE
  5
461
100
AcDbEntity
  8
0
100
AcDbLine
 62
7
  6
CONTINUOUS
 10
136.539683269
 20
151.3001404713
 11
136.2276520508
 21
151.1094907899
  0
LINE
  5
462
100
AcDbEntity
  8
0
100
AcDbLine
 62
7
  6
CONTINUOUS
 10
141.2201521373
 20
154.159885091
 11
141.5321833555
 21
154.3505347056
  0
LINE
  5
463
100
AcDbEntity
  8
0
100
AcDbLine
 62
7
  6
CONTINUOUS
 10
136.539683269
 20
151.1686337262
 11
136.2276520508
 21
150.9779840448
  0
LINE
  5
464
100
AcDbEntity
  8
0
100
AcDbLine
 62
7
  6
CONTINUOUS
 10
142.8843182377
 20
151.2048155972
 11
142.5722870195
 21
151.0141659826
  0
LINE
  5
465
100
AcDbEntity
  8
0
100
AcDbLine
 62
7
  6
CONTINUOUS
 10
142.8843182377
 20
151.0733088521
 11
142.5722870195
 21
150.8826592375
  0
LINE
  5
466
100
AcDbEntity
  8
0
100
AcDbLine
 62
7
  6
CONTINUOUS
 10
141.4281721559
 20
154.8271587421
 11
140.9081209191
 21
154.5411843202
  0
LINE
  5
467
100
AcDbEntity
  8
0
100
AcDbLine
 62
7
  6
CONTINUOUS
 10
141.4281721559
 20
154.695651997
 11
140.9081209191
 21
154.4096775751
  0
LINE
  5
468
100
AcDbEntity
  8
0
100
AcDbLine
 62
7
  6
CONTINUOUS
 10
142.6762970288
 20
150.5375418877
 11
143.1963494559
 21
150.8235163347
  0
LINE
  5
469
100
AcDbEntity
  8
0
100
AcDbLine
 62
7
  6
CONTINUOUS
 10
134.3554647415
 20
154.8271587421
 11
133.939423514
 21
154.6365091275
  0
LINE
  5
46A
100
AcDbEntity
  8
0
100
AcDbLine
 62
7
  6
CONTINUOUS
 10
134.3554647415
 20
154.695651997
 11
133.939423514
 21
154.5050023824
  0
LINE
  5
46B
100
AcDbEntity
  8
0
100
AcDbLine
 62
7
  6
CONTINUOUS
 10
131.4431734707
 20
152.6346879071
 11
131.8592152934
 21
152.8253375217
  0
LINE
  5
46C
100
AcDbEntity
  8
0
100
AcDbLine
 62
7
  6
CONTINUOUS
 10
136.3316626552
 20
150.5375418877
 11
136.7477044779
 21
150.7281915273
  0
LINE
  5
46D
100
AcDbEntity
  8
0
100
AcDbLine
 62
7
  6
CONTINUOUS
 10
131.3391631638
 20
153.1113119436
 11
131.0271319456
 21
153.0159871363
  0
LINE
  5
46E
100
AcDbEntity
  8
0
100
AcDbLine
 62
7
  6
CONTINUOUS
 10
131.3391631638
 20
152.9798051985
 11
131.0271319456
 21
152.8844803912
  0
LINE
  5
46F
100
AcDbEntity
  8
RUNDUNGEN
100
AcDbLine
 62
7
  6
CONTINUOUS
 10
81.0351574888
 20
100.0433554038
 11
80.2160054445
 21
99.6377756162
  0
LINE
  5
470
100
AcDbEntity
  8
RUNDUNGEN
100
AcDbLine
 62
7
  6
CONTINUOUS
 10
81.0351574888
 20
96.5078214979
 11
80.2160054445
 21
96.1022417102
  0
LINE
  5
471
100
AcDbEntity
  8
0
100
AcDbLine
 62
7
  6
CONTINUOUS
 10
101.7034049416
 20
111.5031282074
 11
101.6970991361
 21
111.5008914147
  0
LINE
  5
472
100
AcDbEntity
  8
RUNDUNGEN
100
AcDbLine
 62
7
  6
CONTINUOUS
 10
102.7712020542
 20
58.5289306049
 11
87.9075258874
 21
43.5188005544
  0
LINE
  5
473
100
AcDbEntity
  8
RUNDUNGEN
100
AcDbLine
 62
7
  6
CONTINUOUS
 10
102.7712020542
 20
54.993396699
 11
87.9075258874
 21
39.9832666485
  0
LINE
  5
474
100
AcDbEntity
  8
RUNDUNGEN
100
AcDbLine
 62
7
  6
CONTINUOUS
 10
147.3833820419
 20
93.4716956276
 11
155.3599682175
 21
101.5268762243
  0
LINE
  5
475
100
AcDbEntity
  8
RUNDUNGEN
100
AcDbLine
 62
7
  6
CONTINUOUS
 10
86.9349222665
 20
89.9335239853
 11
83.6583140894
 21
88.3112048346
  0
LINE
  5
476
100
AcDbEntity
  8
RUNDUNGEN
100
AcDbLine
 62
7
  6
CONTINUOUS
 10
112.3996395636
 20
97.9571079366
 11
108.3038793421
 21
95.9292089982
  0
LINE
  5
477
100
AcDbEntity
  8
RUNDUNGEN
100
AcDbLine
 62
7
  6
CONTINUOUS
 10
89.1646478783
 20
86.2861502733
 11
92.1399046143
 21
87.7592638468
  0
LINE
  5
478
100
AcDbEntity
  8
RUNDUNGEN
100
AcDbLine
 62
7
  6
CONTINUOUS
 10
112.3996395636
 20
94.4215740306
 11
108.3038793421
 21
92.3936750923
  0
LINE
  5
479
100
AcDbEntity
  8
RUNDUNGEN
100
AcDbLine
 62
7
  6
CONTINUOUS
 10
89.1646478783
 20
82.7506163674
 11
92.4412560555
 21
84.3729355181
  0
LINE
  5
47A
100
AcDbEntity
  8
RUNDUNGEN
100
AcDbLine
 62
7
  6
CONTINUOUS
 10
147.3833820419
 20
89.9361617217
 11
155.3599682175
 21
97.9913423184
  0
LINE
  5
47B
100
AcDbEntity
  8
RUNDUNGEN
100
AcDbLine
 62
7
  6
CONTINUOUS
 10
110.8110802381
 20
38.4564318927
 11
116.0883738431
 21
43.785723411
  0
LINE
  5
47C
100
AcDbEntity
  8
RUNDUNGEN
100
AcDbLine
 62
7
  6
CONTINUOUS
 10
139.2353701636
 20
67.1607903292
 11
165.0259623401
 21
93.2055008239
  0
ARC
  5
47D
100
AcDbEntity
  8
KONSTRUKTIONSELEMENTE
100
AcDbCircle
 62
7
  6
CONTINUOUS
 10
348.4621784355
 20
104.4421391894
 40
9.55
100
AcDbArc
 50
58.6297070454
 51
135.0
  0
ARC
  5
47E
100
AcDbEntity
  8
KONSTRUKTIONSELEMENTE
100
AcDbCircle
 62
7
  6
CONTINUOUS
 10
348.4621784355
 20
104.4421391894
 40
9.55
100
AcDbArc
 50
315.0
 51
31.3702929546
  0
ARC
  5
47F
100
AcDbEntity
  8
KONSTRUKTIONSELEMENTE
100
AcDbCircle
 62
7
  6
CONTINUOUS
 10
340.0476077394
 20
96.0275684933
 40
9.55
100
AcDbArc
 50
240.1951355235
 51
315.0
  0
ARC
  5
480
100
AcDbEntity
  8
KONSTRUKTIONSELEMENTE
100
AcDbCircle
 62
7
  6
CONTINUOUS
 10
340.0476077394
 20
96.0275684933
 40
9.55
100
AcDbArc
 50
135.0
 51
209.8048644765
  0
ARC
  5
481
100
AcDbEntity
  8
KONSTRUKTIONSELEMENTE
100
AcDbCircle
 62
7
  6
CONTINUOUS
 10
369.3571838196
 20
125.3371445735
 40
8.0
100
AcDbArc
 50
135.0
 51
208.6357041722
  0
ARC
  5
482
100
AcDbEntity
  8
KONSTRUKTIONSELEMENTE
100
AcDbCircle
 62
7
  6
CONTINUOUS
 10
369.3571838196
 20
125.3371445735
 40
8.0
100
AcDbArc
 50
241.3642958278
 51
315.0
  0
ARC
  5
483
100
AcDbEntity
  8
KONSTRUKTIONSELEMENTE
100
AcDbCircle
 62
7
  6
CONTINUOUS
 10
348.4621784355
 20
104.4421391894
 40
4.55
100
AcDbArc
 50
74.6522021471
 51
135.0
  0
ARC
  5
484
100
AcDbEntity
  8
KONSTRUKTIONSELEMENTE
100
AcDbCircle
 62
7
  6
CONTINUOUS
 10
348.4621784355
 20
104.4421391894
 40
4.55
100
AcDbArc
 50
315.0
 51
15.3477978529
  0
ARC
  5
485
100
AcDbEntity
  8
KONSTRUKTIONSELEMENTE
100
AcDbCircle
 62
7
  6
CONTINUOUS
 10
340.0476077394
 20
96.0275684933
 40
4.55
100
AcDbArc
 50
258.3583327703
 51
315.0
  0
ARC
  5
486
100
AcDbEntity
  8
KONSTRUKTIONSELEMENTE
100
AcDbCircle
 62
7
  6
CONTINUOUS
 10
340.0476077394
 20
96.0275684933
 40
4.55
100
AcDbArc
 50
135.0
 51
191.6416672297
  0
ARC
  5
487
100
AcDbEntity
  8
KONSTRUKTIONSELEMENTE
100
AcDbCircle
 62
7
  6
CONTINUOUS
 10
369.3571838196
 20
125.3371445735
 40
3.5
100
AcDbArc
 50
135.0
 51
184.8461224921
  0
ARC
  5
488
100
AcDbEntity
  8
KONSTRUKTIONSELEMENTE
100
AcDbCircle
 62
7
  6
CONTINUOUS
 10
369.3571838196
 20
125.3371445735
 40
3.5
100
AcDbArc
 50
265.1538775079
 51
315.0
  0
ARC
  5
489
100
AcDbEntity
  8
KONSTRUKTIONSELEMENTE
100
AcDbCircle
 62
7
  6
CONTINUOUS
 10
368.4733003431
 20
124.453261097
 40
2.25
100
AcDbArc
 50
315.0
 51
135.0
  0
ARC
  5
48A
100
AcDbEntity
  8
KONSTRUKTIONSELEMENTE
100
AcDbCircle
 62
7
  6
CONTINUOUS
 10
349.7349706417
 20
105.7149313956
 40
2.25
100
AcDbArc
 50
135.0
 51
315.0
  0
ARC
  5
48B
100
AcDbEntity
  8
KONSTRUKTIONSELEMENTE
100
AcDbCircle
 62
7
  6
CONTINUOUS
 10
409.6269150082
 20
165.6068757621
 40
9.55
100
AcDbArc
 50
66.5165763377
 51
135.0
  0
ARC
  5
48C
100
AcDbEntity
  8
KONSTRUKTIONSELEMENTE
100
AcDbCircle
 62
7
  6
CONTINUOUS
 10
409.6269150082
 20
165.6068757621
 40
9.55
100
AcDbArc
 50
315.0
 51
23.4834236623
  0
ARC
  5
48D
100
AcDbEntity
  8
KONSTRUKTIONSELEMENTE
100
AcDbCircle
 62
7
  6
CONTINUOUS
 10
401.212344312
 20
157.1923050659
 40
9.55
100
AcDbArc
 50
238.6297070454
 51
315.0
  0
ARC
  5
48E
100
AcDbEntity
  8
KONSTRUKTIONSELEMENTE
100
AcDbCircle
 62
7
  6
CONTINUOUS
 10
401.212344312
 20
157.1923050659
 40
9.55
100
AcDbArc
 50
135.0
 51
211.3702929546
  0
ARC
  5
48F
100
AcDbEntity
  8
KONSTRUKTIONSELEMENTE
100
AcDbCircle
 62
7
  6
CONTINUOUS
 10
379.9637855374
 20
135.9437462913
 40
8.0
100
AcDbArc
 50
315.0
 51
28.6357041722
  0
ARC
  5
490
100
AcDbEntity
  8
KONSTRUKTIONSELEMENTE
100
AcDbCircle
 62
7
  6
CONTINUOUS
 10
379.9637855374
 20
135.9437462913
 40
8.0
100
AcDbArc
 50
61.3642958278
 51
135.0
  0
ARC
  5
491
100
AcDbEntity
  8
KONSTRUKTIONSELEMENTE
100
AcDbCircle
 62
7
  6
CONTINUOUS
 10
409.6269150082
 20
165.6068757621
 40
4.55
100
AcDbArc
 50
95.3186932883
 51
135.0
  0
ARC
  5
492
100
AcDbEntity
  8
KONSTRUKTIONSELEMENTE
100
AcDbCircle
 62
7
  6
CONTINUOUS
 10
409.6269150082
 20
165.6068757621
 40
4.55
100
AcDbArc
 50
315.0
 51
354.6813067117
  0
ARC
  5
493
100
AcDbEntity
  8
KONSTRUKTIONSELEMENTE
100
AcDbCircle
 62
7
  6
CONTINUOUS
 10
401.212344312
 20
157.1923050659
 40
4.55
100
AcDbArc
 50
254.6522021471
 51
315.0
  0
ARC
  5
494
100
AcDbEntity
  8
KONSTRUKTIONSELEMENTE
100
AcDbCircle
 62
7
  6
CONTINUOUS
 10
401.212344312
 20
157.1923050659
 40
4.55
100
AcDbArc
 50
135.0
 51
195.3477978529
  0
ARC
  5
495
100
AcDbEntity
  8
KONSTRUKTIONSELEMENTE
100
AcDbCircle
 62
7
  6
CONTINUOUS
 10
379.9637855374
 20
135.9437462913
 40
3.5
100
AcDbArc
 50
315.0
 51
4.8461224921
  0
ARC
  5
496
100
AcDbEntity
  8
KONSTRUKTIONSELEMENTE
100
AcDbCircle
 62
7
  6
CONTINUOUS
 10
379.9637855374
 20
135.9437462913
 40
3.5
100
AcDbArc
 50
85.1538775079
 51
135.0
  0
ARC
  5
497
100
AcDbEntity
  8
KONSTRUKTIONSELEMENTE
100
AcDbCircle
 62
7
  6
CONTINUOUS
 10
410.3693771284
 20
166.3493378823
 40
3.5
100
AcDbArc
 50
135.0
 51
315.0
  0
ARC
  5
498
100
AcDbEntity
  8
KONSTRUKTIONSELEMENTE
100
AcDbCircle
 62
7
  6
CONTINUOUS
 10
399.5859987153
 20
155.5659594692
 40
2.25
100
AcDbArc
 50
315.0
 51
135.0
  0
ARC
  5
499
100
AcDbEntity
  8
KONSTRUKTIONSELEMENTE
100
AcDbCircle
 62
7
  6
CONTINUOUS
 10
380.8476690139
 20
136.8276297678
 40
2.25
100
AcDbArc
 50
135.0
 51
315.0
  0
ARC
  5
49A
100
AcDbEntity
  8
0
100
AcDbCircle
 62
7
  6
CONTINUOUS
 10
438.5102982606
 20
125.5008913351
 40
14.0
100
AcDbArc
 50
263.4241551657
 51
340.0
  0
ARC
  5
49B
100
AcDbEntity
  8
0
100
AcDbCircle
 62
7
  6
CONTINUOUS
 10
438.5102982606
 20
125.5008913351
 40
14.0
100
AcDbArc
 50
250.0
 51
259.3310985005
  0
ARC
  5
49C
100
AcDbEntity
  8
RUNDUNGEN
100
AcDbCircle
 62
7
  6
CONTINUOUS
 10
436.8188515432
 20
126.116527593
 40
14.0
100
AcDbArc
 50
160.0
 51
250.0
  0
CIRCLE
  5
49D
100
AcDbEntity
  8
BEZUGSACHSEN
100
AcDbCircle
 62
7
  6
CONTINUOUS
 10
438.8616454035
 20
129.0976336368
 40
7.11325
  0
ARC
  5
49E
100
AcDbEntity
  8
0
100
AcDbCircle
 62
7
  6
CONTINUOUS
 10
453.9899973322
 20
150.1958081532
 40
4.5
100
AcDbArc
 50
340.0
 51
59.3577329759
  0
ARC
  5
49F
100
AcDbEntity
  8
RUNDUNGEN
100
AcDbCircle
 62
7
  6
CONTINUOUS
 10
440.8343006412
 20
154.9840901597
 40
4.5
100
AcDbArc
 50
80.6422670241
 51
160.0
  0
ARC
  5
4A0
100
AcDbEntity
  8
0
100
AcDbCircle
 62
7
  6
CONTINUOUS
 10
455.8888474615
 20
151.9986812499
 40
2.1137820272
100
AcDbArc
 50
100.594603582
 51
103.533879228
  0
ARC
  5
4A1
100
AcDbEntity
  8
RUNDUNGEN
100
AcDbCircle
 62
7
  6
CONTINUOUS
 10
440.5385615398
 20
157.5857284129
 40
2.1137820271
100
AcDbArc
 50
36.4661207719
 51
39.405396418
  0
ARC
  5
4A2
100
AcDbEntity
  8
BEZUGSACHSEN
100
AcDbCircle
 62
7
  6
CONTINUOUS
 10
462.1190151497
 20
192.9967318502
 40
8.0
100
AcDbArc
 50
132.4349057266
 51
160.0
  0
ARC
  5
4A3
100
AcDbEntity
  8
BEZUGSACHSEN
100
AcDbCircle
 62
7
  6
CONTINUOUS
 10
462.1190151497
 20
192.9967318502
 40
8.0
100
AcDbArc
 50
340.0
 51
7.5650942734
  0
ARC
  5
4A4
100
AcDbEntity
  8
KONSTRUKTIONSELEMENTE
100
AcDbCircle
 62
7
  6
CONTINUOUS
 10
443.6033958442
 20
199.5833565981
 40
3.5
100
AcDbArc
 50
315.0
 51
135.0
  0
ARC
  5
4A5
100
AcDbEntity
  8
RUNDUNGEN
100
AcDbCircle
 62
7
  6
CONTINUOUS
 10
516.1488707955
 20
126.116527593
 40
14.0
100
AcDbArc
 50
290.0
 51
20.0
  0
ARC
  5
4A6
100
AcDbEntity
  8
0
100
AcDbCircle
 62
7
  6
CONTINUOUS
 10
514.4574240781
 20
125.5008913351
 40
14.0
100
AcDbArc
 50
200.0
 51
290.0
  0
ARC
  5
4A7
100
AcDbEntity
  8
RUNDUNGEN
100
AcDbCircle
 62
7
  6
CONTINUOUS
 10
516.4888631348
 20
125.5174312528
 40
13.3111588225
100
AcDbArc
 50
299.3184628496
 51
303.0949802542
  0
ARC
  5
4A8
100
AcDbEntity
  8
RUNDUNGEN
100
AcDbCircle
 62
7
  6
CONTINUOUS
 10
516.7890576428
 20
125.0553713384
 40
12.7601457272
100
AcDbArc
 50
303.0985948427
 51
306.0825768171
  0
ARC
  5
4A9
100
AcDbEntity
  8
RUNDUNGEN
100
AcDbCircle
 62
7
  6
CONTINUOUS
 10
516.9843492705
 20
124.7837180576
 40
12.425587024
100
AcDbArc
 50
306.0925447849
 51
306.7730624488
  0
CIRCLE
  5
4AA
100
AcDbEntity
  8
BEZUGSACHSEN
100
AcDbCircle
 62
7
  6
CONTINUOUS
 10
514.1060769352
 20
129.0976336368
 40
7.11325
  0
ARC
  5
4AB
100
AcDbEntity
  8
0
100
AcDbCircle
 62
7
  6
CONTINUOUS
 10
498.9777250065
 20
150.1958081532
 40
4.5
100
AcDbArc
 50
120.6460472925
 51
200.0
  0
ARC
  5
4AC
100
AcDbEntity
  8
RUNDUNGEN
100
AcDbCircle
 62
7
  6
CONTINUOUS
 10
512.1334216975
 20
154.9840901597
 40
4.5
100
AcDbArc
 50
20.0
 51
99.3539527075
  0
ARC
  5
4AD
100
AcDbEntity
  8
RUNDUNGEN
100
AcDbCircle
 62
7
  6
CONTINUOUS
 10
512.4291607989
 20
157.5857284129
 40
2.1137820272
100
AcDbArc
 50
140.594603582
 51
143.5338792281
  0
ARC
  5
4AE
100
AcDbEntity
  8
0
100
AcDbCircle
 62
7
  6
CONTINUOUS
 10
497.0788748772
 20
151.9986812499
 40
2.1137820272
100
AcDbArc
 50
76.466120772
 51
79.405396418
  0
ARC
  5
4AF
100
AcDbEntity
  8
BEZUGSACHSEN
100
AcDbCircle
 62
7
  6
CONTINUOUS
 10
490.848707189
 20
192.9967318502
 40
8.0
100
AcDbArc
 50
20.0
 51
47.5650942734
  0
ARC
  5
4B0
100
AcDbEntity
  8
BEZUGSACHSEN
100
AcDbCircle
 62
7
  6
CONTINUOUS
 10
490.848707189
 20
192.9967318502
 40
8.0
100
AcDbArc
 50
172.4349057266
 51
200.0
  0
ARC
  5
4B1
100
AcDbEntity
  8
0
100
AcDbCircle
 62
7
  6
CONTINUOUS
 10
476.4838611694
 20
232.4638219233
 40
76.0
100
AcDbArc
 50
296.0440044459
 51
360.0
  0
ARC
  5
4B2
100
AcDbEntity
  8
0
100
AcDbCircle
 62
7
  6
CONTINUOUS
 10
476.4838611694
 20
232.4638219233
 40
76.0
100
AcDbArc
 50
256.0429595562
 51
283.9570404438
  0
ARC
  5
4B3
100
AcDbEntity
  8
0
100
AcDbCircle
 62
7
  6
CONTINUOUS
 10
476.4838611694
 20
232.4638219233
 40
76.0
100
AcDbArc
 50
227.6403165894
 51
243.9559955541
  0
ARC
  5
4B4
100
AcDbEntity
  8
0
100
AcDbCircle
 62
7
  6
CONTINUOUS
 10
476.4838611694
 20
232.4638219233
 40
76.0
100
AcDbArc
 50
180.0
 51
222.3596834106
  0
ARC
  5
4B5
100
AcDbEntity
  8
0
100
AcDbCircle
 62
7
  6
CONTINUOUS
 10
476.4838611694
 20
312.4638219233
 40
76.0
100
AcDbArc
 50
0.0
 51
180.0
  0
ARC
  5
4B6
100
AcDbEntity
  8
0
100
AcDbCircle
 62
7
  6
CONTINUOUS
 10
476.4838611694
 20
232.4638219233
 40
50.0
100
AcDbArc
 50
299.2089739677
 51
360.0
  0
ARC
  5
4B7
100
AcDbEntity
  8
0
100
AcDbCircle
 62
7
  6
CONTINUOUS
 10
476.4838611694
 20
232.4638219233
 40
50.0
100
AcDbArc
 50
259.2073647381
 51
280.7926352619
  0
ARC
  5
4B8
100
AcDbEntity
  8
0
100
AcDbCircle
 62
7
  6
CONTINUOUS
 10
476.4838611694
 20
232.4638219233
 40
50.0
100
AcDbArc
 50
229.0140852861
 51
240.7910260323
  0
ARC
  5
4B9
100
AcDbEntity
  8
0
100
AcDbCircle
 62
7
  6
CONTINUOUS
 10
476.4838611694
 20
232.4638219233
 40
50.0
100
AcDbArc
 50
180.0
 51
220.9859147139
  0
ARC
  5
4BA
100
AcDbEntity
  8
0
100
AcDbCircle
 62
7
  6
CONTINUOUS
 10
476.4838611694
 20
312.4638219233
 40
50.0
100
AcDbArc
 50
0.0
 51
180.0
  0
ARC
  5
4BB
100
AcDbEntity
  8
0
100
AcDbCircle
 62
7
  6
CONTINUOUS
 10
765.3447378288
 20
354.3813741539
 40
703.8220116395
100
AcDbArc
 50
195.1744654996
 51
195.7951311331
  0
ARC
  5
4BC
100
AcDbEntity
  8
0
100
AcDbCircle
 62
7
  6
CONTINUOUS
 10
-498.6817803718
 20
347.5505977833
 40
678.2373109178
100
AcDbArc
 50
344.1931622648
 51
344.8372411025
  0
ARC
  5
4BD
100
AcDbEntity
  8
0
100
AcDbCircle
 62
7
  6
CONTINUOUS
 10
689.0340897503
 20
9.0893210033
 40
624.6300283987
100
AcDbArc
 50
163.3017664784
 51
164.8677017931
  0
ARC
  5
4BE
100
AcDbEntity
  8
0
100
AcDbCircle
 62
7
  6
CONTINUOUS
 10
-447.027517432
 20
9.089321032
 40
624.6300282942
100
AcDbArc
 50
15.1322982067
 51
16.6982335218
  0
ARC
  5
4BF
100
AcDbEntity
  8
0
100
AcDbCircle
 62
7
  6
CONTINUOUS
 10
719.5850870055
 20
2.8198105032
 40
588.5265795814
100
AcDbArc
 50
163.2787483837
 51
163.9818938617
  0
ARC
  5
4C0
100
AcDbEntity
  8
0
100
AcDbCircle
 62
7
  6
CONTINUOUS
 10
-475.4188532187
 20
3.4541917619
 40
586.2757161518
100
AcDbArc
 50
16.016756343
 51
16.7226014116
  0
ARC
  5
4C1
100
AcDbEntity
  8
0
100
AcDbCircle
 62
7
  6
CONTINUOUS
 10
164.1600438287
 20
-1.6268352557
 40
211.1027039733
100
AcDbArc
 50
105.4273705289
 51
106.6899296733
  0
ARC
  5
4C2
100
AcDbEntity
  8
0
100
AcDbCircle
 62
7
  6
CONTINUOUS
 10
77.8465314771
 20
-1.6268247228
 40
211.1026929973
100
AcDbArc
 50
73.3100703086
 51
74.5726295432
  0
ARC
  5
4C3
100
AcDbEntity
  8
KONSTRUKTIONSELEMENTE
100
AcDbCircle
 62
7
  6
CONTINUOUS
 10
121.0032861089
 20
81.1265258506
 40
35.9892
100
AcDbArc
 50
57.5915955358
 51
79.9991254185
  0
ARC
  5
4C4
100
AcDbEntity
  8
KONSTRUKTIONSELEMENTE
100
AcDbCircle
 62
7
  6
CONTINUOUS
 10
121.0032861089
 20
81.1265258506
 40
35.9892
100
AcDbArc
 50
100.0008745815
 51
122.4084044642
  0
ARC
  5
4C5
100
AcDbEntity
  8
KONSTRUKTIONSELEMENTE
100
AcDbCircle
 62
7
  6
CONTINUOUS
 10
122.4468603507
 20
193.8082352638
 40
30.7562868729
100
AcDbArc
 50
290.4960314211
 51
294.1929912847
  0
ARC
  5
4C6
100
AcDbEntity
  8
KONSTRUKTIONSELEMENTE
100
AcDbCircle
 62
7
  6
CONTINUOUS
 10
119.4684676527
 20
193.5860008561
 40
30.5161784587
100
AcDbArc
 50
245.8108030867
 51
249.5324172488
  0
ARC
  5
4C7
100
AcDbEntity
  8
0
100
AcDbCircle
 62
7
  6
CONTINUOUS
 10
121.0032861089
 20
375.4638219233
 40
13.0
100
AcDbArc
 50
0.0
 51
180.0
  0
ARC
  5
4C8
100
AcDbEntity
  8
0
100
AcDbCircle
 62
7
  6
CONTINUOUS
 10
121.0032861089
 20
169.4638219233
 40
13.0
100
AcDbArc
 50
180.0
 51
228.474338497
  0
ARC
  5
4C9
100
AcDbEntity
  8
0
100
AcDbCircle
 62
7
  6
CONTINUOUS
 10
121.0032861089
 20
169.4638219233
 40
13.0
100
AcDbArc
 50
311.514065493
 51
360.0
  0
ARC
  5
4CA
100
AcDbEntity
  8
KONSTRUKTIONSELEMENTE
100
AcDbCircle
 62
7
  6
CONTINUOUS
 10
121.0032861089
 20
111.4921391894
 40
2.5
100
AcDbArc
 50
0.0
 51
180.0
  0
ARC
  5
4CB
100
AcDbEntity
  8
KONSTRUKTIONSELEMENTE
100
AcDbCircle
 62
7
  6
CONTINUOUS
 10
121.0032861089
 20
88.9775684933
 40
2.5
100
AcDbArc
 50
180.0
 51
360.0
  0
ARC
  5
4CC
100
AcDbEntity
  8
KONSTRUKTIONSELEMENTE
100
AcDbCircle
 62
7
  6
CONTINUOUS
 10
121.0032861089
 20
141.6937462913
 40
2.25
100
AcDbArc
 50
142.652581796
 51
180.0
  0
ARC
  5
4CD
100
AcDbEntity
  8
KONSTRUKTIONSELEMENTE
100
AcDbCircle
 62
7
  6
CONTINUOUS
 10
121.0032861089
 20
119.5871445735
 40
2.25
100
AcDbArc
 50
180.0
 51
360.0
  0
ARC
  5
4CE
100
AcDbEntity
  8
KONSTRUKTIONSELEMENTE
100
AcDbCircle
 62
7
  6
CONTINUOUS
 10
121.0032861089
 20
141.6937462913
 40
2.25
100
AcDbArc
 50
0.0
 51
37.347418204
  0
ARC
  5
4CF
100
AcDbEntity
  8
BEZUGSACHSEN
100
AcDbCircle
 62
7
  6
CONTINUOUS
 10
103.1746696049
 20
133.8490994313
 40
2.2287325388
100
AcDbArc
 50
8.0455549063
 51
8.7497994134
  0
ARC
  5
4D0
100
AcDbEntity
  8
BEZUGSACHSEN
100
AcDbCircle
 62
7
  6
CONTINUOUS
 10
102.631902613
 20
133.8490994313
 40
2.228732539
100
AcDbArc
 50
171.2502005866
 51
171.9544450936
  0
ARC
  5
4D1
100
AcDbEntity
  8
BEZUGSACHSEN
100
AcDbCircle
 62
7
  6
CONTINUOUS
 10
103.1813591923
 20
133.8499835444
 40
2.2219850563
100
AcDbArc
 50
4.2855019131
 51
8.0471243999
  0
ARC
  5
4D2
100
AcDbEntity
  8
BEZUGSACHSEN
100
AcDbCircle
 62
7
  6
CONTINUOUS
 10
102.6252130254
 20
133.8499835444
 40
2.2219850563
100
AcDbArc
 50
171.9528756001
 51
175.7144980869
  0
ARC
  5
4D3
100
AcDbEntity
  8
0
100
AcDbCircle
 62
7
  6
CONTINUOUS
 10
133.4660688994
 20
81.0749322313
 40
2.1292118706
100
AcDbArc
 50
350.5636876715
 51
355.3957076166
  0
ARC
  5
4D4
100
AcDbEntity
  8
0
100
AcDbCircle
 62
7
  6
CONTINUOUS
 10
110.1657948107
 20
80.4431683258
 40
0.416959771
100
AcDbArc
 50
78.8903114984
 51
89.9692795104
  0
LINE
  5
4D5
100
AcDbEntity
  8
0
100
AcDbLine
 62
7
  6
CONTINUOUS
 10
503.3613283076
 20
138.1519570677
 11
498.7203134187
 21
137.7459208776
  0
SPLINE
  5
4D6
100
AcDbEntity
  8
0
100
AcDbSpline
 62
7
  6
CONTINUOUS
 70
0
 71
3
 72
11
 73
7
 74
0
 42
0.0000001
 43
0.0000001
 44
0.0000000001
 40
0.0
 40
0.0
 40
0.0
 40
0.0
 40
0.161833372
 40
0.3784314992
 40
0.6572361095
 40
1.0
 40
1.0
 40
1.0
 40
1.0
 10
496.6839264627
 20
154.0673050524
 30
0.0
 10
496.7208325617
 20
154.0891713119
 30
0.0
 10
496.818747428
 20
154.1195208691
 30
0.0
 10
496.9929121879
 20
154.132051609
 30
0.0
 10
497.2152216807
 20
154.1183106553
 30
0.0
 10
497.3781977287
 20
154.0930999958
 30
0.0
 10
497.4675122446
 20
154.076428938
 30
0.0
  0
SPLINE
  5
4D7
100
AcDbEntity
  8
0
100
AcDbSpline
 62
7
  6
CONTINUOUS
 70
0
 71
3
 72
11
 73
7
 74
0
 42
0.0000001
 43
0.0000001
 44
0.0000000001
 40
0.0
 40
0.0
 40
0.0
 40
0.0
 40
0.2505755997
 40
0.5000000009
 40
0.7494244022
 40
1.0
 40
1.0
 40
1.0
 40
1.0
 10
491.1969201379
 20
200.5827422867
 30
0.0
 10
491.7473646024
 20
199.6599895344
 30
0.0
 10
492.7676774131
 20
197.770418768
 30
0.0
 10
494.0183176329
 20
194.8046895098
 30
0.0
 10
494.9666056636
 20
191.7289130627
 30
0.0
 10
495.3995933735
 20
189.6255734505
 30
0.0
 10
495.571062485
 20
188.5648849587
 30
0.0
  0
LINE
  5
4D8
100
AcDbEntity
  8
0
100
AcDbLine
 62
7
  6
CONTINUOUS
 10
497.5395058105
 20
131.0492281571
 11
502.1805206995
 21
131.4552643472
  0
SPLINE
  5
4D9
100
AcDbEntity
  8
RUNDUNGEN
100
AcDbSpline
 62
7
  6
CONTINUOUS
 70
0
 71
3
 72
20
 73
16
 74
0
 42
0.0000001
 43
0.0000001
 44
0.0000000001
 40
0.0
 40
0.0
 40
0.0
 40
0.0
 40
0.1321914336
 40
0.2619814012
 40
0.3885490045
 40
0.5110516027
 40
0.6289250872
 40
0.6866691061
 40
0.7442876134
 40
0.773639457
 40
0.8036553112
 40
0.8345958089
 40
0.8665551653
 40
0.9325737164
 40
1.0
 40
1.0
 40
1.0
 40
1.0
 10
524.4228905268
 20
114.8306624028
 30
0.0
 10
524.8188650972
 20
115.1266053441
 30
0.0
 10
525.5695129517
 20
115.7609741128
 30
0.0
 10
526.5463371192
 20
116.8431079965
 30
0.0
 10
527.3223022189
 20
118.037536565
 30
0.0
 10
527.8366303844
 20
119.3198989752
 30
0.0
 10
527.9722194695
 20
120.4495671505
 30
0.0
 10
527.8126185049
 20
121.3141969623
 30
0.0
 10
527.5724425094
 20
121.8100036164
 30
0.0
 10
527.2842877618
 20
122.1423580317
 30
0.0
 10
527.0155319819
 20
122.3507917761
 30
0.0
 10
526.700522937
 20
122.5033966789
 30
0.0
 10
526.2298774785
 20
122.621391102
 30
0.0
 10
525.6003769039
 20
122.5998976646
 30
0.0
 10
525.1181108853
 20
122.4615140886
 30
0.0
 10
524.8811684457
 20
122.3752740934
 30
0.0
  0
SPLINE
  5
4DA
100
AcDbEntity
  8
0
100
AcDbSpline
 62
7
  6
CONTINUOUS
 70
0
 71
3
 72
11
 73
7
 74
0
 42
0.0000001
 43
0.0000001
 44
0.0000000001
 40
0.0
 40
0.0
 40
0.0
 40
0.0
 40
0.2574351421
 40
0.5000000008
 40
0.7425648595
 40
1.0
 40
1.0
 40
1.0
 40
1.0
 10
484.1047198602
 20
202.9829671026
 30
0.0
 10
484.0495942137
 20
202.5678908223
 30
0.0
 10
484.015363156
 20
201.7477649018
 30
0.0
 10
484.2687788719
 20
200.5518923889
 30
0.0
 10
484.8433432017
 20
199.4729084137
 30
0.0
 10
485.3967324958
 20
198.8666588151
 30
0.0
 10
485.705767079
 20
198.5841260215
 30
0.0
  0
SPLINE
  5
4DB
100
AcDbEntity
  8
0
100
AcDbSpline
 62
7
  6
CONTINUOUS
 70
0
 71
3
 72
9
 73
5
 74
0
 42
0.0000001
 43
0.0000001
 44
0.0000000001
 40
0.0
 40
0.0
 40
0.0
 40
0.0
 40
0.2501237335
 40
1.0
 40
1.0
 40
1.0
 40
1.0
 10
496.0550989919
 20
170.1495702844
 30
0.0
 10
496.1876610556
 20
169.5279181612
 30
0.0
 10
496.7518844413
 20
167.0500230216
 30
0.0
 10
497.4615320334
 20
164.6047705867
 30
0.0
 10
498.0794118032
 20
162.8020931481
 30
0.0
  0
SPLINE
  5
4DC
100
AcDbEntity
  8
0
100
AcDbSpline
 62
7
  6
CONTINUOUS
 70
0
 71
3
 72
11
 73
7
 74
0
 42
0.0000001
 43
0.0000001
 44
0.0000000001
 40
0.0
 40
0.0
 40
0.0
 40
0.0
 40
0.2500438599
 40
0.5000000009
 40
0.7499561421
 40
1.0
 40
1.0
 40
1.0
 40
1.0
 10
490.0799094261
 20
186.5662686935
 30
0.0
 10
490.3845387943
 20
185.1377039265
 30
0.0
 10
491.0851608649
 20
182.2994674704
 30
0.0
 10
492.4333275371
 20
178.1270980397
 30
0.0
 10
494.0825193156
 20
174.064292799
 30
0.0
 10
495.3701949001
 20
171.4397263592
 30
0.0
 10
496.0550989919
 20
170.1495702844
 30
0.0
  0
SPLINE
  5
4DD
100
AcDbEntity
  8
0
100
AcDbSpline
 62
7
  6
CONTINUOUS
 70
0
 71
3
 72
11
 73
7
 74
0
 42
0.0000001
 43
0.0000001
 44
0.0000000001
 40
0.0
 40
0.0
 40
0.0
 40
0.0
 40
0.2505755997
 40
0.5000000009
 40
0.7494244022
 40
1.0
 40
1.0
 40
1.0
 40
1.0
 10
485.705767079
 20
198.5841260215
 30
0.0
 10
485.8772361918
 20
197.5234375216
 30
0.0
 10
486.3102239091
 20
195.4200979034
 30
0.0
 10
487.2585119392
 20
192.3443214479
 30
0.0
 10
488.5091521532
 20
189.3785921957
 30
0.0
 10
489.5294649658
 20
187.4890214388
 30
0.0
 10
490.0799094261
 20
186.5662686935
 30
0.0
  0
SPLINE
  5
4DE
100
AcDbEntity
  8
0
100
AcDbSpline
 62
7
  6
CONTINUOUS
 70
0
 71
3
 72
11
 73
7
 74
0
 42
0.0000001
 43
0.0000001
 44
0.0000000001
 40
0.0
 40
0.0
 40
0.0
 40
0.0
 40
0.2574351421
 40
0.5000000008
 40
0.7425648595
 40
1.0
 40
1.0
 40
1.0
 40
1.0
 10
489.5958729191
 20
204.9815833678
 30
0.0
 10
489.9049075044
 20
204.6990505723
 30
0.0
 10
490.4582967959
 20
204.0928009681
 30
0.0
 10
491.0328611291
 20
203.0138169926
 30
0.0
 10
491.2862768473
 20
201.8179444821
 30
0.0
 10
491.252045784
 20
200.9978185643
 30
0.0
 10
491.1969201379
 20
200.5827422867
 30
0.0
  0
SPLINE
  5
4DF
100
AcDbEntity
  8
0
100
AcDbSpline
 62
7
  6
CONTINUOUS
 70
0
 71
3
 72
9
 73
5
 74
0
 42
0.0000001
 43
0.0000001
 44
0.0000000001
 40
0.0
 40
0.0
 40
0.0
 40
0.0
 40
0.2501237335
 40
1.0
 40
1.0
 40
1.0
 40
1.0
 10
501.5462520508
 20
172.1481865496
 30
0.0
 10
501.8442939009
 20
171.586764143
 30
0.0
 10
503.0048340054
 20
169.3259105393
 30
0.0
 10
504.0329903786
 20
166.9965858201
 30
0.0
 10
504.7184057362
 20
165.2184893252
 30
0.0
  0
SPLINE
  5
4E0
100
AcDbEntity
  8
0
100
AcDbSpline
 62
7
  6
CONTINUOUS
 70
0
 71
3
 72
11
 73
7
 74
0
 42
0.0000001
 43
0.0000001
 44
0.0000000001
 40
0.0
 40
0.0
 40
0.0
 40
0.0
 40
0.2500438599
 40
0.5000000009
 40
0.7499561421
 40
1.0
 40
1.0
 40
1.0
 40
1.0
 10
495.571062485
 20
188.5648849587
 30
0.0
 10
496.255966582
 20
187.2747288739
 30
0.0
 10
497.5436421655
 20
184.6501624224
 30
0.0
 10
499.1928339509
 20
180.5873571726
 30
0.0
 10
500.5410006227
 20
176.4149877533
 30
0.0
 10
501.2416226849
 20
173.5767513055
 30
0.0
 10
501.5462520508
 20
172.1481865496
 30
0.0
  0
LINE
  5
4E1
100
AcDbEntity
  8
RUNDUNGEN
100
AcDbLine
 62
7
  6
CONTINUOUS
 10
516.5170249986
 20
142.9402390742
 11
520.3332436967
 21
145.6123841741
  0
SPLINE
  5
4E2
100
AcDbEntity
  8
RUNDUNGEN
100
AcDbSpline
 62
7
  6
CONTINUOUS
 70
0
 71
3
 72
11
 73
7
 74
0
 42
0.0000001
 43
0.0000001
 44
0.0000000001
 40
0.0
 40
0.0
 40
0.0
 40
0.0
 40
0.161833372
 40
0.3784314992
 40
0.6572361095
 40
1.0
 40
1.0
 40
1.0
 40
1.0
 10
511.4020230879
 20
159.424254129
 30
0.0
 10
511.3596960151
 20
159.4172818725
 30
0.0
 10
511.2651805566
 20
159.3775925192
 30
0.0
 10
511.1237080058
 20
159.2752406732
 30
0.0
 10
510.9622415689
 20
159.1218167045
 30
0.0
 10
510.8535997726
 20
158.9977452346
 30
0.0
 10
510.7958968334
 20
158.9275641992
 30
0.0
  0
LINE
  5
4E3
100
AcDbEntity
  8
RUNDUNGEN
100
AcDbLine
 62
7
  6
CONTINUOUS
 10
525.5423459099
 20
141.2414284283
 11
521.7261272118
 21
138.5692833284
  0
SPLINE
  5
4E4
100
AcDbEntity
  8
0
100
AcDbSpline
 62
7
  6
CONTINUOUS
 70
0
 71
3
 72
21
 73
17
 74
0
 42
0.0000001
 43
0.0000001
 44
0.0000000001
 40
0.0
 40
0.0
 40
0.0
 40
0.0
 40
0.1327174837
 40
0.2635367153
 40
0.3914901348
 40
0.515489269
 40
0.5758134505
 40
0.6348559655
 40
0.6926848659
 40
0.7497240308
 40
0.7784144956
 40
0.8075442607
 40
0.8374774893
 40
0.8685013971
 40
0.9332558374
 40
1.0
 40
1.0
 40
1.0
 40
1.0
 10
517.0492894427
 20
111.742903343
 30
0.0
 10
516.4881188907
 20
111.6371844959
 30
0.0
 10
515.3591079649
 20
111.4970733746
 30
0.0
 10
513.6689101502
 20
111.5205456051
 30
0.0
 10
512.0386491899
 20
111.8014064184
 30
0.0
 10
510.7700038912
 20
112.2797946566
 30
0.0
 10
509.8750163859
 20
112.8292480579
 30
0.0
 10
509.2904955103
 20
113.3245428706
 30
0.0
 10
508.8175448409
 20
113.9111450789
 30
0.0
 10
508.5571175821
 20
114.482451246
 30
0.0
 10
508.4731150702
 20
114.9722142526
 30
0.0
 10
508.4851096517
 20
115.3525780178
 30
0.0
 10
508.5857778861
 20
115.7306534152
 30
0.0
 10
508.8470556891
 20
116.2100470262
 30
0.0
 10
509.3840877836
 20
116.6878557183
 30
0.0
 10
509.9030671126
 20
116.9236910423
 30
0.0
 10
510.1729273818
 20
117.0219121477
 30
0.0
  0
LINE
  5
4E5
100
AcDbEntity
  8
0
100
AcDbLine
 62
7
  6
CONTINUOUS
 10
450.7872016392
 20
131.4552643472
 11
455.4282165282
 21
131.0492281571
  0
LINE
  5
4E6
100
AcDbEntity
  8
0
100
AcDbLine
 62
7
  6
CONTINUOUS
 10
449.6063940311
 20
138.1519570677
 11
454.24740892
 21
137.7459208776
  0
SPLINE
  5
4E7
100
AcDbEntity
  8
0
100
AcDbSpline
 62
7
  6
CONTINUOUS
 70
0
 71
3
 72
11
 73
7
 74
0
 42
0.0000001
 43
0.0000001
 44
0.0000000001
 40
0.0
 40
0.0
 40
0.0
 40
0.0
 40
0.3426837634
 40
0.6214705428
 40
0.8381047999
 40
1.0
 40
1.0
 40
1.0
 40
1.0
 10
455.5002100941
 20
154.076428938
 30
0.0
 10
455.5894708086
 20
154.0930899534
 30
0.0
 10
455.7523605459
 20
154.118289966
 30
0.0
 10
455.9745690814
 20
154.132045948
 30
0.0
 10
456.1486932709
 20
154.1195605297
 30
0.0
 10
456.2466088351
 20
154.0892806539
 30
0.0
 10
456.283540438
 20
154.0674563838
 30
0.0
  0
SPLINE
  5
4E8
100
AcDbEntity
  8
0
100
AcDbSpline
 62
7
  6
CONTINUOUS
 70
0
 71
3
 72
11
 73
7
 74
0
 42
0.0000001
 43
0.0000001
 44
0.0000000001
 40
0.0
 40
0.0
 40
0.0
 40
0.0
 40
0.2505755997
 40
0.5000000009
 40
0.7494244022
 40
1.0
 40
1.0
 40
1.0
 40
1.0
 10
457.3966598537
 20
188.5648849587
 30
0.0
 10
457.5681289665
 20
189.6255734586
 30
0.0
 10
458.0011166838
 20
191.7289130768
 30
0.0
 10
458.949404714
 20
194.8046895322
 30
0.0
 10
460.200044928
 20
197.7704187844
 30
0.0
 10
461.2203577405
 20
199.6599895414
 30
0.0
 10
461.7708022008
 20
200.5827422867
 30
0.0
  0
SPLINE
  5
4E9
100
AcDbEntity
  8
0
100
AcDbSpline
 62
7
  6
CONTINUOUS
 70
0
 71
3
 72
11
 73
7
 74
0
 42
0.0000001
 43
0.0000001
 44
0.0000000001
 40
0.0
 40
0.0
 40
0.0
 40
0.0
 40
0.2500438599
 40
0.5000000009
 40
0.7499561421
 40
1.0
 40
1.0
 40
1.0
 40
1.0
 10
451.4214702879
 20
172.1481865496
 30
0.0
 10
451.7260996562
 20
173.5767513165
 30
0.0
 10
452.4267217267
 20
176.4149877727
 30
0.0
 10
453.774888399
 20
180.5873572034
 30
0.0
 10
455.4240801775
 20
184.6501624441
 30
0.0
 10
456.711755762
 20
187.2747288838
 30
0.0
 10
457.3966598537
 20
188.5648849587
 30
0.0
  0
SPLINE
  5
4EA
100
AcDbEntity
  8
0
100
AcDbSpline
 62
7
  6
CONTINUOUS
 70
0
 71
3
 72
9
 73
5
 74
0
 42
0.0000001
 43
0.0000001
 44
0.0000000001
 40
0.0
 40
0.0
 40
0.0
 40
0.0
 40
0.7498762812
 40
1.0
 40
1.0
 40
1.0
 40
1.0
 10
448.2493166025
 20
165.2184893252
 30
0.0
 10
448.9347319736
 20
166.9965858551
 30
0.0
 10
449.9628883146
 20
169.3259105905
 30
0.0
 10
451.1234284553
 20
171.586764176
 30
0.0
 10
451.4214702879
 20
172.1481865496
 30
0.0
  0
SPLINE
  5
4EB
100
AcDbEntity
  8
0
100
AcDbSpline
 62
7
  6
CONTINUOUS
 70
0
 71
3
 72
11
 73
7
 74
0
 42
0.0000001
 43
0.0000001
 44
0.0000000001
 40
0.0
 40
0.0
 40
0.0
 40
0.0
 40
0.2574351421
 40
0.5000000008
 40
0.7425648595
 40
1.0
 40
1.0
 40
1.0
 40
1.0
 10
461.7708022008
 20
200.5827422867
 30
0.0
 10
461.7156765543
 20
200.997818567
 30
0.0
 10
461.6814454966
 20
201.8179444875
 30
0.0
 10
461.9348612124
 20
203.0138170004
 30
0.0
 10
462.5094255423
 20
204.0928009756
 30
0.0
 10
463.0628148364
 20
204.6990505742
 30
0.0
 10
463.3718494196
 20
204.9815833678
 30
0.0
  0
SPLINE
  5
4EC
100
AcDbEntity
  8
0
100
AcDbSpline
 62
7
  6
CONTINUOUS
 70
0
 71
3
 72
11
 73
7
 74
0
 42
0.0000001
 43
0.0000001
 44
0.0000000001
 40
0.0
 40
0.0
 40
0.0
 40
0.0
 40
0.2574351421
 40
0.5000000008
 40
0.7425648595
 40
1.0
 40
1.0
 40
1.0
 40
1.0
 10
467.2619552597
 20
198.5841260215
 30
0.0
 10
467.5709898449
 20
198.866658817
 30
0.0
 10
468.1243791365
 20
199.4729084212
 30
0.0
 10
468.6989434697
 20
200.5518923967
 30
0.0
 10
468.9523591879
 20
201.7477649072
 30
0.0
 10
468.9181281246
 20
202.567890825
 30
0.0
 10
468.8630024785
 20
202.9829671026
 30
0.0
  0
SPLINE
  5
4ED
100
AcDbEntity
  8
0
100
AcDbSpline
 62
7
  6
CONTINUOUS
 70
0
 71
3
 72
11
 73
7
 74
0
 42
0.0000001
 43
0.0000001
 44
0.0000000001
 40
0.0
 40
0.0
 40
0.0
 40
0.0
 40
0.2505755997
 40
0.5000000009
 40
0.7494244022
 40
1.0
 40
1.0
 40
1.0
 40
1.0
 10
462.8878129126
 20
186.5662686935
 30
0.0
 10
463.4382573771
 20
187.4890214458
 30
0.0
 10
464.4585701879
 20
189.3785922122
 30
0.0
 10
465.7092104076
 20
192.3443214703
 30
0.0
 10
466.6574984384
 20
195.4200979175
 30
0.0
 10
467.0904861482
 20
197.5234375297
 30
0.0
 10
467.2619552597
 20
198.5841260215
 30
0.0
  0
SPLINE
  5
4EE
100
AcDbEntity
  8
0
100
AcDbSpline
 62
7
  6
CONTINUOUS
 70
0
 71
3
 72
11
 73
7
 74
0
 42
0.0000001
 43
0.0000001
 44
0.0000000001
 40
0.0
 40
0.0
 40
0.0
 40
0.0
 40
0.2500438599
 40
0.5000000009
 40
0.7499561421
 40
1.0
 40
1.0
 40
1.0
 40
1.0
 10
456.9126233468
 20
170.1495702844
 30
0.0
 10
457.5975274439
 20
171.4397263692
 30
0.0
 10
458.8852030273
 20
174.0642928207
 30
0.0
 10
460.5343948128
 20
178.1270980704
 30
0.0
 10
461.8825614845
 20
182.2994674898
 30
0.0
 10
462.5831835467
 20
185.1377039375
 30
0.0
 10
462.8878129126
 20
186.5662686935
 30
0.0
  0
SPLINE
  5
4EF
100
AcDbEntity
  8
0
100
AcDbSpline
 62
7
  6
CONTINUOUS
 70
0
 71
3
 72
9
 73
5
 74
0
 42
0.0000001
 43
0.0000001
 44
0.0000000001
 40
0.0
 40
0.0
 40
0.0
 40
0.0
 40
0.7498762812
 40
1.0
 40
1.0
 40
1.0
 40
1.0
 10
454.8883105355
 20
162.8020931481
 30
0.0
 10
455.5061903175
 20
164.6047706222
 30
0.0
 10
456.2158379447
 20
167.0500230488
 30
0.0
 10
456.7800612909
 20
169.5279181977
 30
0.0
 10
456.9126233468
 20
170.1495702844
 30
0.0
  0
LINE
  5
4F0
100
AcDbEntity
  8
RUNDUNGEN
100
AcDbLine
 62
7
  6
CONTINUOUS
 10
431.2415951269
 20
138.5692833284
 11
427.4253764288
 21
141.2414284283
  0
LINE
  5
4F1
100
AcDbEntity
  8
RUNDUNGEN
100
AcDbLine
 62
7
  6
CONTINUOUS
 10
436.4506973401
 20
142.9402390742
 11
432.634478642
 21
145.6123841741
  0
SPLINE
  5
4F2
100
AcDbEntity
  8
RUNDUNGEN
100
AcDbSpline
 62
7
  6
CONTINUOUS
 70
0
 71
3
 72
11
 73
7
 74
0
 42
0.0000001
 43
0.0000001
 44
0.0000000001
 40
0.0
 40
0.0
 40
0.0
 40
0.0
 40
0.3426837634
 40
0.6214705428
 40
0.8381047999
 40
1.0
 40
1.0
 40
1.0
 40
1.0
 10
442.1718255053
 20
158.9275641992
 30
0.0
 10
442.1141573253
 20
158.9977029588
 30
0.0
 10
442.0055748031
 20
159.1217107933
 30
0.0
 10
441.844195364
 20
159.2750813802
 30
0.0
 10
441.702783024
 20
159.3774418665
 30
0.0
 10
441.6083118212
 20
159.4171850473
 30
0.0
 10
441.5659922016
 20
159.4242058632
 30
0.0
  0
SPLINE
  5
4F3
100
AcDbEntity
  8
RUNDUNGEN
100
AcDbSpline
 62
7
  6
CONTINUOUS
 70
0
 71
3
 72
21
 73
17
 74
0
 42
0.0000001
 43
0.0000001
 44
0.0000000001
 40
0.0
 40
0.0
 40
0.0
 40
0.0
 40
0.0667433704
 40
0.131500321
 40
0.1625263809
 40
0.1924611785
 40
0.2215902271
 40
0.2502798964
 40
0.3073186591
 40
0.3651472153
 40
0.4241897026
 40
0.4845139547
 40
0.6085121832
 40
0.7364639854
 40
0.8672827731
 40
1.0
 40
1.0
 40
1.0
 40
1.0
 10
428.086553893
 20
122.3752740934
 30
0.0
 10
427.816696856
 20
122.4734940224
 30
0.0
 10
427.2675361787
 20
122.6264367346
 30
0.0
 10
426.5490014815
 20
122.6055869733
 30
0.0
 10
426.0406747829
 20
122.4062948723
 30
0.0
 10
425.7205312949
 20
122.1813608632
 30
0.0
 10
425.466870818
 20
121.8976776018
 30
0.0
 10
425.2164127349
 20
121.4685088095
 30
0.0
 10
425.048704111
 20
120.8634632533
 30
0.0
 10
425.0339531682
 20
120.1100978551
 30
0.0
 10
425.1633595671
 20
119.3549595513
 30
0.0
 10
425.4957826103
 20
118.3587727255
 30
0.0
 10
426.1601210335
 20
117.1768501791
 30
0.0
 10
427.2284325338
 20
115.9137984165
 30
0.0
 10
428.5081045801
 20
114.8093868912
 30
0.0
 10
429.4630362199
 20
114.1910058661
 30
0.0
 10
429.9608715507
 20
113.9112782952
 30
0.0
  0
SPLINE
  5
4F4
100
AcDbEntity
  8
0
100
AcDbSpline
 62
7
  6
CONTINUOUS
 70
0
 71
3
 72
21
 73
17
 74
0
 42
0.0000001
 43
0.0000001
 44
0.0000000001
 40
0.0
 40
0.0
 40
0.0
 40
0.0
 40
0.0667433704
 40
0.131500321
 40
0.1625263809
 40
0.1924611785
 40
0.2215902271
 40
0.2502798964
 40
0.3073186591
 40
0.3651472153
 40
0.4241897026
 40
0.4845139547
 40
0.6085121832
 40
0.7364639854
 40
0.8672827731
 40
1.0
 40
1.0
 40
1.0
 40
1.0
 10
442.7947949569
 20
117.0219121477
 30
0.0
 10
443.0646519939
 20
116.9236922187
 30
0.0
 10
443.5836431595
 20
116.6878594545
 30
0.0
 10
444.1206707033
 20
116.2100224102
 30
0.0
 10
444.3819690528
 20
115.7306097001
 30
0.0
 10
444.4826283988
 20
115.3525159849
 30
0.0
 10
444.494595512
 20
114.9721521874
 30
0.0
 10
444.4105931526
 20
114.4823984663
 30
0.0
 10
444.1501496253
 20
113.9111056547
 30
0.0
 10
443.6771955595
 20
113.3245125545
 30
0.0
 10
443.0926709614
 20
112.8292238829
 30
0.0
 10
442.1976835878
 20
112.279777914
 30
0.0
 10
440.929045662
 20
111.8014012222
 30
0.0
 10
439.2987975502
 20
111.5205448338
 30
0.0
 10
437.6086098457
 20
111.4970738578
 30
0.0
 10
436.4796021085
 20
111.6371847359
 30
0.0
 10
435.918432703
 20
111.7429033669
 30
0.0
  0
SPLINE
  5
4F5
100
AcDbEntity
  8
KONSTRUKTIONSELEMENTE
100
AcDbSpline
 62
7
  6
CONTINUOUS
 70
0
 71
3
 72
11
 73
7
 74
0
 42
0.0000001
 43
0.0000001
 44
0.0000000001
 40
0.0
 40
0.0
 40
0.0
 40
0.0
 40
0.3114703232
 40
0.4450990083
 40
0.6063354134
 40
1.0
 40
1.0
 40
1.0
 40
1.0
 10
117.5032861089
 20
120.3873971052
 30
0.0
 10
117.5032861089
 20
120.5845519516
 30
0.0
 10
117.6419966445
 20
120.8596468386
 30
0.0
 10
117.893364491
 20
121.145998833
 30
0.0
 10
118.2217331653
 20
121.4357788392
 30
0.0
 10
118.5265352473
 20
121.6171612695
 30
0.0
 10
118.7512942206
 20
121.7247494005
 30
0.0
  0
SPLINE
  5
4F6
100
AcDbEntity
  8
KONSTRUKTIONSELEMENTE
100
AcDbSpline
 62
7
  6
CONTINUOUS
 70
0
 71
3
 72
11
 73
7
 74
0
 42
0.0000001
 43
0.0000001
 44
0.0000000001
 40
0.0
 40
0.0
 40
0.0
 40
0.0
 40
0.3936803283
 40
0.5549226436
 40
0.6885473432
 40
1.0
 40
1.0
 40
1.0
 40
1.0
 10
123.2550353444
 20
121.7248613286
 30
0.0
 10
123.4798432503
 20
121.6172714279
 30
0.0
 10
123.784710159
 20
121.4358683102
 30
0.0
 10
124.1131379589
 20
121.146049039
 30
0.0
 10
124.3645813356
 20
120.8597038927
 30
0.0
 10
124.5032861089
 20
120.584568409
 30
0.0
 10
124.5032861089
 20
120.3873971052
 30
0.0
  0
SPLINE
  5
4F7
100
AcDbEntity
  8
KONSTRUKTIONSELEMENTE
100
AcDbSpline
 62
7
  6
CONTINUOUS
 70
0
 71
3
 72
12
 73
8
 74
0
 42
0.0000001
 43
0.0000001
 44
0.0000000001
 40
0.0
 40
0.0
 40
0.0
 40
0.0
 40
0.1282453638
 40
0.2146169864
 40
0.321985829
 40
0.6101725692
 40
1.0
 40
1.0
 40
1.0
 40
1.0
 10
124.5032861089
 20
109.7807953874
 30
0.0
 10
124.5032861089
 20
109.7115323776
 30
0.0
 10
124.4836231232
 20
109.5949885279
 30
0.0
 10
124.4169332294
 20
109.4339650041
 30
0.0
 10
124.2857683387
 20
109.20815383
 30
0.0
 10
123.9944738783
 20
108.8931793867
 30
0.0
 10
123.6921764749
 20
108.6818121446
 30
0.0
 10
123.5096401739
 20
108.5768975481
 30
0.0
  0
SPLINE
  5
4F8
100
AcDbEntity
  8
KONSTRUKTIONSELEMENTE
100
AcDbSpline
 62
7
  6
CONTINUOUS
 70
0
 71
3
 72
12
 73
8
 74
0
 42
0.0000001
 43
0.0000001
 44
0.0000000001
 40
0.0
 40
0.0
 40
0.0
 40
0.0
 40
0.3898396094
 40
0.6780156338
 40
0.7853729626
 40
0.8717632718
 40
1.0
 40
1.0
 40
1.0
 40
1.0
 10
118.4968405078
 20
108.5769500193
 30
0.0
 10
118.3143132643
 20
108.6818654288
 30
0.0
 10
118.0120655006
 20
108.8932547665
 30
0.0
 10
117.7207605245
 20
109.2081726841
 30
0.0
 10
117.5896223662
 20
109.433981146
 30
0.0
 10
117.5229765591
 20
109.5950068805
 30
0.0
 10
117.5032861089
 20
109.711541655
 30
0.0
 10
117.5032861089
 20
109.7807953874
 30
0.0
  0
SPLINE
  5
4F9
100
AcDbEntity
  8
KONSTRUKTIONSELEMENTE
100
AcDbSpline
 62
7
  6
CONTINUOUS
 70
0
 71
3
 72
13
 73
9
 74
0
 42
0.0000001
 43
0.0000001
 44
0.0000000001
 40
0.0
 40
0.0
 40
0.0
 40
0.0
 40
0.1197290731
 40
0.2397365246
 40
0.3609040964
 40
0.4836831257
 40
0.7359942557
 40
1.0
 40
1.0
 40
1.0
 40
1.0
 10
129.0032861089
 20
109.7807953874
 30
0.0
 10
129.0032861089
 20
109.4315816853
 30
0.0
 10
128.931182487
 20
108.7302406493
 30
0.0
 10
128.6128971523
 20
107.7200224011
 30
0.0
 10
128.1035136106
 20
106.7814441825
 30
0.0
 10
127.1917130821
 20
105.6486696758
 30
0.0
 10
125.6758218165
 20
104.5115262597
 30
0.0
 10
124.2529349664
 20
103.9649805358
 30
0.0
 10
123.5067104448
 20
103.7750120452
 30
0.0
  0
SPLINE
  5
4FA
100
AcDbEntity
  8
KONSTRUKTIONSELEMENTE
100
AcDbSpline
 62
7
  6
CONTINUOUS
 70
0
 71
3
 72
13
 73
9
 74
0
 42
0.0000001
 43
0.0000001
 44
0.0000000001
 40
0.0
 40
0.0
 40
0.0
 40
0.0
 40
0.2640112835
 40
0.5163080567
 40
0.6390830379
 40
0.7602378991
 40
0.8802701562
 40
1.0
 40
1.0
 40
1.0
 40
1.0
 10
118.4989583064
 20
103.7752592347
 30
0.0
 10
117.752818484
 20
103.965293836
 30
0.0
 10
116.3301420427
 20
104.5118604672
 30
0.0
 10
114.8145519755
 20
105.6490058081
 30
0.0
 10
113.9029616981
 20
106.7816213167
 30
0.0
 10
113.3935707823
 20
107.7200986033
 30
0.0
 10
113.0754340632
 20
108.7302867064
 30
0.0
 10
113.0032861089
 20
109.43161659
 30
0.0
 10
113.0032861089
 20
109.7807953874
 30
0.0
  0
SPLINE
  5
4FB
100
AcDbEntity
  8
KONSTRUKTIONSELEMENTE
100
AcDbSpline
 62
7
  6
CONTINUOUS
 70
0
 71
3
 72
11
 73
7
 74
0
 42
0.0000001
 43
0.0000001
 44
0.0000000001
 40
0.0
 40
0.0
 40
0.0
 40
0.0
 40
0.3114703232
 40
0.4450990083
 40
0.6063354134
 40
1.0
 40
1.0
 40
1.0
 40
1.0
 10
124.5032861089
 20
140.8934937596
 30
0.0
 10
124.5032861089
 20
140.6963389132
 30
0.0
 10
124.3645755732
 20
140.4212440262
 30
0.0
 10
124.1132077267
 20
140.1348920318
 30
0.0
 10
123.7848390524
 20
139.8451120256
 30
0.0
 10
123.4800369704
 20
139.6637295953
 30
0.0
 10
123.2552779972
 20
139.5561414643
 30
0.0
  0
SPLINE
  5
4FC
100
AcDbEntity
  8
KONSTRUKTIONSELEMENTE
100
AcDbSpline
 62
7
  6
CONTINUOUS
 70
0
 71
3
 72
11
 73
7
 74
0
 42
0.0000001
 43
0.0000001
 44
0.0000000001
 40
0.0
 40
0.0
 40
0.0
 40
0.0
 40
0.3936803283
 40
0.5549226436
 40
0.6885473432
 40
1.0
 40
1.0
 40
1.0
 40
1.0
 10
118.7515368733
 20
139.5560295362
 30
0.0
 10
118.5267289674
 20
139.6636194369
 30
0.0
 10
118.2218620587
 20
139.8450225546
 30
0.0
 10
117.8934342588
 20
140.1348418258
 30
0.0
 10
117.6419908821
 20
140.421186972
 30
0.0
 10
117.5032861089
 20
140.6963224557
 30
0.0
 10
117.5032861089
 20
140.8934937596
 30
0.0
  0
SPLINE
  5
4FD
100
AcDbEntity
  8
KONSTRUKTIONSELEMENTE
100
AcDbSpline
 62
7
  6
CONTINUOUS
 70
0
 71
3
 72
9
 73
5
 74
0
 42
0.0000001
 43
0.0000001
 44
0.0000000001
 40
0.0
 40
0.0
 40
0.0
 40
0.0
 40
0.2479576702
 40
1.0
 40
1.0
 40
1.0
 40
1.0
 10
127.2525667447
 20
136.918796708
 30
0.0
 10
127.1816917764
 20
136.8490037108
 30
0.0
 10
126.8896343527
 20
136.573895568
 30
0.0
 10
126.5736606795
 20
136.3243920461
 30
0.0
 10
126.3261541215
 20
136.1518926209
 30
0.0
  0
SPLINE
  5
4FE
100
AcDbEntity
  8
KONSTRUKTIONSELEMENTE
100
AcDbSpline
 62
7
  6
CONTINUOUS
 70
0
 71
3
 72
9
 73
5
 74
0
 42
0.0000001
 43
0.0000001
 44
0.0000000001
 40
0.0
 40
0.0
 40
0.0
 40
0.0
 40
0.2523727995
 40
1.0
 40
1.0
 40
1.0
 40
1.0
 10
115.6868841288
 20
136.147383437
 30
0.0
 10
115.6032656567
 20
136.2055337745
 30
0.0
 10
115.2766194835
 20
136.4425801067
 30
0.0
 10
114.9694368101
 20
136.7066824232
 30
0.0
 10
114.7544400808
 20
136.9183706878
 30
0.0
  0
SPLINE
  5
4FF
100
AcDbEntity
  8
KONSTRUKTIONSELEMENTE
100
AcDbSpline
 62
7
  6
CONTINUOUS
 70
0
 71
3
 72
9
 73
5
 74
0
 42
0.0000001
 43
0.0000001
 44
0.0000000001
 40
0.0
 40
0.0
 40
0.0
 40
0.0
 40
0.244501689
 40
1.0
 40
1.0
 40
1.0
 40
1.0
 10
106.1472598724
 20
174.2613248583
 30
0.0
 10
106.2916579716
 20
174.155296465
 30
0.0
 10
106.8887881296
 20
173.7306104952
 30
0.0
 10
107.5112063739
 20
173.3416897882
 30
0.0
 10
107.9921910882
 20
173.0677014538
 30
0.0
  0
SPLINE
  5
500
100
AcDbEntity
  8
KONSTRUKTIONSELEMENTE
100
AcDbSpline
 62
7
  6
CONTINUOUS
 70
0
 71
3
 72
9
 73
5
 74
0
 42
0.0000001
 43
0.0000001
 44
0.0000000001
 40
0.0
 40
0.0
 40
0.0
 40
0.0
 40
0.255523601
 40
1.0
 40
1.0
 40
1.0
 40
1.0
 10
134.0138376054
 20
173.0673858929
 30
0.0
 10
134.1768678122
 20
173.1602480374
 30
0.0
 10
134.8098355479
 20
173.5324425013
 30
0.0
 10
135.4220761325
 20
173.9401229614
 30
0.0
 10
135.8626233018
 20
174.2637560826
 30
0.0
  0
SPLINE
  5
501
100
AcDbEntity
  8
0
100
AcDbSpline
 62
7
  6
CONTINUOUS
 70
0
 71
3
 72
12
 73
8
 74
0
 42
0.0000001
 43
0.0000001
 44
0.0000000001
 40
0.0
 40
0.0
 40
0.0
 40
0.0
 40
0.1089727213
 40
0.2201620805
 40
0.4554253
 40
0.7155329149
 40
1.0
 40
1.0
 40
1.0
 40
1.0
 10
135.5951514426
 20
80.7187066806
 30
0.0
 10
135.5951514426
 20
80.8624559387
 30
0.0
 10
135.5649231988
 20
81.1537438723
 30
0.0
 10
135.3832334967
 20
81.7300322231
 30
0.0
 10
134.9230357214
 20
82.4069249211
 30
0.0
 10
134.0996863876
 20
83.0442658671
 30
0.0
 10
133.4323089722
 20
83.3305172606
 30
0.0
 10
133.0737136794
 20
83.4410677882
 30
0.0
  0
SPLINE
  5
502
100
AcDbEntity
  8
0
100
AcDbSpline
 62
7
  6
CONTINUOUS
 70
0
 71
3
 72
17
 73
13
 74
0
 42
0.0000001
 43
0.0000001
 44
0.0000000001
 40
0.0
 40
0.0
 40
0.0
 40
0.0
 40
0.0517809237
 40
0.1054811646
 40
0.2228479209
 40
0.3562855052
 40
0.5
 40
0.6437144948
 40
0.7771520791
 40
0.8945188354
 40
0.9482190763
 40
1.0
 40
1.0
 40
1.0
 40
1.0
 10
122.5218196751
 20
79.9867347808
 30
0.0
 10
122.5218196751
 20
79.8991507275
 30
0.0
 10
122.547320249
 20
79.7198367696
 30
0.0
 10
122.6997010848
 20
79.3708010129
 30
0.0
 10
123.0762571592
 20
78.9940087541
 30
0.0
 10
123.6944664703
 20
78.7163433014
 30
0.0
 10
124.4088873554
 20
78.6192070318
 30
0.0
 10
125.1233082405
 20
78.7163433014
 30
0.0
 10
125.7415175516
 20
78.9940087541
 30
0.0
 10
126.118073626
 20
79.3708010129
 30
0.0
 10
126.2704544617
 20
79.7198367696
 30
0.0
 10
126.2959550357
 20
79.8991507275
 30
0.0
 10
126.2959550357
 20
79.9867347808
 30
0.0
  0
SPLINE
  5
503
100
AcDbEntity
  8
0
100
AcDbSpline
 62
7
  6
CONTINUOUS
 70
0
 71
3
 72
12
 73
8
 74
0
 42
0.0000001
 43
0.0000001
 44
0.0000000001
 40
0.0
 40
0.0
 40
0.0
 40
0.0
 40
0.1035930223
 40
0.210949621
 40
0.4457011106
 40
0.7125563401
 40
1.0
 40
1.0
 40
1.0
 40
1.0
 10
120.11498211
 20
82.0673581063
 30
0.0
 10
120.1149682299
 20
82.1598837196
 30
0.0
 10
120.0879953574
 20
82.3492481581
 30
0.0
 10
119.9268965679
 20
82.7177847751
 30
0.0
 10
119.529161242
 20
83.1156650205
 30
0.0
 10
118.8767290635
 20
83.408901337
 30
0.0
 10
118.3785541597
 20
83.4764231272
 30
0.0
 10
118.1218196751
 20
83.4764231272
 30
0.0
  0
SPLINE
  5
504
100
AcDbEntity
  8
0
100
AcDbSpline
 62
7
  6
CONTINUOUS
 70
0
 71
3
 72
9
 73
5
 74
0
 42
0.0000001
 43
0.0000001
 44
0.0000000001
 40
0.0
 40
0.0
 40
0.0
 40
0.0
 40
0.4402133985
 40
1.0
 40
1.0
 40
1.0
 40
1.0
 10
109.1910183736
 20
80.0610973741
 30
0.0
 10
109.1910183736
 20
80.0379181603
 30
0.0
 10
109.2267161629
 20
79.9874426725
 30
0.0
 10
109.2815430932
 20
79.9762445604
 30
0.0
 10
109.3110183736
 20
79.9762445604
 30
0.0
  0
SPLINE
  5
505
100
AcDbEntity
  8
0
100
AcDbSpline
 62
7
  6
CONTINUOUS
 70
0
 71
3
 72
9
 73
5
 74
0
 42
0.0000001
 43
0.0000001
 44
0.0000000001
 40
0.0
 40
0.0
 40
0.0
 40
0.0
 40
0.4402133985
 40
1.0
 40
1.0
 40
1.0
 40
1.0
 10
110.0160183736
 20
80.103523781
 30
0.0
 10
110.0160183736
 20
80.1267029948
 30
0.0
 10
109.9803205843
 20
80.1771784826
 30
0.0
 10
109.9254936539
 20
80.1883765947
 30
0.0
 10
109.8960183736
 20
80.1883765947
 30
0.0
  0
SPLINE
  5
506
100
AcDbEntity
  8
0
100
AcDbSpline
 62
7
  6
CONTINUOUS
 70
0
 71
3
 72
9
 73
5
 74
0
 42
0.0000001
 43
0.0000001
 44
0.0000000001
 40
0.0
 40
0.0
 40
0.0
 40
0.0
 40
0.4402133985
 40
1.0
 40
1.0
 40
1.0
 40
1.0
 10
110.0160183736
 20
82.2248441245
 30
0.0
 10
110.0160183736
 20
82.2480233384
 30
0.0
 10
109.9803205843
 20
82.2984988262
 30
0.0
 10
109.9254936539
 20
82.3096969383
 30
0.0
 10
109.8960183736
 20
82.3096969383
 30
0.0
  0
SPLINE
  5
507
100
AcDbEntity
  8
0
100
AcDbSpline
 62
7
  6
CONTINUOUS
 70
0
 71
3
 72
11
 73
7
 74
0
 42
0.0000001
 43
0.0000001
 44
0.0000000001
 40
0.0
 40
0.0
 40
0.0
 40
0.0
 40
0.2094668498
 40
0.4446559298
 40
0.7120302568
 40
1.0
 40
1.0
 40
1.0
 40
1.0
 10
108.3660183736
 20
81.1429707493
 30
0.0
 10
108.3660183736
 20
81.1148606746
 30
0.0
 10
108.3842738366
 20
81.0544817278
 30
0.0
 10
108.4541804905
 20
80.9853385482
 30
0.0
 10
108.5523779807
 20
80.9409422459
 30
0.0
 10
108.6273733516
 20
80.930838715
 30
0.0
 10
108.6660183736
 20
80.930838715
 30
0.0
  0
SPLINE
  5
508
100
AcDbEntity
  8
0
100
AcDbSpline
 62
7
  6
CONTINUOUS
 70
0
 71
3
 72
11
 73
7
 74
0
 42
0.0000001
 43
0.0000001
 44
0.0000000001
 40
0.0
 40
0.0
 40
0.0
 40
0.0
 40
0.2094668498
 40
0.4446559298
 40
0.7120302568
 40
1.0
 40
1.0
 40
1.0
 40
1.0
 10
108.3660183736
 20
79.0216504058
 30
0.0
 10
108.3660183736
 20
78.993540331
 30
0.0
 10
108.3842738366
 20
78.9331613842
 30
0.0
 10
108.4541804905
 20
78.8640182046
 30
0.0
 10
108.5523779807
 20
78.8196219024
 30
0.0
 10
108.6273733516
 20
78.8095183714
 30
0.0
 10
108.6660183736
 20
78.8095183714
 30
0.0
  0
SPLINE
  5
509
100
AcDbEntity
  8
0
100
AcDbSpline
 62
7
  6
CONTINUOUS
 70
0
 71
3
 72
9
 73
5
 74
0
 42
0.0000001
 43
0.0000001
 44
0.0000000001
 40
0.0
 40
0.0
 40
0.0
 40
0.0
 40
0.2432035461
 40
1.0
 40
1.0
 40
1.0
 40
1.0
 10
112.4160183736
 20
83.0521590585
 30
0.0
 10
112.4160183736
 20
83.0688066752
 30
0.0
 10
112.4103262719
 20
83.1372604451
 30
0.0
 10
112.3809100183
 20
83.2027433808
 30
0.0
 10
112.3506233236
 20
83.2447712916
 30
0.0
  0
SPLINE
  5
50A
100
AcDbEntity
  8
0
100
AcDbSpline
 62
7
  6
CONTINUOUS
 70
0
 71
3
 72
9
 73
5
 74
0
 42
0.0000001
 43
0.0000001
 44
0.0000000001
 40
0.0
 40
0.0
 40
0.0
 40
0.0
 40
0.4654299385
 40
1.0
 40
1.0
 40
1.0
 40
1.0
 10
112.3506233236
 20
83.2447712916
 30
0.0
 10
112.296378151
 20
83.3200456422
 30
0.0
 10
112.1238297689
 20
83.4405684147
 30
0.0
 10
111.9225848936
 20
83.4764231272
 30
0.0
 10
111.8160183736
 20
83.4764231272
 30
0.0
  0
SPLINE
  5
50B
100
AcDbEntity
  8
RUNDUNGEN
100
AcDbSpline
 62
7
  6
CONTINUOUS
 70
0
 71
3
 72
11
 73
7
 74
0
 42
0.0000001
 43
0.0000001
 44
0.0000000001
 40
0.0
 40
0.0
 40
0.0
 40
0.0
 40
0.2256934588
 40
0.4632957354
 40
0.7206235605
 40
1.0
 40
1.0
 40
1.0
 40
1.0
 10
88.5250245287
 20
85.4178992768
 30
0.0
 10
88.5250782247
 20
85.503104422
 30
0.0
 10
88.5560619469
 20
85.6792371135
 30
0.0
 10
88.6887275153
 20
85.9213468287
 30
0.0
 10
88.8964985661
 20
86.131397204
 30
0.0
 10
89.070127229
 20
86.2393510678
 30
0.0
 10
89.1646478783
 20
86.2861502733
 30
0.0
  0
SPLINE
  5
50C
100
AcDbEntity
  8
RUNDUNGEN
100
AcDbSpline
 62
7
  6
CONTINUOUS
 70
0
 71
3
 72
9
 73
5
 74
0
 42
0.0000001
 43
0.0000001
 44
0.0000000001
 40
0.0
 40
0.0
 40
0.0
 40
0.0
 40
0.4805181646
 40
1.0
 40
1.0
 40
1.0
 40
1.0
 10
88.5250232362
 20
81.8823231833
 30
0.0
 10
88.5249617199
 20
81.7734366986
 30
0.0
 10
88.5767048296
 20
81.5446974422
 30
0.0
 10
88.7134559166
 20
81.357049409
 30
0.0
 10
88.7962844664
 20
81.2734047379
 30
0.0
  0
SPLINE
  5
50D
100
AcDbEntity
  8
RUNDUNGEN
100
AcDbSpline
 62
7
  6
CONTINUOUS
 70
0
 71
3
 72
11
 73
7
 74
0
 42
0.0000001
 43
0.0000001
 44
0.0000000001
 40
0.0
 40
0.0
 40
0.0
 40
0.0
 40
0.2256919297
 40
0.4632773963
 40
0.7205986282
 40
1.0
 40
1.0
 40
1.0
 40
1.0
 10
78.0838900523
 20
96.7409968697
 30
0.0
 10
78.0838352204
 20
97.0252062204
 30
0.0
 10
78.186614415
 20
97.6128006227
 30
0.0
 10
78.6286799747
 20
98.4206428125
 30
0.0
 10
79.3215340632
 20
99.1215019659
 30
0.0
 10
79.9006931838
 20
99.4816577371
 30
0.0
 10
80.2160054445
 20
99.6377756162
 30
0.0
  0
SPLINE
  5
50E
100
AcDbEntity
  8
RUNDUNGEN
100
AcDbSpline
 62
7
  6
CONTINUOUS
 70
0
 71
3
 72
10
 73
6
 74
0
 42
0.0000001
 43
0.0000001
 44
0.0000000001
 40
0.0
 40
0.0
 40
0.0
 40
0.0
 40
0.2382860828
 40
0.4819052527
 40
1.0
 40
1.0
 40
1.0
 40
1.0
 10
78.0838900523
 20
93.2054629638
 30
0.0
 10
78.0839248327
 20
93.0251860111
 30
0.0
 10
78.1241653169
 20
92.6593412764
 30
0.0
 10
78.3645660629
 20
91.937482502
 30
0.0
 10
78.7123261854
 20
91.4567216726
 30
0.0
 10
78.9881274048
 20
91.1782029452
 30
0.0
  0
SPLINE
  5
50F
100
AcDbEntity
  8
RUNDUNGEN
100
AcDbSpline
 62
7
  6
CONTINUOUS
 70
0
 71
3
 72
11
 73
7
 74
0
 42
0.0000001
 43
0.0000001
 44
0.0000000001
 40
0.0
 40
0.0
 40
0.0
 40
0.0
 40
0.237780559
 40
0.4809056754
 40
0.7339193747
 40
1.0
 40
1.0
 40
1.0
 40
1.0
 10
136.5226508279
 20
61.0770939651
 30
0.0
 10
136.5226508471
 20
61.6180724947
 30
0.0
 10
136.6426606126
 20
62.7156829451
 30
0.0
 10
137.1747803516
 20
64.3104138249
 30
0.0
 10
138.0427265704
 20
65.8235249301
 30
0.0
 10
138.8094164663
 20
66.7306396504
 30
0.0
 10
139.2353701636
 20
67.1607903292
 30
0.0
  0
SPLINE
  5
510
100
AcDbEntity
  8
RUNDUNGEN
100
AcDbSpline
 62
7
  6
CONTINUOUS
 70
0
 71
3
 72
9
 73
5
 74
0
 42
0.0000001
 43
0.0000001
 44
0.0000000001
 40
0.0
 40
0.0
 40
0.0
 40
0.0
 40
0.483225943
 40
1.0
 40
1.0
 40
1.0
 40
1.0
 10
136.7326397587
 20
62.8440896271
 30
0.0
 10
136.9213247112
 20
62.0552540753
 30
0.0
 10
137.5725139477
 20
60.4781717595
 30
0.0
 10
138.6250414196
 20
59.1452730035
 30
0.0
 10
139.2353701636
 20
58.5289306049
 30
0.0
  0
SPLINE
  5
511
100
AcDbEntity
  8
RUNDUNGEN
100
AcDbSpline
 62
7
  6
CONTINUOUS
 70
0
 71
3
 72
10
 73
6
 74
0
 42
0.0000001
 43
0.0000001
 44
0.0000000001
 40
0.0
 40
0.0
 40
0.0
 40
0.0
 40
0.2382826319
 40
0.4819247904
 40
1.0
 40
1.0
 40
1.0
 40
1.0
 10
87.0032861089
 20
41.4909016161
 30
0.0
 10
87.0032861089
 20
41.6712265698
 30
0.0
 10
87.0434063826
 20
42.0372049136
 30
0.0
 10
87.2838332722
 20
42.7592912539
 30
0.0
 10
87.6316576458
 20
43.2402141444
 30
0.0
 10
87.9075258874
 20
43.5188005544
 30
0.0
  0
SPLINE
  5
512
100
AcDbEntity
  8
BEZUGSACHSEN
100
AcDbSpline
 62
7
  6
CONTINUOUS
 70
0
 71
3
 72
9
 73
5
 74
0
 42
0.0000001
 43
0.0000001
 44
0.0000000001
 40
0.0
 40
0.0
 40
0.0
 40
0.0
 40
0.4742612099
 40
1.0
 40
1.0
 40
1.0
 40
1.0
 10
116.1053151296
 20
91.3886579626
 30
0.0
 10
116.3799893679
 20
91.0084555168
 30
0.0
 10
117.1160610308
 20
90.3169234767
 30
0.0
 10
118.0123449391
 20
89.8710269228
 30
0.0
 10
118.5013712665
 20
89.6943810614
 30
0.0
  0
SPLINE
  5
513
100
AcDbEntity
  8
BEZUGSACHSEN
100
AcDbSpline
 62
7
  6
CONTINUOUS
 70
0
 71
3
 72
9
 73
5
 74
0
 42
0.0000001
 43
0.0000001
 44
0.0000000001
 40
0.0
 40
0.0
 40
0.0
 40
0.0
 40
0.5257387901
 40
1.0
 40
1.0
 40
1.0
 40
1.0
 10
123.5052009512
 20
89.6943810614
 30
0.0
 10
123.9942272786
 20
89.8710269228
 30
0.0
 10
124.8905111869
 20
90.3169234767
 30
0.0
 10
125.6265828498
 20
91.0084555168
 30
0.0
 10
125.9012570881
 20
91.3886579626
 30
0.0
  0
SPLINE
  5
514
100
AcDbEntity
  8
BEZUGSACHSEN
100
AcDbSpline
 62
7
  6
CONTINUOUS
 70
0
 71
3
 72
12
 73
8
 74
0
 42
0.0000001
 43
0.0000001
 44
0.0000000001
 40
0.0
 40
0.0
 40
0.0
 40
0.0
 40
0.1099426827
 40
0.2219590892
 40
0.4577463286
 40
0.7169256794
 40
1.0
 40
1.0
 40
1.0
 40
1.0
 10
126.5032861089
 20
89.6222418471
 30
0.0
 10
126.5032861089
 20
89.8004923925
 30
0.0
 10
126.4677729069
 20
90.16131654
 30
0.0
 10
126.2549450707
 20
90.8763143611
 30
0.0
 10
125.714607067
 20
91.723692743
 30
0.0
 10
124.7367917622
 20
92.5435742958
 30
0.0
 10
123.9368528499
 20
92.9297154416
 30
0.0
 10
123.5052009512
 20
93.0856365386
 30
0.0
  0
SPLINE
  5
515
100
AcDbEntity
  8
BEZUGSACHSEN
100
AcDbSpline
 62
7
  6
CONTINUOUS
 70
0
 71
3
 72
12
 73
8
 74
0
 42
0.0000001
 43
0.0000001
 44
0.0000000001
 40
0.0
 40
0.0
 40
0.0
 40
0.0
 40
0.2830743206
 40
0.5422536714
 40
0.7780409108
 40
0.8900573173
 40
1.0
 40
1.0
 40
1.0
 40
1.0
 10
118.5013712665
 20
93.0856365386
 30
0.0
 10
118.0697193678
 20
92.9297154416
 30
0.0
 10
117.2697804555
 20
92.5435742958
 30
0.0
 10
116.2919651507
 20
91.723692743
 30
0.0
 10
115.751627147
 20
90.8763143611
 30
0.0
 10
115.5387993108
 20
90.16131654
 30
0.0
 10
115.5032861089
 20
89.8004923925
 30
0.0
 10
115.5032861089
 20
89.6222418471
 30
0.0
  0
SPLINE
  5
516
100
AcDbEntity
  8
RUNDUNGEN
100
AcDbSpline
 62
7
  6
CONTINUOUS
 70
0
 71
3
 72
10
 73
6
 74
0
 42
0.0000001
 43
0.0000001
 44
0.0000000001
 40
0.0
 40
0.0
 40
0.0
 40
0.0
 40
0.5180750537
 40
0.7617172794
 40
1.0
 40
1.0
 40
1.0
 40
1.0
 10
154.0990463303
 20
43.5188005544
 30
0.0
 10
154.3749144893
 20
43.2402142278
 30
0.0
 10
154.722738844
 20
42.7592914214
 30
0.0
 10
154.9631657976
 20
42.0372050994
 30
0.0
 10
155.0032861089
 20
41.6712266371
 30
0.0
 10
155.0032861089
 20
41.4909016161
 30
0.0
  0
SPLINE
  5
517
100
AcDbEntity
  8
RUNDUNGEN
100
AcDbSpline
 62
7
  6
CONTINUOUS
 70
0
 71
3
 72
11
 73
7
 74
0
 42
0.0000001
 43
0.0000001
 44
0.0000000001
 40
0.0
 40
0.0
 40
0.0
 40
0.0
 40
0.2793755914
 40
0.5367190118
 40
0.774320888
 40
1.0
 40
1.0
 40
1.0
 40
1.0
 10
164.6575989282
 20
98.2182463593
 30
0.0
 10
164.7521209612
 20
98.1714464687
 30
0.0
 10
164.9257567436
 20
98.0634868821
 30
0.0
 10
165.1335348384
 20
97.8534273655
 30
0.0
 10
165.2661942369
 20
97.6113079957
 30
0.0
 10
165.297172685
 20
97.4351771447
 30
0.0
 10
165.297223414
 20
97.3499759081
 30
0.0
  0
SPLINE
  5
518
100
AcDbEntity
  8
RUNDUNGEN
100
AcDbSpline
 62
7
  6
CONTINUOUS
 70
0
 71
3
 72
11
 73
7
 74
0
 42
0.0000001
 43
0.0000001
 44
0.0000000001
 40
0.0
 40
0.0
 40
0.0
 40
0.0
 40
0.2297148774
 40
0.4842569964
 40
0.7475608951
 40
1.0
 40
1.0
 40
1.0
 40
1.0
 10
155.3599682175
 20
101.5268762243
 30
0.0
 10
155.479712103
 20
101.6477999631
 30
0.0
 10
155.7891960935
 20
101.8474748207
 30
0.0
 10
156.3316152958
 20
101.9898627867
 30
0.0
 10
156.9088010567
 20
101.9817774344
 30
0.0
 10
157.2814642689
 20
101.870329205
 30
0.0
 10
157.4490609385
 20
101.7873484908
 30
0.0
  0
SPLINE
  5
519
100
AcDbEntity
  8
0
100
AcDbSpline
 62
7
  6
CONTINUOUS
 70
0
 71
3
 72
9
 73
5
 74
0
 42
0.0000001
 43
0.0000001
 44
0.0000000001
 40
0.0
 40
0.0
 40
0.0
 40
0.0
 40
0.2419366003
 40
1.0
 40
1.0
 40
1.0
 40
1.0
 10
129.6069326541
 20
97.9571079366
 30
0.0
 10
129.1464304609
 20
98.1851124725
 30
0.0
 10
127.1986898897
 20
99.0367586974
 30
0.0
 10
125.1027186033
 20
99.535654555
 30
0.0
 10
123.5040330617
 20
99.7268112608
 30
0.0
  0
SPLINE
  5
51A
100
AcDbEntity
  8
0
100
AcDbSpline
 62
7
  6
CONTINUOUS
 70
0
 71
3
 72
9
 73
5
 74
0
 42
0.0000001
 43
0.0000001
 44
0.0000000001
 40
0.0
 40
0.0
 40
0.0
 40
0.0
 40
0.2576167678
 40
1.0
 40
1.0
 40
1.0
 40
1.0
 10
118.502539156
 20
99.7268112608
 30
0.0
 10
117.9593093387
 20
99.6618566342
 30
0.0
 10
115.8621078327
 20
99.3270521874
 30
0.0
 10
113.812535701
 20
98.6566631894
 30
0.0
 10
112.3996395636
 20
97.9571079366
 30
0.0
  0
SPLINE
  5
51B
100
AcDbEntity
  8
RUNDUNGEN
100
AcDbSpline
 62
7
  6
CONTINUOUS
 70
0
 71
3
 72
13
 73
9
 74
0
 42
0.0000001
 43
0.0000001
 44
0.0000000001
 40
0.0
 40
0.0
 40
0.0
 40
0.0
 40
0.2520973512
 40
0.3837531518
 40
0.5156914539
 40
0.6454036045
 40
0.7706002144
 40
1.0
 40
1.0
 40
1.0
 40
1.0
 10
81.0351574888
 20
100.0433554038
 30
0.0
 10
82.5993754896
 20
100.8178333644
 30
0.0
 10
85.1962974023
 20
101.5939417169
 30
0.0
 10
88.7600215234
 20
101.894082215
 30
0.0
 10
91.4886438496
 20
101.7484435994
 30
0.0
 10
94.1275013333
 20
101.2309529083
 30
0.0
 10
97.2927309499
 20
100.1107857339
 30
0.0
 10
99.4157791661
 20
98.7408696114
 30
0.0
 10
100.5333562178
 20
97.6122809165
 30
0.0
  0
SPLINE
  5
51C
100
AcDbEntity
  8
0
100
AcDbSpline
 62
7
  6
CONTINUOUS
 70
0
 71
3
 72
11
 73
7
 74
0
 42
0.0000001
 43
0.0000001
 44
0.0000000001
 40
0.0
 40
0.0
 40
0.0
 40
0.0
 40
0.2880052506
 40
0.5553344723
 40
0.7905070702
 40
1.0
 40
1.0
 40
1.0
 40
1.0
 10
107.0160183736
 20
83.4764231272
 30
0.0
 10
106.9387193411
 20
83.4764231272
 30
0.0
 10
106.788723422
 20
83.4562314778
 30
0.0
 10
106.5923702795
 20
83.3673864472
 30
0.0
 10
106.452521099
 20
83.2291553026
 30
0.0
 10
106.4160183736
 20
83.108385814
 30
0.0
 10
106.4160183736
 20
83.0521590585
 30
0.0
  0
SPLINE
  5
51D
100
AcDbEntity
  8
0
100
AcDbSpline
 62
7
  6
CONTINUOUS
 70
0
 71
3
 72
11
 73
7
 74
0
 42
0.0000001
 43
0.0000001
 44
0.0000000001
 40
0.0
 40
0.0
 40
0.0
 40
0.0
 40
0.2879697432
 40
0.5553440702
 40
0.7905331502
 40
1.0
 40
1.0
 40
1.0
 40
1.0
 10
110.1660183736
 20
80.930838715
 30
0.0
 10
110.2046633955
 20
80.930838715
 30
0.0
 10
110.2796587665
 20
80.9409422459
 30
0.0
 10
110.3778562567
 20
80.9853385482
 30
0.0
 10
110.4477629106
 20
81.0544817278
 30
0.0
 10
110.4660183736
 20
81.1148606746
 30
0.0
 10
110.4660183736
 20
81.1429707493
 30
0.0
  0
SPLINE
  5
51E
100
AcDbEntity
  8
0
100
AcDbSpline
 62
7
  6
CONTINUOUS
 70
0
 71
3
 72
11
 73
7
 74
0
 42
0.0000001
 43
0.0000001
 44
0.0000000001
 40
0.0
 40
0.0
 40
0.0
 40
0.0
 40
0.2879697432
 40
0.5553440702
 40
0.7905331502
 40
1.0
 40
1.0
 40
1.0
 40
1.0
 10
110.1660183736
 20
78.8095183714
 30
0.0
 10
110.2046633955
 20
78.8095183714
 30
0.0
 10
110.2796587665
 20
78.8196219024
 30
0.0
 10
110.3778562567
 20
78.8640182046
 30
0.0
 10
110.4477629106
 20
78.9331613842
 30
0.0
 10
110.4660183736
 20
78.993540331
 30
0.0
 10
110.4660183736
 20
79.0216504058
 30
0.0
  0
SPLINE
  5
51F
100
AcDbEntity
  8
0
100
AcDbSpline
 62
7
  6
CONTINUOUS
 70
0
 71
3
 72
9
 73
5
 74
0
 42
0.0000001
 43
0.0000001
 44
0.0000000001
 40
0.0
 40
0.0
 40
0.0
 40
0.0
 40
0.5597866015
 40
1.0
 40
1.0
 40
1.0
 40
1.0
 10
108.9360183736
 20
82.3096969383
 30
0.0
 10
108.9065430932
 20
82.3096969383
 30
0.0
 10
108.8517161629
 20
82.2984988262
 30
0.0
 10
108.8160183736
 20
82.2480233384
 30
0.0
 10
108.8160183736
 20
82.2248441245
 30
0.0
  0
SPLINE
  5
520
100
AcDbEntity
  8
0
100
AcDbSpline
 62
7
  6
CONTINUOUS
 70
0
 71
3
 72
9
 73
5
 74
0
 42
0.0000001
 43
0.0000001
 44
0.0000000001
 40
0.0
 40
0.0
 40
0.0
 40
0.0
 40
0.5597866015
 40
1.0
 40
1.0
 40
1.0
 40
1.0
 10
108.9360183736
 20
80.1883765947
 30
0.0
 10
108.9065430932
 20
80.1883765947
 30
0.0
 10
108.8517161629
 20
80.1771784826
 30
0.0
 10
108.8160183736
 20
80.1267029948
 30
0.0
 10
108.8160183736
 20
80.103523781
 30
0.0
  0
SPLINE
  5
521
100
AcDbEntity
  8
0
100
AcDbSpline
 62
7
  6
CONTINUOUS
 70
0
 71
3
 72
9
 73
5
 74
0
 42
0.0000001
 43
0.0000001
 44
0.0000000001
 40
0.0
 40
0.0
 40
0.0
 40
0.0
 40
0.5597866015
 40
1.0
 40
1.0
 40
1.0
 40
1.0
 10
109.5210183736
 20
79.9762445604
 30
0.0
 10
109.5504936539
 20
79.9762445604
 30
0.0
 10
109.6053205843
 20
79.9874426725
 30
0.0
 10
109.6410183736
 20
80.0379181603
 30
0.0
 10
109.6410183736
 20
80.0610973741
 30
0.0
  0
SPLINE
  5
522
100
AcDbEntity
  8
0
100
AcDbSpline
 62
7
  6
CONTINUOUS
 70
0
 71
3
 72
11
 73
7
 74
0
 42
0.0000001
 43
0.0000001
 44
0.0000000001
 40
0.0
 40
0.0
 40
0.0
 40
0.0
 40
0.2880001164
 40
0.5553425139
 40
0.7905343079
 40
1.0
 40
1.0
 40
1.0
 40
1.0
 10
118.1218196751
 20
81.3011269095
 30
0.0
 10
118.2613633196
 20
81.3011269095
 30
0.0
 10
118.532140537
 20
81.3376019294
 30
0.0
 10
118.886664725
 20
81.4979269713
 30
0.0
 10
119.1390783891
 20
81.7475404711
 30
0.0
 10
119.2049676844
 20
81.9655497861
 30
0.0
 10
119.2049676844
 20
82.0670414329
 30
0.0
  0
SPLINE
  5
523
100
AcDbEntity
  8
0
100
AcDbSpline
 62
7
  6
CONTINUOUS
 70
0
 71
3
 72
9
 73
5
 74
0
 42
0.0000001
 43
0.0000001
 44
0.0000000001
 40
0.0
 40
0.0
 40
0.0
 40
0.0
 40
0.2457811574
 40
1.0
 40
1.0
 40
1.0
 40
1.0
 10
133.0737136794
 20
83.4410677882
 30
0.0
 10
133.0546973131
 20
83.4469303005
 30
0.0
 10
132.9763981714
 20
83.4676962646
 30
0.0
 10
132.8949869935
 20
83.4764231272
 30
0.0
 10
132.8339221033
 20
83.4764231272
 30
0.0
  0
SPLINE
  5
524
100
AcDbEntity
  8
0
100
AcDbSpline
 62
7
  6
CONTINUOUS
 70
0
 71
3
 72
11
 73
7
 74
0
 42
0.0000001
 43
0.0000001
 44
0.0000000001
 40
0.0
 40
0.0
 40
0.0
 40
0.0
 40
0.2779817175
 40
0.5346952233
 40
0.772857858
 40
1.0
 40
1.0
 40
1.0
 40
1.0
 10
133.0373576532
 20
78.7118090707
 30
0.0
 10
133.2476625694
 20
78.8256893296
 30
0.0
 10
133.6329755048
 20
79.084242761
 30
0.0
 10
134.0908601085
 20
79.5756879558
 30
0.0
 10
134.3813049827
 20
80.1344495076
 30
0.0
 10
134.4485507976
 20
80.5374294416
 30
0.0
 10
134.4485507976
 20
80.7328488162
 30
0.0
  0
SPLINE
  5
525
100
AcDbEntity
  8
0
100
AcDbSpline
 62
7
  6
CONTINUOUS
 70
0
 71
3
 72
9
 73
5
 74
0
 42
0.0000001
 43
0.0000001
 44
0.0000000001
 40
0.0
 40
0.0
 40
0.0
 40
0.0
 40
0.2591205677
 40
1.0
 40
1.0
 40
1.0
 40
1.0
 10
132.8549585812
 20
78.6680970152
 30
0.0
 10
132.871248327
 20
78.6680970152
 30
0.0
 10
132.9340019147
 20
78.671692285
 30
0.0
 10
132.9964011144
 20
78.6896310764
 30
0.0
 10
133.0373576532
 20
78.7118090707
 30
0.0
  0
SPLINE
  5
526
100
AcDbEntity
  8
RUNDUNGEN
100
AcDbSpline
 62
7
  6
CONTINUOUS
 70
0
 71
3
 72
11
 73
7
 74
0
 42
0.0000001
 43
0.0000001
 44
0.0000000001
 40
0.0
 40
0.0
 40
0.0
 40
0.0
 40
0.2880068215
 40
0.5553366529
 40
0.7905059061
 40
1.0
 40
1.0
 40
1.0
 40
1.0
 10
94.3532861089
 20
28.4635155509
 30
0.0
 10
94.4177023292
 20
28.4635155509
 30
0.0
 10
94.5426992618
 20
28.4803425662
 30
0.0
 10
94.7063271534
 20
28.5543792733
 30
0.0
 10
94.8228669527
 20
28.6695724318
 30
0.0
 10
94.8532861089
 20
28.7702130454
 30
0.0
 10
94.8532861089
 20
28.8170689415
 30
0.0
  0
SPLINE
  5
527
100
AcDbEntity
  8
RUNDUNGEN
100
AcDbSpline
 62
7
  6
CONTINUOUS
 70
0
 71
3
 72
13
 73
9
 74
0
 42
0.0000001
 43
0.0000001
 44
0.0000000001
 40
0.0
 40
0.0
 40
0.0
 40
0.0
 40
0.1034546555
 40
0.2106690395
 40
0.3244963599
 40
0.4464318111
 40
0.7129511617
 40
1.0
 40
1.0
 40
1.0
 40
1.0
 10
87.0032861089
 20
31.9990494569
 30
0.0
 10
87.0032861089
 20
31.7669167005
 30
0.0
 10
87.0706518225
 20
31.2918040296
 30
0.0
 10
87.3654403328
 20
30.6176356818
 30
0.0
 10
87.8383119225
 20
30.001916654
 30
0.0
 10
88.7026231563
 20
29.2679007862
 30
0.0
 10
90.1107637138
 20
28.6312262544
 30
0.0
 10
91.3592025945
 20
28.4635155509
 30
0.0
 10
92.0032861089
 20
28.4635155509
 30
0.0
  0
SPLINE
  5
528
100
AcDbEntity
  8
RUNDUNGEN
100
AcDbSpline
 62
7
  6
CONTINUOUS
 70
0
 71
3
 72
11
 73
7
 74
0
 42
0.0000001
 43
0.0000001
 44
0.0000000001
 40
0.0
 40
0.0
 40
0.0
 40
0.0
 40
0.2297023479
 40
0.4842340123
 40
0.7475494683
 40
1.0
 40
1.0
 40
1.0
 40
1.0
 10
81.5692213684
 20
88.5716771011
 30
0.0
 10
81.6889587281
 20
88.4507599525
 30
0.0
 10
81.998424452
 20
88.251090433
 30
0.0
 10
82.5408327754
 20
88.1086954358
 30
0.0
 10
83.1180285183
 20
88.1167698701
 30
0.0
 10
83.4907098258
 20
88.2282203605
 30
0.0
 10
83.6583140894
 20
88.3112048346
 30
0.0
  0
SPLINE
  5
529
100
AcDbEntity
  8
RUNDUNGEN
100
AcDbSpline
 62
7
  6
CONTINUOUS
 70
0
 71
3
 72
9
 73
5
 74
0
 42
0.0000001
 43
0.0000001
 44
0.0000000001
 40
0.0
 40
0.0
 40
0.0
 40
0.0
 40
0.5194816775
 40
1.0
 40
1.0
 40
1.0
 40
1.0
 10
165.0259623401
 20
93.2055008239
 30
0.0
 10
165.1087978952
 20
93.2891525693
 30
0.0
 10
165.2455591539
 20
93.4768190145
 30
0.0
 10
165.2972933018
 20
93.7055827626
 30
0.0
 10
165.2972221763
 20
93.8144785196
 30
0.0
  0
SPLINE
  5
52A
100
AcDbEntity
  8
RUNDUNGEN
100
AcDbSpline
 62
7
  6
CONTINUOUS
 70
0
 71
3
 72
13
 73
9
 74
0
 42
0.0000001
 43
0.0000001
 44
0.0000000001
 40
0.0
 40
0.0
 40
0.0
 40
0.0
 40
0.2870490624
 40
0.5535683755
 40
0.6755038246
 40
0.7893311355
 40
0.8965454157
 40
1.0
 40
1.0
 40
1.0
 40
1.0
 10
150.0032861089
 20
28.4635155509
 30
0.0
 10
150.6473701258
 20
28.4635155509
 30
0.0
 10
151.8958094546
 20
28.6312264141
 30
0.0
 10
153.3039502187
 20
29.267901501
 30
0.0
 10
154.1682611731
 20
30.0019175407
 30
0.0
 10
154.6411323378
 20
30.6176365643
 30
0.0
 10
154.9359205376
 20
31.2918045773
 30
0.0
 10
155.0032861089
 20
31.7669168602
 30
0.0
 10
155.0032861089
 20
31.9990494569
 30
0.0
  0
SPLINE
  5
52B
100
AcDbEntity
  8
RUNDUNGEN
100
AcDbSpline
 62
7
  6
CONTINUOUS
 70
0
 71
3
 72
11
 73
7
 74
0
 42
0.0000001
 43
0.0000001
 44
0.0000000001
 40
0.0
 40
0.0
 40
0.0
 40
0.0
 40
0.2094942263
 40
0.444667264
 40
0.7119932261
 40
1.0
 40
1.0
 40
1.0
 40
1.0
 10
147.1532861089
 20
28.8170689415
 30
0.0
 10
147.1532861089
 20
28.7702130197
 30
0.0
 10
147.1837058493
 20
28.6695716333
 30
0.0
 10
147.3002459579
 20
28.5543787031
 30
0.0
 10
147.4638738144
 20
28.4803422212
 30
0.0
 10
147.5888699046
 20
28.4635155509
 30
0.0
 10
147.6532861089
 20
28.4635155509
 30
0.0
  0
SPLINE
  5
52C
100
AcDbEntity
  8
RUNDUNGEN
100
AcDbSpline
 62
7
  6
CONTINUOUS
 70
0
 71
3
 72
10
 73
6
 74
0
 42
0.0000001
 43
0.0000001
 44
0.0000000001
 40
0.0
 40
0.0
 40
0.0
 40
0.0
 40
0.47201694
 40
0.7322443513
 40
1.0
 40
1.0
 40
1.0
 40
1.0
 10
131.1954919796
 20
38.4564318927
 30
0.0
 10
131.6886735264
 20
37.958390959
 30
0.0
 10
132.6686534887
 20
37.3909316952
 30
0.0
 10
134.1069795637
 20
37.015255412
 30
0.0
 10
134.8936558219
 20
36.9487969252
 30
0.0
 10
135.291252201
 20
36.9487969252
 30
0.0
  0
SPLINE
  5
52D
100
AcDbEntity
  8
RUNDUNGEN
100
AcDbSpline
 62
7
  6
CONTINUOUS
 70
0
 71
3
 72
10
 73
6
 74
0
 42
0.0000001
 43
0.0000001
 44
0.0000000001
 40
0.0
 40
0.0
 40
0.0
 40
0.0
 40
0.2677558652
 40
0.5279833681
 40
1.0
 40
1.0
 40
1.0
 40
1.0
 10
106.7153200167
 20
36.9487969252
 30
0.0
 10
107.1129167194
 20
36.9487969252
 30
0.0
 10
107.8995934445
 20
37.015255495
 30
0.0
 10
109.3379194684
 20
37.3909320566
 30
0.0
 10
110.3178990106
 20
37.9583912814
 30
0.0
 10
110.8110802381
 20
38.4564318927
 30
0.0
  0
SPLINE
  5
52E
100
AcDbEntity
  8
RUNDUNGEN
100
AcDbSpline
 62
7
  6
CONTINUOUS
 70
0
 71
3
 72
13
 73
9
 74
0
 42
0.0000001
 43
0.0000001
 44
0.0000000001
 40
0.0
 40
0.0
 40
0.0
 40
0.0
 40
0.1034546555
 40
0.2106690395
 40
0.3244963599
 40
0.4464318111
 40
0.7129511617
 40
1.0
 40
1.0
 40
1.0
 40
1.0
 10
94.8532861089
 20
33.4132630192
 30
0.0
 10
94.8532861089
 20
33.6453957757
 30
0.0
 10
94.9206518225
 20
34.1205084465
 30
0.0
 10
95.2154403328
 20
34.7946767943
 30
0.0
 10
95.6883119225
 20
35.4103958221
 30
0.0
 10
96.5526231563
 20
36.1444116899
 30
0.0
 10
97.9607637138
 20
36.7810862217
 30
0.0
 10
99.2092025945
 20
36.9487969252
 30
0.0
 10
99.8532861089
 20
36.9487969252
 30
0.0
  0
SPLINE
  5
52F
100
AcDbEntity
  8
RUNDUNGEN
100
AcDbSpline
 62
7
  6
CONTINUOUS
 70
0
 71
3
 72
13
 73
9
 74
0
 42
0.0000001
 43
0.0000001
 44
0.0000000001
 40
0.0
 40
0.0
 40
0.0
 40
0.0
 40
0.2870490624
 40
0.5535683755
 40
0.6755038246
 40
0.7893311355
 40
0.8965454157
 40
1.0
 40
1.0
 40
1.0
 40
1.0
 10
142.1532861089
 20
36.9487969252
 30
0.0
 10
142.7973701258
 20
36.9487969252
 30
0.0
 10
144.0458094546
 20
36.781086062
 30
0.0
 10
145.4539502187
 20
36.1444109751
 30
0.0
 10
146.3182611731
 20
35.4103949354
 30
0.0
 10
146.7911323378
 20
34.7946759118
 30
0.0
 10
147.0859205376
 20
34.1205078988
 30
0.0
 10
147.1532861089
 20
33.6453956159
 30
0.0
 10
147.1532861089
 20
33.4132630192
 30
0.0
  0
SPLINE
  5
530
100
AcDbEntity
  8
RUNDUNGEN
100
AcDbSpline
 62
7
  6
CONTINUOUS
 70
0
 71
3
 72
13
 73
9
 74
0
 42
0.0000001
 43
0.0000001
 44
0.0000000001
 40
0.0
 40
0.0
 40
0.0
 40
0.0
 40
0.2360077172
 40
0.3661261163
 40
0.500000078
 40
0.6338740716
 40
0.7639924399
 40
1.0
 40
1.0
 40
1.0
 40
1.0
 10
116.0883738431
 20
43.785723411
 30
0.0
 10
116.6801897936
 20
44.3833706069
 30
0.0
 10
117.8559500845
 20
45.0643474706
 30
0.0
 10
119.5825874781
 20
45.5151176691
 30
0.0
 10
121.0032870843
 20
45.6353366922
 30
0.0
 10
122.4239865559
 20
45.5151173729
 30
0.0
 10
124.1506233223
 20
45.0643469347
 30
0.0
 10
125.326382818
 20
44.3833702091
 30
0.0
 10
125.9181983746
 20
43.785723411
 30
0.0
  0
SPLINE
  5
531
100
AcDbEntity
  8
RUNDUNGEN
100
AcDbSpline
 62
7
  6
CONTINUOUS
 70
0
 71
3
 72
9
 73
5
 74
0
 42
0.0000001
 43
0.0000001
 44
0.0000000001
 40
0.0
 40
0.0
 40
0.0
 40
0.0
 40
0.5167739528
 40
1.0
 40
1.0
 40
1.0
 40
1.0
 10
102.7712020542
 20
58.5289306049
 30
0.0
 10
103.3815270657
 20
59.1452692343
 30
0.0
 10
104.4340490077
 20
60.478159193
 30
0.0
 10
105.0852385804
 20
62.0552300205
 30
0.0
 10
105.2739254689
 20
62.8440603575
 30
0.0
  0
SPLINE
  5
532
100
AcDbEntity
  8
RUNDUNGEN
100
AcDbSpline
 62
7
  6
CONTINUOUS
 70
0
 71
3
 72
11
 73
7
 74
0
 42
0.0000001
 43
0.0000001
 44
0.0000000001
 40
0.0
 40
0.0
 40
0.0
 40
0.0
 40
0.2660806488
 40
0.5190943636
 40
0.7622194616
 40
1.0
 40
1.0
 40
1.0
 40
1.0
 10
102.7712020542
 20
67.1607903292
 30
0.0
 10
103.197155845
 20
66.730639556
 30
0.0
 10
103.963845873
 20
65.8235246231
 30
0.0
 10
104.8317921622
 20
64.3104132358
 30
0.0
 10
105.3639117964
 20
62.7156821355
 30
0.0
 10
105.483921409
 20
61.6180716168
 30
0.0
 10
105.4839213898
 20
61.0770930631
 30
0.0
  0
SPLINE
  5
533
100
AcDbEntity
  8
RUNDUNGEN
100
AcDbSpline
 62
7
  6
CONTINUOUS
 70
0
 71
3
 72
11
 73
7
 74
0
 42
0.0000001
 43
0.0000001
 44
0.0000000001
 40
0.0
 40
0.0
 40
0.0
 40
0.0
 40
0.2524507309
 40
0.5157647478
 40
0.7702968692
 40
1.0
 40
1.0
 40
1.0
 40
1.0
 10
86.9349222665
 20
89.9335239853
 30
0.0
 10
87.2142629295
 20
90.071831553
 30
0.0
 10
87.8353970529
 20
90.2575817083
 30
0.0
 10
88.7973887765
 20
90.2710398387
 30
0.0
 10
89.7014028238
 20
90.0337161012
 30
0.0
 10
90.2171805193
 20
89.7009328116
 30
0.0
 10
90.4167434681
 20
89.4994035412
 30
0.0
  0
SPLINE
  5
534
100
AcDbEntity
  8
RUNDUNGEN
100
AcDbSpline
 62
7
  6
CONTINUOUS
 70
0
 71
3
 72
9
 73
5
 74
0
 42
0.0000001
 43
0.0000001
 44
0.0000000001
 40
0.0
 40
0.0
 40
0.0
 40
0.0
 40
0.5194825986
 40
1.0
 40
1.0
 40
1.0
 40
1.0
 10
93.0551950753
 20
86.8349549006
 30
0.0
 10
93.1932544469
 20
86.6955352107
 30
0.0
 10
93.421189307
 20
86.3827579312
 30
0.0
 10
93.5074135103
 20
86.0014855992
 30
0.0
 10
93.5072950097
 20
85.819993192
 30
0.0
  0
SPLINE
  5
535
100
AcDbEntity
  8
RUNDUNGEN
100
AcDbSpline
 62
7
  6
CONTINUOUS
 70
0
 71
3
 72
12
 73
8
 74
0
 42
0.0000001
 43
0.0000001
 44
0.0000000001
 40
0.0
 40
0.0
 40
0.0
 40
0.0
 40
0.252259356
 40
0.5153839756
 40
0.6451803977
 40
0.7704553584
 40
1.0
 40
1.0
 40
1.0
 40
1.0
 10
140.4197396387
 20
92.6034547393
 30
0.0
 10
140.9783920486
 20
92.326853921
 30
0.0
 10
142.2202447747
 20
91.9555429178
 30
0.0
 10
143.8342911893
 20
91.9322295999
 30
0.0
 10
145.0955306413
 20
92.1792576146
 30
0.0
 10
146.2260640216
 20
92.5793972236
 30
0.0
 10
146.9842496048
 20
93.0686304826
 30
0.0
 10
147.3833820419
 20
93.4716956276
 30
0.0
  0
SPLINE
  5
536
100
AcDbEntity
  8
RUNDUNGEN
100
AcDbSpline
 62
7
  6
CONTINUOUS
 70
0
 71
3
 72
12
 73
8
 74
0
 42
0.0000001
 43
0.0000001
 44
0.0000000001
 40
0.0
 40
0.0
 40
0.0
 40
0.0
 40
0.2295488423
 40
0.3548243544
 40
0.4846199331
 40
0.7477426437
 40
1.0
 40
1.0
 40
1.0
 40
1.0
 10
101.3402369389
 20
96.7974498865
 30
0.0
 10
101.7393766748
 20
96.3943773709
 30
0.0
 10
102.4975746295
 20
95.9051394007
 30
0.0
 10
103.6281195524
 20
95.5050037058
 30
0.0
 10
104.8893546484
 20
95.2579824325
 30
0.0
 10
106.5033888161
 20
95.2813009523
 30
0.0
 10
107.7452313683
 20
95.6526103762
 30
0.0
 10
108.3038793421
 20
95.9292089982
 30
0.0
  0
SPLINE
  5
537
100
AcDbEntity
  8
0
100
AcDbSpline
 62
7
  6
CONTINUOUS
 70
0
 71
3
 72
11
 73
7
 74
0
 42
0.0000001
 43
0.0000001
 44
0.0000000001
 40
0.0
 40
0.0
 40
0.0
 40
0.0
 40
0.2094656921
 40
0.4446574861
 40
0.7119998836
 40
1.0
 40
1.0
 40
1.0
 40
1.0
 10
119.2049676844
 20
82.0670414329
 30
0.0
 10
119.2049676844
 20
82.1685330797
 30
0.0
 10
119.1390783891
 20
82.3865423948
 30
0.0
 10
118.886664725
 20
82.6361558945
 30
0.0
 10
118.532140537
 20
82.7964809365
 30
0.0
 10
118.2613633196
 20
82.8329559564
 30
0.0
 10
118.1218196751
 20
82.8329559564
 30
0.0
  0
SPLINE
  5
538
100
AcDbEntity
  8
0
100
AcDbSpline
 62
7
  6
CONTINUOUS
 70
0
 71
3
 72
9
 73
5
 74
0
 42
0.0000001
 43
0.0000001
 44
0.0000000001
 40
0.0
 40
0.0
 40
0.0
 40
0.0
 40
0.4402133985
 40
1.0
 40
1.0
 40
1.0
 40
1.0
 10
108.8160183736
 20
81.3338895803
 30
0.0
 10
108.8160183736
 20
81.3107103664
 30
0.0
 10
108.8517161629
 20
81.2602348786
 30
0.0
 10
108.9065430932
 20
81.2490367665
 30
0.0
 10
108.9360183736
 20
81.2490367665
 30
0.0
  0
SPLINE
  5
539
100
AcDbEntity
  8
0
100
AcDbSpline
 62
7
  6
CONTINUOUS
 70
0
 71
3
 72
11
 73
7
 74
0
 42
0.0000001
 43
0.0000001
 44
0.0000000001
 40
0.0
 40
0.0
 40
0.0
 40
0.0
 40
0.2094929298
 40
0.4446655277
 40
0.7119947494
 40
1.0
 40
1.0
 40
1.0
 40
1.0
 10
106.4160183736
 20
78.3852543027
 30
0.0
 10
106.4160183736
 20
78.3290275472
 30
0.0
 10
106.452521099
 20
78.2082580586
 30
0.0
 10
106.5923702795
 20
78.0700269141
 30
0.0
 10
106.788723422
 20
77.9811818835
 30
0.0
 10
106.9387193411
 20
77.960990234
 30
0.0
 10
107.0160183736
 20
77.960990234
 30
0.0
  0
SPLINE
  5
53A
100
AcDbEntity
  8
0
100
AcDbSpline
 62
7
  6
CONTINUOUS
 70
0
 71
3
 72
11
 73
7
 74
0
 42
0.0000001
 43
0.0000001
 44
0.0000000001
 40
0.0
 40
0.0
 40
0.0
 40
0.0
 40
0.2094668498
 40
0.4446559298
 40
0.7120302568
 40
1.0
 40
1.0
 40
1.0
 40
1.0
 10
110.4660183736
 20
80.2944426119
 30
0.0
 10
110.4660183736
 20
80.3225526867
 30
0.0
 10
110.4477629106
 20
80.3829316335
 30
0.0
 10
110.3778562567
 20
80.4520748131
 30
0.0
 10
110.2796587665
 20
80.4964711153
 30
0.0
 10
110.2046633955
 20
80.5065746463
 30
0.0
 10
110.1660183736
 20
80.5065746463
 30
0.0
  0
SPLINE
  5
53B
100
AcDbEntity
  8
0
100
AcDbSpline
 62
7
  6
CONTINUOUS
 70
0
 71
3
 72
11
 73
7
 74
0
 42
0.0000001
 43
0.0000001
 44
0.0000000001
 40
0.0
 40
0.0
 40
0.0
 40
0.0
 40
0.2880052506
 40
0.5553344723
 40
0.7905070702
 40
1.0
 40
1.0
 40
1.0
 40
1.0
 10
111.8160183736
 20
77.960990234
 30
0.0
 10
111.8933174061
 20
77.960990234
 30
0.0
 10
112.0433133252
 20
77.9811818835
 30
0.0
 10
112.2396664677
 20
78.0700269141
 30
0.0
 10
112.3795156482
 20
78.2082580586
 30
0.0
 10
112.4160183736
 20
78.3290275472
 30
0.0
 10
112.4160183736
 20
78.3852543027
 30
0.0
  0
SPLINE
  5
53C
100
AcDbEntity
  8
0
100
AcDbSpline
 62
7
  6
CONTINUOUS
 70
0
 71
3
 72
9
 73
5
 74
0
 42
0.0000001
 43
0.0000001
 44
0.0000000001
 40
0.0
 40
0.0
 40
0.0
 40
0.0
 40
0.2445376398
 40
1.0
 40
1.0
 40
1.0
 40
1.0
 10
106.4160183736
 20
78.7388076933
 30
0.0
 10
106.4160183736
 20
78.7249669705
 30
0.0
 10
106.4199937136
 20
78.6683861959
 30
0.0
 10
106.4401027722
 20
78.6133579611
 30
0.0
 10
106.4616906541
 20
78.5764488633
 30
0.0
  0
SPLINE
  5
53D
100
AcDbEntity
  8
0
100
AcDbSpline
 62
7
  6
CONTINUOUS
 70
0
 71
3
 72
9
 73
5
 74
0
 42
0.0000001
 43
0.0000001
 44
0.0000000001
 40
0.0
 40
0.0
 40
0.0
 40
0.0
 40
0.461013727
 40
1.0
 40
1.0
 40
1.0
 40
1.0
 10
106.4616906541
 20
78.5764488633
 30
0.0
 10
106.510772141
 20
78.4925335718
 30
0.0
 10
106.6891304675
 20
78.3544433621
 30
0.0
 10
106.902361054
 20
78.3145436246
 30
0.0
 10
107.0160183736
 20
78.3145436246
 30
0.0
  0
SPLINE
  5
53E
100
AcDbEntity
  8
0
100
AcDbSpline
 62
7
  6
CONTINUOUS
 70
0
 71
3
 72
11
 73
7
 74
0
 42
0.0000001
 43
0.0000001
 44
0.0000000001
 40
0.0
 40
0.0
 40
0.0
 40
0.0
 40
0.2879697432
 40
0.5553440702
 40
0.7905331502
 40
1.0
 40
1.0
 40
1.0
 40
1.0
 10
108.6660183736
 20
80.5065746463
 30
0.0
 10
108.6273733516
 20
80.5065746463
 30
0.0
 10
108.5523779807
 20
80.4964711153
 30
0.0
 10
108.4541804905
 20
80.4520748131
 30
0.0
 10
108.3842738366
 20
80.3829316335
 30
0.0
 10
108.3660183736
 20
80.3225526867
 30
0.0
 10
108.3660183736
 20
80.2944426119
 30
0.0
  0
SPLINE
  5
53F
100
AcDbEntity
  8
RUNDUNGEN
100
AcDbSpline
 62
7
  6
CONTINUOUS
 70
0
 71
3
 72
11
 73
7
 74
0
 42
0.0000001
 43
0.0000001
 44
0.0000000001
 40
0.0
 40
0.0
 40
0.0
 40
0.0
 40
0.237780559
 40
0.4809056754
 40
0.7339193747
 40
1.0
 40
1.0
 40
1.0
 40
1.0
 10
105.4839213898
 20
61.0770930631
 30
0.0
 10
105.4839213706
 20
60.5361145335
 30
0.0
 10
105.3639116051
 20
59.4385040831
 30
0.0
 10
104.8317918662
 20
57.8437732033
 30
0.0
 10
103.9638456473
 20
56.3306620981
 30
0.0
 10
103.1971557514
 20
55.4235473778
 30
0.0
 10
102.7712020542
 20
54.993396699
 30
0.0
  0
SPLINE
  5
540
100
AcDbEntity
  8
0
100
AcDbSpline
 62
7
  6
CONTINUOUS
 70
0
 71
3
 72
11
 73
7
 74
0
 42
0.0000001
 43
0.0000001
 44
0.0000000001
 40
0.0
 40
0.0
 40
0.0
 40
0.0
 40
0.2879697432
 40
0.5553440702
 40
0.7905331502
 40
1.0
 40
1.0
 40
1.0
 40
1.0
 10
108.6660183736
 20
82.6278949898
 30
0.0
 10
108.6273733516
 20
82.6278949898
 30
0.0
 10
108.5523779807
 20
82.6177914589
 30
0.0
 10
108.4541804905
 20
82.5733951566
 30
0.0
 10
108.3842738366
 20
82.504251977
 30
0.0
 10
108.3660183736
 20
82.4438730302
 30
0.0
 10
108.3660183736
 20
82.4157629555
 30
0.0
  0
SPLINE
  5
541
100
AcDbEntity
  8
0
100
AcDbSpline
 62
7
  6
CONTINUOUS
 70
0
 71
3
 72
9
 73
5
 74
0
 42
0.0000001
 43
0.0000001
 44
0.0000000001
 40
0.0
 40
0.0
 40
0.0
 40
0.0
 40
0.5597866015
 40
1.0
 40
1.0
 40
1.0
 40
1.0
 10
109.3110183736
 20
81.4611688009
 30
0.0
 10
109.2815430932
 20
81.4611688009
 30
0.0
 10
109.2267161629
 20
81.4499706888
 30
0.0
 10
109.1910183736
 20
81.399495201
 30
0.0
 10
109.1910183736
 20
81.3763159871
 30
0.0
  0
SPLINE
  5
542
100
AcDbEntity
  8
0
100
AcDbSpline
 62
7
  6
CONTINUOUS
 70
0
 71
3
 72
9
 73
5
 74
0
 42
0.0000001
 43
0.0000001
 44
0.0000000001
 40
0.0
 40
0.0
 40
0.0
 40
0.0
 40
0.5597866015
 40
1.0
 40
1.0
 40
1.0
 40
1.0
 10
109.8960183736
 20
81.2490367665
 30
0.0
 10
109.9254936539
 20
81.2490367665
 30
0.0
 10
109.9803205843
 20
81.2602348786
 30
0.0
 10
110.0160183736
 20
81.3107103664
 30
0.0
 10
110.0160183736
 20
81.3338895803
 30
0.0
  0
SPLINE
  5
543
100
AcDbEntity
  8
RUNDUNGEN
100
AcDbSpline
 62
7
  6
CONTINUOUS
 70
0
 71
3
 72
10
 73
6
 74
0
 42
0.0000001
 43
0.0000001
 44
0.0000000001
 40
0.0
 40
0.0
 40
0.0
 40
0.0
 40
0.2382827206
 40
0.4819249463
 40
1.0
 40
1.0
 40
1.0
 40
1.0
 10
155.0032861089
 20
37.9553677102
 30
0.0
 10
155.0032861089
 20
38.1356927312
 30
0.0
 10
154.9631657976
 20
38.5016711935
 30
0.0
 10
154.722738844
 20
39.2237575155
 30
0.0
 10
154.3749144893
 20
39.7046803219
 30
0.0
 10
154.0990463303
 20
39.9832666485
 30
0.0
  0
SPLINE
  5
544
100
AcDbEntity
  8
0
100
AcDbSpline
 62
7
  6
CONTINUOUS
 70
0
 71
3
 72
9
 73
5
 74
0
 42
0.0000001
 43
0.0000001
 44
0.0000000001
 40
0.0
 40
0.0
 40
0.0
 40
0.0
 40
0.5597866015
 40
1.0
 40
1.0
 40
1.0
 40
1.0
 10
109.8960183736
 20
79.127716423
 30
0.0
 10
109.9254936539
 20
79.127716423
 30
0.0
 10
109.9803205843
 20
79.1389145351
 30
0.0
 10
110.0160183736
 20
79.1893900229
 30
0.0
 10
110.0160183736
 20
79.2125692367
 30
0.0
  0
SPLINE
  5
545
100
AcDbEntity
  8
RUNDUNGEN
100
AcDbSpline
 62
7
  6
CONTINUOUS
 70
0
 71
3
 72
11
 73
7
 74
0
 42
0.0000001
 43
0.0000001
 44
0.0000000001
 40
0.0
 40
0.0
 40
0.0
 40
0.0
 40
0.2256941656
 40
0.4632959394
 40
0.7206237852
 40
1.0
 40
1.0
 40
1.0
 40
1.0
 10
165.2972221763
 20
93.8144785196
 30
0.0
 10
165.297166525
 20
93.8996826598
 30
0.0
 10
165.2661796744
 20
94.0758120219
 30
0.0
 10
165.1335131909
 20
94.3179163867
 30
0.0
 10
164.9257441798
 20
94.5279620364
 30
0.0
 10
164.752118092
 20
94.6359139833
 30
0.0
 10
164.6575989282
 20
94.6827124534
 30
0.0
  0
SPLINE
  5
546
100
AcDbEntity
  8
0
100
AcDbSpline
 62
7
  6
CONTINUOUS
 70
0
 71
3
 72
11
 73
7
 74
0
 42
0.0000001
 43
0.0000001
 44
0.0000000001
 40
0.0
 40
0.0
 40
0.0
 40
0.0
 40
0.2865059912
 40
0.5484241175
 40
0.7833822346
 40
1.0
 40
1.0
 40
1.0
 40
1.0
 10
118.7439681941
 20
80.728078263
 30
0.0
 10
118.9351520672
 20
80.772495005
 30
0.0
 10
119.2935848462
 20
80.8988761075
 30
0.0
 10
119.7418467832
 20
81.2070798718
 30
0.0
 10
120.0419617349
 20
81.6063826742
 30
0.0
 10
120.1150043716
 20
81.9189605588
 30
0.0
 10
120.11498211
 20
82.0673581063
 30
0.0
  0
SPLINE
  5
547
100
AcDbEntity
  8
0
100
AcDbSpline
 62
7
  6
CONTINUOUS
 70
0
 71
3
 72
9
 73
5
 74
0
 42
0.0000001
 43
0.0000001
 44
0.0000000001
 40
0.0
 40
0.0
 40
0.0
 40
0.0
 40
0.4402133985
 40
1.0
 40
1.0
 40
1.0
 40
1.0
 10
108.8160183736
 20
81.6874429708
 30
0.0
 10
108.8160183736
 20
81.664263757
 30
0.0
 10
108.8517161629
 20
81.6137882692
 30
0.0
 10
108.9065430932
 20
81.6025901571
 30
0.0
 10
108.9360183736
 20
81.6025901571
 30
0.0
  0
SPLINE
  5
548
100
AcDbEntity
  8
0
100
AcDbSpline
 62
7
  6
CONTINUOUS
 70
0
 71
3
 72
9
 73
5
 74
0
 42
0.0000001
 43
0.0000001
 44
0.0000000001
 40
0.0
 40
0.0
 40
0.0
 40
0.0
 40
0.2536121958
 40
1.0
 40
1.0
 40
1.0
 40
1.0
 10
132.8339221033
 20
77.960990234
 30
0.0
 10
132.8544547705
 20
77.960990234
 30
0.0
 10
132.9353776038
 20
77.9639236065
 30
0.0
 10
133.0159673326
 20
77.9785430831
 30
0.0
 10
133.0737136794
 20
77.9963455731
 30
0.0
  0
SPLINE
  5
549
100
AcDbEntity
  8
0
100
AcDbSpline
 62
7
  6
CONTINUOUS
 70
0
 71
3
 72
12
 73
8
 74
0
 42
0.0000001
 43
0.0000001
 44
0.0000000001
 40
0.0
 40
0.0
 40
0.0
 40
0.0
 40
0.2844670851
 40
0.5445747
 40
0.7798379195
 40
0.8910272787
 40
1.0
 40
1.0
 40
1.0
 40
1.0
 10
133.0737136794
 20
77.9963455731
 30
0.0
 10
133.4323089722
 20
78.1068961006
 30
0.0
 10
134.0996863876
 20
78.3931474941
 30
0.0
 10
134.9230357214
 20
79.0304884401
 30
0.0
 10
135.3832334967
 20
79.7073811382
 30
0.0
 10
135.5649231988
 20
80.283669489
 30
0.0
 10
135.5951514426
 20
80.5749574226
 30
0.0
 10
135.5951514426
 20
80.7187066806
 30
0.0
  0
SPLINE
  5
54A
100
AcDbEntity
  8
0
100
AcDbSpline
 62
7
  6
CONTINUOUS
 70
0
 71
3
 72
9
 73
5
 74
0
 42
0.0000001
 43
0.0000001
 44
0.0000000001
 40
0.0
 40
0.0
 40
0.0
 40
0.0
 40
0.239729366
 40
1.0
 40
1.0
 40
1.0
 40
1.0
 10
133.0373576532
 20
82.7538885617
 30
0.0
 10
133.0241012457
 20
82.7610669157
 30
0.0
 10
132.9666694452
 20
82.7869991594
 30
0.0
 10
132.9027675678
 20
82.7976006173
 30
0.0
 10
132.8549585812
 20
82.7976006173
 30
0.0
  0
SPLINE
  5
54B
100
AcDbEntity
  8
RUNDUNGEN
100
AcDbSpline
 62
7
  6
CONTINUOUS
 70
0
 71
3
 72
10
 73
6
 74
0
 42
0.0000001
 43
0.0000001
 44
0.0000000001
 40
0.0
 40
0.0
 40
0.0
 40
0.0
 40
0.5180752096
 40
0.7617173681
 40
1.0
 40
1.0
 40
1.0
 40
1.0
 10
87.9075258874
 20
39.9832666485
 30
0.0
 10
87.6316576458
 20
39.7046802385
 30
0.0
 10
87.2838332722
 20
39.223757348
 30
0.0
 10
87.0434063826
 20
38.5016710077
 30
0.0
 10
87.0032861089
 20
38.1356926639
 30
0.0
 10
87.0032861089
 20
37.9553677102
 30
0.0
  0
SPLINE
  5
54C
100
AcDbEntity
  8
RUNDUNGEN
100
AcDbSpline
 62
7
  6
CONTINUOUS
 70
0
 71
3
 72
11
 73
7
 74
0
 42
0.0000001
 43
0.0000001
 44
0.0000000001
 40
0.0
 40
0.0
 40
0.0
 40
0.0
 40
0.2793752682
 40
0.5367194959
 40
0.7743217448
 40
1.0
 40
1.0
 40
1.0
 40
1.0
 10
89.1646478783
 20
82.7506163674
 30
0.0
 10
89.0701240763
 20
82.7038156009
 30
0.0
 10
88.8964848391
 20
82.5958534037
 30
0.0
 10
88.6887038073
 20
82.3857877878
 30
0.0
 10
88.5560457517
 20
82.1436609627
 30
0.0
 10
88.525071372
 20
81.967525791
 30
0.0
 10
88.5250232362
 20
81.8823231833
 30
0.0
  0
SPLINE
  5
54D
100
AcDbEntity
  8
0
100
AcDbSpline
 62
7
  6
CONTINUOUS
 70
0
 71
3
 72
11
 73
7
 74
0
 42
0.0000001
 43
0.0000001
 44
0.0000000001
 40
0.0
 40
0.0
 40
0.0
 40
0.0
 40
0.2094668498
 40
0.4446559298
 40
0.7120302568
 40
1.0
 40
1.0
 40
1.0
 40
1.0
 10
110.4660183736
 20
82.4157629555
 30
0.0
 10
110.4660183736
 20
82.4438730302
 30
0.0
 10
110.4477629106
 20
82.504251977
 30
0.0
 10
110.3778562567
 20
82.5733951566
 30
0.0
 10
110.2796587665
 20
82.6177914589
 30
0.0
 10
110.2046633955
 20
82.6278949898
 30
0.0
 10
110.1660183736
 20
82.6278949898
 30
0.0
  0
SPLINE
  5
54E
100
AcDbEntity
  8
RUNDUNGEN
100
AcDbSpline
 62
7
  6
CONTINUOUS
 70
0
 71
3
 72
11
 73
7
 74
0
 42
0.0000001
 43
0.0000001
 44
0.0000000001
 40
0.0
 40
0.0
 40
0.0
 40
0.0
 40
0.2794013718
 40
0.5367226037
 40
0.7743080703
 40
1.0
 40
1.0
 40
1.0
 40
1.0
 10
80.2160054445
 20
96.1022417102
 30
0.0
 10
79.9006931838
 20
95.9461238312
 30
0.0
 10
79.3215340632
 20
95.58596806
 30
0.0
 10
78.6286799747
 20
94.8851089066
 30
0.0
 10
78.186614415
 20
94.0772667168
 30
0.0
 10
78.0838352204
 20
93.4896723145
 30
0.0
 10
78.0838900523
 20
93.2054629638
 30
0.0
  0
SPLINE
  5
54F
100
AcDbEntity
  8
RUNDUNGEN
100
AcDbSpline
 62
7
  6
CONTINUOUS
 70
0
 71
3
 72
13
 73
9
 74
0
 42
0.0000001
 43
0.0000001
 44
0.0000000001
 40
0.0
 40
0.0
 40
0.0
 40
0.0
 40
0.2294024489
 40
0.3545997024
 40
0.4843111916
 40
0.6162488545
 40
0.7479039449
 40
1.0
 40
1.0
 40
1.0
 40
1.0
 10
100.5333562178
 20
94.0767470106
 30
0.0
 10
99.4157662286
 20
95.2053487705
 30
0.0
 10
97.2926926306
 20
96.5752712928
 30
0.0
 10
94.1274426758
 20
97.6954349339
 30
0.0
 10
91.4885880519
 20
98.2129157948
 30
0.0
 10
88.7599795695
 20
98.3585476168
 30
0.0
 10
85.1962744273
 20
98.0584018424
 30
0.0
 10
82.5993673955
 20
97.2822954509
 30
0.0
 10
81.0351574888
 20
96.5078214979
 30
0.0
  0
SPLINE
  5
550
100
AcDbEntity
  8
0
100
AcDbSpline
 62
7
  6
CONTINUOUS
 70
0
 71
3
 72
9
 73
5
 74
0
 42
0.0000001
 43
0.0000001
 44
0.0000000001
 40
0.0
 40
0.0
 40
0.0
 40
0.0
 40
0.2419366003
 40
1.0
 40
1.0
 40
1.0
 40
1.0
 10
129.6069326541
 20
94.4215740306
 30
0.0
 10
129.1464304609
 20
94.6495785666
 30
0.0
 10
127.1986898897
 20
95.5012247915
 30
0.0
 10
125.1027186033
 20
96.000120649
 30
0.0
 10
123.5040330617
 20
96.1912773548
 30
0.0
  0
SPLINE
  5
551
100
AcDbEntity
  8
0
100
AcDbSpline
 62
7
  6
CONTINUOUS
 70
0
 71
3
 72
9
 73
5
 74
0
 42
0.0000001
 43
0.0000001
 44
0.0000000001
 40
0.0
 40
0.0
 40
0.0
 40
0.0
 40
0.2576167678
 40
1.0
 40
1.0
 40
1.0
 40
1.0
 10
118.502539156
 20
96.1912773548
 30
0.0
 10
117.9593093387
 20
96.1263227283
 30
0.0
 10
115.8621078327
 20
95.7915182814
 30
0.0
 10
113.812535701
 20
95.1211292834
 30
0.0
 10
112.3996395636
 20
94.4215740306
 30
0.0
  0
SPLINE
  5
552
100
AcDbEntity
  8
RUNDUNGEN
100
AcDbSpline
 62
7
  6
CONTINUOUS
 70
0
 71
3
 72
11
 73
7
 74
0
 42
0.0000001
 43
0.0000001
 44
0.0000000001
 40
0.0
 40
0.0
 40
0.0
 40
0.0
 40
0.2524504675
 40
0.5157648302
 40
0.7702974388
 40
1.0
 40
1.0
 40
1.0
 40
1.0
 10
157.4490609385
 20
98.2518145849
 30
0.0
 10
157.281456716
 20
98.3347990387
 30
0.0
 10
156.9087762532
 20
98.4462493517
 30
0.0
 10
156.3315807496
 20
98.4543240866
 30
0.0
 10
155.7891721745
 20
98.3119295715
 30
0.0
 10
155.4797056895
 20
98.1122595805
 30
0.0
 10
155.3599682175
 20
97.9913423184
 30
0.0
  0
SPLINE
  5
553
100
AcDbEntity
  8
BEZUGSACHSEN
100
AcDbSpline
 62
7
  6
CONTINUOUS
 70
0
 71
3
 72
19
 73
15
 74
0
 42
0.0000001
 43
0.0000001
 44
0.0000000001
 40
0.0
 40
0.0
 40
0.0
 40
0.0
 40
0.0517279957
 40
0.105334459
 40
0.1622489926
 40
0.2232158543
 40
0.3564755372
 40
0.5
 40
0.6435244628
 40
0.7767841457
 40
0.8377510074
 40
0.894665541
 40
0.9482720043
 40
1.0
 40
1.0
 40
1.0
 40
1.0
 10
115.5032861089
 20
89.6222418471
 30
0.0
 10
115.5032861089
 20
89.366892522
 30
0.0
 10
115.5773911132
 20
88.8442689323
 30
0.0
 10
115.9016550477
 20
88.1026805266
 30
0.0
 10
116.4218337409
 20
87.4253931896
 30
0.0
 10
117.3724602559
 20
86.61797688
 30
0.0
 10
118.9224260474
 20
85.9176363892
 30
0.0
 10
121.0032861089
 20
85.6374927968
 30
0.0
 10
123.0841461703
 20
85.9176363892
 30
0.0
 10
124.6341119618
 20
86.61797688
 30
0.0
 10
125.5847384768
 20
87.4253931896
 30
0.0
 10
126.10491717
 20
88.1026805266
 30
0.0
 10
126.4291811045
 20
88.8442689323
 30
0.0
 10
126.5032861089
 20
89.366892522
 30
0.0
 10
126.5032861089
 20
89.6222418471
 30
0.0
  0
SPLINE
  5
554
100
AcDbEntity
  8
0
100
AcDbSpline
 62
7
  6
CONTINUOUS
 70
0
 71
3
 72
11
 73
7
 74
0
 42
0.0000001
 43
0.0000001
 44
0.0000000001
 40
0.0
 40
0.0
 40
0.0
 40
0.0
 40
0.227142142
 40
0.4653047767
 40
0.7220182825
 40
1.0
 40
1.0
 40
1.0
 40
1.0
 10
134.4485507976
 20
80.7328488162
 30
0.0
 10
134.4485507976
 20
80.9282681909
 30
0.0
 10
134.3813049827
 20
81.3312481249
 30
0.0
 10
134.0908601085
 20
81.8900096767
 30
0.0
 10
133.6329755048
 20
82.3814548715
 30
0.0
 10
133.2476625694
 20
82.6400083029
 30
0.0
 10
133.0373576532
 20
82.7538885617
 30
0.0
  0
SPLINE
  5
555
100
AcDbEntity
  8
0
100
AcDbSpline
 62
7
  6
CONTINUOUS
 70
0
 71
3
 72
19
 73
15
 74
0
 42
0.0000001
 43
0.0000001
 44
0.0000000001
 40
0.0
 40
0.0
 40
0.0
 40
0.0
 40
0.0517234907
 40
0.1053372095
 40
0.1622487312
 40
0.2232163938
 40
0.3564752704
 40
0.5
 40
0.6435247296
 40
0.7767836062
 40
0.8377512688
 40
0.8946627905
 40
0.9482765093
 40
1.0
 40
1.0
 40
1.0
 40
1.0
 10
121.5618196751
 20
79.9867347808
 30
0.0
 10
121.5618196751
 20
79.8545655214
 30
0.0
 10
121.6002036248
 20
79.584030456
 30
0.0
 10
121.7680179721
 20
79.2001311309
 30
0.0
 10
122.0373361284
 20
78.8495544014
 30
0.0
 10
122.5293958033
 20
78.4315826277
 30
0.0
 10
123.3317411421
 20
78.0690620558
 30
0.0
 10
124.4088873554
 20
77.9240286588
 30
0.0
 10
125.4860335686
 20
78.0690620558
 30
0.0
 10
126.2883789074
 20
78.4315826277
 30
0.0
 10
126.7804385824
 20
78.8495544014
 30
0.0
 10
127.0497567386
 20
79.2001311309
 30
0.0
 10
127.217571086
 20
79.584030456
 30
0.0
 10
127.2559550357
 20
79.8545655214
 30
0.0
 10
127.2559550357
 20
79.9867347808
 30
0.0
  0
SPLINE
  5
556
100
AcDbEntity
  8
0
100
AcDbSpline
 62
7
  6
CONTINUOUS
 70
0
 71
3
 72
9
 73
5
 74
0
 42
0.0000001
 43
0.0000001
 44
0.0000000001
 40
0.0
 40
0.0
 40
0.0
 40
0.0
 40
0.4402133985
 40
1.0
 40
1.0
 40
1.0
 40
1.0
 10
108.8160183736
 20
79.2125692367
 30
0.0
 10
108.8160183736
 20
79.1893900229
 30
0.0
 10
108.8517161629
 20
79.1389145351
 30
0.0
 10
108.9065430932
 20
79.127716423
 30
0.0
 10
108.9360183736
 20
79.127716423
 30
0.0
  0
SPLINE
  5
557
100
AcDbEntity
  8
0
100
AcDbSpline
 62
7
  6
CONTINUOUS
 70
0
 71
3
 72
9
 73
5
 74
0
 42
0.0000001
 43
0.0000001
 44
0.0000000001
 40
0.0
 40
0.0
 40
0.0
 40
0.0
 40
0.4402133985
 40
1.0
 40
1.0
 40
1.0
 40
1.0
 10
108.8160183736
 20
79.5661226273
 30
0.0
 10
108.8160183736
 20
79.5429434135
 30
0.0
 10
108.8517161629
 20
79.4924679257
 30
0.0
 10
108.9065430932
 20
79.4812698135
 30
0.0
 10
108.9360183736
 20
79.4812698135
 30
0.0
  0
SPLINE
  5
558
100
AcDbEntity
  8
0
100
AcDbSpline
 62
7
  6
CONTINUOUS
 70
0
 71
3
 72
19
 73
15
 74
0
 42
0.0000001
 43
0.0000001
 44
0.0000000001
 40
0.0
 40
0.0
 40
0.0
 40
0.0
 40
0.051855061
 40
0.1061589371
 40
0.1638754827
 40
0.2253669227
 40
0.3583203672
 40
0.5
 40
0.6416796328
 40
0.7746330773
 40
0.8361245173
 40
0.8938410629
 40
0.948144939
 40
1.0
 40
1.0
 40
1.0
 40
1.0
 10
121.5829366429
 20
80.0958809391
 30
0.0
 10
121.6040975434
 20
79.9735791326
 30
0.0
 10
121.6800431936
 20
79.7278884004
 30
0.0
 10
121.8824999748
 20
79.3883107231
 30
0.0
 10
122.1667976512
 20
79.0817696096
 30
0.0
 10
122.6538130714
 20
78.7205380379
 30
0.0
 10
123.4099147447
 20
78.4093704072
 30
0.0
 10
124.4088873554
 20
78.2846965563
 30
0.0
 10
125.407859966
 20
78.4093704072
 30
0.0
 10
126.1639616394
 20
78.7205380379
 30
0.0
 10
126.6509770596
 20
79.0817696096
 30
0.0
 10
126.9352747359
 20
79.3883107231
 30
0.0
 10
127.1377315171
 20
79.7278884004
 30
0.0
 10
127.2136771673
 20
79.9735791326
 30
0.0
 10
127.2348380679
 20
80.0958809391
 30
0.0
  0
SPLINE
  5
559
100
AcDbEntity
  8
0
100
AcDbSpline
 62
7
  6
CONTINUOUS
 70
0
 71
3
 72
9
 73
5
 74
0
 42
0.0000001
 43
0.0000001
 44
0.0000000001
 40
0.0
 40
0.0
 40
0.0
 40
0.0
 40
0.2536121958
 40
1.0
 40
1.0
 40
1.0
 40
1.0
 10
132.8339221033
 20
78.3145436246
 30
0.0
 10
132.8544547705
 20
78.3145436246
 30
0.0
 10
132.9353776038
 20
78.3174769971
 30
0.0
 10
133.0159673326
 20
78.3320964737
 30
0.0
 10
133.0737136794
 20
78.3498989636
 30
0.0
  0
SPLINE
  5
55A
100
AcDbEntity
  8
0
100
AcDbSpline
 62
7
  6
CONTINUOUS
 70
0
 71
3
 72
11
 73
7
 74
0
 42
0.0000001
 43
0.0000001
 44
0.0000000001
 40
0.0
 40
0.0
 40
0.0
 40
0.0
 40
0.2816347582
 40
0.5420479832
 40
0.7798483853
 40
1.0
 40
1.0
 40
1.0
 40
1.0
 10
133.0737136794
 20
78.3498989636
 30
0.0
 10
133.3975888318
 20
78.4497456981
 30
0.0
 10
134.0048752426
 20
78.7027947433
 30
0.0
 10
134.7757970029
 20
79.2539974984
 30
0.0
 10
135.3280558857
 20
79.9347852822
 30
0.0
 10
135.5230608153
 20
80.464497441
 30
0.0
 10
135.5664692383
 20
80.7258454137
 30
0.0
  0
SPLINE
  5
55B
100
AcDbEntity
  8
0
100
AcDbSpline
 62
7
  6
CONTINUOUS
 70
0
 71
3
 72
9
 73
5
 74
0
 42
0.0000001
 43
0.0000001
 44
0.0000000001
 40
0.0
 40
0.0
 40
0.0
 40
0.0
 40
0.2591205677
 40
1.0
 40
1.0
 40
1.0
 40
1.0
 10
132.8549585812
 20
83.1511540079
 30
0.0
 10
132.871248327
 20
83.1511540079
 30
0.0
 10
132.9340019147
 20
83.1475587381
 30
0.0
 10
132.9964011144
 20
83.1296199467
 30
0.0
 10
133.0373576532
 20
83.1074419523
 30
0.0
  0
SPLINE
  5
55C
100
AcDbEntity
  8
0
100
AcDbSpline
 62
7
  6
CONTINUOUS
 70
0
 71
3
 72
11
 73
7
 74
0
 42
0.0000001
 43
0.0000001
 44
0.0000000001
 40
0.0
 40
0.0
 40
0.0
 40
0.0
 40
0.2779697373
 40
0.5346991835
 40
0.7728568778
 40
1.0
 40
1.0
 40
1.0
 40
1.0
 10
133.0373576532
 20
83.1074419523
 30
0.0
 10
133.2476542594
 20
82.9935661934
 30
0.0
 10
133.6329625822
 20
82.7350018101
 30
0.0
 10
134.0908776046
 20
82.243579914
 30
0.0
 10
134.3813114062
 20
81.6847978918
 30
0.0
 10
134.4485687885
 20
81.2818231249
 30
0.0
 10
134.4485687885
 20
81.0864022068
 30
0.0
  0
SPLINE
  5
55D
100
AcDbEntity
  8
0
100
AcDbSpline
 62
7
  6
CONTINUOUS
 70
0
 71
3
 72
11
 73
7
 74
0
 42
0.0000001
 43
0.0000001
 44
0.0000000001
 40
0.0
 40
0.0
 40
0.0
 40
0.0
 40
0.2782911642
 40
0.539206302
 40
0.7792454761
 40
1.0
 40
1.0
 40
1.0
 40
1.0
 10
118.7439681941
 20
81.0816316536
 30
0.0
 10
118.8960192034
 20
81.1169568635
 30
0.0
 10
119.1854210438
 20
81.211912562
 30
0.0
 10
119.5680157844
 20
81.430139663
 30
0.0
 10
119.8666032881
 20
81.7096267381
 30
0.0
 10
120.001082704
 20
81.93599562
 30
0.0
 10
120.0454344065
 20
82.0516070389
 30
0.0
  0
SPLINE
  5
55E
100
AcDbEntity
  8
0
100
AcDbSpline
 62
7
  6
CONTINUOUS
 70
0
 71
3
 72
8
 73
4
 74
0
 42
0.0000001
 43
0.0000001
 44
0.0000000001
 40
0.0
 40
0.0
 40
0.0
 40
0.0
 40
1.0
 40
1.0
 40
1.0
 40
1.0
 10
120.0454344065
 20
82.0516070389
 30
0.0
 10
120.0683804343
 20
82.1114203649
 30
0.0
 10
120.0861713134
 20
82.1735164797
 30
0.0
 10
120.09790876
 20
82.2364957342
 30
0.0
  0
SPLINE
  5
55F
100
AcDbEntity
  8
0
100
AcDbSpline
 62
7
  6
CONTINUOUS
 70
0
 71
3
 72
11
 73
7
 74
0
 42
0.0000001
 43
0.0000001
 44
0.0000000001
 40
0.0
 40
0.0
 40
0.0
 40
0.0
 40
0.2880066977
 40
0.5553334191
 40
0.790532629
 40
1.0
 40
1.0
 40
1.0
 40
1.0
 10
118.1218196751
 20
83.186509347
 30
0.0
 10
118.261365977
 20
83.186509347
 30
0.0
 10
118.5321424847
 20
83.1500485471
 30
0.0
 10
118.8866480829
 20
82.9896855388
 30
0.0
 10
119.1390609282
 20
82.7400931378
 30
0.0
 10
119.2049863818
 20
82.5220868972
 30
0.0
 10
119.2049863818
 20
82.4205948235
 30
0.0
  0
SPLINE
  5
560
100
AcDbEntity
  8
RUNDUNGEN
100
AcDbSpline
 62
7
  6
CONTINUOUS
 70
0
 71
3
 72
11
 73
7
 74
0
 42
0.0000001
 43
0.0000001
 44
0.0000000001
 40
0.0
 40
0.0
 40
0.0
 40
0.0
 40
0.2256927635
 40
0.4632951072
 40
0.7206222905
 40
1.0
 40
1.0
 40
1.0
 40
1.0
 10
93.5072950097
 20
85.819993192
 30
0.0
 10
93.5072022906
 20
85.6779870836
 30
0.0
 10
93.4555583846
 20
85.3844384152
 30
0.0
 10
93.2344481558
 20
84.9809314667
 30
0.0
 10
92.8881664293
 20
84.6308538287
 30
0.0
 10
92.5987889382
 20
84.450933435
 30
0.0
 10
92.4412560555
 20
84.3729355181
 30
0.0
  0
SPLINE
  5
561
100
AcDbEntity
  8
0
100
AcDbSpline
 62
7
  6
CONTINUOUS
 70
0
 71
3
 72
9
 73
5
 74
0
 42
0.0000001
 43
0.0000001
 44
0.0000000001
 40
0.0
 40
0.0
 40
0.0
 40
0.0
 40
0.5597866015
 40
1.0
 40
1.0
 40
1.0
 40
1.0
 10
109.8960183736
 20
79.4812698135
 30
0.0
 10
109.9254936539
 20
79.4812698135
 30
0.0
 10
109.9803205843
 20
79.4924679257
 30
0.0
 10
110.0160183736
 20
79.5429434135
 30
0.0
 10
110.0160183736
 20
79.5661226273
 30
0.0
  0
SPLINE
  5
562
100
AcDbEntity
  8
0
100
AcDbSpline
 62
7
  6
CONTINUOUS
 70
0
 71
3
 72
9
 73
5
 74
0
 42
0.0000001
 43
0.0000001
 44
0.0000000001
 40
0.0
 40
0.0
 40
0.0
 40
0.0
 40
0.4402133985
 40
1.0
 40
1.0
 40
1.0
 40
1.0
 10
109.1910183736
 20
81.7298693777
 30
0.0
 10
109.1910183736
 20
81.7530485915
 30
0.0
 10
109.2267161629
 20
81.8035240793
 30
0.0
 10
109.2815430932
 20
81.8147221915
 30
0.0
 10
109.3110183736
 20
81.8147221915
 30
0.0
  0
SPLINE
  5
563
100
AcDbEntity
  8
0
100
AcDbSpline
 62
7
  6
CONTINUOUS
 70
0
 71
3
 72
9
 73
5
 74
0
 42
0.0000001
 43
0.0000001
 44
0.0000000001
 40
0.0
 40
0.0
 40
0.0
 40
0.0
 40
0.5597866015
 40
1.0
 40
1.0
 40
1.0
 40
1.0
 10
109.5210183736
 20
81.8147221915
 30
0.0
 10
109.5504936539
 20
81.8147221915
 30
0.0
 10
109.6053205843
 20
81.8035240793
 30
0.0
 10
109.6410183736
 20
81.7530485915
 30
0.0
 10
109.6410183736
 20
81.7298693777
 30
0.0
  0
SPLINE
  5
564
100
AcDbEntity
  8
0
100
AcDbSpline
 62
7
  6
CONTINUOUS
 70
0
 71
3
 72
9
 73
5
 74
0
 42
0.0000001
 43
0.0000001
 44
0.0000000001
 40
0.0
 40
0.0
 40
0.0
 40
0.0
 40
0.5597866015
 40
1.0
 40
1.0
 40
1.0
 40
1.0
 10
109.8960183736
 20
81.6025901571
 30
0.0
 10
109.9254936539
 20
81.6025901571
 30
0.0
 10
109.9803205843
 20
81.6137882692
 30
0.0
 10
110.0160183736
 20
81.664263757
 30
0.0
 10
110.0160183736
 20
81.6874429708
 30
0.0
  0
SPLINE
  5
565
100
AcDbEntity
  8
0
100
AcDbSpline
 62
7
  6
CONTINUOUS
 70
0
 71
3
 72
11
 73
7
 74
0
 42
0.0000001
 43
0.0000001
 44
0.0000000001
 40
0.0
 40
0.0
 40
0.0
 40
0.0
 40
0.2876567391
 40
0.555407049
 40
0.7907201247
 40
1.0
 40
1.0
 40
1.0
 40
1.0
 10
110.1660183736
 20
82.9814483804
 30
0.0
 10
110.2046157988
 20
82.9814483804
 30
0.0
 10
110.27955301
 20
82.9711916504
 30
0.0
 10
110.3779339479
 20
82.9270783865
 30
0.0
 10
110.4476078852
 20
82.8576800325
 30
0.0
 10
110.4660183736
 20
82.7973972607
 30
0.0
 10
110.4660183736
 20
82.7693163461
 30
0.0
  0
SPLINE
  5
566
100
AcDbEntity
  8
0
100
AcDbSpline
 62
7
  6
CONTINUOUS
 70
0
 71
3
 72
8
 73
4
 74
0
 42
0.0000001
 43
0.0000001
 44
0.0000000001
 40
0.0
 40
0.0
 40
0.0
 40
0.0
 40
1.0
 40
1.0
 40
1.0
 40
1.0
 10
110.246137912
 20
80.8523143104
 30
0.0
 10
110.2699683301
 20
80.847636817
 30
0.0
 10
110.2935192515
 20
80.8408487002
 30
0.0
 10
110.3160183736
 20
80.8317077332
 30
0.0
  0
SPLINE
  5
567
100
AcDbEntity
  8
0
100
AcDbSpline
 62
7
  6
CONTINUOUS
 70
0
 71
3
 72
9
 73
5
 74
0
 42
0.0000001
 43
0.0000001
 44
0.0000000001
 40
0.0
 40
0.0
 40
0.0
 40
0.0
 40
0.5424756321
 40
1.0
 40
1.0
 40
1.0
 40
1.0
 10
110.3160183736
 20
80.8317077332
 30
0.0
 10
110.3575502843
 20
80.8148341048
 30
0.0
 10
110.4307903201
 20
80.768899983
 30
0.0
 10
110.4660183736
 20
80.6858046249
 30
0.0
 10
110.4660183736
 20
80.6479960025
 30
0.0
  0
SPLINE
  5
568
100
AcDbEntity
  8
0
100
AcDbSpline
 62
7
  6
CONTINUOUS
 70
0
 71
3
 72
9
 73
5
 74
0
 42
0.0000001
 43
0.0000001
 44
0.0000000001
 40
0.0
 40
0.0
 40
0.0
 40
0.0
 40
0.4575243679
 40
1.0
 40
1.0
 40
1.0
 40
1.0
 10
108.3660183736
 20
80.6479960025
 30
0.0
 10
108.3660183736
 20
80.6858046249
 30
0.0
 10
108.4012464271
 20
80.768899983
 30
0.0
 10
108.4744864629
 20
80.8148341048
 30
0.0
 10
108.5160183736
 20
80.8317077332
 30
0.0
  0
SPLINE
  5
569
100
AcDbEntity
  8
0
100
AcDbSpline
 62
7
  6
CONTINUOUS
 70
0
 71
3
 72
9
 73
5
 74
0
 42
0.0000001
 43
0.0000001
 44
0.0000000001
 40
0.0
 40
0.0
 40
0.0
 40
0.0
 40
0.2441493338
 40
1.0
 40
1.0
 40
1.0
 40
1.0
 10
108.5160183736
 20
80.8317077332
 30
0.0
 10
108.5275689307
 20
80.8364005057
 30
0.0
 10
108.5759100092
 20
80.8530052918
 30
0.0
 10
108.6274209484
 20
80.8601280369
 30
0.0
 10
108.6660183736
 20
80.8601280369
 30
0.0
  0
SPLINE
  5
56A
100
AcDbEntity
  8
0
100
AcDbSpline
 62
7
  6
CONTINUOUS
 70
0
 71
3
 72
11
 73
7
 74
0
 42
0.0000001
 43
0.0000001
 44
0.0000000001
 40
0.0
 40
0.0
 40
0.0
 40
0.0
 40
0.2092798753
 40
0.444592951
 40
0.7123432609
 40
1.0
 40
1.0
 40
1.0
 40
1.0
 10
108.3660183736
 20
82.7693163461
 30
0.0
 10
108.3660183736
 20
82.7973972607
 30
0.0
 10
108.384428862
 20
82.8576800325
 30
0.0
 10
108.4541027993
 20
82.9270783865
 30
0.0
 10
108.5524837372
 20
82.9711916504
 30
0.0
 10
108.6274209484
 20
82.9814483804
 30
0.0
 10
108.6660183736
 20
82.9814483804
 30
0.0
  0
SPLINE
  5
56B
100
AcDbEntity
  8
RUNDUNGEN
100
AcDbSpline
 62
7
  6
CONTINUOUS
 70
0
 71
3
 72
11
 73
7
 74
0
 42
0.0000001
 43
0.0000001
 44
0.0000000001
 40
0.0
 40
0.0
 40
0.0
 40
0.0
 40
0.2660806488
 40
0.5190943636
 40
0.7622194616
 40
1.0
 40
1.0
 40
1.0
 40
1.0
 10
139.2353701636
 20
54.993396699
 30
0.0
 10
138.8094163727
 20
55.4235474722
 30
0.0
 10
138.0427263447
 20
56.3306624051
 30
0.0
 10
137.1747800555
 20
57.8437737924
 30
0.0
 10
136.6426604213
 20
59.4385048927
 30
0.0
 10
136.5226508087
 20
60.5361154114
 30
0.0
 10
136.5226508279
 20
61.0770939651
 30
0.0
  0
SPLINE
  5
56C
100
AcDbEntity
  8
0
100
AcDbSpline
 62
7
  6
CONTINUOUS
 70
0
 71
3
 72
9
 73
5
 74
0
 42
0.0000001
 43
0.0000001
 44
0.0000000001
 40
0.0
 40
0.0
 40
0.0
 40
0.0
 40
0.538986273
 40
1.0
 40
1.0
 40
1.0
 40
1.0
 10
111.8160183736
 20
78.3145436246
 30
0.0
 10
111.9296756932
 20
78.3145436246
 30
0.0
 10
112.1429062797
 20
78.3544433621
 30
0.0
 10
112.3212646062
 20
78.4925335718
 30
0.0
 10
112.3703460931
 20
78.5764488633
 30
0.0
  0
SPLINE
  5
56D
100
AcDbEntity
  8
0
100
AcDbSpline
 62
7
  6
CONTINUOUS
 70
0
 71
3
 72
9
 73
5
 74
0
 42
0.0000001
 43
0.0000001
 44
0.0000000001
 40
0.0
 40
0.0
 40
0.0
 40
0.0
 40
0.2592261758
 40
1.0
 40
1.0
 40
1.0
 40
1.0
 10
112.3703460931
 20
78.5764488633
 30
0.0
 10
112.3777519966
 20
78.589110838
 30
0.0
 10
112.4033753322
 20
78.6395896458
 30
0.0
 10
112.4160183736
 20
78.6968896817
 30
0.0
 10
112.4160183736
 20
78.7388076933
 30
0.0
  0
SPLINE
  5
56E
100
AcDbEntity
  8
RUNDUNGEN
100
AcDbSpline
 62
7
  6
CONTINUOUS
 70
0
 71
3
 72
12
 73
8
 74
0
 42
0.0000001
 43
0.0000001
 44
0.0000000001
 40
0.0
 40
0.0
 40
0.0
 40
0.0
 40
0.2295488423
 40
0.3548243544
 40
0.4846199331
 40
0.7477426437
 40
1.0
 40
1.0
 40
1.0
 40
1.0
 10
147.3833820419
 20
89.9361617217
 30
0.0
 10
146.9842423061
 20
89.5330892061
 30
0.0
 10
146.2260443514
 20
89.0438512358
 30
0.0
 10
145.0954994285
 20
88.643715541
 30
0.0
 10
143.8342643325
 20
88.3966942677
 30
0.0
 10
142.2202301648
 20
88.4200127875
 30
0.0
 10
140.9783876126
 20
88.7913222114
 30
0.0
 10
140.4197396387
 20
89.0679208333
 30
0.0
  0
SPLINE
  5
56F
100
AcDbEntity
  8
0
100
AcDbSpline
 62
7
  6
CONTINUOUS
 70
0
 71
3
 72
9
 73
5
 74
0
 42
0.0000001
 43
0.0000001
 44
0.0000000001
 40
0.0
 40
0.0
 40
0.0
 40
0.0
 40
0.4402133985
 40
1.0
 40
1.0
 40
1.0
 40
1.0
 10
109.6410183736
 20
81.3763159871
 30
0.0
 10
109.6410183736
 20
81.399495201
 30
0.0
 10
109.6053205843
 20
81.4499706888
 30
0.0
 10
109.5504936539
 20
81.4611688009
 30
0.0
 10
109.5210183736
 20
81.4611688009
 30
0.0
  0
SPLINE
  5
570
100
AcDbEntity
  8
RUNDUNGEN
100
AcDbSpline
 62
7
  6
CONTINUOUS
 70
0
 71
3
 72
12
 73
8
 74
0
 42
0.0000001
 43
0.0000001
 44
0.0000000001
 40
0.0
 40
0.0
 40
0.0
 40
0.0
 40
0.252259356
 40
0.5153839756
 40
0.6451803977
 40
0.7704553584
 40
1.0
 40
1.0
 40
1.0
 40
1.0
 10
108.3038793421
 20
92.3936750923
 30
0.0
 10
107.7452269322
 20
92.1170742739
 30
0.0
 10
106.5033742061
 20
91.7457632708
 30
0.0
 10
104.8893277915
 20
91.7224499529
 30
0.0
 10
103.6280883396
 20
91.9694779675
 30
0.0
 10
102.4975549593
 20
92.3696175766
 30
0.0
 10
101.7393693761
 20
92.8588508356
 30
0.0
 10
101.3402369389
 20
93.2619159806
 30
0.0
  0
SPLINE
  5
571
100
AcDbEntity
  8
0
100
AcDbSpline
 62
7
  6
CONTINUOUS
 70
0
 71
3
 72
9
 73
5
 74
0
 42
0.0000001
 43
0.0000001
 44
0.0000000001
 40
0.0
 40
0.0
 40
0.0
 40
0.0
 40
0.5082916554
 40
1.0
 40
1.0
 40
1.0
 40
1.0
 10
151.2627082945
 20
188.5648849587
 30
0.0
 10
149.1651287288
 20
190.6730411018
 30
0.0
 10
144.9754434617
 20
194.7587687743
 30
0.0
 10
140.6393555535
 20
198.689104371
 30
0.0
 10
138.4735716533
 20
200.5827422867
 30
0.0
  0
SPLINE
  5
572
100
AcDbEntity
  8
0
100
AcDbSpline
 62
7
  6
CONTINUOUS
 70
0
 71
3
 72
9
 73
5
 74
0
 42
0.0000001
 43
0.0000001
 44
0.0000000001
 40
0.0
 40
0.0
 40
0.0
 40
0.0
 40
0.4917083463
 40
1.0
 40
1.0
 40
1.0
 40
1.0
 10
103.5330005644
 20
200.5827422867
 30
0.0
 10
101.3672166565
 20
198.6891043642
 30
0.0
 10
97.0311287486
 20
194.7587687673
 30
0.0
 10
92.8414434817
 20
190.6730410946
 30
0.0
 10
90.7438639232
 20
188.5648849587
 30
0.0
  0
SPLINE
  5
573
100
AcDbEntity
  8
0
100
AcDbSpline
 62
7
  6
CONTINUOUS
 70
0
 71
3
 72
17
 73
13
 74
0
 42
0.0000001
 43
0.0000001
 44
0.0000000001
 40
0.0
 40
0.0
 40
0.0
 40
0.0
 40
0.0521198795
 40
0.1268908
 40
0.2287458324
 40
0.36081431
 40
0.5249853651
 40
0.7168441072
 40
0.8136471722
 40
0.8971722794
 40
0.9586007473
 40
1.0
 40
1.0
 40
1.0
 40
1.0
 10
96.5822764534
 20
111.5206266767
 30
0.0
 10
96.4602873545
 20
111.5328485695
 30
0.0
 10
96.1747265667
 20
111.6444111545
 30
0.0
 10
95.7335559849
 20
111.9537760029
 30
0.0
 10
95.2008092567
 20
112.450514879
 30
0.0
 10
94.5813568872
 20
113.1539460825
 30
0.0
 10
93.8917726458
 20
114.0732354141
 30
0.0
 10
93.3176294483
 20
114.9722831179
 30
0.0
 10
92.9040843422
 20
115.7444609985
 30
0.0
 10
92.6724916497
 20
116.2647379771
 30
0.0
 10
92.5378747546
 20
116.6829965551
 30
0.0
 10
92.5032861089
 20
116.9245300964
 30
0.0
 10
92.5032861089
 20
117.0219121477
 30
0.0
  0
SPLINE
  5
574
100
AcDbEntity
  8
RUNDUNGEN
100
AcDbSpline
 62
7
  6
CONTINUOUS
 70
0
 71
3
 72
15
 73
11
 74
0
 42
0.0000001
 43
0.0000001
 44
0.0000000001
 40
0.0
 40
0.0
 40
0.0
 40
0.0
 40
0.1253444092
 40
0.2506299826
 40
0.3758064841
 40
0.500853434
 40
0.6257705829
 40
0.7505786765
 40
0.8753083417
 40
1.0
 40
1.0
 40
1.0
 40
1.0
 10
143.0032861089
 20
159.4840901597
 30
0.0
 10
143.4252762245
 20
159.4840901067
 30
0.0
 10
144.2712831455
 20
159.4030469829
 30
0.0
 10
145.4917717342
 20
159.0424327479
 30
0.0
 10
146.6202564599
 20
158.4550304378
 30
0.0
 10
147.6130082684
 20
157.661360738
 30
0.0
 10
148.4311372341
 20
156.6900831262
 30
0.0
 10
149.0413885903
 20
155.5773140086
 30
0.0
 10
149.418302845
 20
154.3666511839
 30
0.0
 10
149.5032861089
 20
153.5244974533
 30
0.0
 10
149.5032861089
 20
153.1047049182
 30
0.0
  0
SPLINE
  5
575
100
AcDbEntity
  8
BEZUGSACHSEN
100
AcDbSpline
 62
7
  6
CONTINUOUS
 70
0
 71
3
 72
15
 73
11
 74
0
 42
0.0000001
 43
0.0000001
 44
0.0000000001
 40
0.0
 40
0.0
 40
0.0
 40
0.0
 40
0.1213952628
 40
0.2449248391
 40
0.3714323782
 40
0.5
 40
0.6285676218
 40
0.7550751609
 40
0.8786047372
 40
1.0
 40
1.0
 40
1.0
 40
1.0
 10
100.4032861089
 20
134.1937337724
 30
0.0
 10
100.4032861089
 20
133.8874083968
 30
0.0
 10
100.5364586873
 20
133.2620677747
 30
0.0
 10
101.0983617271
 20
132.4814181072
 30
0.0
 10
101.9296235411
 20
131.9642682015
 30
0.0
 10
102.9032861089
 20
131.7841676763
 30
0.0
 10
103.8769486766
 20
131.9642682015
 30
0.0
 10
104.7082104906
 20
132.4814181072
 30
0.0
 10
105.2701135304
 20
133.2620677747
 30
0.0
 10
105.4032861089
 20
133.8874083968
 30
0.0
 10
105.4032861089
 20
134.1937337724
 30
0.0
  0
SPLINE
  5
576
100
AcDbEntity
  8
RUNDUNGEN
100
AcDbSpline
 62
7
  6
CONTINUOUS
 70
0
 71
3
 72
15
 73
11
 74
0
 42
0.0000001
 43
0.0000001
 44
0.0000000001
 40
0.0
 40
0.0
 40
0.0
 40
0.0
 40
0.1253443854
 40
0.2506299677
 40
0.3758064706
 40
0.5008534235
 40
0.6257705749
 40
0.7505786715
 40
0.8753083386
 40
1.0
 40
1.0
 40
1.0
 40
1.0
 10
99.0032861089
 20
159.4840901597
 30
0.0
 10
98.5812960735
 20
159.4840901597
 30
0.0
 10
97.7352892074
 20
159.403046957
 30
0.0
 10
96.5148006415
 20
159.0424328348
 30
0.0
 10
95.3863158705
 20
158.4550305024
 30
0.0
 10
94.3935640255
 20
157.6613608154
 30
0.0
 10
93.5754350263
 20
156.690083192
 30
0.0
 10
92.9651836496
 20
155.5773140578
 30
0.0
 10
92.5882693742
 20
154.3666512113
 30
0.0
 10
92.5032861089
 20
153.5244974636
 30
0.0
 10
92.5032861089
 20
153.1047049181
 30
0.0
  0
SPLINE
  5
577
100
AcDbEntity
  8
BEZUGSACHSEN
100
AcDbSpline
 62
7
  6
CONTINUOUS
 70
0
 71
3
 72
15
 73
11
 74
0
 42
0.0000001
 43
0.0000001
 44
0.0000000001
 40
0.0
 40
0.0
 40
0.0
 40
0.0
 40
0.1334440168
 40
0.2630704323
 40
0.3889177154
 40
0.5116565005
 40
0.6325294939
 40
0.7531485847
 40
0.8751785595
 40
1.0
 40
1.0
 40
1.0
 40
1.0
 10
112.807232551
 20
159.4764513217
 30
0.0
 10
111.9636672434
 20
159.965538515
 30
0.0
 10
110.3869967748
 20
161.0897273941
 30
0.0
 10
108.4259336561
 20
163.1712023591
 30
0.0
 10
106.9606144618
 20
165.5372595383
 30
0.0
 10
106.0333918011
 20
168.0935724412
 30
0.0
 10
105.6655115382
 20
170.7495312624
 30
0.0
 10
105.8646280547
 20
173.4185252126
 30
0.0
 10
106.6260648496
 20
176.0131282053
 30
0.0
 10
107.4876008784
 20
177.6148821069
 30
0.0
 10
107.9976034531
 20
178.3710577345
 30
0.0
  0
SPLINE
  5
578
100
AcDbEntity
  8
0
100
AcDbSpline
 62
7
  6
CONTINUOUS
 70
0
 71
3
 72
17
 73
13
 74
0
 42
0.0000001
 43
0.0000001
 44
0.0000000001
 40
0.0
 40
0.0
 40
0.0
 40
0.0
 40
0.0413976539
 40
0.1028246558
 40
0.1863540252
 40
0.2831577685
 40
0.4750111496
 40
0.6391801419
 40
0.7712491693
 40
0.8731050165
 40
0.9478774623
 40
1.0
 40
1.0
 40
1.0
 40
1.0
 10
149.5032861089
 20
117.0219121477
 30
0.0
 10
149.5032861089
 20
116.9245347593
 30
0.0
 10
149.4687006983
 20
116.6830105325
 30
0.0
 10
149.3340868028
 20
116.264752203
 30
0.0
 10
149.1024948541
 20
115.7444716101
 30
0.0
 10
148.6889533508
 20
114.9723021054
 30
0.0
 10
148.1148262646
 20
114.073274864
 30
0.0
 10
147.4252617106
 20
113.1540043889
 30
0.0
 10
146.8058212764
 20
112.4505764654
 30
0.0
 10
146.2730811976
 20
111.9538309775
 30
0.0
 10
145.8319130346
 20
111.6444509439
 30
0.0
 10
145.5463547858
 20
111.5328690212
 30
0.0
 10
145.4243619224
 20
111.520633378
 30
0.0
  0
SPLINE
  5
579
100
AcDbEntity
  8
BEZUGSACHSEN
100
AcDbSpline
 62
7
  6
CONTINUOUS
 70
0
 71
3
 72
15
 73
11
 74
0
 42
0.0000001
 43
0.0000001
 44
0.0000000001
 40
0.0
 40
0.0
 40
0.0
 40
0.0
 40
0.1248245386
 40
0.2468563098
 40
0.3674758622
 40
0.488348277
 40
0.6110859265
 40
0.7369318512
 40
0.8665569397
 40
1.0
 40
1.0
 40
1.0
 40
1.0
 10
134.0077796701
 20
178.3728195761
 30
0.0
 10
134.5179642161
 20
177.6166218745
 30
0.0
 10
135.3798468838
 20
176.0147901259
 30
0.0
 10
136.1417026091
 20
173.4199636276
 30
0.0
 10
136.3411186281
 20
170.750688722
 30
0.0
 10
135.9734118691
 20
168.0944215155
 30
0.0
 10
135.0462410482
 20
165.5378002976
 30
0.0
 10
133.5808589253
 20
163.1714608771
 30
0.0
 10
131.6196332198
 20
161.0897514306
 30
0.0
 10
130.0427994252
 20
159.9654590919
 30
0.0
 10
129.1991425488
 20
159.4763361242
 30
0.0
  0
SPLINE
  5
57A
100
AcDbEntity
  8
0
100
AcDbSpline
 62
7
  6
CONTINUOUS
 70
0
 71
3
 72
21
 73
17
 74
0
 42
0.0000001
 43
0.0000001
 44
0.0000000001
 40
0.0
 40
0.0
 40
0.0
 40
0.0
 40
0.0606242132
 40
0.1216013006
 40
0.1831476013
 40
0.2453942033
 40
0.3083702727
 40
0.3720020862
 40
0.5
 40
0.6279979138
 40
0.6916297273
 40
0.7546057967
 40
0.8168523987
 40
0.8783986994
 40
0.9393757868
 40
1.0
 40
1.0
 40
1.0
 40
1.0
 10
127.2440871374
 20
137.7459208776
 30
0.0
 10
127.2226729758
 20
138.1163988969
 30
0.0
 10
127.1040901331
 20
138.8572816528
 30
0.0
 10
126.7072404913
 20
139.9133477036
 30
0.0
 10
126.1057777711
 20
140.8798102685
 30
0.0
 10
125.3219749781
 20
141.7215256124
 30
0.0
 10
124.38388843
 20
142.4089016265
 30
0.0
 10
122.9729204112
 20
143.0880119529
 30
0.0
 10
121.0032861089
 20
143.4423793459
 30
0.0
 10
119.0336518065
 20
143.0880119529
 30
0.0
 10
117.6226837877
 20
142.4089016265
 30
0.0
 10
116.6845972396
 20
141.7215256124
 30
0.0
 10
115.9007944466
 20
140.8798102685
 30
0.0
 10
115.2993317264
 20
139.9133477036
 30
0.0
 10
114.9024820846
 20
138.8572816528
 30
0.0
 10
114.7838992419
 20
138.1163988969
 30
0.0
 10
114.7624850803
 20
137.7459208776
 30
0.0
  0
SPLINE
  5
57B
100
AcDbEntity
  8
KONSTRUKTIONSELEMENTE
100
AcDbSpline
 62
7
  6
CONTINUOUS
 70
0
 71
3
 72
21
 73
17
 74
0
 42
0.0000001
 43
0.0000001
 44
0.0000000001
 40
0.0
 40
0.0
 40
0.0
 40
0.0
 40
0.0606242132
 40
0.1216013006
 40
0.1831476013
 40
0.2453942033
 40
0.3083702727
 40
0.3720020862
 40
0.5
 40
0.6279979138
 40
0.6916297273
 40
0.7546057967
 40
0.8168523987
 40
0.8783986994
 40
0.9393757868
 40
1.0
 40
1.0
 40
1.0
 40
1.0
 10
127.2440871374
 20
145.6123841741
 30
0.0
 10
127.2226729758
 20
145.9828621934
 30
0.0
 10
127.1040901331
 20
146.7237449493
 30
0.0
 10
126.7072404913
 20
147.7798110001
 30
0.0
 10
126.1057777711
 20
148.746273565
 30
0.0
 10
125.3219749781
 20
149.5879889089
 30
0.0
 10
124.38388843
 20
150.275364923
 30
0.0
 10
122.9729204112
 20
150.9544752494
 30
0.0
 10
121.0032861089
 20
151.3088426424
 30
0.0
 10
119.0336518065
 20
150.9544752494
 30
0.0
 10
117.6226837877
 20
150.275364923
 30
0.0
 10
116.6845972396
 20
149.5879889089
 30
0.0
 10
115.9007944466
 20
148.746273565
 30
0.0
 10
115.2993317264
 20
147.7798110001
 30
0.0
 10
114.9024820846
 20
146.7237449493
 30
0.0
 10
114.7838992419
 20
145.9828621934
 30
0.0
 10
114.7624850803
 20
145.6123841741
 30
0.0
  0
SPLINE
  5
57C
100
AcDbEntity
  8
BEZUGSACHSEN
100
AcDbSpline
 62
7
  6
CONTINUOUS
 70
0
 71
3
 72
15
 73
11
 74
0
 42
0.0000001
 43
0.0000001
 44
0.0000000001
 40
0.0
 40
0.0
 40
0.0
 40
0.0
 40
0.1213952628
 40
0.2449248391
 40
0.3714323782
 40
0.5
 40
0.6285676218
 40
0.7550751609
 40
0.8786047372
 40
1.0
 40
1.0
 40
1.0
 40
1.0
 10
105.4032861089
 20
134.1937337724
 30
0.0
 10
105.4032861089
 20
134.5000591479
 30
0.0
 10
105.2701135304
 20
135.12539977
 30
0.0
 10
104.7082104907
 20
135.9060494375
 30
0.0
 10
103.8769486766
 20
136.4231993432
 30
0.0
 10
102.9032861089
 20
136.6032998684
 30
0.0
 10
101.9296235411
 20
136.4231993432
 30
0.0
 10
101.0983617271
 20
135.9060494375
 30
0.0
 10
100.5364586873
 20
135.12539977
 30
0.0
 10
100.4032861089
 20
134.5000591479
 30
0.0
 10
100.4032861089
 20
134.1937337724
 30
0.0
  0
SPLINE
  5
57D
100
AcDbEntity
  8
0
100
AcDbSpline
 62
7
  6
CONTINUOUS
 70
0
 71
3
 72
9
 73
5
 74
0
 42
0.0000001
 43
0.0000001
 44
0.0000000001
 40
0.0
 40
0.0
 40
0.0
 40
0.0
 40
0.5056074444
 40
1.0
 40
1.0
 40
1.0
 40
1.0
 10
145.4243619224
 20
111.520633378
 30
0.0
 10
145.3402390111
 20
111.5121960162
 30
0.0
 10
145.1606547892
 20
111.5337171042
 30
0.0
 10
145.042507512
 20
111.6701300326
 30
0.0
 10
145.0032861089
 20
111.7429033669
 30
0.0
  0
SPLINE
  5
57E
100
AcDbEntity
  8
0
100
AcDbSpline
 62
7
  6
CONTINUOUS
 70
0
 71
3
 72
14
 73
10
 74
0
 42
0.0000001
 43
0.0000001
 44
0.0000000001
 40
0.0
 40
0.0
 40
0.0
 40
0.0
 40
0.0190935957
 40
0.0384939822
 40
0.0654876364
 40
0.1428883315
 40
0.2518499979
 40
0.5642743484
 40
1.0
 40
1.0
 40
1.0
 40
1.0
 10
101.6971326326
 20
111.5009141323
 30
0.0
 10
101.6916336872
 20
111.500875133
 30
0.0
 10
101.6859993538
 20
111.5153750273
 30
0.0
 10
101.6852451666
 20
111.5325567332
 30
0.0
 10
101.6854081527
 20
111.569131071
 30
0.0
 10
101.6925636284
 20
111.6296262074
 30
0.0
 10
101.7150034275
 20
111.7719201382
 30
0.0
 10
101.7656289636
 20
112.0133472277
 30
0.0
 10
101.8147069101
 20
112.2232498652
 30
0.0
 10
101.8443327592
 20
112.3451946441
 30
0.0
  0
SPLINE
  5
57F
100
AcDbEntity
  8
KONSTRUKTIONSELEMENTE
100
AcDbSpline
 62
7
  6
CONTINUOUS
 70
0
 71
3
 72
9
 73
5
 74
0
 42
0.0000001
 43
0.0000001
 44
0.0000000001
 40
0.0
 40
0.0
 40
0.0
 40
0.0
 40
0.5060303485
 40
1.0
 40
1.0
 40
1.0
 40
1.0
 10
127.2532861089
 20
142.7310736247
 30
0.0
 10
128.4290773224
 20
142.5766479997
 30
0.0
 10
130.7417938812
 20
142.1817003725
 30
0.0
 10
133.0137920327
 20
141.5909910939
 30
0.0
 10
134.1173771874
 20
141.2414284283
 30
0.0
  0
SPLINE
  5
580
100
AcDbEntity
  8
KONSTRUKTIONSELEMENTE
100
AcDbSpline
 62
7
  6
CONTINUOUS
 70
0
 71
3
 72
9
 73
5
 74
0
 42
0.0000001
 43
0.0000001
 44
0.0000000001
 40
0.0
 40
0.0
 40
0.0
 40
0.0
 40
0.4939700537
 40
1.0
 40
1.0
 40
1.0
 40
1.0
 10
107.8891950303
 20
141.2414284283
 30
0.0
 10
108.9927810822
 20
141.5909913781
 30
0.0
 10
111.2647793041
 20
142.1817003927
 30
0.0
 10
113.5774958312
 20
142.5766481226
 30
0.0
 10
114.7532861089
 20
142.7310736247
 30
0.0
  0
SPLINE
  5
581
100
AcDbEntity
  8
KONSTRUKTIONSELEMENTE
100
AcDbSpline
 62
7
  6
CONTINUOUS
 70
0
 71
3
 72
11
 73
7
 74
0
 42
0.0000001
 43
0.0000001
 44
0.0000000001
 40
0.0
 40
0.0
 40
0.0
 40
0.0
 40
0.2466640434
 40
0.4952551241
 40
0.7464390112
 40
1.0
 40
1.0
 40
1.0
 40
1.0
 10
106.1678258868
 20
137.8237663665
 30
0.0
 10
106.1678258868
 20
138.1466506156
 30
0.0
 10
106.260420543
 20
138.7979541445
 30
0.0
 10
106.6413278751
 20
139.7064872481
 30
0.0
 10
107.1983436401
 20
140.5261538061
 30
0.0
 10
107.6495387938
 20
141.0117967325
 30
0.0
 10
107.8891950303
 20
141.2414284283
 30
0.0
  0
SPLINE
  5
582
100
AcDbEntity
  8
KONSTRUKTIONSELEMENTE
100
AcDbSpline
 62
7
  6
CONTINUOUS
 70
0
 71
3
 72
9
 73
5
 74
0
 42
0.0000001
 43
0.0000001
 44
0.0000000001
 40
0.0
 40
0.0
 40
0.0
 40
0.0
 40
0.5016592034
 40
1.0
 40
1.0
 40
1.0
 40
1.0
 10
105.4387188553
 20
130.9048095996
 30
0.0
 10
105.6585473483
 20
131.376685069
 30
0.0
 10
106.027256017
 20
132.3535709607
 30
0.0
 10
106.1678258868
 20
133.394701489
 30
0.0
 10
106.1678258868
 20
133.9118259861
 30
0.0
  0
SPLINE
  5
583
100
AcDbEntity
  8
KONSTRUKTIONSELEMENTE
100
AcDbSpline
 62
7
  6
CONTINUOUS
 70
0
 71
3
 72
9
 73
5
 74
0
 42
0.0000001
 43
0.0000001
 44
0.0000000001
 40
0.0
 40
0.0
 40
0.0
 40
0.0
 40
0.4983407966
 40
1.0
 40
1.0
 40
1.0
 40
1.0
 10
135.8387463309
 20
133.9118259861
 30
0.0
 10
135.8387463309
 20
133.394701489
 30
0.0
 10
135.9793162007
 20
132.3535709607
 30
0.0
 10
136.3480248694
 20
131.376685069
 30
0.0
 10
136.5678533624
 20
130.9048095996
 30
0.0
  0
SPLINE
  5
584
100
AcDbEntity
  8
KONSTRUKTIONSELEMENTE
100
AcDbSpline
 62
7
  6
CONTINUOUS
 70
0
 71
3
 72
11
 73
7
 74
0
 42
0.0000001
 43
0.0000001
 44
0.0000000001
 40
0.0
 40
0.0
 40
0.0
 40
0.0
 40
0.253561071
 40
0.5047450748
 40
0.7533362256
 40
1.0
 40
1.0
 40
1.0
 40
1.0
 10
134.1173771874
 20
141.2414284283
 30
0.0
 10
134.3570335015
 20
141.0117966581
 30
0.0
 10
134.8082288231
 20
140.5261535342
 30
0.0
 10
135.3652447605
 20
139.7064866476
 30
0.0
 10
135.7461517424
 20
138.797953508
 30
0.0
 10
135.8387463309
 20
138.1466502633
 30
0.0
 10
135.8387463309
 20
137.8237663665
 30
0.0
  0
SPLINE
  5
585
100
AcDbEntity
  8
RUNDUNGEN
100
AcDbSpline
 62
7
  6
CONTINUOUS
 70
0
 71
3
 72
14
 73
10
 74
0
 42
0.0000001
 43
0.0000001
 44
0.0000000001
 40
0.0
 40
0.0
 40
0.0
 40
0.0
 40
0.0909423886
 40
0.1878748711
 40
0.2952153255
 40
0.4151663029
 40
0.5478761242
 40
0.6917874159
 40
1.0
 40
1.0
 40
1.0
 40
1.0
 10
149.5032861089
 20
138.5692833284
 30
0.0
 10
149.5032861089
 20
138.7424521896
 30
0.0
 10
149.4426171095
 20
139.1024802133
 30
0.0
 10
149.1804335327
 20
139.6079552033
 30
0.0
 10
148.7617839848
 20
140.0693235517
 30
0.0
 10
148.2025221049
 20
140.4725677222
 30
0.0
 10
147.5208097439
 20
140.8048357479
 30
0.0
 10
146.4570518726
 20
141.1431369592
 30
0.0
 10
145.5901721919
 20
141.2414284283
 30
0.0
 10
145.0032861089
 20
141.2414284283
 30
0.0
  0
SPLINE
  5
586
100
AcDbEntity
  8
RUNDUNGEN
100
AcDbSpline
 62
7
  6
CONTINUOUS
 70
0
 71
3
 72
14
 73
10
 74
0
 42
0.0000001
 43
0.0000001
 44
0.0000000001
 40
0.0
 40
0.0
 40
0.0
 40
0.0
 40
0.0909423886
 40
0.1878748711
 40
0.2952153255
 40
0.4151663029
 40
0.5478761242
 40
0.6917874159
 40
1.0
 40
1.0
 40
1.0
 40
1.0
 10
92.5032861089
 20
142.9402390742
 30
0.0
 10
92.5032861089
 20
143.1134079355
 30
0.0
 10
92.5639551082
 20
143.4734359592
 30
0.0
 10
92.826138685
 20
143.9789109492
 30
0.0
 10
93.2447882329
 20
144.4402792976
 30
0.0
 10
93.8040501128
 20
144.843523468
 30
0.0
 10
94.4857624738
 20
145.1757914938
 30
0.0
 10
95.5495203452
 20
145.5140927051
 30
0.0
 10
96.4164000258
 20
145.6123841741
 30
0.0
 10
97.0032861089
 20
145.6123841741
 30
0.0
  0
SPLINE
  5
587
100
AcDbEntity
  8
KONSTRUKTIONSELEMENTE
100
AcDbSpline
 62
7
  6
CONTINUOUS
 70
0
 71
3
 72
17
 73
13
 74
0
 42
0.0000001
 43
0.0000001
 44
0.0000000001
 40
0.0
 40
0.0
 40
0.0
 40
0.0
 40
0.1477630542
 40
0.299445227
 40
0.4503041217
 40
0.5947742436
 40
0.7270205021
 40
0.8414892157
 40
0.8905521002
 40
0.9335138361
 40
0.9700533533
 40
1.0
 40
1.0
 40
1.0
 40
1.0
 10
105.4387188553
 20
130.9048095996
 30
0.0
 10
105.0542627341
 20
130.0795507343
 30
0.0
 10
104.3538783278
 20
128.369898726
 30
0.0
 10
103.4927300687
 20
125.7305458002
 30
0.0
 10
102.7980657587
 20
123.0638737075
 30
0.0
 10
102.2693741624
 20
120.4818346425
 30
0.0
 10
101.9059978539
 20
118.0982230191
 30
0.0
 10
101.7299677634
 20
116.2828940978
 30
0.0
 10
101.6806363997
 20
115.0112543913
 30
0.0
 10
101.6873335438
 20
114.2187147526
 30
0.0
 10
101.7353365171
 20
113.545666884
 30
0.0
 10
101.8007737833
 20
113.1401266807
 30
0.0
 10
101.8443327592
 20
112.960830902
 30
0.0
  0
SPLINE
  5
588
100
AcDbEntity
  8
KONSTRUKTIONSELEMENTE
100
AcDbSpline
 62
7
  6
CONTINUOUS
 70
0
 71
3
 72
17
 73
13
 74
0
 42
0.0000001
 43
0.0000001
 44
0.0000000001
 40
0.0
 40
0.0
 40
0.0
 40
0.0
 40
0.0299466467
 40
0.0664861639
 40
0.1094478998
 40
0.1585107843
 40
0.2729794979
 40
0.4052257564
 40
0.5496958783
 40
0.700554773
 40
0.8522369458
 40
1.0
 40
1.0
 40
1.0
 40
1.0
 10
140.1622394585
 20
112.960830902
 30
0.0
 10
140.2057984344
 20
113.1401266807
 30
0.0
 10
140.2712357006
 20
113.545666884
 30
0.0
 10
140.3192386739
 20
114.2187147526
 30
0.0
 10
140.325935818
 20
115.0112543913
 30
0.0
 10
140.2766044543
 20
116.2828940978
 30
0.0
 10
140.1005743638
 20
118.0982230191
 30
0.0
 10
139.7371980553
 20
120.4818346425
 30
0.0
 10
139.208506459
 20
123.0638737075
 30
0.0
 10
138.513842149
 20
125.7305458002
 30
0.0
 10
137.6526938899
 20
128.369898726
 30
0.0
 10
136.9523094836
 20
130.0795507343
 30
0.0
 10
136.5678533624
 20
130.9048095996
 30
0.0
  0
SPLINE
  5
589
100
AcDbEntity
  8
0
100
AcDbSpline
 62
7
  6
CONTINUOUS
 70
0
 71
3
 72
9
 73
5
 74
0
 42
0.0000001
 43
0.0000001
 44
0.0000000001
 40
0.0
 40
0.0
 40
0.0
 40
0.0
 40
0.562807087
 40
1.0
 40
1.0
 40
1.0
 40
1.0
 10
97.1172861089
 20
112.3451946441
 30
0.0
 10
97.1172861089
 20
112.2293814681
 30
0.0
 10
97.1050360031
 20
112.0232529398
 30
0.0
 10
97.045968433
 20
111.8220983016
 30
0.0
 10
97.0032860821
 20
111.742903343
 30
0.0
  0
SPLINE
  5
58A
100
AcDbEntity
  8
0
100
AcDbSpline
 62
7
  6
CONTINUOUS
 70
0
 71
3
 72
9
 73
5
 74
0
 42
0.0000001
 43
0.0000001
 44
0.0000000001
 40
0.0
 40
0.0
 40
0.0
 40
0.0
 40
0.4944039806
 40
1.0
 40
1.0
 40
1.0
 40
1.0
 10
97.0032860821
 20
111.742903343
 30
0.0
 10
96.9640687907
 20
111.6701376378
 30
0.0
 10
96.8459436719
 20
111.5337409105
 30
0.0
 10
96.6663876163
 20
111.5121997137
 30
0.0
 10
96.5822764534
 20
111.5206266767
 30
0.0
  0
SPLINE
  5
58B
100
AcDbEntity
  8
RUNDUNGEN
100
AcDbSpline
 62
7
  6
CONTINUOUS
 70
0
 71
3
 72
31
 73
27
 74
0
 42
0.0000001
 43
0.0000001
 44
0.0000000001
 40
0.0
 40
0.0
 40
0.0
 40
0.0
 40
0.0950871385
 40
0.2103726194
 40
0.2754109538
 40
0.3451817013
 40
0.4194366556
 40
0.4978003311
 40
0.5796799535
 40
0.6641020464
 40
0.7067805204
 40
0.7493464319
 40
0.7913428139
 40
0.8320697442
 40
0.8705184905
 40
0.9052514064
 40
0.9343853378
 40
0.9462656767
 40
0.956111197
 40
0.963918152
 40
0.9698243962
 40
0.9742896385
 40
0.9781249437
 40
0.982261038
 40
0.9872254206
 40
1.0
 40
1.0
 40
1.0
 40
1.0
 10
97.0032860821
 20
113.9112784008
 30
0.0
 10
96.9391421269
 20
114.2261899772
 30
0.0
 10
96.7576281384
 20
114.914794436
 30
0.0
 10
96.4571097563
 20
115.7963156987
 30
0.0
 10
96.1517927568
 20
116.5846184279
 30
0.0
 10
95.8791045665
 20
117.2365705289
 30
0.0
 10
95.5716986827
 20
117.9225536731
 30
0.0
 10
95.2298607628
 20
118.6376987678
 30
0.0
 10
94.8546845851
 20
119.3747140237
 30
0.0
 10
94.5176016111
 20
119.9955256901
 30
0.0
 10
94.2325533748
 20
120.4931294295
 30
0.0
 10
94.0124203283
 20
120.8625968832
 30
0.0
 10
93.7886024628
 20
121.2221080363
 30
0.0
 10
93.5640073759
 20
121.5646195137
 30
0.0
 10
93.3434119693
 20
121.8802542136
 30
0.0
 10
93.1339200904
 20
122.155486692
 30
0.0
 10
92.9668705314
 20
122.3499478561
 30
0.0
 10
92.8442206094
 20
122.4705687354
 30
0.0
 10
92.7676026585
 20
122.534745743
 30
0.0
 10
92.7008474987
 20
122.5786958944
 30
0.0
 10
92.6437304882
 20
122.6025633518
 30
0.0
 10
92.5942753081
 20
122.6063352335
 30
0.0
 10
92.5547109433
 20
122.5869222448
 30
0.0
 10
92.5290826291
 20
122.5499805585
 30
0.0
 10
92.5061844173
 20
122.4792149786
 30
0.0
 10
92.5032861089
 20
122.4184499364
 30
0.0
 10
92.5032861089
 20
122.3752740934
 30
0.0
  0
SPLINE
  5
58C
100
AcDbEntity
  8
RUNDUNGEN
100
AcDbSpline
 62
7
  6
CONTINUOUS
 70
0
 71
3
 72
9
 73
5
 74
0
 42
0.0000001
 43
0.0000001
 44
0.0000000001
 40
0.0
 40
0.0
 40
0.0
 40
0.0
 40
0.4534686985
 40
1.0
 40
1.0
 40
1.0
 40
1.0
 10
97.1172861089
 20
112.960830902
 30
0.0
 10
97.1172861089
 20
113.1056985057
 30
0.0
 10
97.0923862862
 20
113.4251012799
 30
0.0
 10
97.0381341514
 20
113.7401935189
 30
0.0
 10
97.0032860821
 20
113.9112784008
 30
0.0
  0
SPLINE
  5
58D
100
AcDbEntity
  8
RUNDUNGEN
100
AcDbSpline
 62
7
  6
CONTINUOUS
 70
0
 71
3
 72
31
 73
27
 74
0
 42
0.0000001
 43
0.0000001
 44
0.0000000001
 40
0.0
 40
0.0
 40
0.0
 40
0.0
 40
0.0127744422
 40
0.0177388463
 40
0.0218748932
 40
0.0257102547
 40
0.0301754992
 40
0.0360821176
 40
0.0438905648
 40
0.0537369133
 40
0.0656178272
 40
0.0947543807
 40
0.1294878275
 40
0.1679358068
 40
0.2086632035
 40
0.2506588767
 40
0.2932245089
 40
0.3359026744
 40
0.4203245274
 40
0.5022040102
 40
0.5805671016
 40
0.6548209694
 40
0.7245904012
 40
0.7896280811
 40
0.9049130789
 40
1.0
 40
1.0
 40
1.0
 40
1.0
 10
149.5032861089
 20
122.3752740934
 30
0.0
 10
149.5032861089
 20
122.4184494714
 30
0.0
 10
149.5003867752
 20
122.4792140108
 30
0.0
 10
149.4774904026
 20
122.5499792221
 30
0.0
 10
149.4518630825
 20
122.5869223044
 30
0.0
 10
149.4122979137
 20
122.6063332783
 30
0.0
 10
149.3628414349
 20
122.6025653665
 30
0.0
 10
149.305718487
 20
122.5786930291
 30
0.0
 10
149.2389602228
 20
122.5347317127
 30
0.0
 10
149.1623321097
 20
122.4705518736
 30
0.0
 10
149.039674133
 20
122.3499193931
 30
0.0
 10
148.8726183397
 20
122.155447165
 30
0.0
 10
148.6631262968
 20
121.8802046334
 30
0.0
 10
148.4425299935
 20
121.5645697066
 30
0.0
 10
148.2179394245
 20
121.2220593151
 30
0.0
 10
147.9941229286
 20
120.8625494316
 30
0.0
 10
147.7739929889
 20
120.4930852294
 30
0.0
 10
147.4889473779
 20
119.9954832341
 30
0.0
 10
147.1518662899
 20
119.3746732169
 30
0.0
 10
146.776692524
 20
118.6376604132
 30
0.0
 10
146.4348579984
 20
117.9225204989
 30
0.0
 10
146.127457349
 20
117.2365460946
 30
0.0
 10
145.8547735192
 20
116.5846033959
 30
0.0
 10
145.5494598615
 20
115.7963082894
 30
0.0
 10
145.2489431888
 20
114.9147913142
 30
0.0
 10
145.0674299156
 20
114.2261891427
 30
0.0
 10
145.0032861089
 20
113.9112782952
 30
0.0
  0
SPLINE
  5
58E
100
AcDbEntity
  8
0
100
AcDbSpline
 62
7
  6
CONTINUOUS
 70
0
 71
3
 72
9
 73
5
 74
0
 42
0.0000001
 43
0.0000001
 44
0.0000000001
 40
0.0
 40
0.0
 40
0.0
 40
0.0
 40
0.5
 40
1.0
 40
1.0
 40
1.0
 40
1.0
 10
140.1622394585
 20
112.960830902
 30
0.0
 10
140.1378376837
 20
112.8603892566
 30
0.0
 10
140.1117082991
 20
112.6530127731
 30
0.0
 10
140.1378376837
 20
112.4456362895
 30
0.0
 10
140.1622394585
 20
112.3451946441
 30
0.0
  0
SPLINE
  5
58F
100
AcDbEntity
  8
0
100
AcDbSpline
 62
7
  6
CONTINUOUS
 70
0
 71
3
 72
9
 73
5
 74
0
 42
0.0000001
 43
0.0000001
 44
0.0000000001
 40
0.0
 40
0.0
 40
0.0
 40
0.0
 40
0.5
 40
1.0
 40
1.0
 40
1.0
 40
1.0
 10
101.8443327592
 20
112.3451946441
 30
0.0
 10
101.868734534
 20
112.4456362895
 30
0.0
 10
101.8948639186
 20
112.6530127731
 30
0.0
 10
101.868734534
 20
112.8603892566
 30
0.0
 10
101.8443327592
 20
112.960830902
 30
0.0
  0
SPLINE
  5
590
100
AcDbEntity
  8
RUNDUNGEN
100
AcDbSpline
 62
7
  6
CONTINUOUS
 70
0
 71
3
 72
14
 73
10
 74
0
 42
0.0000001
 43
0.0000001
 44
0.0000000001
 40
0.0
 40
0.0
 40
0.0
 40
0.0
 40
0.3082125841
 40
0.4521238758
 40
0.5848336971
 40
0.7047846745
 40
0.8121251289
 40
0.9090576114
 40
1.0
 40
1.0
 40
1.0
 40
1.0
 10
97.0032861089
 20
141.2414284283
 30
0.0
 10
96.4164000258
 20
141.2414284283
 30
0.0
 10
95.5495203452
 20
141.1431369592
 30
0.0
 10
94.4857624738
 20
140.8048357479
 30
0.0
 10
93.8040501128
 20
140.4725677222
 30
0.0
 10
93.2447882329
 20
140.0693235517
 30
0.0
 10
92.826138685
 20
139.6079552033
 30
0.0
 10
92.5639551082
 20
139.1024802133
 30
0.0
 10
92.5032861089
 20
138.7424521896
 30
0.0
 10
92.5032861089
 20
138.5692833284
 30
0.0
  0
SPLINE
  5
591
100
AcDbEntity
  8
0
100
AcDbSpline
 62
7
  6
CONTINUOUS
 70
0
 71
3
 72
14
 73
10
 74
0
 42
0.0000001
 43
0.0000001
 44
0.0000000001
 40
0.0
 40
0.0
 40
0.0
 40
0.0
 40
0.4357256516
 40
0.7481500021
 40
0.8571116685
 40
0.9345123636
 40
0.9615060178
 40
0.9809064043
 40
1.0
 40
1.0
 40
1.0
 40
1.0
 10
140.1622394585
 20
112.3451946441
 30
0.0
 10
140.1918653076
 20
112.2232498652
 30
0.0
 10
140.2409432541
 20
112.0133472277
 30
0.0
 10
140.2915687902
 20
111.7719201382
 30
0.0
 10
140.3140085893
 20
111.6296262074
 30
0.0
 10
140.321164065
 20
111.569131071
 30
0.0
 10
140.3213270511
 20
111.5325567332
 30
0.0
 10
140.320572864
 20
111.5153750273
 30
0.0
 10
140.3149385305
 20
111.500875133
 30
0.0
 10
140.3094395851
 20
111.5009141323
 30
0.0
  0
SPLINE
  5
592
100
AcDbEntity
  8
BEZUGSACHSEN
100
AcDbSpline
 62
7
  6
CONTINUOUS
 70
0
 71
3
 72
15
 73
11
 74
0
 42
0.0000001
 43
0.0000001
 44
0.0000000001
 40
0.0
 40
0.0
 40
0.0
 40
0.0
 40
0.1215273364
 40
0.245330401
 40
0.3717992295
 40
0.5
 40
0.6282007705
 40
0.754669599
 40
0.8784726636
 40
1.0
 40
1.0
 40
1.0
 40
1.0
 10
105.3774642504
 20
134.1881340603
 30
0.0
 10
105.334899576
 20
134.4646887969
 30
0.0
 10
105.1395870754
 20
135.0115247766
 30
0.0
 10
104.5669756319
 20
135.6718845569
 30
0.0
 10
103.7889988776
 20
136.1020319658
 30
0.0
 10
102.9032861089
 20
136.2508923881
 30
0.0
 10
102.0175733401
 20
136.1020319658
 30
0.0
 10
101.2395965858
 20
135.6718845569
 30
0.0
 10
100.6669851423
 20
135.0115247766
 30
0.0
 10
100.4716726417
 20
134.4646887969
 30
0.0
 10
100.4291079673
 20
134.1881340603
 30
0.0
  0
SPLINE
  5
593
100
AcDbEntity
  8
RUNDUNGEN
100
AcDbSpline
 62
7
  6
CONTINUOUS
 70
0
 71
3
 72
14
 73
10
 74
0
 42
0.0000001
 43
0.0000001
 44
0.0000000001
 40
0.0
 40
0.0
 40
0.0
 40
0.0
 40
0.0909423886
 40
0.1878748711
 40
0.2952153255
 40
0.4151663029
 40
0.5478761242
 40
0.6917874159
 40
1.0
 40
1.0
 40
1.0
 40
1.0
 10
149.5032861089
 20
142.9402390742
 30
0.0
 10
149.5032861089
 20
143.1134079355
 30
0.0
 10
149.4426171095
 20
143.4734359592
 30
0.0
 10
149.1804335327
 20
143.9789109492
 30
0.0
 10
148.7617839848
 20
144.4402792976
 30
0.0
 10
148.2025221049
 20
144.843523468
 30
0.0
 10
147.5208097439
 20
145.1757914938
 30
0.0
 10
146.4570518726
 20
145.5140927051
 30
0.0
 10
145.5901721919
 20
145.6123841741
 30
0.0
 10
145.0032861089
 20
145.6123841741
 30
0.0
  0
ELLIPSE
  5
594
100
AcDbEntity
  8
0
100
AcDbEllipse
 62
7
  6
CONTINUOUS
 10
499.269712007
 20
148.1737271852
 30
0.0
 11
-3.1748063182
 21
5.7403458216
 31
0.0
 40
0.4994016261
 41
-1.6492465757
 42
-0.4286154991
  0
ELLIPSE
  5
595
100
AcDbEntity
  8
RUNDUNGEN
100
AcDbEllipse
 62
7
  6
CONTINUOUS
 10
513.2095152704
 20
153.2474006446
 30
0.0
 11
-1.2577804314
 21
6.4380861827
 31
0.0
 40
0.4994016261
 41
0.4286154991
 42
1.6492465757
  0
ELLIPSE
  5
596
100
AcDbEntity
  8
0
100
AcDbEllipse
 62
7
  6
CONTINUOUS
 10
453.6980103317
 20
148.1737271852
 30
0.0
 11
3.1748063182
 21
5.7403458216
 31
0.0
 40
0.4994016261
 41
0.4286154991
 42
1.6492465757
  0
ELLIPSE
  5
597
100
AcDbEntity
  8
RUNDUNGEN
100
AcDbEllipse
 62
7
  6
CONTINUOUS
 10
439.7582070683
 20
153.2474006446
 30
0.0
 11
1.2577804314
 21
6.4380861827
 31
0.0
 40
0.4994016261
 41
-1.6492465757
 42
-0.4286154991
  0
ELLIPSE
  5
598
100
AcDbEntity
  8
KONSTRUKTIONSELEMENTE
100
AcDbEllipse
 62
7
  6
CONTINUOUS
 10
121.0032861089
 20
145.3607893825
 30
0.0
 11
6.25
 21
-0.0
 31
0.0
 40
0.742227199
 41
3.08733039
 42
3.1415926536
  0
ELLIPSE
  5
599
100
AcDbEntity
  8
KONSTRUKTIONSELEMENTE
100
AcDbEllipse
 62
7
  6
CONTINUOUS
 10
121.0032861089
 20
145.3607893825
 30
0.0
 11
6.25
 21
0.0
 31
0.0
 40
0.742227199
 41
-0.0
 42
0.0542622636
  0
ELLIPSE
  5
59A
100
AcDbEntity
  8
0
100
AcDbEllipse
 62
7
  6
CONTINUOUS
 10
153.5046707242
 20
125.5008913351
 30
0.0
 11
8.3350075345
 21
13.9391800383
 31
0.0
 40
0.1563953738
 41
-3.3974122484
 42
-3.2345538567
  0
ELLIPSE
  5
59B
100
AcDbEntity
  8
RUNDUNGEN
100
AcDbEllipse
 62
7
  6
CONTINUOUS
 10
153.5046707242
 20
126.116527593
 30
0.0
 11
8.3350075345
 21
13.9391800383
 31
0.0
 40
0.1563953738
 41
-3.56027064
 42
-3.3974122484
  0
ENDSEC
  0
SECTION
  2
OBJECTS
  0
DICTIONARY
  5
C
100
AcDbDictionary
280
0
281
1
  3
ACAD_GROUP
350
D
  3
ACAD_MLINESTYLE
350
17
  3
ACAD_LAYOUT
350
1A
  3
ACAD_PLOTSETTINGS
350
19
  3
ACAD_PLOTSTYLENAME
350
E
  0
DICTIONARY
  5
D
102
{ACAD_REACTORS
330
C
102
}
100
AcDbDictionary
280
0
281
1
  0
ACDBDICTIONARYWDFLT
  5
E
102
{ACAD_REACTORS
330
C
102
}
100
AcDbDictionary
281
1
  3
Normal
350
F
100
AcDbDictionaryWithDefault
340
F
  0
DICTIONARY
  5
17
102
{ACAD_REACTORS
330
C
102
}
100
AcDbDictionary
280
0
281
1
  3
Standard
350
18
  0
DICTIONARY
  5
19
102
{ACAD_REACTORS
330
C
102
}
100
AcDbDictionary
281
1
  0
DICTIONARY
  5
1A
102
{ACAD_REACTORS
330
C
102
}
100
AcDbDictionary
281
1
  3
Model
350
59C
  3
Layout1
350
59D
  0
ACDBPLACEHOLDER
  5
F
102
{ACAD_REACTORS
330
E
102
}
  0
MLINESTYLE
  5
18
102
{ACAD_REACTORS
330
17
102
}
100
AcDbMlineStyle
  2
STANDARD
 70
0
  3

 62
256
 51
90.0
 52
90.0
 71
2
 49
0.5
 62
256
  6
BYLAYER
 49
-0.5
 62
256
  6
BYLAYER
  0
LAYOUT
  5
59C
102
{ACAD_REACTORS
330
1A
102
}
100
AcDbPlotSettings
  1

  2
none_device
  4
ISO_A2_(594.00_x_420.00_MM)
  6

 40
0.0
 41
0.0
 42
0.0
 43
0.0
 44
594.0
 45
420.0
 46
0.0
 47
0.0
 48
0.0
 49
0.0
140
0.0
141
0.0
142
1.0
143
1.0
 70
1024
 72
1
 73
0
 74
0
  7

 75
0
147
1.0
148
0.0
149
0.0
100
AcDbLayout
  1
Model
 70
0
 71
0
 10
0.0
 20
0.0
 11
594.0
 21
420.0
 12
0.0
 22
0.0
 32
0.0
 14
0.0
 24
0.0
 34
0.0
 15
0.0
 25
0.0
 35
0.0
146
0.0
 13
0.0
 23
0.0
 33
0.0
 16
1.0
 26
0.0
 36
0.0
 17
0.0
 27
1.0
 37
0.0
 76
0
330
20A
345
0
346
0
  0
LAYOUT
  5
59D
102
{ACAD_REACTORS
330
1A
102
}
100
AcDbPlotSettings
  1

  2
none_device
  4
ISO_A2_(594.00_x_420.00_MM)
  6

 40
0.0
 41
0.0
 42
0.0
 43
0.0
 44
594.0
 45
420.0
 46
0.0
 47
0.0
 48
0.0
 49
0.0
140
0.0
141
0.0
142
1.0
143
1.0
 70
0
 72
1
 73
0
 74
0
  7

 75
0
147
1.0
148
0.0
149
0.0
100
AcDbLayout
  1
Layout1
 70
0
 71
1
 10
0.0
 20
0.0
 11
594.0
 21
420.0
 12
0.0
 22
0.0
 32
0.0
 14
0.0
 24
0.0
 34
0.0
 15
0.0
 25
0.0
 35
0.0
146
0.0
 13
0.0
 23
0.0
 33
0.0
 16
1.0
 26
0.0
 36
0.0
 17
0.0
 27
1.0
 37
0.0
 76
0
330
20B
345
0
346
0
  0
ENDSEC
  0
EOF
