999
DXF file: ISAK-RG-1-8_250_7903190_M34585-P-9.dxf
999
Pro/ENGINEER 2010140 by Parametric Technology Corporation
  0
SECTION
  2
HEADER
  9
$ACADVER
  1
AC1015
  9
$DWGCODEPAGE
  3
ANSI_1252
  9
$EXTMAX
 10
1189.0
 20
841.0
 30
0.0
  9
$EXTMIN
 10
0.0
 20
0.0
 30
0.0
  9
$LIMMIN
 10
0.0
 20
0.0
  9
$LIMMAX
 10
1189.0
 20
841.0
  9
$VIEWCTR
 10
594.5
 20
420.5
  9
$VIEWSIZE
 40
841.0
  9
$CLAYER
  8
0
  9
$LTSCALE
 40
65.395
  9
$CELTYPE
  6
BYLAYER
  9
$DIMSCALE
 40
1.0
  9
$DIMASZ
 40
3.5
  9
$DIMEXO
 40
7.43125
  9
$DIMDLI
 40
45.182
  9
$DIMEXE
 40
21.402
  9
$DIMCEN
 40
10.701
  9
$DIMLFAC
 40
1.0
  9
$DIMBLK
  1
_FILLED
  9
$DIMTXT
 40
3.5
  9
$DIMTOL
 70
1
  9
$DIMLIM
 70
0
  9
$DIMTFAC
 40
1.0
  9
$DIMTP
 40
0.005
  9
$DIMTM
 40
0.005
  9
$PDMODE
 70
3
  9
$PDSIZE
 40
0.3125
  9
$HANDSEED
  5
4CB
  9
$TILEMODE
 70
1
  9
$MEASUREMENT
 70
1
  9
$INSUNITS
 70
4
  0
ENDSEC
  0
SECTION
  2
CLASSES
  0
CLASS
  1
ACDBDICTIONARYWDFLT
  2
AcDbDictionaryWithDefault
  3
AutoCAD 2000
 90
0
280
0
281
0
  0
CLASS
  1
ACDBPLACEHOLDER
  2
AcDbPlaceHolder
  3
AutoCAD 2000
 90
0
280
0
281
0
  0
CLASS
  1
LAYOUT
  2
AcDbLayout
  3
AutoCAD 2000
 90
0
280
0
281
0
  0
ENDSEC
  0
SECTION
  2
TABLES
  0
TABLE
  2
VPORT
  5
8
100
AcDbSymbolTable
 70
2
  0
VPORT
  5
1F4
100
AcDbSymbolTableRecord
100
AcDbViewportTableRecord
  2
*ACTIVE
 70
0
 10
0.0
 20
0.0
 11
1.0
 21
1.0
 12
594.5
 22
420.5
 13
0.0
 23
0.0
 14
1.0
 24
1.0
 15
0.0
 25
0.0
 16
0.0
 26
0.0
 36
1.0
 17
0.0
 27
0.0
 37
0.0
 40
841.0
 41
1.4137931034
 42
50.0
 43
0.0
 44
0.0
 50
0.0
 51
0.0
 71
0
 72
100
 73
1
 74
1
 75
0
 76
0
 77
0
 78
0
  0
ENDTAB
  0
TABLE
  2
LTYPE
  5
5
100
AcDbSymbolTable
 70
6
  0
LTYPE
  5
14
100
AcDbSymbolTableRecord
100
AcDbLinetypeTableRecord
  2
BYBLOCK
 70
0
  3

 72
65
 73
0
 40
0.0
  0
LTYPE
  5
15
100
AcDbSymbolTableRecord
100
AcDbLinetypeTableRecord
  2
BYLAYER
 70
0
  3

 72
65
 73
0
 40
0.0
  0
LTYPE
  5
16
100
AcDbSymbolTableRecord
100
AcDbLinetypeTableRecord
  2
CONTINUOUS
 70
64
  3
Solid line
 72
65
 73
0
 40
0.0
  0
LTYPE
  5
1F5
100
AcDbSymbolTableRecord
100
AcDbLinetypeTableRecord
  2
CENTER
 70
64
  3
____ _ ____ _ ____ _ ____ _ ____ _ ____ _ ____
 72
65
 73
4
 40
0.6
 49
0.375
 74
0
 49
-0.075
 74
0
 49
0.075
 74
0
 49
-0.075
 74
0
  0
LTYPE
  5
1F6
100
AcDbSymbolTableRecord
100
AcDbLinetypeTableRecord
  2
HIDDEN
 70
64
  3
- - - - - - - - - - - - - - - - - - - -
 72
65
 73
2
 40
0.2
 49
0.1
 74
0
 49
-0.1
 74
0
  0
LTYPE
  5
1F7
100
AcDbSymbolTableRecord
100
AcDbLinetypeTableRecord
  2
PHANTOM
 70
64
  3
_____ _ _ _____ _ _ _____ _ _ _____
 72
65
 73
6
 40
0.8
 49
0.45
 74
0
 49
-0.05
 74
0
 49
0.1
 74
0
 49
-0.05
 74
0
 49
0.1
 74
0
 49
-0.05
 74
0
  0
LTYPE
  5
1F8
100
AcDbSymbolTableRecord
100
AcDbLinetypeTableRecord
  2
DOT
 70
64
  3
. . . . . . . . . . . . . . . . . . . .
 72
65
 73
2
 40
0.2
 49
0.1
 74
0
 49
-0.1
 74
0
  0
LTYPE
  5
1F9
100
AcDbSymbolTableRecord
100
AcDbLinetypeTableRecord
  2
DASHED
 70
64
  3
- - - - - - - - - - - - - - - - - - - -
 72
65
 73
2
 40
0.2
 49
0.1
 74
0
 49
-0.1
 74
0
  0
ENDTAB
  0
TABLE
  2
LAYER
  5
2
100
AcDbSymbolTable
 70
36
  0
LAYER
  5
10
100
AcDbSymbolTableRecord
100
AcDbLayerTableRecord
  2
0
 70
0
 62
7
  6
CONTINUOUS
370
-3
390
F
  0
LAYER
  5
1FA
100
AcDbSymbolTableRecord
100
AcDbLayerTableRecord
  2
DEFAULT_1
 70
0
 62
7
  6
CENTER
370
-3
390
F
  0
LAYER
  5
1FB
100
AcDbSymbolTableRecord
100
AcDbLayerTableRecord
  2
DEFAULT_2
 70
0
 62
8
  6
HIDDEN
370
-3
390
F
  0
LAYER
  5
1FC
100
AcDbSymbolTableRecord
100
AcDbLayerTableRecord
  2
DEFAULT_3
 70
0
 62
7
  6
PHANTOM
370
-3
390
F
  0
LAYER
  5
1FD
100
AcDbSymbolTableRecord
100
AcDbLayerTableRecord
  2
BEZUGSACHSEN
 70
0
 62
7
  6
CONTINUOUS
370
-3
390
F
  0
LAYER
  5
1FE
100
AcDbSymbolTableRecord
100
AcDbLayerTableRecord
  2
BEZUGSEBENEN
 70
0
 62
7
  6
CONTINUOUS
370
-3
390
F
  0
LAYER
  5
1FF
100
AcDbSymbolTableRecord
100
AcDbLayerTableRecord
  2
BG_STARTBEZUEGE
 70
0
 62
7
  6
CONTINUOUS
370
-3
390
F
  0
LAYER
  5
200
100
AcDbSymbolTableRecord
100
AcDbLayerTableRecord
  2
FASEN
 70
0
 62
7
  6
CONTINUOUS
370
-3
390
F
  0
LAYER
  5
201
100
AcDbSymbolTableRecord
100
AcDbLayerTableRecord
  2
HILFEN
 70
0
 62
7
  6
CONTINUOUS
370
-3
390
F
  0
LAYER
  5
202
100
AcDbSymbolTableRecord
100
AcDbLayerTableRecord
  2
KONSTRUKTIONSELEMENTE
 70
0
 62
7
  6
CONTINUOUS
370
-3
390
F
  0
LAYER
  5
203
100
AcDbSymbolTableRecord
100
AcDbLayerTableRecord
  2
NORM
 70
0
 62
7
  6
CONTINUOUS
370
-3
390
F
  0
LAYER
  5
204
100
AcDbSymbolTableRecord
100
AcDbLayerTableRecord
  2
PLATZIERUNG
 70
0
 62
7
  6
CONTINUOUS
370
-3
390
F
  0
LAYER
  5
205
100
AcDbSymbolTableRecord
100
AcDbLayerTableRecord
  2
RUNDUNGEN
 70
0
 62
7
  6
CONTINUOUS
370
-3
390
F
  0
LAYER
  5
206
100
AcDbSymbolTableRecord
100
AcDbLayerTableRecord
  2
TEIL_STARTBEZUEGE
 70
0
 62
7
  6
CONTINUOUS
370
-3
390
F
  0
LAYER
  5
207
100
AcDbSymbolTableRecord
100
AcDbLayerTableRecord
  2
T_STARTBEZUEGE
 70
0
 62
7
  6
CONTINUOUS
370
-3
390
F
  0
ENDTAB
  0
TABLE
  2
STYLE
  5
3
100
AcDbSymbolTable
 70
1
  0
STYLE
  5
11
100
AcDbSymbolTableRecord
100
AcDbTextStyleTableRecord
  2
STANDARD
 70
0
 40
0.0
 41
0.7
 50
0.0
 71
0
 42
0.2
  3
txt
  4

  0
STYLE
  5
208
100
AcDbSymbolTableRecord
100
AcDbTextStyleTableRecord
  2
TEXTSTYLE_1
 70
0
 40
0.0
 41
0.8
 50
0.0
 71
0
 42
0.2
  3
gdt
  4

  0
ENDTAB
  0
TABLE
  2
VIEW
  5
6
100
AcDbSymbolTable
 70
0
  0
ENDTAB
  0
TABLE
  2
UCS
  5
7
100
AcDbSymbolTable
 70
0
  0
ENDTAB
  0
TABLE
  2
APPID
  5
9
100
AcDbSymbolTable
 70
1
  0
APPID
  5
209
100
AcDbSymbolTableRecord
100
AcDbRegAppTableRecord
  2
ACAD
 70
0
  0
ENDTAB
  0
TABLE
  2
BLOCK_RECORD
  5
1
100
AcDbSymbolTable
 70
0
  0
BLOCK_RECORD
  5
20A
100
AcDbSymbolTableRecord
100
AcDbBlockTableRecord
  2
*Model_Space
  0
BLOCK_RECORD
  5
20B
100
AcDbSymbolTableRecord
100
AcDbBlockTableRecord
  2
*Paper_Space
  0
ENDTAB
  0
TABLE
  2
DIMSTYLE
  5
A
100
AcDbSymbolTable
 70
1
100
AcDbDimStyleTable
 71
0
  0
DIMSTYLE
105
20C
100
AcDbSymbolTableRecord
100
AcDbDimStyleTableRecord
  2
STANDARD
 70
0
  3

  4

 40
1.0
 41
3.5
 42
0.0625
 43
0.38
 44
0.18
 45
0.0
 46
0.0
 47
0.005
 48
0.005
140
3.5
141
0.09
142
0.0
143
25.4
144
1.0
145
0.0
146
1.0
147
0.09
 71
1.0
 72
0.0
 73
0
 74
0
 75
0
 76
0
 77
1
 78
8
170
0
171
2
172
0
173
0
174
0
175
0
176
0
177
0
178
5
270
2
271
3
272
3
273
2
274
2
275
0
280
0
281
0
282
0
283
1
284
8
285
0
286
0
287
3
288
0
340
11
  0
ENDTAB
  0
ENDSEC
  0
SECTION
  2
BLOCKS
  0
BLOCK
  5
20
100
AcDbEntity
  8
0
100
AcDbBlockBegin
  2
*Model_Space
 70
0
 10
0.0
 20
0.0
 30
0.0
  3
*Model_Space
  1

  0
ENDBLK
  5
21
100
AcDbEntity
  8
0
100
AcDbBlockEnd
  0
BLOCK
  5
1C
100
AcDbEntity
  8
0
100
AcDbBlockBegin
  2
*Paper_Space
 70
0
 10
0.0
 20
0.0
 30
0.0
  3
*Paper_Space
  1

  0
ENDBLK
  5
1D
100
AcDbEntity
  8
0
100
AcDbBlockEnd
  0
ENDSEC
  0
SECTION
  2
ENTITIES
  0
MTEXT
  5
20D
100
AcDbEntity
  8
0
100
AcDbMText
 62
5
  6
CONTINUOUS
  7
STANDARD
 71
1
 72
1
 10
666.6614593985
 20
475.9230945281
 30
0.0
 11
0.0
 21
1.0
 31
0.0
 44
0.9
  1
RUD
 40
11.0
 41
29.3333333333
  0
MTEXT
  5
20E
100
AcDbEntity
  8
0
100
AcDbMText
 62
5
  6
CONTINUOUS
  7
STANDARD
 71
1
 72
1
 10
954.2156861846
 20
439.0874069713
 30
0.0
 11
0.0
 21
1.0
 31
0.0
 44
0.9
  1
ISAK-RG 1-8/250
 40
11.0
 41
125.9761904762
  0
MTEXT
  5
20F
100
AcDbEntity
  8
0
100
AcDbMText
 62
5
  6
CONTINUOUS
  7
STANDARD
 71
1
 72
1
 10
371.4235171023
 20
411.3531239449
 30
0.0
 11
0.0
 21
1.0
 31
0.0
 44
0.9
  1
RUD ISAK-RG 1-8/250
 40
11.0
 41
161.8571428571
  0
LINE
  5
210
100
AcDbEntity
  8
0
100
AcDbLine
 62
7
  6
CONTINUOUS
 10
0.0
 20
0.0
 11
0.0
 21
841.0
  0
LINE
  5
211
100
AcDbEntity
  8
0
100
AcDbLine
 62
7
  6
CONTINUOUS
 10
0.0
 20
0.0
 11
1189.0
 21
0.0
  0
LINE
  5
212
100
AcDbEntity
  8
0
100
AcDbLine
 62
7
  6
CONTINUOUS
 10
0.0
 20
841.0
 11
1189.0
 21
841.0
  0
LINE
  5
213
100
AcDbEntity
  8
0
100
AcDbLine
 62
7
  6
CONTINUOUS
 10
1189.0
 20
0.0
 11
1189.0
 21
841.0
  0
LINE
  5
214
100
AcDbEntity
  8
RUNDUNGEN
100
AcDbLine
 62
7
  6
CONTINUOUS
 10
792.3735251913
 20
38.4245055862
 11
794.9735251913
 21
38.4245055862
  0
LINE
  5
215
100
AcDbEntity
  8
RUNDUNGEN
100
AcDbLine
 62
7
  6
CONTINUOUS
 10
836.7735251913
 20
38.4245055862
 11
839.3735251913
 21
38.4245055862
  0
LINE
  5
216
100
AcDbEntity
  8
RUNDUNGEN
100
AcDbLine
 62
7
  6
CONTINUOUS
 10
798.9735251913
 20
45.4955733981
 11
804.4232353329
 21
45.4955733981
  0
LINE
  5
217
100
AcDbEntity
  8
RUNDUNGEN
100
AcDbLine
 62
7
  6
CONTINUOUS
 10
827.3238150498
 20
45.4955733981
 11
832.7735251913
 21
45.4955733981
  0
LINE
  5
218
100
AcDbEntity
  8
0
100
AcDbLine
 62
7
  6
CONTINUOUS
 10
804.6837110031
 20
78.3053280451
 11
808.5237110031
 21
78.3053280451
  0
LINE
  5
219
100
AcDbEntity
  8
0
100
AcDbLine
 62
7
  6
CONTINUOUS
 10
810.5603520443
 20
78.3053280451
 11
811.3283520443
 21
78.3053280451
  0
LINE
  5
21A
100
AcDbEntity
  8
0
100
AcDbLine
 62
7
  6
CONTINUOUS
 10
814.9867151779
 20
78.3053280451
 11
815.8735251913
 21
78.3053280451
  0
LINE
  5
21B
100
AcDbEntity
  8
0
100
AcDbLine
 62
7
  6
CONTINUOUS
 10
822.5556603328
 20
78.3053280451
 11
825.3380339869
 21
78.3053280451
  0
LINE
  5
21C
100
AcDbEntity
  8
0
100
AcDbLine
 62
7
  6
CONTINUOUS
 10
804.6837110031
 20
78.5881707576
 11
808.5237110031
 21
78.5881707576
  0
LINE
  5
21D
100
AcDbEntity
  8
0
100
AcDbLine
 62
7
  6
CONTINUOUS
 10
810.5603520443
 20
78.5881707576
 11
811.3283520443
 21
78.5881707576
  0
LINE
  5
21E
100
AcDbEntity
  8
0
100
AcDbLine
 62
7
  6
CONTINUOUS
 10
814.9867151779
 20
78.5881707576
 11
815.6425850837
 21
78.5881707576
  0
LINE
  5
21F
100
AcDbEntity
  8
0
100
AcDbLine
 62
7
  6
CONTINUOUS
 10
822.5556603328
 20
78.5881707576
 11
825.3380339869
 21
78.5881707576
  0
LINE
  5
220
100
AcDbEntity
  8
0
100
AcDbLine
 62
7
  6
CONTINUOUS
 10
825.3548631692
 20
78.8710134701
 11
823.3236603328
 21
78.8710134701
  0
LINE
  5
221
100
AcDbEntity
  8
0
100
AcDbLine
 62
7
  6
CONTINUOUS
 10
807.2037110031
 20
78.9841505551
 11
806.0037110031
 21
78.9841505551
  0
LINE
  5
222
100
AcDbEntity
  8
0
100
AcDbLine
 62
7
  6
CONTINUOUS
 10
806.2197110031
 20
79.2387089963
 11
806.9877110031
 21
79.2387089963
  0
LINE
  5
223
100
AcDbEntity
  8
0
100
AcDbLine
 62
7
  6
CONTINUOUS
 10
806.2197110031
 20
79.5215517088
 11
806.9877110031
 21
79.5215517088
  0
LINE
  5
224
100
AcDbEntity
  8
0
100
AcDbLine
 62
7
  6
CONTINUOUS
 10
806.6877110031
 20
79.9175315062
 11
806.5197110031
 21
79.9175315062
  0
LINE
  5
225
100
AcDbEntity
  8
0
100
AcDbLine
 62
7
  6
CONTINUOUS
 10
806.9877110031
 20
80.0872371337
 11
806.7837110031
 21
80.0872371337
  0
LINE
  5
226
100
AcDbEntity
  8
0
100
AcDbLine
 62
7
  6
CONTINUOUS
 10
806.4237110031
 20
80.0872371337
 11
806.2197110031
 21
80.0872371337
  0
LINE
  5
227
100
AcDbEntity
  8
0
100
AcDbLine
 62
7
  6
CONTINUOUS
 10
806.0037110031
 20
80.341795575
 11
806.4237110031
 21
80.341795575
  0
LINE
  5
228
100
AcDbEntity
  8
0
100
AcDbLine
 62
7
  6
CONTINUOUS
 10
806.7837110031
 20
80.341795575
 11
807.2037110031
 21
80.341795575
  0
LINE
  5
229
100
AcDbEntity
  8
0
100
AcDbLine
 62
7
  6
CONTINUOUS
 10
811.3283520443
 20
80.4343793776
 11
813.2483520443
 21
80.4343793776
  0
LINE
  5
22A
100
AcDbEntity
  8
0
100
AcDbLine
 62
7
  6
CONTINUOUS
 10
806.0037110031
 20
80.6246382874
 11
806.4237110031
 21
80.6246382874
  0
LINE
  5
22B
100
AcDbEntity
  8
0
100
AcDbLine
 62
7
  6
CONTINUOUS
 10
806.7837110031
 20
80.6246382874
 11
807.2037110031
 21
80.6246382874
  0
LINE
  5
22C
100
AcDbEntity
  8
0
100
AcDbLine
 62
7
  6
CONTINUOUS
 10
807.2037110031
 20
80.6812068299
 11
806.7837110031
 21
80.6812068299
  0
LINE
  5
22D
100
AcDbEntity
  8
0
100
AcDbLine
 62
7
  6
CONTINUOUS
 10
806.4237110031
 20
80.6812068299
 11
806.0037110031
 21
80.6812068299
  0
LINE
  5
22E
100
AcDbEntity
  8
0
100
AcDbLine
 62
7
  6
CONTINUOUS
 10
811.3283520443
 20
80.71722209
 11
813.2483520443
 21
80.71722209
  0
LINE
  5
22F
100
AcDbEntity
  8
0
100
AcDbLine
 62
7
  6
CONTINUOUS
 10
806.2197110031
 20
80.9357652712
 11
806.4237110031
 21
80.9357652712
  0
LINE
  5
230
100
AcDbEntity
  8
0
100
AcDbLine
 62
7
  6
CONTINUOUS
 10
806.7837110031
 20
80.9357652712
 11
806.9877110031
 21
80.9357652712
  0
LINE
  5
231
100
AcDbEntity
  8
0
100
AcDbLine
 62
7
  6
CONTINUOUS
 10
813.5683520443
 20
80.9774373855
 11
811.3283520443
 21
80.9774373855
  0
LINE
  5
232
100
AcDbEntity
  8
0
100
AcDbLine
 62
7
  6
CONTINUOUS
 10
806.5197110031
 20
81.1054708986
 11
806.6877110031
 21
81.1054708986
  0
LINE
  5
233
100
AcDbEntity
  8
0
100
AcDbLine
 62
7
  6
CONTINUOUS
 10
806.2197110031
 20
81.2186079836
 11
806.4237110031
 21
81.2186079836
  0
LINE
  5
234
100
AcDbEntity
  8
0
100
AcDbLine
 62
7
  6
CONTINUOUS
 10
806.7837110031
 20
81.2186079836
 11
806.9877110031
 21
81.2186079836
  0
LINE
  5
235
100
AcDbEntity
  8
0
100
AcDbLine
 62
7
  6
CONTINUOUS
 10
806.5197110031
 20
81.3883136111
 11
806.6877110031
 21
81.3883136111
  0
LINE
  5
236
100
AcDbEntity
  8
0
100
AcDbLine
 62
7
  6
CONTINUOUS
 10
823.3236603328
 20
81.6994405948
 11
822.5556603328
 21
81.6994405948
  0
LINE
  5
237
100
AcDbEntity
  8
0
100
AcDbLine
 62
7
  6
CONTINUOUS
 10
811.3283520443
 20
81.7277248661
 11
810.5603520443
 21
81.7277248661
  0
LINE
  5
238
100
AcDbEntity
  8
0
100
AcDbLine
 62
7
  6
CONTINUOUS
 10
806.9877110031
 20
81.7842934086
 11
806.2197110031
 21
81.7842934086
  0
LINE
  5
239
100
AcDbEntity
  8
0
100
AcDbLine
 62
7
  6
CONTINUOUS
 10
806.0037110031
 20
82.0388518498
 11
807.2037110031
 21
82.0388518498
  0
LINE
  5
23A
100
AcDbEntity
  8
0
100
AcDbLine
 62
7
  6
CONTINUOUS
 10
822.5556603328
 20
82.1746163518
 11
825.3548631692
 21
82.1746163518
  0
LINE
  5
23B
100
AcDbEntity
  8
0
100
AcDbLine
 62
7
  6
CONTINUOUS
 10
810.5603520443
 20
82.202900623
 11
813.5683520443
 21
82.202900623
  0
LINE
  5
23C
100
AcDbEntity
  8
0
100
AcDbLine
 62
7
  6
CONTINUOUS
 10
806.0037110031
 20
82.3216945623
 11
807.2037110031
 21
82.3216945623
  0
LINE
  5
23D
100
AcDbEntity
  8
0
100
AcDbLine
 62
7
  6
CONTINUOUS
 10
822.5556603328
 20
82.4574590643
 11
825.3548631692
 21
82.4574590643
  0
LINE
  5
23E
100
AcDbEntity
  8
0
100
AcDbLine
 62
7
  6
CONTINUOUS
 10
810.5603520443
 20
82.4857433355
 11
813.5683520443
 21
82.4857433355
  0
LINE
  5
23F
100
AcDbEntity
  8
0
100
AcDbLine
 62
7
  6
CONTINUOUS
 10
825.3380339869
 20
82.7176743597
 11
822.5556603328
 21
82.7176743597
  0
LINE
  5
240
100
AcDbEntity
  8
0
100
AcDbLine
 62
7
  6
CONTINUOUS
 10
820.8756603328
 20
82.7176743597
 11
820.1076603328
 21
82.7176743597
  0
LINE
  5
241
100
AcDbEntity
  8
0
100
AcDbLine
 62
7
  6
CONTINUOUS
 10
817.0883520443
 20
82.7176743597
 11
816.3203520443
 21
82.7176743597
  0
LINE
  5
242
100
AcDbEntity
  8
0
100
AcDbLine
 62
7
  6
CONTINUOUS
 10
813.5683520443
 20
82.7176743597
 11
810.5603520443
 21
82.7176743597
  0
LINE
  5
243
100
AcDbEntity
  8
0
100
AcDbLine
 62
7
  6
CONTINUOUS
 10
808.5237110031
 20
82.7176743597
 11
804.6837110031
 21
82.7176743597
  0
LINE
  5
244
100
AcDbEntity
  8
KONSTRUKTIONSELEMENTE
100
AcDbLine
 62
7
  6
CONTINUOUS
 10
835.1823251913
 20
121.8445991651
 11
831.5972466921
 21
121.8445991651
  0
LINE
  5
245
100
AcDbEntity
  8
0
100
AcDbLine
 62
7
  6
CONTINUOUS
 10
831.5972466921
 20
121.8445991651
 11
831.5622699981
 21
121.8445991651
  0
LINE
  5
246
100
AcDbEntity
  8
0
100
AcDbLine
 62
7
  6
CONTINUOUS
 10
800.1847803845
 20
121.8445991651
 11
800.1498036905
 21
121.8445991651
  0
LINE
  5
247
100
AcDbEntity
  8
KONSTRUKTIONSELEMENTE
100
AcDbLine
 62
7
  6
CONTINUOUS
 10
800.1498036905
 20
121.8445991651
 11
796.5647251913
 21
121.8445991651
  0
LINE
  5
248
100
AcDbEntity
  8
BEZUGSACHSEN
100
AcDbLine
 62
7
  6
CONTINUOUS
 10
810.8735251913
 20
130.1945991651
 11
820.8735251913
 21
130.1945991651
  0
LINE
  5
249
100
AcDbEntity
  8
BEZUGSACHSEN
100
AcDbLine
 62
7
  6
CONTINUOUS
 10
810.8735251913
 20
133.2135347417
 11
820.8735251913
 21
133.2135347417
  0
LINE
  5
24A
100
AcDbEntity
  8
BEZUGSACHSEN
100
AcDbLine
 62
7
  6
CONTINUOUS
 10
810.8735251913
 20
138.4756635884
 11
820.8735251913
 21
138.4756635884
  0
LINE
  5
24B
100
AcDbEntity
  8
RUNDUNGEN
100
AcDbLine
 62
7
  6
CONTINUOUS
 10
831.2756236881
 20
87.2758785202
 11
822.7564424275
 21
91.493908312
  0
LINE
  5
24C
100
AcDbEntity
  8
RUNDUNGEN
100
AcDbLine
 62
7
  6
CONTINUOUS
 10
822.7564424275
 20
95.0294422179
 11
831.2756236881
 21
90.8114124261
  0
LINE
  5
24D
100
AcDbEntity
  8
RUNDUNGEN
100
AcDbLine
 62
7
  6
CONTINUOUS
 10
851.4969754468
 20
92.4097162483
 11
845.5990807279
 21
95.3298907195
  0
LINE
  5
24E
100
AcDbEntity
  8
0
100
AcDbLine
 62
7
  6
CONTINUOUS
 10
808.285158018
 20
150.8856963004
 11
807.9673049878
 21
150.8045422676
  0
LINE
  5
24F
100
AcDbEntity
  8
0
100
AcDbLine
 62
7
  6
CONTINUOUS
 10
804.4709184727
 20
150.8856963004
 11
804.1530649878
 21
150.8045422676
  0
LINE
  5
250
100
AcDbEntity
  8
0
100
AcDbLine
 62
7
  6
CONTINUOUS
 10
832.8283793876
 20
150.3176180134
 11
833.17442721
 21
150.3987720534
  0
LINE
  5
251
100
AcDbEntity
  8
0
100
AcDbLine
 62
7
  6
CONTINUOUS
 10
826.5302992793
 20
150.3176180134
 11
826.8763474976
 21
150.3987720534
  0
LINE
  5
252
100
AcDbEntity
  8
0
100
AcDbLine
 62
7
  6
CONTINUOUS
 10
832.4823307733
 20
154.1318580134
 11
832.1362821589
 21
154.0507039806
  0
LINE
  5
253
100
AcDbEntity
  8
0
100
AcDbLine
 62
7
  6
CONTINUOUS
 10
825.9074122486
 20
154.1318580134
 11
825.5613636343
 21
154.0507039806
  0
LINE
  5
254
100
AcDbEntity
  8
0
100
AcDbLine
 62
7
  6
CONTINUOUS
 10
807.9673049878
 20
150.3176180134
 11
808.3646219576
 21
150.3987720534
  0
LINE
  5
255
100
AcDbEntity
  8
0
100
AcDbLine
 62
7
  6
CONTINUOUS
 10
804.1530649878
 20
150.3176180134
 11
804.5503815029
 21
150.3987720534
  0
LINE
  5
256
100
AcDbEntity
  8
BEZUGSACHSEN
100
AcDbLine
 62
7
  6
CONTINUOUS
 10
810.8735251913
 20
141.4945991651
 11
820.8735251913
 21
141.4945991651
  0
LINE
  5
257
100
AcDbEntity
  8
RUNDUNGEN
100
AcDbLine
 62
7
  6
CONTINUOUS
 10
796.4735251913
 20
143.8445991651
 11
806.8630355434
 21
143.8445991651
  0
LINE
  5
258
100
AcDbEntity
  8
RUNDUNGEN
100
AcDbLine
 62
7
  6
CONTINUOUS
 10
824.8840148393
 20
143.8445991651
 11
835.2735251913
 21
143.8445991651
  0
LINE
  5
259
100
AcDbEntity
  8
RUNDUNGEN
100
AcDbLine
 62
7
  6
CONTINUOUS
 10
835.2735251913
 20
149.0407515878
 11
820.0452902641
 21
149.0407515878
  0
LINE
  5
25A
100
AcDbEntity
  8
RUNDUNGEN
100
AcDbLine
 62
7
  6
CONTINUOUS
 10
811.7017601185
 20
149.0407515878
 11
796.4735251913
 21
149.0407515878
  0
LINE
  5
25B
100
AcDbEntity
  8
0
100
AcDbLine
 62
7
  6
CONTINUOUS
 10
798.9084849878
 20
150.3176180134
 11
799.3852649878
 21
150.3176180134
  0
LINE
  5
25C
100
AcDbEntity
  8
0
100
AcDbLine
 62
7
  6
CONTINUOUS
 10
801.3718482453
 20
150.3176180134
 11
801.9280917302
 21
150.3176180134
  0
LINE
  5
25D
100
AcDbEntity
  8
0
100
AcDbLine
 62
7
  6
CONTINUOUS
 10
803.8352115029
 20
150.3176180134
 11
804.1530649878
 21
150.3176180134
  0
LINE
  5
25E
100
AcDbEntity
  8
0
100
AcDbLine
 62
7
  6
CONTINUOUS
 10
806.0601849878
 20
150.3176180134
 11
807.9673049878
 21
150.3176180134
  0
LINE
  5
25F
100
AcDbEntity
  8
0
100
AcDbLine
 62
7
  6
CONTINUOUS
 10
820.6474771913
 20
150.3176180134
 11
821.0627352117
 21
150.3176180134
  0
LINE
  5
260
100
AcDbEntity
  8
0
100
AcDbLine
 62
7
  6
CONTINUOUS
 10
821.6164125393
 20
150.3176180134
 11
822.0316705597
 21
150.3176180134
  0
LINE
  5
261
100
AcDbEntity
  8
0
100
AcDbLine
 62
7
  6
CONTINUOUS
 10
823.7619123445
 20
150.3176180134
 11
824.246380167
 21
150.3176180134
  0
LINE
  5
262
100
AcDbEntity
  8
0
100
AcDbLine
 62
7
  6
CONTINUOUS
 10
825.9074122486
 20
150.3176180134
 11
826.5302992793
 21
150.3176180134
  0
LINE
  5
263
100
AcDbEntity
  8
0
100
AcDbLine
 62
7
  6
CONTINUOUS
 10
832.4131213672
 20
150.3176180134
 11
832.8283793876
 21
150.3176180134
  0
LINE
  5
264
100
AcDbEntity
  8
0
100
AcDbLine
 62
7
  6
CONTINUOUS
 10
832.7591691895
 20
150.7233882347
 11
832.4823307733
 21
150.7233882347
  0
LINE
  5
265
100
AcDbEntity
  8
0
100
AcDbLine
 62
7
  6
CONTINUOUS
 10
826.5302992793
 20
150.8045422676
 11
825.9074122486
 21
150.8045422676
  0
LINE
  5
266
100
AcDbEntity
  8
0
100
AcDbLine
 62
7
  6
CONTINUOUS
 10
807.9673049878
 20
150.8045422676
 11
806.5369649878
 21
150.8045422676
  0
LINE
  5
267
100
AcDbEntity
  8
0
100
AcDbLine
 62
7
  6
CONTINUOUS
 10
804.1530649878
 20
150.8045422676
 11
803.8352115029
 21
150.8045422676
  0
LINE
  5
268
100
AcDbEntity
  8
0
100
AcDbLine
 62
7
  6
CONTINUOUS
 10
826.4610894772
 20
151.9406988984
 11
827.0839765078
 21
151.9406988984
  0
LINE
  5
269
100
AcDbEntity
  8
0
100
AcDbLine
 62
7
  6
CONTINUOUS
 10
799.3852649878
 20
152.0218529312
 11
800.7361416165
 21
152.0218529312
  0
LINE
  5
26A
100
AcDbEntity
  8
0
100
AcDbLine
 62
7
  6
CONTINUOUS
 10
822.0316705597
 20
152.0218529312
 11
823.2082349179
 21
152.0218529312
  0
LINE
  5
26B
100
AcDbEntity
  8
0
100
AcDbLine
 62
7
  6
CONTINUOUS
 10
832.4823307733
 20
152.1030069641
 11
832.7591691895
 21
152.1030069641
  0
LINE
  5
26C
100
AcDbEntity
  8
0
100
AcDbLine
 62
7
  6
CONTINUOUS
 10
832.7591691895
 20
152.4276230956
 11
832.4823307733
 21
152.4276230956
  0
LINE
  5
26D
100
AcDbEntity
  8
0
100
AcDbLine
 62
7
  6
CONTINUOUS
 10
827.4992345282
 20
152.4276230956
 11
826.4610894772
 21
152.4276230956
  0
LINE
  5
26E
100
AcDbEntity
  8
0
100
AcDbLine
 62
7
  6
CONTINUOUS
 10
823.3466543241
 20
152.5087771285
 11
822.0316705597
 21
152.5087771285
  0
LINE
  5
26F
100
AcDbEntity
  8
0
100
AcDbLine
 62
7
  6
CONTINUOUS
 10
800.8950682453
 20
152.5087771285
 11
799.3852649878
 21
152.5087771285
  0
LINE
  5
270
100
AcDbEntity
  8
0
100
AcDbLine
 62
7
  6
CONTINUOUS
 10
827.0839765078
 20
153.1580093916
 11
827.4992345282
 21
153.1580093916
  0
LINE
  5
271
100
AcDbEntity
  8
0
100
AcDbLine
 62
7
  6
CONTINUOUS
 10
806.5369649878
 20
153.6449338162
 11
807.9673049878
 21
153.6449338162
  0
LINE
  5
272
100
AcDbEntity
  8
0
100
AcDbLine
 62
7
  6
CONTINUOUS
 10
825.9074122486
 20
153.6449338162
 11
826.5302992793
 21
153.6449338162
  0
LINE
  5
273
100
AcDbEntity
  8
0
100
AcDbLine
 62
7
  6
CONTINUOUS
 10
799.3852649878
 20
153.7260878491
 11
800.8950682453
 21
153.7260878491
  0
LINE
  5
274
100
AcDbEntity
  8
0
100
AcDbLine
 62
7
  6
CONTINUOUS
 10
822.0316705597
 20
153.7260878491
 11
823.3466543241
 21
153.7260878491
  0
LINE
  5
275
100
AcDbEntity
  8
0
100
AcDbLine
 62
7
  6
CONTINUOUS
 10
832.4823307733
 20
153.7260878491
 11
832.7591691895
 21
153.7260878491
  0
LINE
  5
276
100
AcDbEntity
  8
0
100
AcDbLine
 62
7
  6
CONTINUOUS
 10
832.7591691895
 20
154.1318580134
 11
832.4823307733
 21
154.1318580134
  0
LINE
  5
277
100
AcDbEntity
  8
0
100
AcDbLine
 62
7
  6
CONTINUOUS
 10
826.5302992793
 20
154.1318580134
 11
825.9074122486
 21
154.1318580134
  0
LINE
  5
278
100
AcDbEntity
  8
0
100
AcDbLine
 62
7
  6
CONTINUOUS
 10
823.27744472
 20
154.1318580134
 11
821.6164125393
 21
154.1318580134
  0
LINE
  5
279
100
AcDbEntity
  8
0
100
AcDbLine
 62
7
  6
CONTINUOUS
 10
821.0627352117
 20
154.1318580134
 11
820.6474771913
 21
154.1318580134
  0
LINE
  5
27A
100
AcDbEntity
  8
0
100
AcDbLine
 62
7
  6
CONTINUOUS
 10
807.9673049878
 20
154.1318580134
 11
806.0601849878
 21
154.1318580134
  0
LINE
  5
27B
100
AcDbEntity
  8
0
100
AcDbLine
 62
7
  6
CONTINUOUS
 10
805.4244784727
 20
154.1318580134
 11
804.9476984727
 21
154.1318580134
  0
LINE
  5
27C
100
AcDbEntity
  8
0
100
AcDbLine
 62
7
  6
CONTINUOUS
 10
803.0405784727
 20
154.1318580134
 11
802.5637982453
 21
154.1318580134
  0
LINE
  5
27D
100
AcDbEntity
  8
0
100
AcDbLine
 62
7
  6
CONTINUOUS
 10
800.8156049878
 20
154.1318580134
 11
798.9084849878
 21
154.1318580134
  0
LINE
  5
27E
100
AcDbEntity
  8
RUNDUNGEN
100
AcDbLine
 62
7
  6
CONTINUOUS
 10
832.4062346136
 20
158.992812995
 11
829.8675093359
 21
158.992812995
  0
LINE
  5
27F
100
AcDbEntity
  8
RUNDUNGEN
100
AcDbLine
 62
7
  6
CONTINUOUS
 10
801.8795410467
 20
158.992812995
 11
799.3408154509
 21
158.992812995
  0
LINE
  5
280
100
AcDbEntity
  8
RUNDUNGEN
100
AcDbLine
 62
7
  6
CONTINUOUS
 10
806.4521290984
 20
159.0945991651
 11
825.2949083642
 21
159.0945991651
  0
LINE
  5
281
100
AcDbEntity
  8
0
100
AcDbLine
 62
7
  6
CONTINUOUS
 10
803.4378949878
 20
150.3987720534
 11
803.8352115029
 21
150.3176180134
  0
LINE
  5
282
100
AcDbEntity
  8
0
100
AcDbLine
 62
7
  6
CONTINUOUS
 10
801.2129217302
 20
154.0507039806
 11
800.8156049878
 21
154.1318580134
  0
LINE
  5
283
100
AcDbEntity
  8
0
100
AcDbLine
 62
7
  6
CONTINUOUS
 10
808.3646219576
 20
154.0507039806
 11
807.9673049878
 21
154.1318580134
  0
LINE
  5
284
100
AcDbEntity
  8
0
100
AcDbLine
 62
7
  6
CONTINUOUS
 10
825.5613636343
 20
150.3987720534
 11
825.9074122486
 21
150.3176180134
  0
LINE
  5
285
100
AcDbEntity
  8
0
100
AcDbLine
 62
7
  6
CONTINUOUS
 10
832.0670727529
 20
150.3987720534
 11
832.4131213672
 21
150.3176180134
  0
LINE
  5
286
100
AcDbEntity
  8
0
100
AcDbLine
 62
7
  6
CONTINUOUS
 10
823.6234929383
 20
154.0507039806
 11
823.27744472
 21
154.1318580134
  0
LINE
  5
287
100
AcDbEntity
  8
0
100
AcDbLine
 62
7
  6
CONTINUOUS
 10
826.8763474976
 20
154.0507039806
 11
826.5302992793
 21
154.1318580134
  0
LINE
  5
288
100
AcDbEntity
  8
0
100
AcDbLine
 62
7
  6
CONTINUOUS
 10
833.1052178039
 20
154.0507039806
 11
832.7591691895
 21
154.1318580134
  0
LINE
  5
289
100
AcDbEntity
  8
0
100
AcDbLine
 62
7
  6
CONTINUOUS
 10
803.8352115029
 20
150.8045422676
 11
803.5173584727
 21
150.8856963004
  0
LINE
  5
28A
100
AcDbEntity
  8
0
100
AcDbLine
 62
7
  6
CONTINUOUS
 10
807.9673049878
 20
153.6449338162
 11
808.285158018
 21
153.5637797833
  0
LINE
  5
28B
100
AcDbEntity
  8
0
100
AcDbLine
 62
7
  6
CONTINUOUS
 10
825.9074122486
 20
150.8045422676
 11
825.6305734364
 21
150.8856963004
  0
LINE
  5
28C
100
AcDbEntity
  8
0
100
AcDbLine
 62
7
  6
CONTINUOUS
 10
832.4823307733
 20
150.7233882347
 11
832.205492357
 21
150.8045422676
  0
LINE
  5
28D
100
AcDbEntity
  8
0
100
AcDbLine
 62
7
  6
CONTINUOUS
 10
826.5302992793
 20
153.6449338162
 11
826.8071376955
 21
153.5637797833
  0
LINE
  5
28E
100
AcDbEntity
  8
0
100
AcDbLine
 62
7
  6
CONTINUOUS
 10
832.7591691895
 20
152.1030069641
 11
833.0360083978
 21
152.0218529312
  0
LINE
  5
28F
100
AcDbEntity
  8
0
100
AcDbLine
 62
7
  6
CONTINUOUS
 10
800.8950682453
 20
153.7260878491
 11
801.1334582453
 21
153.6449338162
  0
LINE
  5
290
100
AcDbEntity
  8
RUNDUNGEN
100
AcDbLine
 62
7
  6
CONTINUOUS
 10
851.4969754468
 20
95.9452501542
 11
845.5990807279
 21
98.8654246255
  0
LINE
  5
291
100
AcDbEntity
  8
RUNDUNGEN
100
AcDbLine
 62
7
  6
CONTINUOUS
 10
781.5613982281
 20
89.6061086417
 11
783.4542004681
 21
87.6946563561
  0
LINE
  5
292
100
AcDbEntity
  8
RUNDUNGEN
100
AcDbLine
 62
7
  6
CONTINUOUS
 10
789.2473224752
 20
81.8444539062
 11
801.2878579476
 21
69.6852813509
  0
LINE
  5
293
100
AcDbEntity
  8
RUNDUNGEN
100
AcDbLine
 62
7
  6
CONTINUOUS
 10
819.9692854128
 20
50.8197831635
 11
824.0472068726
 21
46.7016813721
  0
LINE
  5
294
100
AcDbEntity
  8
RUNDUNGEN
100
AcDbLine
 62
7
  6
CONTINUOUS
 10
792.7363661668
 20
86.3342520151
 11
790.6141333523
 21
88.4773954869
  0
LINE
  5
295
100
AcDbEntity
  8
0
100
AcDbLine
 62
7
  6
CONTINUOUS
 10
832.4823307733
 20
152.4276230956
 11
832.205492357
 21
152.5087771285
  0
LINE
  5
296
100
AcDbEntity
  8
0
100
AcDbLine
 62
7
  6
CONTINUOUS
 10
832.7591691895
 20
153.7260878491
 11
833.0360083978
 21
153.6449338162
  0
LINE
  5
297
100
AcDbEntity
  8
0
100
AcDbLine
 62
7
  6
CONTINUOUS
 10
823.3466543241
 20
153.7260878491
 11
823.5542833343
 21
153.6449338162
  0
LINE
  5
298
100
AcDbEntity
  8
0
100
AcDbLine
 62
7
  6
CONTINUOUS
 10
803.1200415029
 20
150.5610801405
 11
803.4378949878
 21
150.3987720534
  0
LINE
  5
299
100
AcDbEntity
  8
0
100
AcDbLine
 62
7
  6
CONTINUOUS
 10
808.6824749878
 20
153.8883959148
 11
808.3646219576
 21
154.0507039806
  0
LINE
  5
29A
100
AcDbEntity
  8
0
100
AcDbLine
 62
7
  6
CONTINUOUS
 10
825.284525218
 20
150.5610801405
 11
825.5613636343
 21
150.3987720534
  0
LINE
  5
29B
100
AcDbEntity
  8
0
100
AcDbLine
 62
7
  6
CONTINUOUS
 10
803.5173584727
 20
150.8856963004
 11
803.2789684727
 21
151.048004423
  0
LINE
  5
29C
100
AcDbEntity
  8
0
100
AcDbLine
 62
7
  6
CONTINUOUS
 10
808.285158018
 20
153.5637797833
 11
808.523548018
 21
153.4014717175
  0
LINE
  5
29D
100
AcDbEntity
  8
RUNDUNGEN
100
AcDbLine
 62
7
  6
CONTINUOUS
 10
842.6501333685
 20
47.6403064643
 11
830.4591924351
 21
59.9513664467
  0
LINE
  5
29E
100
AcDbEntity
  8
RUNDUNGEN
100
AcDbLine
 62
7
  6
CONTINUOUS
 10
800.1430858554
 20
90.566181872
 11
798.1092895548
 21
92.6200174524
  0
LINE
  5
29F
100
AcDbEntity
  8
RUNDUNGEN
100
AcDbLine
 62
7
  6
CONTINUOUS
 10
842.6501333685
 20
51.1758403702
 11
830.4591924351
 21
63.4869003526
  0
LINE
  5
2A0
100
AcDbEntity
  8
RUNDUNGEN
100
AcDbLine
 62
7
  6
CONTINUOUS
 10
800.1430858554
 20
94.1017157779
 11
798.1092895548
 21
96.1555513584
  0
LINE
  5
2A1
100
AcDbEntity
  8
0
100
AcDbLine
 62
7
  6
CONTINUOUS
 10
806.8735251913
 20
197.9549152035
 11
801.6125958062
 21
196.5452534233
  0
LINE
  5
2A2
100
AcDbEntity
  8
0
100
AcDbLine
 62
7
  6
CONTINUOUS
 10
830.1344545765
 20
196.5452534233
 11
824.8735251913
 21
197.9549152035
  0
LINE
  5
2A3
100
AcDbEntity
  8
0
100
AcDbLine
 62
7
  6
CONTINUOUS
 10
832.205492357
 20
150.8045422676
 11
831.9286531487
 21
150.9668503333
  0
LINE
  5
2A4
100
AcDbEntity
  8
0
100
AcDbLine
 62
7
  6
CONTINUOUS
 10
833.4512664183
 20
152.184160997
 11
833.3128468141
 21
152.2653150299
  0
LINE
  5
2A5
100
AcDbEntity
  8
0
100
AcDbLine
 62
7
  6
CONTINUOUS
 10
827.1531863099
 20
153.8883959148
 11
826.8763474976
 21
154.0507039806
  0
LINE
  5
2A6
100
AcDbEntity
  8
0
100
AcDbLine
 62
7
  6
CONTINUOUS
 10
831.7902343366
 20
152.3464690628
 11
831.9286531487
 21
152.2653150299
  0
LINE
  5
2A7
100
AcDbEntity
  8
0
100
AcDbLine
 62
7
  6
CONTINUOUS
 10
833.0360083978
 20
152.0218529312
 11
833.3128468141
 21
151.8595448655
  0
LINE
  5
2A8
100
AcDbEntity
  8
0
100
AcDbLine
 62
7
  6
CONTINUOUS
 10
831.7210241385
 20
150.6422341734
 11
832.0670727529
 21
150.3987720534
  0
LINE
  5
2A9
100
AcDbEntity
  8
0
100
AcDbLine
 62
7
  6
CONTINUOUS
 10
833.4512664183
 20
153.8072418819
 11
833.1052178039
 21
154.0507039806
  0
LINE
  5
2AA
100
AcDbEntity
  8
0
100
AcDbLine
 62
7
  6
CONTINUOUS
 10
801.5307749878
 20
153.8072418819
 11
801.2129217302
 21
154.0507039806
  0
LINE
  5
2AB
100
AcDbEntity
  8
0
100
AcDbLine
 62
7
  6
CONTINUOUS
 10
825.6305734364
 20
150.8856963004
 11
825.4229444261
 21
151.048004423
  0
LINE
  5
2AC
100
AcDbEntity
  8
0
100
AcDbLine
 62
7
  6
CONTINUOUS
 10
826.8071376955
 20
153.5637797833
 11
827.0147667057
 21
153.4014717175
  0
LINE
  5
2AD
100
AcDbEntity
  8
0
100
AcDbLine
 62
7
  6
CONTINUOUS
 10
802.8021884727
 20
150.8856963004
 11
803.1200415029
 21
150.5610801405
  0
LINE
  5
2AE
100
AcDbEntity
  8
0
100
AcDbLine
 62
7
  6
CONTINUOUS
 10
801.1334582453
 20
153.6449338162
 11
801.2923849878
 21
153.4826257504
  0
LINE
  5
2AF
100
AcDbEntity
  8
0
100
AcDbLine
 62
7
  6
CONTINUOUS
 10
813.2483520443
 20
80.4343793776
 11
814.9867151779
 21
78.3053280451
  0
LINE
  5
2B0
100
AcDbEntity
  8
0
100
AcDbLine
 62
7
  6
CONTINUOUS
 10
813.2483520443
 20
80.71722209
 11
814.9867151779
 21
78.5881707576
  0
LINE
  5
2B1
100
AcDbEntity
  8
0
100
AcDbLine
 62
7
  6
CONTINUOUS
 10
815.8735251913
 20
78.3053280451
 11
814.0660708595
 21
80.5189984683
  0
LINE
  5
2B2
100
AcDbEntity
  8
0
100
AcDbLine
 62
7
  6
CONTINUOUS
 10
654.8735251913
 20
604.5945991651
 11
654.8735251913
 21
394.5945991651
  0
LINE
  5
2B3
100
AcDbEntity
  8
0
100
AcDbLine
 62
7
  6
CONTINUOUS
 10
823.9003317506
 20
153.8072418819
 11
823.6234929383
 21
154.0507039806
  0
LINE
  5
2B4
100
AcDbEntity
  8
0
100
AcDbLine
 62
7
  6
CONTINUOUS
 10
832.205492357
 20
152.5087771285
 11
831.9286531487
 21
152.7522392272
  0
LINE
  5
2B5
100
AcDbEntity
  8
0
100
AcDbLine
 62
7
  6
CONTINUOUS
 10
833.7281048345
 20
151.9406988984
 11
833.4512664183
 21
152.184160997
  0
LINE
  5
2B6
100
AcDbEntity
  8
0
100
AcDbLine
 62
7
  6
CONTINUOUS
 10
833.0360083978
 20
153.6449338162
 11
833.3128468141
 21
153.4014717175
  0
LINE
  5
2B7
100
AcDbEntity
  8
0
100
AcDbLine
 62
7
  6
CONTINUOUS
 10
809.000328018
 20
153.5637797833
 11
808.6824749878
 21
153.8883959148
  0
LINE
  5
2B8
100
AcDbEntity
  8
0
100
AcDbLine
 62
7
  6
CONTINUOUS
 10
825.0076864057
 20
150.8856963004
 11
825.284525218
 21
150.5610801405
  0
LINE
  5
2B9
100
AcDbEntity
  8
0
100
AcDbLine
 62
7
  6
CONTINUOUS
 10
801.7691649878
 20
153.4826257504
 11
801.5307749878
 21
153.8072418819
  0
LINE
  5
2BA
100
AcDbEntity
  8
RUNDUNGEN
100
AcDbLine
 62
7
  6
CONTINUOUS
 10
796.5647251913
 20
121.8445991651
 11
792.8735251913
 21
127.8427991651
  0
LINE
  5
2BB
100
AcDbEntity
  8
0
100
AcDbLine
 62
7
  6
CONTINUOUS
 10
840.5741794496
 20
186.1055285502
 11
830.1344545765
 21
196.5452534233
  0
LINE
  5
2BC
100
AcDbEntity
  8
0
100
AcDbLine
 62
7
  6
CONTINUOUS
 10
823.5542833343
 20
153.6449338162
 11
823.6927027404
 21
153.4826257504
  0
LINE
  5
2BD
100
AcDbEntity
  8
0
100
AcDbLine
 62
7
  6
CONTINUOUS
 10
827.4300251222
 20
153.5637797833
 11
827.1531863099
 21
153.8883959148
  0
LINE
  5
2BE
100
AcDbEntity
  8
0
100
AcDbLine
 62
7
  6
CONTINUOUS
 10
831.5133951283
 20
150.8856963004
 11
831.7210241385
 21
150.6422341734
  0
LINE
  5
2BF
100
AcDbEntity
  8
0
100
AcDbLine
 62
7
  6
CONTINUOUS
 10
831.5826053264
 20
152.5899311614
 11
831.7902343366
 21
152.3464690628
  0
LINE
  5
2C0
100
AcDbEntity
  8
0
100
AcDbLine
 62
7
  6
CONTINUOUS
 10
833.6588954285
 20
153.5637797833
 11
833.4512664183
 21
153.8072418819
  0
LINE
  5
2C1
100
AcDbEntity
  8
0
100
AcDbLine
 62
7
  6
CONTINUOUS
 10
803.2789684727
 20
151.048004423
 11
803.1200415029
 21
151.2914665217
  0
LINE
  5
2C2
100
AcDbEntity
  8
0
100
AcDbLine
 62
7
  6
CONTINUOUS
 10
808.523548018
 20
153.4014717175
 11
808.6824749878
 21
153.1580093916
  0
LINE
  5
2C3
100
AcDbEntity
  8
0
100
AcDbLine
 62
7
  6
CONTINUOUS
 10
690.8735251913
 20
604.5945991651
 11
690.8735251913
 21
394.5945991651
  0
LINE
  5
2C4
100
AcDbEntity
  8
0
100
AcDbLine
 62
7
  6
CONTINUOUS
 10
824.1079605628
 20
153.4826257504
 11
823.9003317506
 21
153.8072418819
  0
LINE
  5
2C5
100
AcDbEntity
  8
0
100
AcDbLine
 62
7
  6
CONTINUOUS
 10
831.9286531487
 20
150.9668503333
 11
831.7210241385
 21
151.2914665217
  0
LINE
  5
2C6
100
AcDbEntity
  8
0
100
AcDbLine
 62
7
  6
CONTINUOUS
 10
833.3128468141
 20
151.8595448655
 11
833.5204758243
 21
151.5349286203
  0
LINE
  5
2C7
100
AcDbEntity
  8
0
100
AcDbLine
 62
7
  6
CONTINUOUS
 10
825.4229444261
 20
151.048004423
 11
825.284525218
 21
151.2914665217
  0
LINE
  5
2C8
100
AcDbEntity
  8
0
100
AcDbLine
 62
7
  6
CONTINUOUS
 10
831.9286531487
 20
152.7522392272
 11
831.7902343366
 21
152.9957013258
  0
LINE
  5
2C9
100
AcDbEntity
  8
0
100
AcDbLine
 62
7
  6
CONTINUOUS
 10
833.3128468141
 20
153.4014717175
 11
833.4512664183
 21
153.1580093916
  0
LINE
  5
2CA
100
AcDbEntity
  8
0
100
AcDbLine
 62
7
  6
CONTINUOUS
 10
802.6432617302
 20
151.2103124888
 11
802.8021884727
 21
150.8856963004
  0
LINE
  5
2CB
100
AcDbEntity
  8
0
100
AcDbLine
 62
7
  6
CONTINUOUS
 10
809.1592549878
 20
153.2391636518
 11
809.000328018
 21
153.5637797833
  0
LINE
  5
2CC
100
AcDbEntity
  8
0
100
AcDbLine
 62
7
  6
CONTINUOUS
 10
801.9280917302
 20
150.3176180134
 11
801.2129217302
 21
152.184160997
  0
LINE
  5
2CD
100
AcDbEntity
  8
0
100
AcDbLine
 62
7
  6
CONTINUOUS
 10
824.8692671976
 20
151.2103124888
 11
825.0076864057
 21
150.8856963004
  0
LINE
  5
2CE
100
AcDbEntity
  8
0
100
AcDbLine
 62
7
  6
CONTINUOUS
 10
831.4441857222
 20
152.9145472929
 11
831.5826053264
 21
152.5899311614
  0
LINE
  5
2CF
100
AcDbEntity
  8
0
100
AcDbLine
 62
7
  6
CONTINUOUS
 10
800.7361416165
 20
152.0218529312
 11
801.3718482453
 21
150.3176180134
  0
LINE
  5
2D0
100
AcDbEntity
  8
0
100
AcDbLine
 62
7
  6
CONTINUOUS
 10
801.2923849878
 20
153.4826257504
 11
801.3718482453
 21
153.2391636518
  0
LINE
  5
2D1
100
AcDbEntity
  8
0
100
AcDbLine
 62
7
  6
CONTINUOUS
 10
801.8486282453
 20
153.2391636518
 11
801.7691649878
 21
153.4826257504
  0
LINE
  5
2D2
100
AcDbEntity
  8
0
100
AcDbLine
 62
7
  6
CONTINUOUS
 10
787.351666421
 20
171.8445991651
 11
791.1728709331
 21
157.5836697799
  0
LINE
  5
2D3
100
AcDbEntity
  8
0
100
AcDbLine
 62
7
  6
CONTINUOUS
 10
791.1728709331
 20
149.9179541686
 11
792.8735251913
 21
142.5516112786
  0
LINE
  5
2D4
100
AcDbEntity
  8
0
100
AcDbLine
 62
7
  6
CONTINUOUS
 10
831.3749763162
 20
151.2914665217
 11
831.5133951283
 21
150.8856963004
  0
LINE
  5
2D5
100
AcDbEntity
  8
0
100
AcDbLine
 62
7
  6
CONTINUOUS
 10
833.8665244387
 20
151.5349286203
 11
833.7281048345
 21
151.9406988984
  0
LINE
  5
2D6
100
AcDbEntity
  8
0
100
AcDbLine
 62
7
  6
CONTINUOUS
 10
833.7973142406
 20
153.1580093916
 11
833.6588954285
 21
153.5637797833
  0
LINE
  5
2D7
100
AcDbEntity
  8
0
100
AcDbLine
 62
7
  6
CONTINUOUS
 10
824.246380167
 20
150.3176180134
 11
823.6234929383
 21
152.184160997
  0
LINE
  5
2D8
100
AcDbEntity
  8
0
100
AcDbLine
 62
7
  6
CONTINUOUS
 10
823.2082349179
 20
152.0218529312
 11
823.7619123445
 21
150.3176180134
  0
LINE
  5
2D9
100
AcDbEntity
  8
0
100
AcDbLine
 62
7
  6
CONTINUOUS
 10
823.6927027404
 20
153.4826257504
 11
823.7619123445
 21
153.2391636518
  0
LINE
  5
2DA
100
AcDbEntity
  8
0
100
AcDbLine
 62
7
  6
CONTINUOUS
 10
824.1771703649
 20
153.2391636518
 11
824.1079605628
 21
153.4826257504
  0
LINE
  5
2DB
100
AcDbEntity
  8
0
100
AcDbLine
 62
7
  6
CONTINUOUS
 10
827.0147667057
 20
153.4014717175
 11
827.0839765078
 21
153.1580093916
  0
LINE
  5
2DC
100
AcDbEntity
  8
0
100
AcDbLine
 62
7
  6
CONTINUOUS
 10
803.1200415029
 20
151.2914665217
 11
803.0405784727
 21
151.6160826532
  0
LINE
  5
2DD
100
AcDbEntity
  8
0
100
AcDbLine
 62
7
  6
CONTINUOUS
 10
808.6824749878
 20
153.1580093916
 11
808.761938018
 21
152.83339326
  0
LINE
  5
2DE
100
AcDbEntity
  8
0
100
AcDbLine
 62
7
  6
CONTINUOUS
 10
802.5637982453
 20
151.6160826532
 11
802.6432617302
 21
151.2103124888
  0
LINE
  5
2DF
100
AcDbEntity
  8
0
100
AcDbLine
 62
7
  6
CONTINUOUS
 10
809.238718018
 20
152.83339326
 11
809.1592549878
 21
153.2391636518
  0
LINE
  5
2E0
100
AcDbEntity
  8
RUNDUNGEN
100
AcDbLine
 62
7
  6
CONTINUOUS
 10
780.8380064053
 20
91.2284277924
 11
780.8380064053
 21
94.7639616983
  0
LINE
  5
2E1
100
AcDbEntity
  8
RUNDUNGEN
100
AcDbLine
 62
7
  6
CONTINUOUS
 10
788.3735251913
 20
41.252932711
 11
788.3735251913
 21
49.5535212195
  0
LINE
  5
2E2
100
AcDbEntity
  8
RUNDUNGEN
100
AcDbLine
 62
7
  6
CONTINUOUS
 10
789.0303049284
 20
82.3311496514
 11
789.0303049284
 21
85.8666835573
  0
LINE
  5
2E3
100
AcDbEntity
  8
0
100
AcDbLine
 62
7
  6
CONTINUOUS
 10
791.1728709331
 20
149.9179541686
 11
791.1728709331
 21
157.5836697799
  0
LINE
  5
2E4
100
AcDbEntity
  8
RUNDUNGEN
100
AcDbLine
 62
7
  6
CONTINUOUS
 10
792.8735251913
 20
127.8427991651
 11
792.8735251913
 21
153.0945991651
  0
LINE
  5
2E5
100
AcDbEntity
  8
0
100
AcDbLine
 62
7
  6
CONTINUOUS
 10
844.3953839616
 20
171.8445991651
 11
840.5741794496
 21
186.1055285502
  0
LINE
  5
2E6
100
AcDbEntity
  8
0
100
AcDbLine
 62
7
  6
CONTINUOUS
 10
825.284525218
 20
151.2914665217
 11
825.2153154159
 21
151.6160826532
  0
LINE
  5
2E7
100
AcDbEntity
  8
0
100
AcDbLine
 62
7
  6
CONTINUOUS
 10
824.8000573955
 20
151.6160826532
 11
824.8692671976
 21
151.2103124888
  0
LINE
  5
2E8
100
AcDbEntity
  8
0
100
AcDbLine
 62
7
  6
CONTINUOUS
 10
827.4992345282
 20
153.1580093916
 11
827.4300251222
 21
153.5637797833
  0
LINE
  5
2E9
100
AcDbEntity
  8
RUNDUNGEN
100
AcDbLine
 62
7
  6
CONTINUOUS
 10
794.9735251913
 20
38.4245055862
 11
794.9735251913
 21
42.6671462733
  0
LINE
  5
2EA
100
AcDbEntity
  8
0
100
AcDbLine
 62
7
  6
CONTINUOUS
 10
798.9084849878
 20
154.1318580134
 11
798.9084849878
 21
150.3176180134
  0
LINE
  5
2EB
100
AcDbEntity
  8
0
100
AcDbLine
 62
7
  6
CONTINUOUS
 10
799.3852649878
 20
150.3176180134
 11
799.3852649878
 21
152.0218529312
  0
LINE
  5
2EC
100
AcDbEntity
  8
0
100
AcDbLine
 62
7
  6
CONTINUOUS
 10
799.3852649878
 20
152.5087771285
 11
799.3852649878
 21
153.7260878491
  0
LINE
  5
2ED
100
AcDbEntity
  8
0
100
AcDbLine
 62
7
  6
CONTINUOUS
 10
801.3718482453
 20
153.2391636518
 11
801.3718482453
 21
152.9957013258
  0
LINE
  5
2EE
100
AcDbEntity
  8
0
100
AcDbLine
 62
7
  6
CONTINUOUS
 10
801.8486282453
 20
152.9145472929
 11
801.8486282453
 21
153.2391636518
  0
LINE
  5
2EF
100
AcDbEntity
  8
0
100
AcDbLine
 62
7
  6
CONTINUOUS
 10
802.5637982453
 20
154.1318580134
 11
802.5637982453
 21
151.6160826532
  0
LINE
  5
2F0
100
AcDbEntity
  8
0
100
AcDbLine
 62
7
  6
CONTINUOUS
 10
803.0405784727
 20
151.6160826532
 11
803.0405784727
 21
154.1318580134
  0
LINE
  5
2F1
100
AcDbEntity
  8
KONSTRUKTIONSELEMENTE
100
AcDbLine
 62
7
  6
CONTINUOUS
 10
803.9171431299
 20
135.8945991651
 11
803.9171431299
 21
139.6849991651
  0
LINE
  5
2F2
100
AcDbEntity
  8
0
100
AcDbLine
 62
7
  6
CONTINUOUS
 10
804.2037110031
 20
82.3782631048
 11
804.2037110031
 21
78.6447393001
  0
LINE
  5
2F3
100
AcDbEntity
  8
0
100
AcDbLine
 62
7
  6
CONTINUOUS
 10
804.9476984727
 20
154.1318580134
 11
804.9476984727
 21
151.6160826532
  0
LINE
  5
2F4
100
AcDbEntity
  8
0
100
AcDbLine
 62
7
  6
CONTINUOUS
 10
805.4244784727
 20
151.6160826532
 11
805.4244784727
 21
154.1318580134
  0
LINE
  5
2F5
100
AcDbEntity
  8
0
100
AcDbLine
 62
7
  6
CONTINUOUS
 10
805.7637110031
 20
79.1538561826
 11
805.7637110031
 21
80.4549326599
  0
LINE
  5
2F6
100
AcDbEntity
  8
0
100
AcDbLine
 62
7
  6
CONTINUOUS
 10
805.7637110031
 20
80.8509124574
 11
805.7637110031
 21
82.1519889348
  0
LINE
  5
2F7
100
AcDbEntity
  8
0
100
AcDbLine
 62
7
  6
CONTINUOUS
 10
806.0601849878
 20
154.1318580134
 11
806.0601849878
 21
150.3176180134
  0
LINE
  5
2F8
100
AcDbEntity
  8
0
100
AcDbLine
 62
7
  6
CONTINUOUS
 10
806.1237110031
 20
81.7164111576
 11
806.1237110031
 21
81.0036475221
  0
LINE
  5
2F9
100
AcDbEntity
  8
0
100
AcDbLine
 62
7
  6
CONTINUOUS
 10
806.1237110031
 20
80.0193548827
 11
806.1237110031
 21
79.3065912473
  0
LINE
  5
2FA
100
AcDbEntity
  8
0
100
AcDbLine
 62
7
  6
CONTINUOUS
 10
806.4237110031
 20
79.9854137572
 11
806.4237110031
 21
80.0872371337
  0
LINE
  5
2FB
100
AcDbEntity
  8
0
100
AcDbLine
 62
7
  6
CONTINUOUS
 10
806.4237110031
 20
80.341795575
 11
806.4237110031
 21
80.6812068299
  0
LINE
  5
2FC
100
AcDbEntity
  8
0
100
AcDbLine
 62
7
  6
CONTINUOUS
 10
806.4237110031
 20
80.9357652712
 11
806.4237110031
 21
81.3204313601
  0
LINE
  5
2FD
100
AcDbEntity
  8
0
100
AcDbLine
 62
7
  6
CONTINUOUS
 10
806.5369649878
 20
150.8045422676
 11
806.5369649878
 21
153.6449338162
  0
LINE
  5
2FE
100
AcDbEntity
  8
0
100
AcDbLine
 62
7
  6
CONTINUOUS
 10
806.7837110031
 20
80.6812068299
 11
806.7837110031
 21
80.341795575
  0
LINE
  5
2FF
100
AcDbEntity
  8
0
100
AcDbLine
 62
7
  6
CONTINUOUS
 10
806.7837110031
 20
81.3204313601
 11
806.7837110031
 21
80.9357652712
  0
LINE
  5
300
100
AcDbEntity
  8
0
100
AcDbLine
 62
7
  6
CONTINUOUS
 10
806.7837110031
 20
80.0872371337
 11
806.7837110031
 21
79.9854137572
  0
LINE
  5
301
100
AcDbEntity
  8
0
100
AcDbLine
 62
7
  6
CONTINUOUS
 10
806.8735251913
 20
278.5373742895
 11
806.8735251913
 21
175.6518240406
  0
LINE
  5
302
100
AcDbEntity
  8
0
100
AcDbLine
 62
7
  6
CONTINUOUS
 10
807.0837110031
 20
79.3065912473
 11
807.0837110031
 21
80.0193548827
  0
LINE
  5
303
100
AcDbEntity
  8
0
100
AcDbLine
 62
7
  6
CONTINUOUS
 10
807.0837110031
 20
81.0036475221
 11
807.0837110031
 21
81.7164111576
  0
LINE
  5
304
100
AcDbEntity
  8
0
100
AcDbLine
 62
7
  6
CONTINUOUS
 10
807.4437110031
 20
82.1519889348
 11
807.4437110031
 21
80.8509124574
  0
LINE
  5
305
100
AcDbEntity
  8
0
100
AcDbLine
 62
7
  6
CONTINUOUS
 10
807.4437110031
 20
80.4549326599
 11
807.4437110031
 21
79.1538561826
  0
LINE
  5
306
100
AcDbEntity
  8
KONSTRUKTIONSELEMENTE
100
AcDbLine
 62
7
  6
CONTINUOUS
 10
807.8735251913
 20
107.3674167519
 11
807.8735251913
 21
117.9740184697
  0
LINE
  5
307
100
AcDbEntity
  8
0
100
AcDbLine
 62
7
  6
CONTINUOUS
 10
808.761938018
 20
152.83339326
 11
808.761938018
 21
151.6160826532
  0
LINE
  5
308
100
AcDbEntity
  8
0
100
AcDbLine
 62
7
  6
CONTINUOUS
 10
809.0037110031
 20
78.6447393001
 11
809.0037110031
 21
82.3782631048
  0
LINE
  5
309
100
AcDbEntity
  8
0
100
AcDbLine
 62
7
  6
CONTINUOUS
 10
809.238718018
 20
151.6160826532
 11
809.238718018
 21
152.83339326
  0
LINE
  5
30A
100
AcDbEntity
  8
0
100
AcDbLine
 62
7
  6
CONTINUOUS
 10
810.5603520443
 20
82.7176743597
 11
810.5603520443
 21
82.202900623
  0
LINE
  5
30B
100
AcDbEntity
  8
0
100
AcDbLine
 62
7
  6
CONTINUOUS
 10
810.5603520443
 20
81.7277248661
 11
810.5603520443
 21
78.3053280451
  0
LINE
  5
30C
100
AcDbEntity
  8
0
100
AcDbLine
 62
7
  6
CONTINUOUS
 10
810.8735251913
 20
135.8945991651
 11
810.8735251913
 21
126.0572894005
  0
LINE
  5
30D
100
AcDbEntity
  8
KONSTRUKTIONSELEMENTE
100
AcDbLine
 62
7
  6
CONTINUOUS
 10
810.8735251913
 20
135.8945991651
 11
810.8735251913
 21
146.2845991651
  0
LINE
  5
30E
100
AcDbEntity
  8
0
100
AcDbLine
 62
7
  6
CONTINUOUS
 10
811.3283520443
 20
78.3053280451
 11
811.3283520443
 21
80.71722209
  0
LINE
  5
30F
100
AcDbEntity
  8
0
100
AcDbLine
 62
7
  6
CONTINUOUS
 10
811.3283520443
 20
80.9774373855
 11
811.3283520443
 21
81.7277248661
  0
LINE
  5
310
100
AcDbEntity
  8
KONSTRUKTIONSELEMENTE
100
AcDbLine
 62
7
  6
CONTINUOUS
 10
812.3735251913
 20
107.3674167519
 11
812.3735251913
 21
117.9740184697
  0
LINE
  5
311
100
AcDbEntity
  8
KONSTRUKTIONSELEMENTE
100
AcDbLine
 62
7
  6
CONTINUOUS
 10
812.3735251913
 20
141.4945991651
 11
812.3735251913
 21
149.0867168419
  0
LINE
  5
312
100
AcDbEntity
  8
0
100
AcDbLine
 62
7
  6
CONTINUOUS
 10
813.2483520443
 20
80.4343793776
 11
813.2483520443
 21
80.71722209
  0
LINE
  5
313
100
AcDbEntity
  8
KONSTRUKTIONSELEMENTE
100
AcDbLine
 62
7
  6
CONTINUOUS
 10
813.3735251913
 20
86.5641898578
 11
813.3735251913
 21
109.0184468266
  0
LINE
  5
314
100
AcDbEntity
  8
KONSTRUKTIONSELEMENTE
100
AcDbLine
 62
7
  6
CONTINUOUS
 10
813.3735251913
 20
147.7289264305
 11
813.3735251913
 21
150.6085552048
  0
LINE
  5
315
100
AcDbEntity
  8
KONSTRUKTIONSELEMENTE
100
AcDbLine
 62
7
  6
CONTINUOUS
 10
813.3735251913
 20
159.3521151812
 11
813.3735251913
 21
166.9550657175
  0
LINE
  5
316
100
AcDbEntity
  8
KONSTRUKTIONSELEMENTE
100
AcDbLine
 62
7
  6
CONTINUOUS
 10
813.6235251913
 20
117.2229579851
 11
813.6235251913
 21
130.1945991651
  0
LINE
  5
317
100
AcDbEntity
  8
0
100
AcDbLine
 62
7
  6
CONTINUOUS
 10
814.0660708595
 20
80.5189984683
 11
814.0660708595
 21
80.8018411808
  0
LINE
  5
318
100
AcDbEntity
  8
0
100
AcDbLine
 62
7
  6
CONTINUOUS
 10
814.4348854097
 20
81.8730117167
 11
814.4348854097
 21
81.5901690043
  0
LINE
  5
319
100
AcDbEntity
  8
0
100
AcDbLine
 62
7
  6
CONTINUOUS
 10
814.9867151779
 20
78.3053280451
 11
814.9867151779
 21
78.5881707576
  0
LINE
  5
31A
100
AcDbEntity
  8
0
100
AcDbLine
 62
7
  6
CONTINUOUS
 10
816.3203520443
 20
82.7176743597
 11
816.3203520443
 21
79.9259236826
  0
LINE
  5
31B
100
AcDbEntity
  8
0
100
AcDbLine
 62
7
  6
CONTINUOUS
 10
817.0883520443
 20
79.9259236826
 11
817.0883520443
 21
82.7176743597
  0
LINE
  5
31C
100
AcDbEntity
  8
KONSTRUKTIONSELEMENTE
100
AcDbLine
 62
7
  6
CONTINUOUS
 10
818.1235251913
 20
117.2229579851
 11
818.1235251913
 21
130.1945991651
  0
LINE
  5
31D
100
AcDbEntity
  8
KONSTRUKTIONSELEMENTE
100
AcDbLine
 62
7
  6
CONTINUOUS
 10
818.3735251913
 20
86.5641898578
 11
818.3735251913
 21
109.0184468266
  0
LINE
  5
31E
100
AcDbEntity
  8
KONSTRUKTIONSELEMENTE
100
AcDbLine
 62
7
  6
CONTINUOUS
 10
818.3735251913
 20
147.7289264305
 11
818.3735251913
 21
150.6085552048
  0
LINE
  5
31F
100
AcDbEntity
  8
KONSTRUKTIONSELEMENTE
100
AcDbLine
 62
7
  6
CONTINUOUS
 10
818.3735251913
 20
159.3521151812
 11
818.3735251913
 21
166.9550657175
  0
LINE
  5
320
100
AcDbEntity
  8
KONSTRUKTIONSELEMENTE
100
AcDbLine
 62
7
  6
CONTINUOUS
 10
819.3735251913
 20
149.0867168419
 11
819.3735251913
 21
141.4945991651
  0
LINE
  5
321
100
AcDbEntity
  8
KONSTRUKTIONSELEMENTE
100
AcDbLine
 62
7
  6
CONTINUOUS
 10
819.3735251913
 20
117.9740184697
 11
819.3735251913
 21
107.3674167519
  0
LINE
  5
322
100
AcDbEntity
  8
0
100
AcDbLine
 62
7
  6
CONTINUOUS
 10
820.1076603328
 20
82.7176743597
 11
820.1076603328
 21
79.9259236826
  0
LINE
  5
323
100
AcDbEntity
  8
0
100
AcDbLine
 62
7
  6
CONTINUOUS
 10
820.6474771913
 20
154.1318580134
 11
820.6474771913
 21
150.3176180134
  0
LINE
  5
324
100
AcDbEntity
  8
0
100
AcDbLine
 62
7
  6
CONTINUOUS
 10
820.8735251913
 20
126.0572894005
 11
820.8735251913
 21
135.8945991651
  0
LINE
  5
325
100
AcDbEntity
  8
KONSTRUKTIONSELEMENTE
100
AcDbLine
 62
7
  6
CONTINUOUS
 10
820.8735251913
 20
135.8945991651
 11
820.8735251913
 21
146.2845994224
  0
LINE
  5
326
100
AcDbEntity
  8
0
100
AcDbLine
 62
7
  6
CONTINUOUS
 10
820.8756603328
 20
79.9259236826
 11
820.8756603328
 21
82.7176743597
  0
LINE
  5
327
100
AcDbEntity
  8
0
100
AcDbLine
 62
7
  6
CONTINUOUS
 10
821.0627352117
 20
150.3176180134
 11
821.0627352117
 21
154.1318580134
  0
LINE
  5
328
100
AcDbEntity
  8
0
100
AcDbLine
 62
7
  6
CONTINUOUS
 10
821.6164125393
 20
154.1318580134
 11
821.6164125393
 21
150.3176180134
  0
LINE
  5
329
100
AcDbEntity
  8
0
100
AcDbLine
 62
7
  6
CONTINUOUS
 10
822.0316705597
 20
150.3176180134
 11
822.0316705597
 21
152.0218529312
  0
LINE
  5
32A
100
AcDbEntity
  8
0
100
AcDbLine
 62
7
  6
CONTINUOUS
 10
822.0316705597
 20
152.5087771285
 11
822.0316705597
 21
153.7260878491
  0
LINE
  5
32B
100
AcDbEntity
  8
0
100
AcDbLine
 62
7
  6
CONTINUOUS
 10
822.5556603328
 20
82.7176743597
 11
822.5556603328
 21
82.1746163518
  0
LINE
  5
32C
100
AcDbEntity
  8
0
100
AcDbLine
 62
7
  6
CONTINUOUS
 10
822.5556603328
 20
81.6994405948
 11
822.5556603328
 21
78.3053280451
  0
LINE
  5
32D
100
AcDbEntity
  8
0
100
AcDbLine
 62
7
  6
CONTINUOUS
 10
823.3236603328
 20
78.8710134701
 11
823.3236603328
 21
81.6994405948
  0
LINE
  5
32E
100
AcDbEntity
  8
0
100
AcDbLine
 62
7
  6
CONTINUOUS
 10
823.7619123445
 20
153.2391636518
 11
823.7619123445
 21
152.9957013258
  0
LINE
  5
32F
100
AcDbEntity
  8
KONSTRUKTIONSELEMENTE
100
AcDbLine
 62
7
  6
CONTINUOUS
 10
823.8735251913
 20
117.9740184697
 11
823.8735251913
 21
107.3674167519
  0
LINE
  5
330
100
AcDbEntity
  8
0
100
AcDbLine
 62
7
  6
CONTINUOUS
 10
824.1771703649
 20
152.9145472929
 11
824.1771703649
 21
153.2391636518
  0
LINE
  5
331
100
AcDbEntity
  8
0
100
AcDbLine
 62
7
  6
CONTINUOUS
 10
824.8000573955
 20
152.83339326
 11
824.8000573955
 21
151.6160826532
  0
LINE
  5
332
100
AcDbEntity
  8
0
100
AcDbLine
 62
7
  6
CONTINUOUS
 10
824.8735251913
 20
278.5373742895
 11
824.8735251913
 21
175.6518240406
  0
LINE
  5
333
100
AcDbEntity
  8
0
100
AcDbLine
 62
7
  6
CONTINUOUS
 10
825.2153154159
 20
151.6160826532
 11
825.2153154159
 21
152.83339326
  0
LINE
  5
334
100
AcDbEntity
  8
0
100
AcDbLine
 62
7
  6
CONTINUOUS
 10
826.4610894772
 20
152.4276230956
 11
826.4610894772
 21
151.9406988984
  0
LINE
  5
335
100
AcDbEntity
  8
0
100
AcDbLine
 62
7
  6
CONTINUOUS
 10
826.6297513351
 20
80.8056576234
 11
826.6297513351
 21
80.5228149109
  0
LINE
  5
336
100
AcDbEntity
  8
0
100
AcDbLine
 62
7
  6
CONTINUOUS
 10
827.0839765078
 20
151.9406988984
 11
827.0839765078
 21
151.2914665217
  0
LINE
  5
337
100
AcDbEntity
  8
0
100
AcDbLine
 62
7
  6
CONTINUOUS
 10
827.4992345282
 20
151.2103124888
 11
827.4992345282
 21
152.4276230956
  0
LINE
  5
338
100
AcDbEntity
  8
KONSTRUKTIONSELEMENTE
100
AcDbLine
 62
7
  6
CONTINUOUS
 10
827.8299072528
 20
135.8945991651
 11
827.8299072528
 21
139.6849991651
  0
LINE
  5
339
100
AcDbEntity
  8
0
100
AcDbLine
 62
7
  6
CONTINUOUS
 10
831.3749763162
 20
151.5349286203
 11
831.3749763162
 21
151.2914665217
  0
LINE
  5
33A
100
AcDbEntity
  8
0
100
AcDbLine
 62
7
  6
CONTINUOUS
 10
831.4441857222
 20
153.1580093916
 11
831.4441857222
 21
152.9145472929
  0
LINE
  5
33B
100
AcDbEntity
  8
0
100
AcDbLine
 62
7
  6
CONTINUOUS
 10
831.7210241385
 20
151.2914665217
 11
831.7210241385
 21
151.5349286203
  0
LINE
  5
33C
100
AcDbEntity
  8
0
100
AcDbLine
 62
7
  6
CONTINUOUS
 10
831.7902343366
 20
152.9957013258
 11
831.7902343366
 21
153.1580093916
  0
LINE
  5
33D
100
AcDbEntity
  8
0
100
AcDbLine
 62
7
  6
CONTINUOUS
 10
833.4512664183
 20
153.1580093916
 11
833.4512664183
 21
152.9957013258
  0
LINE
  5
33E
100
AcDbEntity
  8
0
100
AcDbLine
 62
7
  6
CONTINUOUS
 10
833.5204758243
 20
151.5349286203
 11
833.5204758243
 21
151.2914665217
  0
LINE
  5
33F
100
AcDbEntity
  8
0
100
AcDbLine
 62
7
  6
CONTINUOUS
 10
833.7973142406
 20
152.9145472929
 11
833.7973142406
 21
153.1580093916
  0
LINE
  5
340
100
AcDbEntity
  8
0
100
AcDbLine
 62
7
  6
CONTINUOUS
 10
833.8665244387
 20
151.2914665217
 11
833.8665244387
 21
151.5349286203
  0
LINE
  5
341
100
AcDbEntity
  8
RUNDUNGEN
100
AcDbLine
 62
7
  6
CONTINUOUS
 10
836.7735251913
 20
42.6671462733
 11
836.7735251913
 21
38.4245055862
  0
LINE
  5
342
100
AcDbEntity
  8
RUNDUNGEN
100
AcDbLine
 62
7
  6
CONTINUOUS
 10
838.8735251913
 20
127.8427991651
 11
838.8735251913
 21
153.0945991651
  0
LINE
  5
343
100
AcDbEntity
  8
0
100
AcDbLine
 62
7
  6
CONTINUOUS
 10
840.5741794496
 20
149.9179541686
 11
840.5741794496
 21
157.5836697799
  0
LINE
  5
344
100
AcDbEntity
  8
RUNDUNGEN
100
AcDbLine
 62
7
  6
CONTINUOUS
 10
843.3735251913
 20
41.252932711
 11
843.3735251913
 21
49.5535212195
  0
LINE
  5
345
100
AcDbEntity
  8
RUNDUNGEN
100
AcDbLine
 62
7
  6
CONTINUOUS
 10
852.0086837232
 20
91.7146426899
 11
852.0086837232
 21
95.2501765958
  0
LINE
  5
346
100
AcDbEntity
  8
0
100
AcDbLine
 62
7
  6
CONTINUOUS
 10
824.8692671976
 20
153.2391636518
 11
824.8000573955
 21
152.83339326
  0
LINE
  5
347
100
AcDbEntity
  8
0
100
AcDbLine
 62
7
  6
CONTINUOUS
 10
805.3450149878
 20
151.2103124888
 11
805.4244784727
 21
151.6160826532
  0
LINE
  5
348
100
AcDbEntity
  8
0
100
AcDbLine
 62
7
  6
CONTINUOUS
 10
809.1592549878
 20
151.2103124888
 11
809.238718018
 21
151.6160826532
  0
LINE
  5
349
100
AcDbEntity
  8
0
100
AcDbLine
 62
7
  6
CONTINUOUS
 10
804.9476984727
 20
151.6160826532
 11
804.8682349878
 21
151.2914665217
  0
LINE
  5
34A
100
AcDbEntity
  8
0
100
AcDbLine
 62
7
  6
CONTINUOUS
 10
808.761938018
 20
151.6160826532
 11
808.6824749878
 21
151.2914665217
  0
LINE
  5
34B
100
AcDbEntity
  8
0
100
AcDbLine
 62
7
  6
CONTINUOUS
 10
791.1728709331
 20
186.1055285502
 11
787.351666421
 21
171.8445991651
  0
LINE
  5
34C
100
AcDbEntity
  8
0
100
AcDbLine
 62
7
  6
CONTINUOUS
 10
825.2153154159
 20
152.83339326
 11
825.284525218
 21
153.1580093916
  0
LINE
  5
34D
100
AcDbEntity
  8
0
100
AcDbLine
 62
7
  6
CONTINUOUS
 10
827.4300251222
 20
150.8856963004
 11
827.4992345282
 21
151.2103124888
  0
LINE
  5
34E
100
AcDbEntity
  8
0
100
AcDbLine
 62
7
  6
CONTINUOUS
 10
840.5741794496
 20
149.9179541686
 11
838.8735251913
 21
142.5516112786
  0
LINE
  5
34F
100
AcDbEntity
  8
0
100
AcDbLine
 62
7
  6
CONTINUOUS
 10
823.7619123445
 20
152.9957013258
 11
823.6927027404
 21
152.7522392272
  0
LINE
  5
350
100
AcDbEntity
  8
0
100
AcDbLine
 62
7
  6
CONTINUOUS
 10
824.1079605628
 20
152.6710851943
 11
824.1771703649
 21
152.9145472929
  0
LINE
  5
351
100
AcDbEntity
  8
0
100
AcDbLine
 62
7
  6
CONTINUOUS
 10
827.0839765078
 20
151.2914665217
 11
827.0147667057
 21
151.048004423
  0
LINE
  5
352
100
AcDbEntity
  8
0
100
AcDbLine
 62
7
  6
CONTINUOUS
 10
801.3718482453
 20
152.9957013258
 11
801.2923849878
 21
152.7522392272
  0
LINE
  5
353
100
AcDbEntity
  8
0
100
AcDbLine
 62
7
  6
CONTINUOUS
 10
801.7691649878
 20
152.6710851943
 11
801.8486282453
 21
152.9145472929
  0
LINE
  5
354
100
AcDbEntity
  8
0
100
AcDbLine
 62
7
  6
CONTINUOUS
 10
840.5741794496
 20
157.5836697799
 11
844.3953839616
 21
171.8445991651
  0
LINE
  5
355
100
AcDbEntity
  8
0
100
AcDbLine
 62
7
  6
CONTINUOUS
 10
831.5826053264
 20
153.5637797833
 11
831.4441857222
 21
153.1580093916
  0
LINE
  5
356
100
AcDbEntity
  8
0
100
AcDbLine
 62
7
  6
CONTINUOUS
 10
831.5133951283
 20
151.9406988984
 11
831.3749763162
 21
151.5349286203
  0
LINE
  5
357
100
AcDbEntity
  8
0
100
AcDbLine
 62
7
  6
CONTINUOUS
 10
833.7281048345
 20
150.8856963004
 11
833.8665244387
 21
151.2914665217
  0
LINE
  5
358
100
AcDbEntity
  8
0
100
AcDbLine
 62
7
  6
CONTINUOUS
 10
825.0076864057
 20
153.5637797833
 11
824.8692671976
 21
153.2391636518
  0
LINE
  5
359
100
AcDbEntity
  8
0
100
AcDbLine
 62
7
  6
CONTINUOUS
 10
805.1860884727
 20
150.8856963004
 11
805.3450149878
 21
151.2103124888
  0
LINE
  5
35A
100
AcDbEntity
  8
0
100
AcDbLine
 62
7
  6
CONTINUOUS
 10
809.000328018
 20
150.8856963004
 11
809.1592549878
 21
151.2103124888
  0
LINE
  5
35B
100
AcDbEntity
  8
0
100
AcDbLine
 62
7
  6
CONTINUOUS
 10
940.8735251913
 20
394.5945991651
 11
940.8735251913
 21
604.5945991651
  0
LINE
  5
35C
100
AcDbEntity
  8
0
100
AcDbLine
 62
7
  6
CONTINUOUS
 10
833.6588954285
 20
152.5899311614
 11
833.7973142406
 21
152.9145472929
  0
LINE
  5
35D
100
AcDbEntity
  8
0
100
AcDbLine
 62
7
  6
CONTINUOUS
 10
825.284525218
 20
153.1580093916
 11
825.4229444261
 21
153.4014717175
  0
LINE
  5
35E
100
AcDbEntity
  8
0
100
AcDbLine
 62
7
  6
CONTINUOUS
 10
804.8682349878
 20
151.2914665217
 11
804.7093084727
 21
151.048004423
  0
LINE
  5
35F
100
AcDbEntity
  8
0
100
AcDbLine
 62
7
  6
CONTINUOUS
 10
808.6824749878
 20
151.2914665217
 11
808.523548018
 21
151.048004423
  0
LINE
  5
360
100
AcDbEntity
  8
0
100
AcDbLine
 62
7
  6
CONTINUOUS
 10
801.6125958062
 20
196.5452534233
 11
791.1728709331
 21
186.1055285502
  0
LINE
  5
361
100
AcDbEntity
  8
0
100
AcDbLine
 62
7
  6
CONTINUOUS
 10
976.8735251913
 20
394.5945991651
 11
976.8735251913
 21
604.5945991651
  0
LINE
  5
362
100
AcDbEntity
  8
0
100
AcDbLine
 62
7
  6
CONTINUOUS
 10
831.7902343366
 20
153.1580093916
 11
831.9286531487
 21
153.4014717175
  0
LINE
  5
363
100
AcDbEntity
  8
0
100
AcDbLine
 62
7
  6
CONTINUOUS
 10
833.4512664183
 20
152.9957013258
 11
833.3128468141
 21
152.7522392272
  0
LINE
  5
364
100
AcDbEntity
  8
0
100
AcDbLine
 62
7
  6
CONTINUOUS
 10
823.9003317506
 20
152.3464690628
 11
824.1079605628
 21
152.6710851943
  0
LINE
  5
365
100
AcDbEntity
  8
0
100
AcDbLine
 62
7
  6
CONTINUOUS
 10
831.7210241385
 20
151.5349286203
 11
831.9286531487
 21
151.8595448655
  0
LINE
  5
366
100
AcDbEntity
  8
0
100
AcDbLine
 62
7
  6
CONTINUOUS
 10
833.5204758243
 20
151.2914665217
 11
833.3128468141
 21
150.9668503333
  0
LINE
  5
367
100
AcDbEntity
  8
0
100
AcDbLine
 62
7
  6
CONTINUOUS
 10
801.5307749878
 20
152.3464690628
 11
801.7691649878
 21
152.6710851943
  0
LINE
  5
368
100
AcDbEntity
  8
RUNDUNGEN
100
AcDbLine
 62
7
  6
CONTINUOUS
 10
835.1823251913
 20
121.8445991651
 11
838.8735251913
 21
127.8427991651
  0
LINE
  5
369
100
AcDbEntity
  8
0
100
AcDbLine
 62
7
  6
CONTINUOUS
 10
823.6927027404
 20
152.7522392272
 11
823.5542833343
 21
152.5899311614
  0
LINE
  5
36A
100
AcDbEntity
  8
0
100
AcDbLine
 62
7
  6
CONTINUOUS
 10
825.284525218
 20
153.8883959148
 11
825.0076864057
 21
153.5637797833
  0
LINE
  5
36B
100
AcDbEntity
  8
0
100
AcDbLine
 62
7
  6
CONTINUOUS
 10
827.1531863099
 20
150.5610801405
 11
827.4300251222
 21
150.8856963004
  0
LINE
  5
36C
100
AcDbEntity
  8
0
100
AcDbLine
 62
7
  6
CONTINUOUS
 10
831.7902343366
 20
153.8072418819
 11
831.5826053264
 21
153.5637797833
  0
LINE
  5
36D
100
AcDbEntity
  8
0
100
AcDbLine
 62
7
  6
CONTINUOUS
 10
833.4512664183
 20
152.3464690628
 11
833.6588954285
 21
152.5899311614
  0
LINE
  5
36E
100
AcDbEntity
  8
0
100
AcDbLine
 62
7
  6
CONTINUOUS
 10
833.5204758243
 20
150.6422341734
 11
833.7281048345
 21
150.8856963004
  0
LINE
  5
36F
100
AcDbEntity
  8
0
100
AcDbLine
 62
7
  6
CONTINUOUS
 10
801.2923849878
 20
152.7522392272
 11
801.1334582453
 21
152.5899311614
  0
LINE
  5
370
100
AcDbEntity
  8
0
100
AcDbLine
 62
7
  6
CONTINUOUS
 10
804.8682349878
 20
150.5610801405
 11
805.1860884727
 21
150.8856963004
  0
LINE
  5
371
100
AcDbEntity
  8
0
100
AcDbLine
 62
7
  6
CONTINUOUS
 10
808.6824749878
 20
150.5610801405
 11
809.000328018
 21
150.8856963004
  0
LINE
  5
372
100
AcDbEntity
  8
0
100
AcDbLine
 62
7
  6
CONTINUOUS
 10
831.9286531487
 20
153.4014717175
 11
832.205492357
 21
153.6449338162
  0
LINE
  5
373
100
AcDbEntity
  8
0
100
AcDbLine
 62
7
  6
CONTINUOUS
 10
831.7902343366
 20
152.184160997
 11
831.5133951283
 21
151.9406988984
  0
LINE
  5
374
100
AcDbEntity
  8
0
100
AcDbLine
 62
7
  6
CONTINUOUS
 10
833.3128468141
 20
152.7522392272
 11
833.0360083978
 21
152.5087771285
  0
LINE
  5
375
100
AcDbEntity
  8
0
100
AcDbLine
 62
7
  6
CONTINUOUS
 10
825.4229444261
 20
153.4014717175
 11
825.6305734364
 21
153.5637797833
  0
LINE
  5
376
100
AcDbEntity
  8
0
100
AcDbLine
 62
7
  6
CONTINUOUS
 10
827.0147667057
 20
151.048004423
 11
826.8071376955
 21
150.8856963004
  0
LINE
  5
377
100
AcDbEntity
  8
0
100
AcDbLine
 62
7
  6
CONTINUOUS
 10
832.1362821589
 20
154.0507039806
 11
831.7902343366
 21
153.8072418819
  0
LINE
  5
378
100
AcDbEntity
  8
0
100
AcDbLine
 62
7
  6
CONTINUOUS
 10
804.7093084727
 20
151.048004423
 11
804.4709184727
 21
150.8856963004
  0
LINE
  5
379
100
AcDbEntity
  8
0
100
AcDbLine
 62
7
  6
CONTINUOUS
 10
808.523548018
 20
151.048004423
 11
808.285158018
 21
150.8856963004
  0
LINE
  5
37A
100
AcDbEntity
  8
RUNDUNGEN
100
AcDbLine
 62
7
  6
CONTINUOUS
 10
801.2878579476
 20
63.4869003526
 11
789.0969170142
 21
51.1758403702
  0
LINE
  5
37B
100
AcDbEntity
  8
RUNDUNGEN
100
AcDbLine
 62
7
  6
CONTINUOUS
 10
801.2878579476
 20
59.9513664467
 11
789.0969170142
 21
47.6403064643
  0
LINE
  5
37C
100
AcDbEntity
  8
RUNDUNGEN
100
AcDbLine
 62
7
  6
CONTINUOUS
 10
836.8465376107
 20
91.5060051368
 11
843.9278065512
 21
98.6570468123
  0
LINE
  5
37D
100
AcDbEntity
  8
RUNDUNGEN
100
AcDbLine
 62
7
  6
CONTINUOUS
 10
836.8465376107
 20
87.9704712309
 11
843.9278065512
 21
95.1215129063
  0
LINE
  5
37E
100
AcDbEntity
  8
0
100
AcDbLine
 62
7
  6
CONTINUOUS
 10
833.17442721
 20
150.3987720534
 11
833.5204758243
 21
150.6422341734
  0
LINE
  5
37F
100
AcDbEntity
  8
0
100
AcDbLine
 62
7
  6
CONTINUOUS
 10
825.5613636343
 20
154.0507039806
 11
825.284525218
 21
153.8883959148
  0
LINE
  5
380
100
AcDbEntity
  8
0
100
AcDbLine
 62
7
  6
CONTINUOUS
 10
823.6234929383
 20
152.184160997
 11
823.9003317506
 21
152.3464690628
  0
LINE
  5
381
100
AcDbEntity
  8
0
100
AcDbLine
 62
7
  6
CONTINUOUS
 10
826.8763474976
 20
150.3987720534
 11
827.1531863099
 21
150.5610801405
  0
LINE
  5
382
100
AcDbEntity
  8
0
100
AcDbLine
 62
7
  6
CONTINUOUS
 10
831.9286531487
 20
152.2653150299
 11
831.7902343366
 21
152.184160997
  0
LINE
  5
383
100
AcDbEntity
  8
0
100
AcDbLine
 62
7
  6
CONTINUOUS
 10
831.9286531487
 20
151.8595448655
 11
832.205492357
 21
152.0218529312
  0
LINE
  5
384
100
AcDbEntity
  8
0
100
AcDbLine
 62
7
  6
CONTINUOUS
 10
833.3128468141
 20
152.2653150299
 11
833.4512664183
 21
152.3464690628
  0
LINE
  5
385
100
AcDbEntity
  8
0
100
AcDbLine
 62
7
  6
CONTINUOUS
 10
833.3128468141
 20
150.9668503333
 11
833.0360083978
 21
150.8045422676
  0
LINE
  5
386
100
AcDbEntity
  8
0
100
AcDbLine
 62
7
  6
CONTINUOUS
 10
801.2129217302
 20
152.184160997
 11
801.5307749878
 21
152.3464690628
  0
LINE
  5
387
100
AcDbEntity
  8
0
100
AcDbLine
 62
7
  6
CONTINUOUS
 10
804.5503815029
 20
150.3987720534
 11
804.8682349878
 21
150.5610801405
  0
LINE
  5
388
100
AcDbEntity
  8
0
100
AcDbLine
 62
7
  6
CONTINUOUS
 10
808.3646219576
 20
150.3987720534
 11
808.6824749878
 21
150.5610801405
  0
LINE
  5
389
100
AcDbEntity
  8
0
100
AcDbLine
 62
7
  6
CONTINUOUS
 10
823.5542833343
 20
152.5899311614
 11
823.3466543241
 21
152.5087771285
  0
LINE
  5
38A
100
AcDbEntity
  8
0
100
AcDbLine
 62
7
  6
CONTINUOUS
 10
801.1334582453
 20
152.5899311614
 11
800.8950682453
 21
152.5087771285
  0
LINE
  5
38B
100
AcDbEntity
  8
0
100
AcDbLine
 62
7
  6
CONTINUOUS
 10
825.6305734364
 20
153.5637797833
 11
825.9074122486
 21
153.6449338162
  0
LINE
  5
38C
100
AcDbEntity
  8
RUNDUNGEN
100
AcDbLine
 62
7
  6
CONTINUOUS
 10
807.69984351
 20
46.7016813721
 11
811.7777649699
 21
50.8197831635
  0
LINE
  5
38D
100
AcDbEntity
  8
RUNDUNGEN
100
AcDbLine
 62
7
  6
CONTINUOUS
 10
830.4591924351
 20
69.6852813509
 11
851.7916661763
 21
91.2279469447
  0
LINE
  5
38E
100
AcDbEntity
  8
RUNDUNGEN
100
AcDbLine
 62
7
  6
CONTINUOUS
 10
784.1820047484
 20
97.892033135
 11
782.5437006599
 21
97.0808735597
  0
LINE
  5
38F
100
AcDbEntity
  8
RUNDUNGEN
100
AcDbLine
 62
7
  6
CONTINUOUS
 10
784.1820047484
 20
94.3564992291
 11
782.5437006599
 21
93.5453396538
  0
LINE
  5
390
100
AcDbEntity
  8
RUNDUNGEN
100
AcDbLine
 62
7
  6
CONTINUOUS
 10
787.828676391
 20
88.8246918422
 11
785.1254746448
 21
87.4862785429
  0
LINE
  5
391
100
AcDbEntity
  8
0
100
AcDbLine
 62
7
  6
CONTINUOUS
 10
832.205492357
 20
153.6449338162
 11
832.4823307733
 21
153.7260878491
  0
LINE
  5
392
100
AcDbEntity
  8
0
100
AcDbLine
 62
7
  6
CONTINUOUS
 10
826.8071376955
 20
150.8856963004
 11
826.5302992793
 21
150.8045422676
  0
LINE
  5
393
100
AcDbEntity
  8
0
100
AcDbLine
 62
7
  6
CONTINUOUS
 10
833.0360083978
 20
152.5087771285
 11
832.7591691895
 21
152.4276230956
  0
LINE
  5
394
100
AcDbEntity
  8
0
100
AcDbLine
 62
7
  6
CONTINUOUS
 10
832.205492357
 20
152.0218529312
 11
832.4823307733
 21
152.1030069641
  0
LINE
  5
395
100
AcDbEntity
  8
0
100
AcDbLine
 62
7
  6
CONTINUOUS
 10
833.0360083978
 20
150.8045422676
 11
832.7591691895
 21
150.7233882347
  0
LINE
  5
396
100
AcDbEntity
  8
RUNDUNGEN
100
AcDbLine
 62
7
  6
CONTINUOUS
 10
789.5420132047
 20
86.5617571157
 11
791.5342874875
 21
87.548174944
  0
LINE
  5
397
100
AcDbEntity
  8
RUNDUNGEN
100
AcDbLine
 62
7
  6
CONTINUOUS
 10
808.9906079551
 20
95.0294422179
 11
805.713999778
 21
93.4071230672
  0
LINE
  5
398
100
AcDbEntity
  8
RUNDUNGEN
100
AcDbLine
 62
7
  6
CONTINUOUS
 10
789.5420132047
 20
83.0262232098
 11
792.2452149509
 21
84.3646365091
  0
LINE
  5
399
100
AcDbEntity
  8
RUNDUNGEN
100
AcDbLine
 62
7
  6
CONTINUOUS
 10
808.9906079551
 20
91.493908312
 11
805.713999778
 21
89.8715891613
  0
LINE
  5
39A
100
AcDbEntity
  8
0
100
AcDbLine
 62
7
  6
CONTINUOUS
 10
376.5214218574
 20
121.8445991651
 11
378.1214218574
 21
121.8445991651
  0
LINE
  5
39B
100
AcDbEntity
  8
0
100
AcDbLine
 62
7
  6
CONTINUOUS
 10
370.9805485725
 20
127.8427991651
 11
383.6622951424
 21
127.8427991651
  0
LINE
  5
39C
100
AcDbEntity
  8
0
100
AcDbLine
 62
7
  6
CONTINUOUS
 10
375.5714218574
 20
142.5516112786
 11
379.0714218574
 21
142.5516112786
  0
LINE
  5
39D
100
AcDbEntity
  8
0
100
AcDbLine
 62
7
  6
CONTINUOUS
 10
379.0714218574
 20
149.9179541686
 11
375.5714218574
 21
149.9179541686
  0
LINE
  5
39E
100
AcDbEntity
  8
0
100
AcDbLine
 62
7
  6
CONTINUOUS
 10
379.9911076222
 20
157.5836697799
 11
374.6517360926
 21
157.5836697799
  0
LINE
  5
39F
100
AcDbEntity
  8
0
100
AcDbLine
 62
7
  6
CONTINUOUS
 10
379.3264305133
 20
171.8445991651
 11
375.3164132016
 21
171.8445991651
  0
LINE
  5
3A0
100
AcDbEntity
  8
0
100
AcDbLine
 62
7
  6
CONTINUOUS
 10
379.3264305133
 20
186.1055285502
 11
375.3164132016
 21
186.1055285502
  0
LINE
  5
3A1
100
AcDbEntity
  8
0
100
AcDbLine
 62
7
  6
CONTINUOUS
 10
379.3264305133
 20
196.5452534233
 11
375.3164132016
 21
196.5452534233
  0
LINE
  5
3A2
100
AcDbEntity
  8
0
100
AcDbLine
 62
7
  6
CONTINUOUS
 10
375.3164132016
 20
200.3664579354
 11
379.3264305133
 21
200.3664579354
  0
LINE
  5
3A3
100
AcDbEntity
  8
KONSTRUKTIONSELEMENTE
100
AcDbLine
 62
7
  6
CONTINUOUS
 10
481.5489614043
 20
86.8613200975
 11
473.1343907082
 21
95.2758907936
  0
LINE
  5
3A4
100
AcDbEntity
  8
KONSTRUKTIONSELEMENTE
100
AcDbLine
 62
7
  6
CONTINUOUS
 10
420.3842248317
 20
148.0260566701
 11
411.9696541356
 21
156.4406273663
  0
LINE
  5
3A5
100
AcDbEntity
  8
KONSTRUKTIONSELEMENTE
100
AcDbLine
 62
7
  6
CONTINUOUS
 10
453.335400835
 20
117.2669116885
 11
442.7287991172
 21
127.8735134063
  0
LINE
  5
3A6
100
AcDbEntity
  8
KONSTRUKTIONSELEMENTE
100
AcDbLine
 62
7
  6
CONTINUOUS
 10
485.0844953102
 20
90.3968540034
 11
476.6699246141
 21
98.8114246995
  0
LINE
  5
3A7
100
AcDbEntity
  8
KONSTRUKTIONSELEMENTE
100
AcDbLine
 62
7
  6
CONTINUOUS
 10
423.9197587376
 20
151.5615905761
 11
415.5051880415
 21
159.9761612722
  0
LINE
  5
3A8
100
AcDbEntity
  8
KONSTRUKTIONSELEMENTE
100
AcDbLine
 62
7
  6
CONTINUOUS
 10
456.5173813503
 20
120.4488922039
 11
445.9107796325
 21
131.0554939217
  0
LINE
  5
3A9
100
AcDbEntity
  8
KONSTRUKTIONSELEMENTE
100
AcDbLine
 62
7
  6
CONTINUOUS
 10
387.220916794
 20
190.4524635413
 11
416.2122948227
 21
161.4610855127
  0
LINE
  5
3AA
100
AcDbEntity
  8
RUNDUNGEN
100
AcDbLine
 62
7
  6
CONTINUOUS
 10
539.9559815303
 20
38.4245055862
 11
482.7451151355
 21
95.6353719811
  0
LINE
  5
3AB
100
AcDbEntity
  8
KONSTRUKTIONSELEMENTE
100
AcDbLine
 62
7
  6
CONTINUOUS
 10
427.1724499311
 20
151.5615905761
 11
445.8811349062
 21
132.8529056009
  0
LINE
  5
3AC
100
AcDbEntity
  8
KONSTRUKTIONSELEMENTE
100
AcDbLine
 62
7
  6
CONTINUOUS
 10
458.2851483033
 20
120.4488922039
 11
476.9938332785
 21
101.7402072287
  0
LINE
  5
3AD
100
AcDbEntity
  8
KONSTRUKTIONSELEMENTE
100
AcDbLine
 62
7
  6
CONTINUOUS
 10
430.3544304464
 20
154.7435710914
 11
449.0631154216
 21
136.0348861162
  0
LINE
  5
3AE
100
AcDbEntity
  8
KONSTRUKTIONSELEMENTE
100
AcDbLine
 62
7
  6
CONTINUOUS
 10
461.4671288186
 20
123.6308727192
 11
480.1758137938
 21
104.922187744
  0
LINE
  5
3AF
100
AcDbEntity
  8
RUNDUNGEN
100
AcDbLine
 62
7
  6
CONTINUOUS
 10
486.2806424992
 20
99.1709124292
 11
543.4915154363
 21
41.9600394922
  0
LINE
  5
3B0
100
AcDbEntity
  8
KONSTRUKTIONSELEMENTE
100
AcDbLine
 62
7
  6
CONTINUOUS
 10
391.4635574811
 20
194.6951042284
 11
420.4054253826
 21
165.753236327
  0
LINE
  5
3B1
100
AcDbEntity
  8
KONSTRUKTIONSELEMENTE
100
AcDbLine
 62
7
  6
CONTINUOUS
 10
450.8605271008
 20
136.00524139
 11
461.4671288186
 21
125.3986396722
  0
LINE
  5
3B2
100
AcDbEntity
  8
KONSTRUKTIONSELEMENTE
100
AcDbLine
 62
7
  6
CONTINUOUS
 10
421.9398597503
 20
166.410832981
 11
425.970368403
 21
162.3803243282
  0
LINE
  5
3B3
100
AcDbEntity
  8
KONSTRUKTIONSELEMENTE
100
AcDbLine
 62
7
  6
CONTINUOUS
 10
426.3239217936
 20
162.0267709376
 11
430.3544304464
 21
157.9962622849
  0
LINE
  5
3B4
100
AcDbEntity
  8
KONSTRUKTIONSELEMENTE
100
AcDbLine
 62
7
  6
CONTINUOUS
 10
483.1045963229
 20
105.2460964083
 11
487.1351049757
 21
101.2155877556
  0
LINE
  5
3B5
100
AcDbEntity
  8
KONSTRUKTIONSELEMENTE
100
AcDbLine
 62
7
  6
CONTINUOUS
 10
487.4886583663
 20
100.862034365
 11
491.519167019
 21
96.8315257122
  0
LINE
  5
3B6
100
AcDbEntity
  8
KONSTRUKTIONSELEMENTE
100
AcDbLine
 62
7
  6
CONTINUOUS
 10
454.0425076162
 20
139.1872219053
 11
464.649109334
 21
128.5806201875
  0
LINE
  5
3B7
100
AcDbEntity
  8
KONSTRUKTIONSELEMENTE
100
AcDbLine
 62
7
  6
CONTINUOUS
 10
425.4753936562
 20
169.9463668869
 11
429.505902309
 21
165.9158582342
  0
LINE
  5
3B8
100
AcDbEntity
  8
KONSTRUKTIONSELEMENTE
100
AcDbLine
 62
7
  6
CONTINUOUS
 10
429.8594556996
 20
165.5623048436
 11
433.8899643523
 21
161.5317961908
  0
LINE
  5
3B9
100
AcDbEntity
  8
KONSTRUKTIONSELEMENTE
100
AcDbLine
 62
7
  6
CONTINUOUS
 10
486.6401302289
 20
108.7816303143
 11
490.6706388816
 21
104.7511216615
  0
LINE
  5
3BA
100
AcDbEntity
  8
KONSTRUKTIONSELEMENTE
100
AcDbLine
 62
7
  6
CONTINUOUS
 10
491.0241922722
 20
104.3975682709
 11
495.054700925
 21
100.3670596182
  0
LINE
  5
3BB
100
AcDbEntity
  8
0
100
AcDbLine
 62
7
  6
CONTINUOUS
 10
386.3214218574
 20
149.0407515878
 11
389.3214218574
 21
143.8445991651
  0
LINE
  5
3BC
100
AcDbEntity
  8
0
100
AcDbLine
 62
7
  6
CONTINUOUS
 10
382.8361277398
 20
193.7857756356
 11
379.3264305133
 21
200.3664579354
  0
LINE
  5
3BD
100
AcDbEntity
  8
0
100
AcDbLine
 62
7
  6
CONTINUOUS
 10
339.3214218574
 20
249.5945991651
 11
339.3214218574
 21
204.5945991651
  0
LINE
  5
3BE
100
AcDbEntity
  8
0
100
AcDbLine
 62
7
  6
CONTINUOUS
 10
357.3214218574
 20
249.5945991651
 11
357.3214218574
 21
204.5945991651
  0
LINE
  5
3BF
100
AcDbEntity
  8
0
100
AcDbLine
 62
7
  6
CONTINUOUS
 10
359.3214218574
 20
251.5945991651
 11
359.3214218574
 21
747.5945991651
  0
LINE
  5
3C0
100
AcDbEntity
  8
RUNDUNGEN
100
AcDbLine
 62
7
  6
CONTINUOUS
 10
365.3214218574
 20
133.0445991651
 11
365.3214218574
 21
143.8445991651
  0
LINE
  5
3C1
100
AcDbEntity
  8
RUNDUNGEN
100
AcDbLine
 62
7
  6
CONTINUOUS
 10
368.3214218574
 20
149.0407515878
 11
368.3214218574
 21
155.4945991604
  0
LINE
  5
3C2
100
AcDbEntity
  8
RUNDUNGEN
100
AcDbLine
 62
7
  6
CONTINUOUS
 10
375.5714218574
 20
142.5516112786
 11
374.3065385289
 21
153.0945991651
  0
LINE
  5
3C3
100
AcDbEntity
  8
0
100
AcDbLine
 62
7
  6
CONTINUOUS
 10
375.5714218574
 20
149.9179541686
 11
374.6517360926
 21
157.5836697799
  0
LINE
  5
3C4
100
AcDbEntity
  8
0
100
AcDbLine
 62
7
  6
CONTINUOUS
 10
379.8357989532
 20
165.6434200271
 11
379.9911076222
 21
157.5836697799
  0
LINE
  5
3C5
100
AcDbEntity
  8
BEZUGSACHSEN
100
AcDbLine
 62
7
  6
CONTINUOUS
 10
371.0714218574
 20
190.8445991651
 11
371.0714218574
 21
167.5705291325
  0
LINE
  5
3C6
100
AcDbEntity
  8
RUNDUNGEN
100
AcDbLine
 62
7
  6
CONTINUOUS
 10
371.0714218574
 20
167.5702421943
 11
371.0714218574
 21
158.992812995
  0
LINE
  5
3C7
100
AcDbEntity
  8
0
100
AcDbLine
 62
7
  6
CONTINUOUS
 10
375.5714218574
 20
149.9179541686
 11
375.5714218574
 21
142.5516112786
  0
LINE
  5
3C8
100
AcDbEntity
  8
0
100
AcDbLine
 62
7
  6
CONTINUOUS
 10
379.0714218574
 20
149.9179541686
 11
379.0714218574
 21
142.5516112786
  0
LINE
  5
3C9
100
AcDbEntity
  8
BEZUGSACHSEN
100
AcDbLine
 62
7
  6
CONTINUOUS
 10
383.5714218574
 20
190.8445991651
 11
383.5714218574
 21
167.5705291325
  0
LINE
  5
3CA
100
AcDbEntity
  8
0
100
AcDbLine
 62
7
  6
CONTINUOUS
 10
383.5714218574
 20
167.5702421943
 11
383.5714218574
 21
158.992812995
  0
LINE
  5
3CB
100
AcDbEntity
  8
0
100
AcDbLine
 62
7
  6
CONTINUOUS
 10
386.3214218574
 20
149.0407515878
 11
386.3214218574
 21
155.4945991651
  0
LINE
  5
3CC
100
AcDbEntity
  8
0
100
AcDbLine
 62
7
  6
CONTINUOUS
 10
389.3214218574
 20
143.8445991651
 11
389.3214218574
 21
133.0445991651
  0
LINE
  5
3CD
100
AcDbEntity
  8
0
100
AcDbLine
 62
7
  6
CONTINUOUS
 10
374.8070447616
 20
165.6434200271
 11
374.6517360926
 21
157.5836697799
  0
LINE
  5
3CE
100
AcDbEntity
  8
0
100
AcDbLine
 62
7
  6
CONTINUOUS
 10
395.3214218574
 20
251.5945991651
 11
395.3214218574
 21
747.5945991651
  0
LINE
  5
3CF
100
AcDbEntity
  8
0
100
AcDbLine
 62
7
  6
CONTINUOUS
 10
397.3214218574
 20
204.5945991651
 11
397.3214218574
 21
249.5945991651
  0
LINE
  5
3D0
100
AcDbEntity
  8
0
100
AcDbLine
 62
7
  6
CONTINUOUS
 10
415.3214218574
 20
204.5945991651
 11
415.3214218574
 21
249.5945991651
  0
LINE
  5
3D1
100
AcDbEntity
  8
0
100
AcDbLine
 62
7
  6
CONTINUOUS
 10
379.0714218574
 20
149.9179541686
 11
379.9911076222
 21
157.5836697799
  0
LINE
  5
3D2
100
AcDbEntity
  8
0
100
AcDbLine
 62
7
  6
CONTINUOUS
 10
379.0714218574
 20
142.5516112786
 11
380.3363051859
 21
153.0945991651
  0
LINE
  5
3D3
100
AcDbEntity
  8
KONSTRUKTIONSELEMENTE
100
AcDbLine
 62
7
  6
CONTINUOUS
 10
375.3164132016
 20
200.3664579354
 11
371.8067159751
 21
193.7857756356
  0
LINE
  5
3D4
100
AcDbEntity
  8
RUNDUNGEN
100
AcDbLine
 62
7
  6
CONTINUOUS
 10
368.3214218574
 20
149.0407515878
 11
365.3214218574
 21
143.8445991651
  0
LINE
  5
3D5
100
AcDbEntity
  8
KONSTRUKTIONSELEMENTE
100
AcDbLine
 62
7
  6
CONTINUOUS
 10
429.505902309
 20
165.9158582342
 11
425.970368403
 21
162.3803243282
  0
LINE
  5
3D6
100
AcDbEntity
  8
KONSTRUKTIONSELEMENTE
100
AcDbLine
 62
7
  6
CONTINUOUS
 10
429.8594556996
 20
165.5623048436
 11
426.3239217936
 21
162.0267709376
  0
LINE
  5
3D7
100
AcDbEntity
  8
KONSTRUKTIONSELEMENTE
100
AcDbLine
 62
7
  6
CONTINUOUS
 10
490.6706388816
 20
104.7511216615
 11
487.1351049757
 21
101.2155877556
  0
LINE
  5
3D8
100
AcDbEntity
  8
KONSTRUKTIONSELEMENTE
100
AcDbLine
 62
7
  6
CONTINUOUS
 10
491.0241922722
 20
104.3975682709
 11
487.4886583663
 21
100.862034365
  0
LINE
  5
3D9
100
AcDbEntity
  8
RUNDUNGEN
100
AcDbLine
 62
7
  6
CONTINUOUS
 10
482.745199729
 20
95.6352873876
 11
486.2807336349
 21
99.1708212935
  0
LINE
  5
3DA
100
AcDbEntity
  8
RUNDUNGEN
100
AcDbLine
 62
7
  6
CONTINUOUS
 10
486.4326757239
 20
99.0188792045
 11
482.897141818
 21
95.4833452985
  0
LINE
  5
3DB
100
AcDbEntity
  8
RUNDUNGEN
100
AcDbLine
 62
7
  6
CONTINUOUS
 10
539.9559815303
 20
38.4245055862
 11
543.4915154363
 21
41.9600394922
  0
ARC
  5
3DC
100
AcDbEntity
  8
RUNDUNGEN
100
AcDbCircle
 62
7
  6
CONTINUOUS
 10
799.3434315015
 20
186.7485513571
 40
27.7557384854
100
AcDbArc
 50
269.029932686
 51
269.9945997237
  0
ARC
  5
3DD
100
AcDbEntity
  8
RUNDUNGEN
100
AcDbCircle
 62
7
  6
CONTINUOUS
 10
798.8735251913
 20
153.0945991651
 40
6.0
100
AcDbArc
 50
116.2394469635
 51
180.0
  0
ARC
  5
3DE
100
AcDbEntity
  8
RUNDUNGEN
100
AcDbCircle
 62
7
  6
CONTINUOUS
 10
798.0416181096
 20
154.7827386218
 40
4.1180105821
100
AcDbArc
 50
113.1855758857
 51
116.2420010499
  0
CIRCLE
  5
3DF
100
AcDbEntity
  8
BEZUGSACHSEN
100
AcDbCircle
 62
7
  6
CONTINUOUS
 10
801.0735251913
 20
135.6445991651
 40
1.75
  0
ARC
  5
3E0
100
AcDbEntity
  8
0
100
AcDbCircle
 62
7
  6
CONTINUOUS
 10
807.2035321528
 20
80.2910705186
 40
0.3335678168
100
AcDbArc
 50
78.8903114982
 51
89.9692795105
  0
ARC
  5
3E1
100
AcDbEntity
  8
KONSTRUKTIONSELEMENTE
100
AcDbCircle
 62
7
  6
CONTINUOUS
 10
816.0047024415
 20
191.3086333045
 40
30.7197128927
100
AcDbArc
 50
274.4262461443
 51
283.6815744353
  0
ARC
  5
3E2
100
AcDbEntity
  8
KONSTRUKTIONSELEMENTE
100
AcDbCircle
 62
7
  6
CONTINUOUS
 10
815.8735251913
 20
97.7032391651
 40
28.79136
100
AcDbArc
 50
56.9721560344
 51
79.9991254185
  0
ARC
  5
3E3
100
AcDbEntity
  8
KONSTRUKTIONSELEMENTE
100
AcDbCircle
 62
7
  6
CONTINUOUS
 10
815.8735251913
 20
97.7032391651
 40
28.79136
100
AcDbArc
 50
100.0008745815
 51
123.0278439656
  0
ARC
  5
3E4
100
AcDbEntity
  8
RUNDUNGEN
100
AcDbCircle
 62
7
  6
CONTINUOUS
 10
832.4036130207
 20
186.7494806905
 40
27.7566678193
100
AcDbArc
 50
270.0054115361
 51
270.9708056369
  0
ARC
  5
3E5
100
AcDbEntity
  8
BEZUGSACHSEN
100
AcDbCircle
 62
7
  6
CONTINUOUS
 10
815.8735251913
 20
171.8445991651
 40
12.75
100
AcDbArc
 50
134.9044389838
 51
45.0955610162
  0
ARC
  5
3E6
100
AcDbEntity
  8
0
100
AcDbCircle
 62
7
  6
CONTINUOUS
 10
815.8735251913
 20
278.5945991651
 40
9.0
100
AcDbArc
 50
0.0
 51
180.0
  0
ARC
  5
3E7
100
AcDbEntity
  8
0
100
AcDbCircle
 62
7
  6
CONTINUOUS
 10
815.8735251913
 20
175.5945991651
 40
9.0
100
AcDbArc
 50
180.0
 51
360.0
  0
ARC
  5
3E8
100
AcDbEntity
  8
RUNDUNGEN
100
AcDbCircle
 62
7
  6
CONTINUOUS
 10
832.8735251913
 20
153.0945991651
 40
6.0
100
AcDbArc
 50
0.0
 51
63.7605530365
  0
ARC
  5
3E9
100
AcDbEntity
  8
KONSTRUKTIONSELEMENTE
100
AcDbCircle
 62
7
  6
CONTINUOUS
 10
815.8735251913
 20
146.2845991651
 40
5.0
100
AcDbArc
 50
0.0000014742
 51
180.0
  0
ARC
  5
3EA
100
AcDbEntity
  8
RUNDUNGEN
100
AcDbCircle
 62
7
  6
CONTINUOUS
 10
833.7054322731
 20
154.7827386218
 40
4.1180105821
100
AcDbArc
 50
63.7579989501
 51
66.8144241143
  0
ARC
  5
3EB
100
AcDbEntity
  8
KONSTRUKTIONSELEMENTE
100
AcDbCircle
 62
7
  6
CONTINUOUS
 10
815.8735251913
 20
86.5641898578
 40
2.5
100
AcDbArc
 50
180.0
 51
360.0
  0
ARC
  5
3EC
100
AcDbEntity
  8
KONSTRUKTIONSELEMENTE
100
AcDbCircle
 62
7
  6
CONTINUOUS
 10
815.8735251913
 20
109.0787605539
 40
2.5
100
AcDbArc
 50
0.0
 51
180.0
  0
ARC
  5
3ED
100
AcDbEntity
  8
KONSTRUKTIONSELEMENTE
100
AcDbCircle
 62
7
  6
CONTINUOUS
 10
815.8735251913
 20
147.7289264305
 40
2.5
100
AcDbArc
 50
180.0
 51
360.0
  0
ARC
  5
3EE
100
AcDbEntity
  8
KONSTRUKTIONSELEMENTE
100
AcDbCircle
 62
7
  6
CONTINUOUS
 10
815.8735251913
 20
117.173765938
 40
2.25
100
AcDbArc
 50
180.0
 51
360.0
  0
ARC
  5
3EF
100
AcDbEntity
  8
KONSTRUKTIONSELEMENTE
100
AcDbCircle
 62
7
  6
CONTINUOUS
 10
815.8735251913
 20
139.2803676558
 40
2.25
100
AcDbArc
 50
79.84376417
 51
100.15623583
  0
ARC
  5
3F0
100
AcDbEntity
  8
0
100
AcDbCircle
 62
7
  6
CONTINUOUS
 10
825.8437514238
 20
80.796481643
 40
1.7033694965
100
AcDbArc
 50
350.5636876714
 51
355.3957076166
  0
ARC
  5
3F1
100
AcDbEntity
  8
0
100
AcDbCircle
 62
7
  6
CONTINUOUS
 10
815.8735251913
 20
394.5945991651
 40
161.0
100
AcDbArc
 50
180.0
 51
266.795217075
  0
ARC
  5
3F2
100
AcDbEntity
  8
0
100
AcDbCircle
 62
7
  6
CONTINUOUS
 10
815.8735251913
 20
394.5945991651
 40
161.0
100
AcDbArc
 50
273.204782925
 51
360.0
  0
ARC
  5
3F3
100
AcDbEntity
  8
0
100
AcDbCircle
 62
7
  6
CONTINUOUS
 10
815.8735251913
 20
604.5945991651
 40
161.0
100
AcDbArc
 50
0.0
 51
180.0
  0
ARC
  5
3F4
100
AcDbEntity
  8
0
100
AcDbCircle
 62
7
  6
CONTINUOUS
 10
815.8735251913
 20
394.5945991651
 40
125.0
100
AcDbArc
 50
180.0
 51
265.8706822275
  0
ARC
  5
3F5
100
AcDbEntity
  8
0
100
AcDbCircle
 62
7
  6
CONTINUOUS
 10
815.8735251913
 20
394.5945991651
 40
125.0
100
AcDbArc
 50
274.1293177725
 51
360.0
  0
ARC
  5
3F6
100
AcDbEntity
  8
0
100
AcDbCircle
 62
7
  6
CONTINUOUS
 10
815.8735251913
 20
604.5945991651
 40
125.0
100
AcDbArc
 50
0.0
 51
180.0
  0
ARC
  5
3F7
100
AcDbEntity
  8
0
100
AcDbCircle
 62
7
  6
CONTINUOUS
 10
378.1214218574
 20
133.0445991651
 40
11.2
100
AcDbArc
 50
283.4238135477
 51
360.0
  0
ARC
  5
3F8
100
AcDbEntity
  8
0
100
AcDbCircle
 62
7
  6
CONTINUOUS
 10
378.1214218574
 20
133.0445991651
 40
11.2
100
AcDbArc
 50
270.0
 51
279.3310985005
  0
ARC
  5
3F9
100
AcDbEntity
  8
RUNDUNGEN
100
AcDbCircle
 62
7
  6
CONTINUOUS
 10
376.5214218574
 20
133.0445991651
 40
11.2
100
AcDbArc
 50
180.0
 51
270.0
  0
ARC
  5
3FA
100
AcDbEntity
  8
BEZUGSACHSEN
100
AcDbCircle
 62
7
  6
CONTINUOUS
 10
377.3214218574
 20
190.8445991651
 40
6.25
100
AcDbArc
 50
151.9275130641
 51
180.0
  0
ARC
  5
3FB
100
AcDbEntity
  8
BEZUGSACHSEN
100
AcDbCircle
 62
7
  6
CONTINUOUS
 10
377.3214218574
 20
190.8445991651
 40
6.25
100
AcDbArc
 50
0.0
 51
28.0724869359
  0
CIRCLE
  5
3FC
100
AcDbEntity
  8
BEZUGSACHSEN
100
AcDbCircle
 62
7
  6
CONTINUOUS
 10
377.3214218574
 20
135.8445991651
 40
5.6906
  0
ARC
  5
3FD
100
AcDbEntity
  8
RUNDUNGEN
100
AcDbCircle
 62
7
  6
CONTINUOUS
 10
371.9214218574
 20
155.4945991651
 40
3.6
100
AcDbArc
 50
103.3859285006
 51
179.9999751696
  0
ARC
  5
3FE
100
AcDbEntity
  8
0
100
AcDbCircle
 62
7
  6
CONTINUOUS
 10
382.7214218574
 20
155.4945991651
 40
3.6
100
AcDbArc
 50
0.0
 51
76.6140714994
  0
ARC
  5
3FF
100
AcDbEntity
  8
RUNDUNGEN
100
AcDbCircle
 62
7
  6
CONTINUOUS
 10
370.3824998614
 20
156.6716289566
 40
2.3717517148
100
AcDbArc
 50
49.5447012632
 51
53.0949122137
  0
ARC
  5
400
100
AcDbEntity
  8
0
100
AcDbCircle
 62
7
  6
CONTINUOUS
 10
384.2603438534
 20
156.6716289566
 40
2.3717517148
100
AcDbArc
 50
126.9050877863
 51
130.4552987368
  0
ARC
  5
401
100
AcDbEntity
  8
0
100
AcDbCircle
 62
7
  6
CONTINUOUS
 10
377.3214218574
 20
204.5945991651
 40
38.0
100
AcDbArc
 50
180.0
 51
260.5278011496
  0
ARC
  5
402
100
AcDbEntity
  8
0
100
AcDbCircle
 62
7
  6
CONTINUOUS
 10
377.3214218574
 20
204.5945991651
 40
38.0
100
AcDbArc
 50
279.4721988504
 51
310.4705687981
  0
ARC
  5
403
100
AcDbEntity
  8
0
100
AcDbCircle
 62
7
  6
CONTINUOUS
 10
377.3214218574
 20
204.5945991651
 40
38.0
100
AcDbArc
 50
319.5294312019
 51
360.0
  0
ARC
  5
404
100
AcDbEntity
  8
0
100
AcDbCircle
 62
7
  6
CONTINUOUS
 10
377.3214218574
 20
249.5945991651
 40
38.0
100
AcDbArc
 50
0.0
 51
61.7202645382
  0
ARC
  5
405
100
AcDbEntity
  8
0
100
AcDbCircle
 62
7
  6
CONTINUOUS
 10
377.3214218574
 20
249.5945991651
 40
38.0
100
AcDbArc
 50
118.2797354618
 51
180.0
  0
ARC
  5
406
100
AcDbEntity
  8
0
100
AcDbCircle
 62
7
  6
CONTINUOUS
 10
377.3214218574
 20
204.5945991651
 40
20.0
100
AcDbArc
 50
180.0
 51
251.7780468296
  0
ARC
  5
407
100
AcDbEntity
  8
0
100
AcDbCircle
 62
7
  6
CONTINUOUS
 10
377.3214218574
 20
204.5945991651
 40
20.0
100
AcDbArc
 50
288.2219531704
 51
306.3706502024
  0
ARC
  5
408
100
AcDbEntity
  8
0
100
AcDbCircle
 62
7
  6
CONTINUOUS
 10
377.3214218574
 20
204.5945991651
 40
20.0
100
AcDbArc
 50
323.6293497976
 51
360.0
  0
ARC
  5
409
100
AcDbEntity
  8
0
100
AcDbCircle
 62
7
  6
CONTINUOUS
 10
377.3214218574
 20
249.5945991651
 40
20.0
100
AcDbArc
 50
0.0
 51
25.7786285893
  0
ARC
  5
40A
100
AcDbEntity
  8
0
100
AcDbCircle
 62
7
  6
CONTINUOUS
 10
377.3214218574
 20
249.5945991651
 40
20.0
100
AcDbArc
 50
154.2213714107
 51
180.0
  0
ARC
  5
40B
100
AcDbEntity
  8
0
100
AcDbCircle
 62
7
  6
CONTINUOUS
 10
377.3214218574
 20
251.5945991651
 40
18.0
100
AcDbArc
 50
180.0
 51
360.0
  0
ARC
  5
40C
100
AcDbEntity
  8
KONSTRUKTIONSELEMENTE
100
AcDbCircle
 62
7
  6
CONTINUOUS
 10
389.3422371376
 20
192.5737838849
 40
3.0
100
AcDbArc
 50
45.0
 51
225.0
  0
ARC
  5
40D
100
AcDbEntity
  8
KONSTRUKTIONSELEMENTE
100
AcDbCircle
 62
7
  6
CONTINUOUS
 10
427.137094592
 20
154.7789264305
 40
9.55
100
AcDbArc
 50
328.6297070454
 51
45.0
  0
ARC
  5
40E
100
AcDbEntity
  8
KONSTRUKTIONSELEMENTE
100
AcDbCircle
 62
7
  6
CONTINUOUS
 10
427.137094592
 20
154.7789264305
 40
9.55
100
AcDbArc
 50
225.0
 51
301.3702929546
  0
ARC
  5
40F
100
AcDbEntity
  8
KONSTRUKTIONSELEMENTE
100
AcDbCircle
 62
7
  6
CONTINUOUS
 10
418.7225238959
 20
163.1934971266
 40
9.55
100
AcDbArc
 50
153.3390960058
 51
225.0
  0
ARC
  5
410
100
AcDbEntity
  8
KONSTRUKTIONSELEMENTE
100
AcDbCircle
 62
7
  6
CONTINUOUS
 10
418.7225238959
 20
163.1934971266
 40
9.55
100
AcDbArc
 50
45.0
 51
116.6609039942
  0
ARC
  5
411
100
AcDbEntity
  8
KONSTRUKTIONSELEMENTE
100
AcDbCircle
 62
7
  6
CONTINUOUS
 10
427.137094592
 20
154.7789264305
 40
4.55
100
AcDbArc
 50
344.6522021471
 51
45.0
  0
ARC
  5
412
100
AcDbEntity
  8
KONSTRUKTIONSELEMENTE
100
AcDbCircle
 62
7
  6
CONTINUOUS
 10
427.137094592
 20
154.7789264305
 40
4.55
100
AcDbArc
 50
225.0
 51
285.3477978529
  0
ARC
  5
413
100
AcDbEntity
  8
KONSTRUKTIONSELEMENTE
100
AcDbCircle
 62
7
  6
CONTINUOUS
 10
418.7225238959
 20
163.1934971266
 40
4.55
100
AcDbArc
 50
176.2724010126
 51
225.0
  0
ARC
  5
414
100
AcDbEntity
  8
KONSTRUKTIONSELEMENTE
100
AcDbCircle
 62
7
  6
CONTINUOUS
 10
418.7225238959
 20
163.1934971266
 40
4.55
100
AcDbArc
 50
45.0
 51
93.7275989874
  0
ARC
  5
415
100
AcDbEntity
  8
KONSTRUKTIONSELEMENTE
100
AcDbCircle
 62
7
  6
CONTINUOUS
 10
418.3336151662
 20
163.5824058562
 40
3.0
100
AcDbArc
 50
225.0
 51
45.0
  0
ARC
  5
416
100
AcDbEntity
  8
KONSTRUKTIONSELEMENTE
100
AcDbCircle
 62
7
  6
CONTINUOUS
 10
428.7634401887
 20
153.1525808337
 40
2.25
100
AcDbArc
 50
45.0
 51
225.0
  0
ARC
  5
417
100
AcDbEntity
  8
0
100
AcDbCircle
 62
7
  6
CONTINUOUS
 10
377.3214218574
 20
747.5945991651
 40
18.0
100
AcDbArc
 50
0.0
 51
180.0
  0
ARC
  5
418
100
AcDbEntity
  8
KONSTRUKTIONSELEMENTE
100
AcDbCircle
 62
7
  6
CONTINUOUS
 10
488.3018311646
 20
93.6141898578
 40
9.55
100
AcDbArc
 50
330.1951355235
 51
45.0
  0
ARC
  5
419
100
AcDbEntity
  8
KONSTRUKTIONSELEMENTE
100
AcDbCircle
 62
7
  6
CONTINUOUS
 10
488.3018311646
 20
93.6141898578
 40
9.55
100
AcDbArc
 50
225.0
 51
299.8048644765
  0
ARC
  5
41A
100
AcDbEntity
  8
KONSTRUKTIONSELEMENTE
100
AcDbCircle
 62
7
  6
CONTINUOUS
 10
479.8872604685
 20
102.0287605539
 40
9.55
100
AcDbArc
 50
148.6297070454
 51
225.0
  0
ARC
  5
41B
100
AcDbEntity
  8
KONSTRUKTIONSELEMENTE
100
AcDbCircle
 62
7
  6
CONTINUOUS
 10
479.8872604685
 20
102.0287605539
 40
9.55
100
AcDbArc
 50
45.0
 51
121.3702929546
  0
ARC
  5
41C
100
AcDbEntity
  8
KONSTRUKTIONSELEMENTE
100
AcDbCircle
 62
7
  6
CONTINUOUS
 10
458.9922550845
 20
122.923765938
 40
8.0
100
AcDbArc
 50
331.3642958278
 51
45.0
  0
ARC
  5
41D
100
AcDbEntity
  8
KONSTRUKTIONSELEMENTE
100
AcDbCircle
 62
7
  6
CONTINUOUS
 10
458.9922550845
 20
122.923765938
 40
8.0
100
AcDbArc
 50
225.0
 51
298.6357041722
  0
ARC
  5
41E
100
AcDbEntity
  8
KONSTRUKTIONSELEMENTE
100
AcDbCircle
 62
7
  6
CONTINUOUS
 10
448.3856533667
 20
133.5303676558
 40
8.0
100
AcDbArc
 50
151.3642958278
 51
225.0
  0
ARC
  5
41F
100
AcDbEntity
  8
KONSTRUKTIONSELEMENTE
100
AcDbCircle
 62
7
  6
CONTINUOUS
 10
448.3856533667
 20
133.5303676558
 40
8.0
100
AcDbArc
 50
45.0
 51
118.6357041722
  0
ARC
  5
420
100
AcDbEntity
  8
KONSTRUKTIONSELEMENTE
100
AcDbCircle
 62
7
  6
CONTINUOUS
 10
488.3018311646
 20
93.6141898578
 40
4.55
100
AcDbArc
 50
348.3583327703
 51
45.0
  0
ARC
  5
421
100
AcDbEntity
  8
KONSTRUKTIONSELEMENTE
100
AcDbCircle
 62
7
  6
CONTINUOUS
 10
488.3018311646
 20
93.6141898578
 40
4.55
100
AcDbArc
 50
225.0
 51
281.6416672297
  0
ARC
  5
422
100
AcDbEntity
  8
KONSTRUKTIONSELEMENTE
100
AcDbCircle
 62
7
  6
CONTINUOUS
 10
479.8872604685
 20
102.0287605539
 40
4.55
100
AcDbArc
 50
164.6522021471
 51
225.0
  0
ARC
  5
423
100
AcDbEntity
  8
KONSTRUKTIONSELEMENTE
100
AcDbCircle
 62
7
  6
CONTINUOUS
 10
479.8872604685
 20
102.0287605539
 40
4.55
100
AcDbArc
 50
45.0
 51
105.3477978529
  0
ARC
  5
424
100
AcDbEntity
  8
KONSTRUKTIONSELEMENTE
100
AcDbCircle
 62
7
  6
CONTINUOUS
 10
458.9922550845
 20
122.923765938
 40
3.5
100
AcDbArc
 50
355.1538775079
 51
45.0
  0
ARC
  5
425
100
AcDbEntity
  8
KONSTRUKTIONSELEMENTE
100
AcDbCircle
 62
7
  6
CONTINUOUS
 10
458.9922550845
 20
122.923765938
 40
3.5
100
AcDbArc
 50
225.0
 51
274.8461224921
  0
ARC
  5
426
100
AcDbEntity
  8
KONSTRUKTIONSELEMENTE
100
AcDbCircle
 62
7
  6
CONTINUOUS
 10
448.3856533667
 20
133.5303676558
 40
3.5
100
AcDbArc
 50
175.1538775079
 51
225.0
  0
ARC
  5
427
100
AcDbEntity
  8
KONSTRUKTIONSELEMENTE
100
AcDbCircle
 62
7
  6
CONTINUOUS
 10
448.3856533667
 20
133.5303676558
 40
3.5
100
AcDbArc
 50
45.0
 51
94.8461224921
  0
ARC
  5
428
100
AcDbEntity
  8
KONSTRUKTIONSELEMENTE
100
AcDbCircle
 62
7
  6
CONTINUOUS
 10
459.8761385609
 20
122.0398824615
 40
2.25
100
AcDbArc
 50
45.0
 51
225.0
  0
ARC
  5
429
100
AcDbEntity
  8
KONSTRUKTIONSELEMENTE
100
AcDbCircle
 62
7
  6
CONTINUOUS
 10
478.6144682624
 20
103.3015527601
 40
2.25
100
AcDbArc
 50
225.0
 51
45.0
  0
ARC
  5
42A
100
AcDbEntity
  8
KONSTRUKTIONSELEMENTE
100
AcDbCircle
 62
7
  6
CONTINUOUS
 10
447.5017698902
 20
134.4142511323
 40
2.25
100
AcDbArc
 50
225.0
 51
45.0
  0
SPLINE
  5
42B
100
AcDbEntity
  8
KONSTRUKTIONSELEMENTE
100
AcDbSpline
 62
7
  6
CONTINUOUS
 70
0
 71
3
 72
13
 73
9
 74
0
 42
0.0000001
 43
0.0000001
 44
0.0000000001
 40
0.0
 40
0.0
 40
0.0
 40
0.0
 40
0.1194785188
 40
0.2392741704
 40
0.3602835725
 40
0.4830059608
 40
0.7355440041
 40
1.0
 40
1.0
 40
1.0
 40
1.0
 10
807.8735251913
 20
117.9740184697
 30
0.0
 10
807.8735251913
 20
118.3326580809
 30
0.0
 10
807.9496206745
 20
119.0531647099
 30
0.0
 10
808.2851969021
 20
120.0886604656
 30
0.0
 10
808.8211813674
 20
121.0469801448
 30
0.0
 10
809.7788769331
 20
122.1973599057
 30
0.0
 10
811.3651955758
 20
123.336702425
 30
0.0
 10
812.8452490183
 20
123.8642284453
 30
0.0
 10
813.6194128708
 20
124.0397845904
 30
0.0
  0
SPLINE
  5
42C
100
AcDbEntity
  8
KONSTRUKTIONSELEMENTE
100
AcDbSpline
 62
7
  6
CONTINUOUS
 70
0
 71
3
 72
13
 73
9
 74
0
 42
0.0000001
 43
0.0000001
 44
0.0000000001
 40
0.0
 40
0.0
 40
0.0
 40
0.0
 40
0.2644681654
 40
0.5169944072
 40
0.6397129492
 40
0.760706397
 40
0.8805228501
 40
1.0
 40
1.0
 40
1.0
 40
1.0
 10
818.1256959701
 20
124.0402158027
 30
0.0
 10
818.9000932966
 20
123.8647356984
 30
0.0
 10
820.3805841442
 20
123.3374149698
 30
0.0
 10
821.9674345513
 20
122.1980625063
 30
0.0
 10
822.9254065106
 20
121.0476199575
 30
0.0
 10
823.4617232684
 20
120.089198171
 30
0.0
 10
823.797337605
 20
119.0534447585
 30
0.0
 10
823.8735251913
 20
118.33273274
 30
0.0
 10
823.8735251913
 20
117.9740184697
 30
0.0
  0
SPLINE
  5
42D
100
AcDbEntity
  8
KONSTRUKTIONSELEMENTE
100
AcDbSpline
 62
7
  6
CONTINUOUS
 70
0
 71
3
 72
10
 73
6
 74
0
 42
0.0000001
 43
0.0000001
 44
0.0000000001
 40
0.0
 40
0.0
 40
0.0
 40
0.0
 40
0.3116645009
 40
0.6060899939
 40
1.0
 40
1.0
 40
1.0
 40
1.0
 10
812.3735251913
 20
117.9740184697
 30
0.0
 10
812.3735251913
 20
118.1711733161
 30
0.0
 10
812.5610537479
 20
118.5424995108
 30
0.0
 10
813.0183730175
 20
118.9763726006
 30
0.0
 10
813.3967743297
 20
119.203782634
 30
0.0
 10
813.621533303
 20
119.311370765
 30
0.0
  0
SPLINE
  5
42E
100
AcDbEntity
  8
KONSTRUKTIONSELEMENTE
100
AcDbSpline
 62
7
  6
CONTINUOUS
 70
0
 71
3
 72
10
 73
6
 74
0
 42
0.0000001
 43
0.0000001
 44
0.0000000001
 40
0.0
 40
0.0
 40
0.0
 40
0.0
 40
0.3939255147
 40
0.6883533687
 40
1.0
 40
1.0
 40
1.0
 40
1.0
 10
818.1252744268
 20
119.3114826931
 30
0.0
 10
818.3500823328
 20
119.2038927924
 30
0.0
 10
818.7285448544
 20
118.9764472242
 30
0.0
 10
819.1859863721
 20
118.5425694808
 30
0.0
 10
819.3735251913
 20
118.1711897736
 30
0.0
 10
819.3735251913
 20
117.9740184697
 30
0.0
  0
SPLINE
  5
42F
100
AcDbEntity
  8
KONSTRUKTIONSELEMENTE
100
AcDbSpline
 62
7
  6
CONTINUOUS
 70
0
 71
3
 72
10
 73
6
 74
0
 42
0.0000001
 43
0.0000001
 44
0.0000000001
 40
0.0
 40
0.0
 40
0.0
 40
0.0
 40
0.3192646009
 40
0.6086079864
 40
1.0
 40
1.0
 40
1.0
 40
1.0
 10
819.3735251913
 20
107.3674167519
 30
0.0
 10
819.3735251913
 20
107.1956769767
 30
0.0
 10
819.2315094048
 20
106.8748257618
 30
0.0
 10
818.8657033901
 20
106.4814734224
 30
0.0
 10
818.5624155574
 20
106.2684335091
 30
0.0
 10
818.3798792563
 20
106.1635189126
 30
0.0
  0
SPLINE
  5
430
100
AcDbEntity
  8
KONSTRUKTIONSELEMENTE
100
AcDbSpline
 62
7
  6
CONTINUOUS
 70
0
 71
3
 72
10
 73
6
 74
0
 42
0.0000001
 43
0.0000001
 44
0.0000000001
 40
0.0
 40
0.0
 40
0.0
 40
0.0
 40
0.3914026107
 40
0.6807340322
 40
1.0
 40
1.0
 40
1.0
 40
1.0
 10
813.3670795902
 20
106.1635713838
 30
0.0
 10
813.1845523468
 20
106.2684867933
 30
0.0
 10
812.881312766
 20
106.4815458648
 30
0.0
 10
812.5154920614
 20
106.8748442254
 30
0.0
 10
812.3735251913
 20
107.1956869663
 30
0.0
 10
812.3735251913
 20
107.3674167519
 30
0.0
  0
SPLINE
  5
431
100
AcDbEntity
  8
KONSTRUKTIONSELEMENTE
100
AcDbSpline
 62
7
  6
CONTINUOUS
 70
0
 71
3
 72
13
 73
9
 74
0
 42
0.0000001
 43
0.0000001
 44
0.0000000001
 40
0.0
 40
0.0
 40
0.0
 40
0.0
 40
0.1197290731
 40
0.2397365246
 40
0.3609040964
 40
0.4836831257
 40
0.7359942557
 40
1.0
 40
1.0
 40
1.0
 40
1.0
 10
823.8735251913
 20
107.3674167519
 30
0.0
 10
823.8735251913
 20
107.0182030498
 30
0.0
 10
823.8014215695
 20
106.3168620138
 30
0.0
 10
823.4831362348
 20
105.3066437656
 30
0.0
 10
822.9737526931
 20
104.368065547
 30
0.0
 10
822.0619521646
 20
103.2352910403
 30
0.0
 10
820.546060899
 20
102.0981476242
 30
0.0
 10
819.1231740489
 20
101.5516019003
 30
0.0
 10
818.3769495273
 20
101.3616334097
 30
0.0
  0
SPLINE
  5
432
100
AcDbEntity
  8
KONSTRUKTIONSELEMENTE
100
AcDbSpline
 62
7
  6
CONTINUOUS
 70
0
 71
3
 72
13
 73
9
 74
0
 42
0.0000001
 43
0.0000001
 44
0.0000000001
 40
0.0
 40
0.0
 40
0.0
 40
0.0
 40
0.2640112835
 40
0.5163080567
 40
0.6390830379
 40
0.7602378991
 40
0.8802701562
 40
1.0
 40
1.0
 40
1.0
 40
1.0
 10
813.3691973888
 20
101.3618805992
 30
0.0
 10
812.6230575665
 20
101.5519152005
 30
0.0
 10
811.2003811251
 20
102.0984818317
 30
0.0
 10
809.684791058
 20
103.2356271727
 30
0.0
 10
808.7732007806
 20
104.3682426813
 30
0.0
 10
808.2638098648
 20
105.3067199678
 30
0.0
 10
807.9456731457
 20
106.316908071
 30
0.0
 10
807.8735251913
 20
107.0182379545
 30
0.0
 10
807.8735251913
 20
107.3674167519
 30
0.0
  0
SPLINE
  5
433
100
AcDbEntity
  8
KONSTRUKTIONSELEMENTE
100
AcDbSpline
 62
7
  6
CONTINUOUS
 70
0
 71
3
 72
10
 73
6
 74
0
 42
0.0000001
 43
0.0000001
 44
0.0000000001
 40
0.0
 40
0.0
 40
0.0
 40
0.0
 40
0.3192646009
 40
0.6086079864
 40
1.0
 40
1.0
 40
1.0
 40
1.0
 10
812.3735251913
 20
149.0867168419
 30
0.0
 10
812.3735251913
 20
149.2584566171
 30
0.0
 10
812.5155409779
 20
149.5793078321
 30
0.0
 10
812.8813469925
 20
149.9726601714
 30
0.0
 10
813.1846348253
 20
150.1857000847
 30
0.0
 10
813.3671711263
 20
150.2906146812
 30
0.0
  0
SPLINE
  5
434
100
AcDbEntity
  8
KONSTRUKTIONSELEMENTE
100
AcDbSpline
 62
7
  6
CONTINUOUS
 70
0
 71
3
 72
10
 73
6
 74
0
 42
0.0000001
 43
0.0000001
 44
0.0000000001
 40
0.0
 40
0.0
 40
0.0
 40
0.0
 40
0.3914026107
 40
0.6807340322
 40
1.0
 40
1.0
 40
1.0
 40
1.0
 10
818.3799707924
 20
150.29056221
 30
0.0
 10
818.5624980359
 20
150.1856468005
 30
0.0
 10
818.8657376166
 20
149.9725877291
 30
0.0
 10
819.2315583212
 20
149.5792893685
 30
0.0
 10
819.3735251913
 20
149.2584466276
 30
0.0
 10
819.3735251913
 20
149.0867168419
 30
0.0
  0
SPLINE
  5
435
100
AcDbEntity
  8
KONSTRUKTIONSELEMENTE
100
AcDbSpline
 62
7
  6
CONTINUOUS
 70
0
 71
3
 72
9
 73
5
 74
0
 42
0.0000001
 43
0.0000001
 44
0.0000000001
 40
0.0
 40
0.0
 40
0.0
 40
0.0
 40
0.2518169059
 40
1.0
 40
1.0
 40
1.0
 40
1.0
 10
813.3722045411
 20
160.6804814988
 30
0.0
 10
812.9553866324
 20
160.7132697192
 30
0.0
 10
811.3029156235
 20
160.8761746519
 30
0.0
 10
809.6630799884
 20
161.17016629
 30
0.0
 10
808.456434131
 20
161.4654462297
 30
0.0
  0
SPLINE
  5
436
100
AcDbEntity
  8
KONSTRUKTIONSELEMENTE
100
AcDbSpline
 62
7
  6
CONTINUOUS
 70
0
 71
3
 72
9
 73
5
 74
0
 42
0.0000001
 43
0.0000001
 44
0.0000000001
 40
0.0
 40
0.0
 40
0.0
 40
0.0
 40
0.4771280743
 40
1.0
 40
1.0
 40
1.0
 40
1.0
 10
828.5173799944
 20
170.1937780255
 30
0.0
 10
827.1045344088
 20
169.2141735099
 30
0.0
 10
823.8122147256
 20
167.6272997949
 30
0.0
 10
820.2511147517
 20
166.8857494264
 30
0.0
 10
818.3758921917
 20
166.7034776272
 30
0.0
  0
SPLINE
  5
437
100
AcDbEntity
  8
KONSTRUKTIONSELEMENTE
100
AcDbSpline
 62
7
  6
CONTINUOUS
 70
0
 71
3
 72
9
 73
5
 74
0
 42
0.0000001
 43
0.0000001
 44
0.0000000001
 40
0.0
 40
0.0
 40
0.0
 40
0.0
 40
0.5228783463
 40
1.0
 40
1.0
 40
1.0
 40
1.0
 10
813.3714983644
 20
166.7034378527
 30
0.0
 10
811.4957970557
 20
166.8857362182
 30
0.0
 10
807.9338206225
 20
167.6274956834
 30
0.0
 10
804.6408222751
 20
169.21507011
 30
0.0
 10
803.2277824801
 20
170.1950840565
 30
0.0
  0
SPLINE
  5
438
100
AcDbEntity
  8
0
100
AcDbSpline
 62
7
  6
CONTINUOUS
 70
0
 71
3
 72
11
 73
7
 74
0
 42
0.0000001
 43
0.0000001
 44
0.0000000001
 40
0.0
 40
0.0
 40
0.0
 40
0.0
 40
0.2192989281
 40
0.4548225453
 40
0.7152180566
 40
1.0
 40
1.0
 40
1.0
 40
1.0
 10
827.5470174583
 20
80.5115012024
 30
0.0
 10
827.5470174583
 20
80.7426724862
 30
0.0
 10
827.443066439
 20
81.2266370967
 30
0.0
 10
827.0092901956
 20
81.8613417757
 30
0.0
 10
826.3506567838
 20
82.3721891516
 30
0.0
 10
825.816743482
 20
82.6009496665
 30
0.0
 10
825.5298672478
 20
82.6893900885
 30
0.0
  0
SPLINE
  5
439
100
AcDbEntity
  8
0
100
AcDbSpline
 62
7
  6
CONTINUOUS
 70
0
 71
3
 72
15
 73
11
 74
0
 42
0.0000001
 43
0.0000001
 44
0.0000000001
 40
0.0
 40
0.0
 40
0.0
 40
0.0
 40
0.1047415988
 40
0.222328371
 40
0.3560160977
 40
0.5
 40
0.6439839023
 40
0.777671629
 40
0.8952584012
 40
1.0
 40
1.0
 40
1.0
 40
1.0
 10
817.0883520443
 20
79.9259236826
 30
0.0
 10
817.0883520443
 20
79.7844580113
 30
0.0
 10
817.1802425433
 20
79.4806219655
 30
0.0
 10
817.5319385596
 20
79.1326799039
 30
0.0
 10
818.0264590016
 20
78.9093049589
 30
0.0
 10
818.5980061885
 20
78.8320599183
 30
0.0
 10
819.1695533755
 20
78.9093049589
 30
0.0
 10
819.6640738175
 20
79.1326799039
 30
0.0
 10
820.0157698338
 20
79.4806219655
 30
0.0
 10
820.1076603328
 20
79.7844580113
 30
0.0
 10
820.1076603328
 20
79.9259236826
 30
0.0
  0
SPLINE
  5
43A
100
AcDbEntity
  8
0
100
AcDbSpline
 62
7
  6
CONTINUOUS
 70
0
 71
3
 72
11
 73
7
 74
0
 42
0.0000001
 43
0.0000001
 44
0.0000000001
 40
0.0
 40
0.0
 40
0.0
 40
0.0
 40
0.2094689415
 40
0.4446609502
 40
0.7120169424
 40
1.0
 40
1.0
 40
1.0
 40
1.0
 10
815.1628819922
 20
81.590422343
 30
0.0
 10
815.1628595815
 20
81.7398141874
 30
0.0
 10
815.065691968
 20
82.0606567738
 30
0.0
 10
814.6941834749
 20
82.4280742625
 30
0.0
 10
814.1722931932
 20
82.6639809373
 30
0.0
 10
813.773739632
 20
82.7176743597
 30
0.0
 10
813.5683520443
 20
82.7176743597
 30
0.0
  0
SPLINE
  5
43B
100
AcDbEntity
  8
0
100
AcDbSpline
 62
7
  6
CONTINUOUS
 70
0
 71
3
 72
9
 73
5
 74
0
 42
0.0000001
 43
0.0000001
 44
0.0000000001
 40
0.0
 40
0.0
 40
0.0
 40
0.0
 40
0.4402133985
 40
1.0
 40
1.0
 40
1.0
 40
1.0
 10
806.4237110031
 20
79.9854137572
 30
0.0
 10
806.4237110031
 20
79.9668703862
 30
0.0
 10
806.4522692346
 20
79.9264899959
 30
0.0
 10
806.4961307788
 20
79.9175315062
 30
0.0
 10
806.5197110031
 20
79.9175315062
 30
0.0
  0
SPLINE
  5
43C
100
AcDbEntity
  8
0
100
AcDbSpline
 62
7
  6
CONTINUOUS
 70
0
 71
3
 72
9
 73
5
 74
0
 42
0.0000001
 43
0.0000001
 44
0.0000000001
 40
0.0
 40
0.0
 40
0.0
 40
0.0
 40
0.4402133985
 40
1.0
 40
1.0
 40
1.0
 40
1.0
 10
807.0837110031
 20
80.0193548827
 30
0.0
 10
807.0837110031
 20
80.0378982538
 30
0.0
 10
807.0551527716
 20
80.078278644
 30
0.0
 10
807.0112912274
 20
80.0872371337
 30
0.0
 10
806.9877110031
 20
80.0872371337
 30
0.0
  0
SPLINE
  5
43D
100
AcDbEntity
  8
RUNDUNGEN
100
AcDbSpline
 62
7
  6
CONTINUOUS
 70
0
 71
3
 72
9
 73
5
 74
0
 42
0.0000001
 43
0.0000001
 44
0.0000000001
 40
0.0
 40
0.0
 40
0.0
 40
0.0
 40
0.5194633901
 40
1.0
 40
1.0
 40
1.0
 40
1.0
 10
842.6501333685
 20
51.1758403702
 30
0.0
 10
842.8708278957
 20
50.9529713089
 30
0.0
 10
843.2352122235
 20
50.4530364848
 30
0.0
 10
843.3735251913
 20
49.8436679253
 30
0.0
 10
843.3735251913
 20
49.5535212195
 30
0.0
  0
SPLINE
  5
43E
100
AcDbEntity
  8
0
100
AcDbSpline
 62
7
  6
CONTINUOUS
 70
0
 71
3
 72
9
 73
5
 74
0
 42
0.0000001
 43
0.0000001
 44
0.0000000001
 40
0.0
 40
0.0
 40
0.0
 40
0.0
 40
0.4402133985
 40
1.0
 40
1.0
 40
1.0
 40
1.0
 10
807.0837110031
 20
81.7164111576
 30
0.0
 10
807.0837110031
 20
81.7349545286
 30
0.0
 10
807.0551527716
 20
81.7753349189
 30
0.0
 10
807.0112912274
 20
81.7842934086
 30
0.0
 10
806.9877110031
 20
81.7842934086
 30
0.0
  0
SPLINE
  5
43F
100
AcDbEntity
  8
RUNDUNGEN
100
AcDbSpline
 62
7
  6
CONTINUOUS
 70
0
 71
3
 72
10
 73
6
 74
0
 42
0.0000001
 43
0.0000001
 44
0.0000000001
 40
0.0
 40
0.0
 40
0.0
 40
0.0
 40
0.5349737816
 40
0.7734707301
 40
1.0
 40
1.0
 40
1.0
 40
1.0
 10
851.4969754468
 20
95.9452501542
 30
0.0
 10
851.6412315241
 20
95.873825869
 30
0.0
 10
851.8374492768
 20
95.7272108483
 30
0.0
 10
851.9837959587
 20
95.4597467084
 30
0.0
 10
852.0086344523
 20
95.3187947825
 30
0.0
 10
852.0086750355
 20
95.2506337932
 30
0.0
  0
SPLINE
  5
440
100
AcDbEntity
  8
RUNDUNGEN
100
AcDbSpline
 62
7
  6
CONTINUOUS
 70
0
 71
3
 72
10
 73
6
 74
0
 42
0.0000001
 43
0.0000001
 44
0.0000000001
 40
0.0
 40
0.0
 40
0.0
 40
0.0
 40
0.4809192537
 40
0.7459271807
 40
1.0
 40
1.0
 40
1.0
 40
1.0
 10
843.9278065512
 20
98.6570468123
 30
0.0
 10
844.1270686955
 20
98.8582723144
 30
0.0
 10
844.576332055
 20
99.0310068216
 30
0.0
 10
845.1658503833
 20
99.0206248713
 30
0.0
 10
845.4650033923
 20
98.9318091968
 30
0.0
 10
845.5990807279
 20
98.8654246255
 30
0.0
  0
SPLINE
  5
441
100
AcDbEntity
  8
0
100
AcDbSpline
 62
7
  6
CONTINUOUS
 70
0
 71
3
 72
9
 73
5
 74
0
 42
0.0000001
 43
0.0000001
 44
0.0000000001
 40
0.0
 40
0.0
 40
0.0
 40
0.0
 40
0.2423574743
 40
1.0
 40
1.0
 40
1.0
 40
1.0
 10
822.7564424275
 20
95.0294422179
 30
0.0
 10
822.4238652267
 20
95.19410834
 30
0.0
 10
821.0227033221
 20
95.8144225473
 30
0.0
 10
819.5230310186
 20
96.2045135009
 30
0.0
 10
818.3758495584
 20
96.3774285316
 30
0.0
  0
SPLINE
  5
442
100
AcDbEntity
  8
0
100
AcDbSpline
 62
7
  6
CONTINUOUS
 70
0
 71
3
 72
9
 73
5
 74
0
 42
0.0000001
 43
0.0000001
 44
0.0000000001
 40
0.0
 40
0.0
 40
0.0
 40
0.0
 40
0.2572745118
 40
1.0
 40
1.0
 40
1.0
 40
1.0
 10
813.3712008243
 20
96.3774285316
 30
0.0
 10
812.9816834009
 20
96.318716445
 30
0.0
 10
811.476770361
 20
96.0363073206
 30
0.0
 10
810.0097312605
 20
95.5340320761
 30
0.0
 10
808.9906079551
 20
95.0294422179
 30
0.0
  0
SPLINE
  5
443
100
AcDbEntity
  8
RUNDUNGEN
100
AcDbSpline
 62
7
  6
CONTINUOUS
 70
0
 71
3
 72
12
 73
8
 74
0
 42
0.0000001
 43
0.0000001
 44
0.0000000001
 40
0.0
 40
0.0
 40
0.0
 40
0.0
 40
0.2522580801
 40
0.5153826073
 40
0.6451774922
 40
0.770453943
 40
1.0
 40
1.0
 40
1.0
 40
1.0
 10
784.1820047484
 20
97.892033135
 30
0.0
 10
785.299303188
 20
98.4452316127
 30
0.0
 10
787.7830070545
 20
99.1878217872
 30
0.0
 10
791.0110796555
 20
99.2344896717
 30
0.0
 10
793.5335583962
 20
98.7404325335
 30
0.0
 10
795.7946222781
 20
97.9401354109
 30
0.0
 10
797.3110202793
 20
96.9616860929
 30
0.0
 10
798.1092895548
 20
96.1555513584
 30
0.0
  0
SPLINE
  5
444
100
AcDbEntity
  8
0
100
AcDbSpline
 62
7
  6
CONTINUOUS
 70
0
 71
3
 72
11
 73
7
 74
0
 42
0.0000001
 43
0.0000001
 44
0.0000000001
 40
0.0
 40
0.0
 40
0.0
 40
0.0
 40
0.2094668498
 40
0.4446559298
 40
0.7120302568
 40
1.0
 40
1.0
 40
1.0
 40
1.0
 10
805.7637110031
 20
80.8509124574
 30
0.0
 10
805.7637110031
 20
80.8284243976
 30
0.0
 10
805.7783153735
 20
80.7801212402
 30
0.0
 10
805.8342406966
 20
80.7248066965
 30
0.0
 10
805.9127986888
 20
80.6892896547
 30
0.0
 10
805.9727949856
 20
80.6812068299
 30
0.0
 10
806.0037110031
 20
80.6812068299
 30
0.0
  0
SPLINE
  5
445
100
AcDbEntity
  8
0
100
AcDbSpline
 62
7
  6
CONTINUOUS
 70
0
 71
3
 72
11
 73
7
 74
0
 42
0.0000001
 43
0.0000001
 44
0.0000000001
 40
0.0
 40
0.0
 40
0.0
 40
0.0
 40
0.2094668498
 40
0.4446559298
 40
0.7120302568
 40
1.0
 40
1.0
 40
1.0
 40
1.0
 10
805.7637110031
 20
79.1538561826
 30
0.0
 10
805.7637110031
 20
79.1313681228
 30
0.0
 10
805.7783153735
 20
79.0830649653
 30
0.0
 10
805.8342406966
 20
79.0277504216
 30
0.0
 10
805.9127986888
 20
78.9922333798
 30
0.0
 10
805.9727949856
 20
78.9841505551
 30
0.0
 10
806.0037110031
 20
78.9841505551
 30
0.0
  0
SPLINE
  5
446
100
AcDbEntity
  8
0
100
AcDbSpline
 62
7
  6
CONTINUOUS
 70
0
 71
3
 72
9
 73
5
 74
0
 42
0.0000001
 43
0.0000001
 44
0.0000000001
 40
0.0
 40
0.0
 40
0.0
 40
0.0
 40
0.2432035461
 40
1.0
 40
1.0
 40
1.0
 40
1.0
 10
809.0037110031
 20
82.3782631048
 30
0.0
 10
809.0037110031
 20
82.3915811981
 30
0.0
 10
808.9991573218
 20
82.446344214
 30
0.0
 10
808.9756243189
 20
82.4987305626
 30
0.0
 10
808.9513949632
 20
82.5323528912
 30
0.0
  0
SPLINE
  5
447
100
AcDbEntity
  8
0
100
AcDbSpline
 62
7
  6
CONTINUOUS
 70
0
 71
3
 72
9
 73
5
 74
0
 42
0.0000001
 43
0.0000001
 44
0.0000000001
 40
0.0
 40
0.0
 40
0.0
 40
0.0
 40
0.2250156934
 40
1.0
 40
1.0
 40
1.0
 40
1.0
 10
808.9513949632
 20
82.5323528912
 30
0.0
 10
808.9305183125
 20
82.5613227745
 30
0.0
 10
808.8159328008
 20
82.6742832041
 30
0.0
 10
808.6466954793
 20
82.7176743597
 30
0.0
 10
808.5237110031
 20
82.7176743597
 30
0.0
  0
SPLINE
  5
448
100
AcDbEntity
  8
RUNDUNGEN
100
AcDbSpline
 62
7
  6
CONTINUOUS
 70
0
 71
3
 72
10
 73
6
 74
0
 42
0.0000001
 43
0.0000001
 44
0.0000000001
 40
0.0
 40
0.0
 40
0.0
 40
0.0
 40
0.2265435863
 40
0.4650408478
 40
1.0
 40
1.0
 40
1.0
 40
1.0
 10
789.030314525
 20
85.8671563185
 30
0.0
 10
789.0303574818
 20
85.9353204346
 30
0.0
 10
789.0552002497
 20
86.0762737934
 30
0.0
 10
789.2015536424
 20
86.3437279577
 30
0.0
 10
789.3977635681
 20
86.4903360194
 30
0.0
 10
789.5420132047
 20
86.5617571157
 30
0.0
  0
SPLINE
  5
449
100
AcDbEntity
  8
RUNDUNGEN
100
AcDbSpline
 62
7
  6
CONTINUOUS
 70
0
 71
3
 72
9
 73
5
 74
0
 42
0.0000001
 43
0.0000001
 44
0.0000000001
 40
0.0
 40
0.0
 40
0.0
 40
0.0
 40
0.4805181646
 40
1.0
 40
1.0
 40
1.0
 40
1.0
 10
789.030313491
 20
82.3315886625
 30
0.0
 10
789.030264278
 20
82.2444794747
 30
0.0
 10
789.0716587658
 20
82.0614880696
 30
0.0
 10
789.1810596354
 20
81.911369643
 30
0.0
 10
789.2473224752
 20
81.8444539062
 30
0.0
  0
SPLINE
  5
44A
100
AcDbEntity
  8
RUNDUNGEN
100
AcDbSpline
 62
7
  6
CONTINUOUS
 70
0
 71
3
 72
11
 73
7
 74
0
 42
0.0000001
 43
0.0000001
 44
0.0000000001
 40
0.0
 40
0.0
 40
0.0
 40
0.0
 40
0.2256919297
 40
0.4632773963
 40
0.7205986282
 40
1.0
 40
1.0
 40
1.0
 40
1.0
 10
780.8380083461
 20
94.7634505625
 30
0.0
 10
780.8379644805
 20
94.9908180431
 30
0.0
 10
780.9201878362
 20
95.4608935649
 30
0.0
 10
781.273840284
 20
96.1071673168
 30
0.0
 10
781.8281235548
 20
96.6678546395
 30
0.0
 10
782.2914508513
 20
96.9559792565
 30
0.0
 10
782.5437006599
 20
97.0808735597
 30
0.0
  0
SPLINE
  5
44B
100
AcDbEntity
  8
RUNDUNGEN
100
AcDbSpline
 62
7
  6
CONTINUOUS
 70
0
 71
3
 72
9
 73
5
 74
0
 42
0.0000001
 43
0.0000001
 44
0.0000000001
 40
0.0
 40
0.0
 40
0.0
 40
0.0
 40
0.4805188659
 40
1.0
 40
1.0
 40
1.0
 40
1.0
 10
780.8380083461
 20
91.2279166566
 30
0.0
 10
780.8380643059
 20
90.9378609796
 30
0.0
 10
780.9764741173
 20
90.3287022462
 30
0.0
 10
781.3407572526
 20
89.8289236237
 30
0.0
 10
781.5613982281
 20
89.6061086417
 30
0.0
  0
SPLINE
  5
44C
100
AcDbEntity
  8
RUNDUNGEN
100
AcDbSpline
 62
7
  6
CONTINUOUS
 70
0
 71
3
 72
11
 73
7
 74
0
 42
0.0000001
 43
0.0000001
 44
0.0000000001
 40
0.0
 40
0.0
 40
0.0
 40
0.0
 40
0.237780559
 40
0.4809056754
 40
0.7339193747
 40
1.0
 40
1.0
 40
1.0
 40
1.0
 10
828.2890169666
 20
64.8183242596
 30
0.0
 10
828.2890169819
 20
65.2511070833
 30
0.0
 10
828.3850247943
 20
66.1291954436
 30
0.0
 10
828.8107205855
 20
67.4049801474
 30
0.0
 10
829.5050775606
 20
68.6154690316
 30
0.0
 10
830.1184294773
 20
69.3411608079
 30
0.0
 10
830.4591924351
 20
69.6852813509
 30
0.0
  0
SPLINE
  5
44D
100
AcDbEntity
  8
RUNDUNGEN
100
AcDbSpline
 62
7
  6
CONTINUOUS
 70
0
 71
3
 72
9
 73
5
 74
0
 42
0.0000001
 43
0.0000001
 44
0.0000000001
 40
0.0
 40
0.0
 40
0.0
 40
0.0
 40
0.4843491198
 40
1.0
 40
1.0
 40
1.0
 40
1.0
 10
828.5526314851
 20
66.5851329255
 30
0.0
 10
828.7234169591
 20
66.0185751699
 30
0.0
 10
829.2418056942
 20
64.8946958301
 30
0.0
 10
830.015917579
 20
63.934542858
 30
0.0
 10
830.4591924351
 20
63.4869003526
 30
0.0
  0
SPLINE
  5
44E
100
AcDbEntity
  8
RUNDUNGEN
100
AcDbSpline
 62
7
  6
CONTINUOUS
 70
0
 71
3
 72
9
 73
5
 74
0
 42
0.0000001
 43
0.0000001
 44
0.0000000001
 40
0.0
 40
0.0
 40
0.0
 40
0.0
 40
0.4805364547
 40
1.0
 40
1.0
 40
1.0
 40
1.0
 10
788.3735251913
 20
49.5535212195
 30
0.0
 10
788.3735251913
 20
49.8436678317
 30
0.0
 10
788.5118381093
 20
50.4530363878
 30
0.0
 10
788.8762224209
 20
50.9529712422
 30
0.0
 10
789.0969170142
 20
51.1758403702
 30
0.0
  0
SPLINE
  5
44F
100
AcDbEntity
  8
BEZUGSACHSEN
100
AcDbSpline
 62
7
  6
CONTINUOUS
 70
0
 71
3
 72
9
 73
5
 74
0
 42
0.0000001
 43
0.0000001
 44
0.0000000001
 40
0.0
 40
0.0
 40
0.0
 40
0.0
 40
0.2346500853
 40
1.0
 40
1.0
 40
1.0
 40
1.0
 10
811.5447759206
 20
88.7841371041
 30
0.0
 10
811.656166543
 20
88.647863764
 30
0.0
 10
812.1747587255
 20
88.1030094562
 30
0.0
 10
812.839747673
 20
87.7099391479
 30
0.0
 10
813.3711332533
 20
87.4927051398
 30
0.0
  0
SPLINE
  5
450
100
AcDbEntity
  8
BEZUGSACHSEN
100
AcDbSpline
 62
7
  6
CONTINUOUS
 70
0
 71
3
 72
9
 73
5
 74
0
 42
0.0000001
 43
0.0000001
 44
0.0000000001
 40
0.0
 40
0.0
 40
0.0
 40
0.0
 40
0.2668229076
 40
1.0
 40
1.0
 40
1.0
 40
1.0
 10
818.3759171293
 20
87.4927051398
 30
0.0
 10
818.5610815815
 20
87.5684016163
 30
0.0
 10
819.239093402
 20
87.8868517004
 30
0.0
 10
819.8544007779
 20
88.3585545206
 30
0.0
 10
820.202274462
 20
88.7841371041
 30
0.0
  0
SPLINE
  5
451
100
AcDbEntity
  8
BEZUGSACHSEN
100
AcDbSpline
 62
7
  6
CONTINUOUS
 70
0
 71
3
 72
11
 73
7
 74
0
 42
0.0000001
 43
0.0000001
 44
0.0000000001
 40
0.0
 40
0.0
 40
0.0
 40
0.0
 40
0.2228273727
 40
0.4593732167
 40
0.7180073661
 40
1.0
 40
1.0
 40
1.0
 40
1.0
 10
820.8735251913
 20
87.0180464621
 30
0.0
 10
820.8735251913
 20
87.3281569994
 30
0.0
 10
820.7496538934
 20
87.9726935014
 30
0.0
 10
820.2236740906
 20
88.8421440962
 30
0.0
 10
819.410087634
 20
89.573902265
 30
0.0
 10
818.7391853802
 20
89.93041518
 30
0.0
 10
818.3759171293
 20
90.0789216903
 30
0.0
  0
SPLINE
  5
452
100
AcDbEntity
  8
BEZUGSACHSEN
100
AcDbSpline
 62
7
  6
CONTINUOUS
 70
0
 71
3
 72
11
 73
7
 74
0
 42
0.0000001
 43
0.0000001
 44
0.0000000001
 40
0.0
 40
0.0
 40
0.0
 40
0.0
 40
0.2819926339
 40
0.5406267833
 40
0.7771726273
 40
1.0
 40
1.0
 40
1.0
 40
1.0
 10
813.3711332533
 20
90.0789216903
 30
0.0
 10
813.0078650024
 20
89.93041518
 30
0.0
 10
812.3369627486
 20
89.573902265
 30
0.0
 10
811.523376292
 20
88.8421440962
 30
0.0
 10
810.9973964893
 20
87.9726935014
 30
0.0
 10
810.8735251913
 20
87.3281569994
 30
0.0
 10
810.8735251913
 20
87.0180464621
 30
0.0
  0
SPLINE
  5
453
100
AcDbEntity
  8
RUNDUNGEN
100
AcDbSpline
 62
7
  6
CONTINUOUS
 70
0
 71
3
 72
13
 73
9
 74
0
 42
0.0000001
 43
0.0000001
 44
0.0000000001
 40
0.0
 40
0.0
 40
0.0
 40
0.0
 40
0.1034546555
 40
0.2106690395
 40
0.3244963599
 40
0.4464318111
 40
0.7129511617
 40
1.0
 40
1.0
 40
1.0
 40
1.0
 10
788.3735251913
 20
41.252932711
 30
0.0
 10
788.3735251913
 20
41.0672265058
 30
0.0
 10
788.4274177623
 20
40.6871363692
 30
0.0
 10
788.6632485705
 20
40.1478016909
 30
0.0
 10
789.0415458423
 20
39.6552264686
 30
0.0
 10
789.7329948293
 20
39.0680137744
 30
0.0
 10
790.8595072753
 20
38.558674149
 30
0.0
 10
791.8582583799
 20
38.4245055862
 30
0.0
 10
792.3735251913
 20
38.4245055862
 30
0.0
  0
SPLINE
  5
454
100
AcDbEntity
  8
RUNDUNGEN
100
AcDbSpline
 62
7
  6
CONTINUOUS
 70
0
 71
3
 72
10
 73
6
 74
0
 42
0.0000001
 43
0.0000001
 44
0.0000000001
 40
0.0
 40
0.0
 40
0.0
 40
0.0
 40
0.4808964563
 40
0.7459158441
 40
1.0
 40
1.0
 40
1.0
 40
1.0
 10
783.4542004681
 20
87.6946563561
 30
0.0
 10
783.6534533045
 20
87.4934402536
 30
0.0
 10
784.1027040738
 20
87.3207024469
 30
0.0
 10
784.6922237643
 20
87.3310735958
 30
0.0
 10
784.991391234
 20
87.4198909636
 30
0.0
 10
785.1254746448
 20
87.4862785429
 30
0.0
  0
SPLINE
  5
455
100
AcDbEntity
  8
RUNDUNGEN
100
AcDbSpline
 62
7
  6
CONTINUOUS
 70
0
 71
3
 72
9
 73
5
 74
0
 42
0.0000001
 43
0.0000001
 44
0.0000000001
 40
0.0
 40
0.0
 40
0.0
 40
0.0
 40
0.5194816775
 40
1.0
 40
1.0
 40
1.0
 40
1.0
 10
851.7916661763
 20
91.2279469447
 30
0.0
 10
851.8579346204
 20
91.294868341
 30
0.0
 10
851.9673436274
 20
91.4450014972
 30
0.0
 10
852.0087309457
 20
91.6280124957
 30
0.0
 10
852.0086740453
 20
91.7151291012
 30
0.0
  0
SPLINE
  5
456
100
AcDbEntity
  8
RUNDUNGEN
100
AcDbSpline
 62
7
  6
CONTINUOUS
 70
0
 71
3
 72
13
 73
9
 74
0
 42
0.0000001
 43
0.0000001
 44
0.0000000001
 40
0.0
 40
0.0
 40
0.0
 40
0.0
 40
0.2870490624
 40
0.5535683755
 40
0.6755038246
 40
0.7893311355
 40
0.8965454157
 40
1.0
 40
1.0
 40
1.0
 40
1.0
 10
839.3735251913
 20
38.4245055862
 30
0.0
 10
839.8887924049
 20
38.4245055862
 30
0.0
 10
840.8875438679
 20
38.5586742768
 30
0.0
 10
842.0140564792
 20
39.0680143463
 30
0.0
 10
842.7055052427
 20
39.655227178
 30
0.0
 10
843.0838021745
 20
40.1478023969
 30
0.0
 10
843.3196327343
 20
40.6871368073
 30
0.0
 10
843.3735251913
 20
41.0672266336
 30
0.0
 10
843.3735251913
 20
41.252932711
 30
0.0
  0
SPLINE
  5
457
100
AcDbEntity
  8
RUNDUNGEN
100
AcDbSpline
 62
7
  6
CONTINUOUS
 70
0
 71
3
 72
9
 73
5
 74
0
 42
0.0000001
 43
0.0000001
 44
0.0000000001
 40
0.0
 40
0.0
 40
0.0
 40
0.0
 40
0.4729729907
 40
1.0
 40
1.0
 40
1.0
 40
1.0
 10
824.0472068726
 20
46.7016813721
 30
0.0
 10
824.4417521101
 20
46.3032486251
 30
0.0
 10
825.5051094806
 20
45.6866501388
 30
0.0
 10
826.6990051777
 20
45.4955733981
 30
0.0
 10
827.3238150498
 20
45.4955733981
 30
0.0
  0
SPLINE
  5
458
100
AcDbEntity
  8
RUNDUNGEN
100
AcDbSpline
 62
7
  6
CONTINUOUS
 70
0
 71
3
 72
9
 73
5
 74
0
 42
0.0000001
 43
0.0000001
 44
0.0000000001
 40
0.0
 40
0.0
 40
0.0
 40
0.0
 40
0.5270273161
 40
1.0
 40
1.0
 40
1.0
 40
1.0
 10
804.4232353329
 20
45.4955733981
 30
0.0
 10
805.0480455694
 20
45.4955733981
 30
0.0
 10
806.2419413042
 20
45.6866502542
 30
0.0
 10
807.305298528
 20
46.3032488831
 30
0.0
 10
807.69984351
 20
46.7016813721
 30
0.0
  0
SPLINE
  5
459
100
AcDbEntity
  8
0
100
AcDbSpline
 62
7
  6
CONTINUOUS
 70
0
 71
3
 72
11
 73
7
 74
0
 42
0.0000001
 43
0.0000001
 44
0.0000000001
 40
0.0
 40
0.0
 40
0.0
 40
0.0
 40
0.2880052506
 40
0.5553344723
 40
0.7905070702
 40
1.0
 40
1.0
 40
1.0
 40
1.0
 10
804.6837110031
 20
82.7176743597
 30
0.0
 10
804.6218717771
 20
82.7176743597
 30
0.0
 10
804.5018750419
 20
82.7015210402
 30
0.0
 10
804.3447925278
 20
82.6304450157
 30
0.0
 10
804.2329131835
 20
82.5198601
 30
0.0
 10
804.2037110031
 20
82.4232445091
 30
0.0
 10
804.2037110031
 20
82.3782631048
 30
0.0
  0
SPLINE
  5
45A
100
AcDbEntity
  8
0
100
AcDbSpline
 62
7
  6
CONTINUOUS
 70
0
 71
3
 72
11
 73
7
 74
0
 42
0.0000001
 43
0.0000001
 44
0.0000000001
 40
0.0
 40
0.0
 40
0.0
 40
0.0
 40
0.2879697432
 40
0.5553440702
 40
0.7905331502
 40
1.0
 40
1.0
 40
1.0
 40
1.0
 10
807.2037110031
 20
80.6812068299
 30
0.0
 10
807.2346270207
 20
80.6812068299
 30
0.0
 10
807.2946233174
 20
80.6892896547
 30
0.0
 10
807.3731813096
 20
80.7248066965
 30
0.0
 10
807.4291066327
 20
80.7801212402
 30
0.0
 10
807.4437110031
 20
80.8284243976
 30
0.0
 10
807.4437110031
 20
80.8509124574
 30
0.0
  0
SPLINE
  5
45B
100
AcDbEntity
  8
0
100
AcDbSpline
 62
7
  6
CONTINUOUS
 70
0
 71
3
 72
11
 73
7
 74
0
 42
0.0000001
 43
0.0000001
 44
0.0000000001
 40
0.0
 40
0.0
 40
0.0
 40
0.0
 40
0.2879697432
 40
0.5553440702
 40
0.7905331502
 40
1.0
 40
1.0
 40
1.0
 40
1.0
 10
807.2037110031
 20
78.9841505551
 30
0.0
 10
807.2346270207
 20
78.9841505551
 30
0.0
 10
807.2946233174
 20
78.9922333798
 30
0.0
 10
807.3731813096
 20
79.0277504216
 30
0.0
 10
807.4291066327
 20
79.0830649653
 30
0.0
 10
807.4437110031
 20
79.1313681228
 30
0.0
 10
807.4437110031
 20
79.1538561826
 30
0.0
  0
SPLINE
  5
45C
100
AcDbEntity
  8
0
100
AcDbSpline
 62
7
  6
CONTINUOUS
 70
0
 71
3
 72
9
 73
5
 74
0
 42
0.0000001
 43
0.0000001
 44
0.0000000001
 40
0.0
 40
0.0
 40
0.0
 40
0.0
 40
0.5597866015
 40
1.0
 40
1.0
 40
1.0
 40
1.0
 10
806.2197110031
 20
81.7842934086
 30
0.0
 10
806.1961307788
 20
81.7842934086
 30
0.0
 10
806.1522692346
 20
81.7753349189
 30
0.0
 10
806.1237110031
 20
81.7349545286
 30
0.0
 10
806.1237110031
 20
81.7164111576
 30
0.0
  0
SPLINE
  5
45D
100
AcDbEntity
  8
0
100
AcDbSpline
 62
7
  6
CONTINUOUS
 70
0
 71
3
 72
9
 73
5
 74
0
 42
0.0000001
 43
0.0000001
 44
0.0000000001
 40
0.0
 40
0.0
 40
0.0
 40
0.0
 40
0.5597866015
 40
1.0
 40
1.0
 40
1.0
 40
1.0
 10
806.2197110031
 20
80.0872371337
 30
0.0
 10
806.1961307788
 20
80.0872371337
 30
0.0
 10
806.1522692346
 20
80.078278644
 30
0.0
 10
806.1237110031
 20
80.0378982538
 30
0.0
 10
806.1237110031
 20
80.0193548827
 30
0.0
  0
SPLINE
  5
45E
100
AcDbEntity
  8
0
100
AcDbSpline
 62
7
  6
CONTINUOUS
 70
0
 71
3
 72
9
 73
5
 74
0
 42
0.0000001
 43
0.0000001
 44
0.0000000001
 40
0.0
 40
0.0
 40
0.0
 40
0.0
 40
0.5597866015
 40
1.0
 40
1.0
 40
1.0
 40
1.0
 10
806.6877110031
 20
79.9175315062
 30
0.0
 10
806.7112912274
 20
79.9175315062
 30
0.0
 10
806.7551527716
 20
79.9264899959
 30
0.0
 10
806.7837110031
 20
79.9668703862
 30
0.0
 10
806.7837110031
 20
79.9854137572
 30
0.0
  0
SPLINE
  5
45F
100
AcDbEntity
  8
0
100
AcDbSpline
 62
7
  6
CONTINUOUS
 70
0
 71
3
 72
11
 73
7
 74
0
 42
0.0000001
 43
0.0000001
 44
0.0000000001
 40
0.0
 40
0.0
 40
0.0
 40
0.0
 40
0.2880001164
 40
0.5553425139
 40
0.7905343079
 40
1.0
 40
1.0
 40
1.0
 40
1.0
 10
813.5683520443
 20
80.9774373855
 30
0.0
 10
813.67998696
 20
80.9774373855
 30
0.0
 10
813.8966087338
 20
81.0066174014
 30
0.0
 10
814.1802280842
 20
81.134877435
 30
0.0
 10
814.3821590155
 20
81.3345682348
 30
0.0
 10
814.4348704517
 20
81.5089756869
 30
0.0
 10
814.4348704517
 20
81.5901690043
 30
0.0
  0
SPLINE
  5
460
100
AcDbEntity
  8
0
100
AcDbSpline
 62
7
  6
CONTINUOUS
 70
0
 71
3
 72
8
 73
4
 74
0
 42
0.0000001
 43
0.0000001
 44
0.0000000001
 40
0.0
 40
0.0
 40
0.0
 40
0.0
 40
1.0
 40
1.0
 40
1.0
 40
1.0
 10
825.5298672478
 20
82.6893900885
 30
0.0
 10
825.468100119
 20
82.7084321362
 30
0.0
 10
825.4026697183
 20
82.7176743597
 30
0.0
 10
825.3380339869
 20
82.7176743597
 30
0.0
  0
SPLINE
  5
461
100
AcDbEntity
  8
0
100
AcDbSpline
 62
7
  6
CONTINUOUS
 70
0
 71
3
 72
11
 73
7
 74
0
 42
0.0000001
 43
0.0000001
 44
0.0000000001
 40
0.0
 40
0.0
 40
0.0
 40
0.0
 40
0.2779817175
 40
0.5346952233
 40
0.772857858
 40
1.0
 40
1.0
 40
1.0
 40
1.0
 10
825.5007824268
 20
78.9059831145
 30
0.0
 10
825.6690263598
 20
78.9970873216
 30
0.0
 10
825.977276708
 20
79.2039300668
 30
0.0
 10
826.3435843911
 20
79.5970862226
 30
0.0
 10
826.5759402904
 20
80.0440954641
 30
0.0
 10
826.6297369423
 20
80.3664794112
 30
0.0
 10
826.6297369423
 20
80.5228149109
 30
0.0
  0
SPLINE
  5
462
100
AcDbEntity
  8
0
100
AcDbSpline
 62
7
  6
CONTINUOUS
 70
0
 71
3
 72
9
 73
5
 74
0
 42
0.0000001
 43
0.0000001
 44
0.0000000001
 40
0.0
 40
0.0
 40
0.0
 40
0.0
 40
0.2591205677
 40
1.0
 40
1.0
 40
1.0
 40
1.0
 10
825.3548631692
 20
78.8710134701
 30
0.0
 10
825.3678949658
 20
78.8710134701
 30
0.0
 10
825.418097836
 20
78.873889686
 30
0.0
 10
825.4680171957
 20
78.888240719
 30
0.0
 10
825.5007824268
 20
78.9059831145
 30
0.0
  0
SPLINE
  5
463
100
AcDbEntity
  8
RUNDUNGEN
100
AcDbSpline
 62
7
  6
CONTINUOUS
 70
0
 71
3
 72
13
 73
9
 74
0
 42
0.0000001
 43
0.0000001
 44
0.0000000001
 40
0.0
 40
0.0
 40
0.0
 40
0.0
 40
0.1034546555
 40
0.2106690395
 40
0.3244963599
 40
0.4464318111
 40
0.7129511617
 40
1.0
 40
1.0
 40
1.0
 40
1.0
 10
794.9735251913
 20
42.6671462733
 30
0.0
 10
794.9735251913
 20
42.8528524785
 30
0.0
 10
795.0274177623
 20
43.2329426151
 30
0.0
 10
795.2632485705
 20
43.7722772934
 30
0.0
 10
795.6415458423
 20
44.2648525157
 30
0.0
 10
796.3329948293
 20
44.8520652099
 30
0.0
 10
797.4595072753
 20
45.3614048353
 30
0.0
 10
798.4582583799
 20
45.4955733981
 30
0.0
 10
798.9735251913
 20
45.4955733981
 30
0.0
  0
SPLINE
  5
464
100
AcDbEntity
  8
RUNDUNGEN
100
AcDbSpline
 62
7
  6
CONTINUOUS
 70
0
 71
3
 72
13
 73
9
 74
0
 42
0.0000001
 43
0.0000001
 44
0.0000000001
 40
0.0
 40
0.0
 40
0.0
 40
0.0
 40
0.2870490624
 40
0.5535683755
 40
0.6755038246
 40
0.7893311355
 40
0.8965454157
 40
1.0
 40
1.0
 40
1.0
 40
1.0
 10
832.7735251913
 20
45.4955733981
 30
0.0
 10
833.2887924049
 20
45.4955733981
 30
0.0
 10
834.2875438679
 20
45.3614047075
 30
0.0
 10
835.4140564792
 20
44.852064638
 30
0.0
 10
836.1055052427
 20
44.2648518063
 30
0.0
 10
836.4838021745
 20
43.7722765874
 30
0.0
 10
836.7196327343
 20
43.232942177
 30
0.0
 10
836.7735251913
 20
42.8528523507
 30
0.0
 10
836.7735251913
 20
42.6671462733
 30
0.0
  0
SPLINE
  5
465
100
AcDbEntity
  8
RUNDUNGEN
100
AcDbSpline
 62
7
  6
CONTINUOUS
 70
0
 71
3
 72
13
 73
9
 74
0
 42
0.0000001
 43
0.0000001
 44
0.0000000001
 40
0.0
 40
0.0
 40
0.0
 40
0.0
 40
0.2360077452
 40
0.3661261418
 40
0.5000000756
 40
0.6338740402
 40
0.7639924068
 40
1.0
 40
1.0
 40
1.0
 40
1.0
 10
811.7777649699
 20
50.8197831635
 30
0.0
 10
812.2709449864
 20
51.3178225518
 30
0.0
 10
813.2507453227
 20
51.8853032832
 30
0.0
 10
814.6896098199
 20
52.2609450607
 30
0.0
 10
815.8735259787
 20
52.3611275513
 30
0.0
 10
817.0574420286
 20
52.2609448219
 30
0.0
 10
818.496306019
 20
51.8853028504
 30
0.0
 10
819.4761057139
 20
51.3178222311
 30
0.0
 10
819.9692854128
 20
50.8197831635
 30
0.0
  0
SPLINE
  5
466
100
AcDbEntity
  8
RUNDUNGEN
100
AcDbSpline
 62
7
  6
CONTINUOUS
 70
0
 71
3
 72
9
 73
5
 74
0
 42
0.0000001
 43
0.0000001
 44
0.0000000001
 40
0.0
 40
0.0
 40
0.0
 40
0.0
 40
0.5156509212
 40
1.0
 40
1.0
 40
1.0
 40
1.0
 10
801.2878579476
 20
63.4869003526
 30
0.0
 10
801.73113548
 20
63.9345455607
 30
0.0
 10
802.5052514922
 20
64.8947048476
 30
0.0
 10
803.0236407173
 20
66.0185923406
 30
0.0
 10
803.194425261
 20
66.5851540064
 30
0.0
  0
SPLINE
  5
467
100
AcDbEntity
  8
RUNDUNGEN
100
AcDbSpline
 62
7
  6
CONTINUOUS
 70
0
 71
3
 72
11
 73
7
 74
0
 42
0.0000001
 43
0.0000001
 44
0.0000000001
 40
0.0
 40
0.0
 40
0.0
 40
0.0
 40
0.2660806488
 40
0.5190943636
 40
0.7622194616
 40
1.0
 40
1.0
 40
1.0
 40
1.0
 10
801.2878579476
 20
69.6852813509
 30
0.0
 10
801.6286209802
 20
69.3411607323
 30
0.0
 10
802.2419730026
 20
68.615468786
 30
0.0
 10
802.936330034
 20
67.4049796761
 30
0.0
 10
803.3620257414
 20
66.1291947959
 30
0.0
 10
803.4580334314
 20
65.251106381
 30
0.0
 10
803.4580334161
 20
64.818323538
 30
0.0
  0
SPLINE
  5
468
100
AcDbEntity
  8
RUNDUNGEN
100
AcDbSpline
 62
7
  6
CONTINUOUS
 70
0
 71
3
 72
10
 73
6
 74
0
 42
0.0000001
 43
0.0000001
 44
0.0000000001
 40
0.0
 40
0.0
 40
0.0
 40
0.0
 40
0.2540843695
 40
0.5191023225
 40
1.0
 40
1.0
 40
1.0
 40
1.0
 10
787.828676391
 20
88.8246918422
 30
0.0
 10
788.0521489214
 20
88.9353378963
 30
0.0
 10
788.5507602546
 20
89.0833663038
 30
0.0
 10
789.5332928593
 20
89.1006523775
 30
0.0
 10
790.2820444613
 20
88.8127564962
 30
0.0
 10
790.6141333523
 20
88.4773954869
 30
0.0
  0
SPLINE
  5
469
100
AcDbEntity
  8
RUNDUNGEN
100
AcDbSpline
 62
7
  6
CONTINUOUS
 70
0
 71
3
 72
9
 73
5
 74
0
 42
0.0000001
 43
0.0000001
 44
0.0000000001
 40
0.0
 40
0.0
 40
0.0
 40
0.0
 40
0.5194825986
 40
1.0
 40
1.0
 40
1.0
 40
1.0
 10
792.7363661668
 20
86.3342520151
 30
0.0
 10
792.846813664
 20
86.2227162632
 30
0.0
 10
793.0291615521
 20
85.9724944396
 30
0.0
 10
793.0981409148
 20
85.667476574
 30
0.0
 10
793.0980461142
 20
85.5222826483
 30
0.0
  0
SPLINE
  5
46A
100
AcDbEntity
  8
RUNDUNGEN
100
AcDbSpline
 62
7
  6
CONTINUOUS
 70
0
 71
3
 72
11
 73
7
 74
0
 42
0.0000001
 43
0.0000001
 44
0.0000000001
 40
0.0
 40
0.0
 40
0.0
 40
0.0
 40
0.2524375529
 40
0.5157480446
 40
0.7702932073
 40
1.0
 40
1.0
 40
1.0
 40
1.0
 10
831.2756236881
 20
90.8114124261
 30
0.0
 10
831.7225456161
 20
90.5901317715
 30
0.0
 10
832.7163235822
 20
90.2929373256
 30
0.0
 10
834.2555046633
 20
90.2713569849
 30
0.0
 10
835.7019532635
 20
90.6510915763
 30
0.0
 10
836.527231661
 20
91.1835530208
 30
0.0
 10
836.8465376107
 20
91.5060051368
 30
0.0
  0
SPLINE
  5
46B
100
AcDbEntity
  8
RUNDUNGEN
100
AcDbSpline
 62
7
  6
CONTINUOUS
 70
0
 71
3
 72
11
 73
7
 74
0
 42
0.0000001
 43
0.0000001
 44
0.0000000001
 40
0.0
 40
0.0
 40
0.0
 40
0.0
 40
0.2297109937
 40
0.4842558728
 40
0.7475644511
 40
1.0
 40
1.0
 40
1.0
 40
1.0
 10
800.1430858554
 20
94.1017157779
 30
0.0
 10
800.4623976441
 20
93.7792577654
 30
0.0
 10
801.2876851874
 20
93.2467942823
 30
0.0
 10
802.7341392214
 20
92.8670659312
 30
0.0
 10
804.2733115715
 20
92.8886509066
 30
0.0
 10
805.2670813988
 20
93.1858441697
 30
0.0
 10
805.713999778
 20
93.4071230672
 30
0.0
  0
SPLINE
  5
46C
100
AcDbEntity
  8
0
100
AcDbSpline
 62
7
  6
CONTINUOUS
 70
0
 71
3
 72
9
 73
5
 74
0
 42
0.0000001
 43
0.0000001
 44
0.0000000001
 40
0.0
 40
0.0
 40
0.0
 40
0.0
 40
0.4402133985
 40
1.0
 40
1.0
 40
1.0
 40
1.0
 10
806.1237110031
 20
79.5894339598
 30
0.0
 10
806.1237110031
 20
79.5708905887
 30
0.0
 10
806.1522692346
 20
79.5305101985
 30
0.0
 10
806.1961307788
 20
79.5215517088
 30
0.0
 10
806.2197110031
 20
79.5215517088
 30
0.0
  0
SPLINE
  5
46D
100
AcDbEntity
  8
RUNDUNGEN
100
AcDbSpline
 62
7
  6
CONTINUOUS
 70
0
 71
3
 72
11
 73
7
 74
0
 42
0.0000001
 43
0.0000001
 44
0.0000000001
 40
0.0
 40
0.0
 40
0.0
 40
0.0
 40
0.237780559
 40
0.4809056754
 40
0.7339193747
 40
1.0
 40
1.0
 40
1.0
 40
1.0
 10
803.4580334161
 20
64.818323538
 30
0.0
 10
803.4580334008
 20
64.3855407143
 30
0.0
 10
803.3620255883
 20
63.507452354
 30
0.0
 10
802.9363297972
 20
62.2316676501
 30
0.0
 10
802.2419728221
 20
61.021178766
 30
0.0
 10
801.6286209054
 20
60.2954869897
 30
0.0
 10
801.2878579476
 20
59.9513664467
 30
0.0
  0
SPLINE
  5
46E
100
AcDbEntity
  8
RUNDUNGEN
100
AcDbSpline
 62
7
  6
CONTINUOUS
 70
0
 71
3
 72
9
 73
5
 74
0
 42
0.0000001
 43
0.0000001
 44
0.0000000001
 40
0.0
 40
0.0
 40
0.0
 40
0.0
 40
0.4805366099
 40
1.0
 40
1.0
 40
1.0
 40
1.0
 10
843.3735251913
 20
46.0179873136
 30
0.0
 10
843.3735251913
 20
46.3081340193
 30
0.0
 10
843.2352122235
 20
46.9175025789
 30
0.0
 10
842.8708278957
 20
47.417437403
 30
0.0
 10
842.6501333685
 20
47.6403064643
 30
0.0
  0
SPLINE
  5
46F
100
AcDbEntity
  8
0
100
AcDbSpline
 62
7
  6
CONTINUOUS
 70
0
 71
3
 72
9
 73
5
 74
0
 42
0.0000001
 43
0.0000001
 44
0.0000000001
 40
0.0
 40
0.0
 40
0.0
 40
0.0
 40
0.4402133985
 40
1.0
 40
1.0
 40
1.0
 40
1.0
 10
806.7837110031
 20
81.0375886476
 30
0.0
 10
806.7837110031
 20
81.0561320187
 30
0.0
 10
806.7551527716
 20
81.0965124089
 30
0.0
 10
806.7112912274
 20
81.1054708986
 30
0.0
 10
806.6877110031
 20
81.1054708986
 30
0.0
  0
SPLINE
  5
470
100
AcDbEntity
  8
0
100
AcDbSpline
 62
7
  6
CONTINUOUS
 70
0
 71
3
 72
11
 73
7
 74
0
 42
0.0000001
 43
0.0000001
 44
0.0000000001
 40
0.0
 40
0.0
 40
0.0
 40
0.0
 40
0.2094668498
 40
0.4446559298
 40
0.7120302568
 40
1.0
 40
1.0
 40
1.0
 40
1.0
 10
807.4437110031
 20
80.1720899475
 30
0.0
 10
807.4437110031
 20
80.1945780073
 30
0.0
 10
807.4291066327
 20
80.2428811647
 30
0.0
 10
807.3731813096
 20
80.2981957084
 30
0.0
 10
807.2946233174
 20
80.3337127502
 30
0.0
 10
807.2346270207
 20
80.341795575
 30
0.0
 10
807.2037110031
 20
80.341795575
 30
0.0
  0
SPLINE
  5
471
100
AcDbEntity
  8
RUNDUNGEN
100
AcDbSpline
 62
7
  6
CONTINUOUS
 70
0
 71
3
 72
9
 73
5
 74
0
 42
0.0000001
 43
0.0000001
 44
0.0000000001
 40
0.0
 40
0.0
 40
0.0
 40
0.0
 40
0.5194635453
 40
1.0
 40
1.0
 40
1.0
 40
1.0
 10
789.0969170142
 20
47.6403064643
 30
0.0
 10
788.8762224209
 20
47.4174373363
 30
0.0
 10
788.5118381093
 20
46.9175024819
 30
0.0
 10
788.3735251913
 20
46.3081339257
 30
0.0
 10
788.3735251913
 20
46.0179873136
 30
0.0
  0
SPLINE
  5
472
100
AcDbEntity
  8
RUNDUNGEN
100
AcDbSpline
 62
7
  6
CONTINUOUS
 70
0
 71
3
 72
10
 73
6
 74
0
 42
0.0000001
 43
0.0000001
 44
0.0000000001
 40
0.0
 40
0.0
 40
0.0
 40
0.0
 40
0.5349741761
 40
0.7734715455
 40
1.0
 40
1.0
 40
1.0
 40
1.0
 10
789.5420132047
 20
83.0262232098
 30
0.0
 10
789.3977541828
 20
82.9547974666
 30
0.0
 10
789.2015323355
 20
82.8081783209
 30
0.0
 10
789.0551872391
 20
82.5407061348
 30
0.0
 10
789.0303519997
 20
82.3997507487
 30
0.0
 10
789.030313491
 20
82.3315886625
 30
0.0
  0
SPLINE
  5
473
100
AcDbEntity
  8
RUNDUNGEN
100
AcDbSpline
 62
7
  6
CONTINUOUS
 70
0
 71
3
 72
11
 73
7
 74
0
 42
0.0000001
 43
0.0000001
 44
0.0000000001
 40
0.0
 40
0.0
 40
0.0
 40
0.0
 40
0.2794013718
 40
0.5367226037
 40
0.7743080703
 40
1.0
 40
1.0
 40
1.0
 40
1.0
 10
782.5437006599
 20
93.5453396538
 30
0.0
 10
782.2914508513
 20
93.4204453505
 30
0.0
 10
781.8281235548
 20
93.1323207336
 30
0.0
 10
781.273840284
 20
92.5716334108
 30
0.0
 10
780.9201878362
 20
91.925359659
 30
0.0
 10
780.8379644805
 20
91.4552841371
 30
0.0
 10
780.8380083461
 20
91.2279166566
 30
0.0
  0
SPLINE
  5
474
100
AcDbEntity
  8
RUNDUNGEN
100
AcDbSpline
 62
7
  6
CONTINUOUS
 70
0
 71
3
 72
12
 73
8
 74
0
 42
0.0000001
 43
0.0000001
 44
0.0000000001
 40
0.0
 40
0.0
 40
0.0
 40
0.0
 40
0.2295487136
 40
0.3548258051
 40
0.4846200283
 40
0.7477432149
 40
1.0
 40
1.0
 40
1.0
 40
1.0
 10
798.1092895548
 20
92.6200174524
 30
0.0
 10
797.3110110608
 20
93.4261614963
 30
0.0
 10
795.7945949766
 20
94.4046153758
 30
0.0
 10
793.5335166073
 20
95.204909959
 30
0.0
 10
791.0110429461
 20
95.6989574055
 30
0.0
 10
787.7829874528
 20
95.6522834751
 30
0.0
 10
785.2992974242
 20
94.909694853
 30
0.0
 10
784.1820047484
 20
94.3564992291
 30
0.0
  0
SPLINE
  5
475
100
AcDbEntity
  8
0
100
AcDbSpline
 62
7
  6
CONTINUOUS
 70
0
 71
3
 72
9
 73
5
 74
0
 42
0.0000001
 43
0.0000001
 44
0.0000000001
 40
0.0
 40
0.0
 40
0.0
 40
0.0
 40
0.2423574743
 40
1.0
 40
1.0
 40
1.0
 40
1.0
 10
822.7564424275
 20
91.493908312
 30
0.0
 10
822.4238652267
 20
91.6585744341
 30
0.0
 10
821.0227033221
 20
92.2788886413
 30
0.0
 10
819.5230310186
 20
92.668979595
 30
0.0
 10
818.3758495584
 20
92.8418946256
 30
0.0
  0
SPLINE
  5
476
100
AcDbEntity
  8
0
100
AcDbSpline
 62
7
  6
CONTINUOUS
 70
0
 71
3
 72
9
 73
5
 74
0
 42
0.0000001
 43
0.0000001
 44
0.0000000001
 40
0.0
 40
0.0
 40
0.0
 40
0.0
 40
0.2572745118
 40
1.0
 40
1.0
 40
1.0
 40
1.0
 10
813.3712008243
 20
92.8418946256
 30
0.0
 10
812.9816834009
 20
92.7831825391
 30
0.0
 10
811.476770361
 20
92.5007734147
 30
0.0
 10
810.0097312605
 20
91.9984981701
 30
0.0
 10
808.9906079551
 20
91.493908312
 30
0.0
  0
SPLINE
  5
477
100
AcDbEntity
  8
RUNDUNGEN
100
AcDbSpline
 62
7
  6
CONTINUOUS
 70
0
 71
3
 72
10
 73
6
 74
0
 42
0.0000001
 43
0.0000001
 44
0.0000000001
 40
0.0
 40
0.0
 40
0.0
 40
0.0
 40
0.2540841022
 40
0.5191024011
 40
1.0
 40
1.0
 40
1.0
 40
1.0
 10
845.5990807279
 20
95.3298907195
 30
0.0
 10
845.4649973499
 20
95.3962782826
 30
0.0
 10
845.1658305583
 20
95.4850955064
 30
0.0
 10
844.5763109594
 20
95.4954669789
 30
0.0
 10
844.1270598543
 20
95.3227294802
 30
0.0
 10
843.9278065512
 20
95.1215129063
 30
0.0
  0
SPLINE
  5
478
100
AcDbEntity
  8
0
100
AcDbSpline
 62
7
  6
CONTINUOUS
 70
0
 71
3
 72
11
 73
7
 74
0
 42
0.0000001
 43
0.0000001
 44
0.0000000001
 40
0.0
 40
0.0
 40
0.0
 40
0.0
 40
0.2880052506
 40
0.5553344723
 40
0.7905070702
 40
1.0
 40
1.0
 40
1.0
 40
1.0
 10
808.5237110031
 20
78.3053280451
 30
0.0
 10
808.5855502291
 20
78.3053280451
 30
0.0
 10
808.7055469644
 20
78.3214813647
 30
0.0
 10
808.8626294784
 20
78.3925573892
 30
0.0
 10
808.9745088228
 20
78.5031423048
 30
0.0
 10
809.0037110031
 20
78.5997578957
 30
0.0
 10
809.0037110031
 20
78.6447393001
 30
0.0
  0
SPLINE
  5
479
100
AcDbEntity
  8
0
100
AcDbSpline
 62
7
  6
CONTINUOUS
 70
0
 71
3
 72
17
 73
13
 74
0
 42
0.0000001
 43
0.0000001
 44
0.0000000001
 40
0.0
 40
0.0
 40
0.0
 40
0.0
 40
0.0517921087
 40
0.1054769531
 40
0.2228492041
 40
0.356284866
 40
0.5
 40
0.643715134
 40
0.7771507959
 40
0.8945230469
 40
0.9482078913
 40
1.0
 40
1.0
 40
1.0
 40
1.0
 10
816.3203520443
 20
79.9259236826
 30
0.0
 10
816.3203520443
 20
79.820188275
 30
0.0
 10
816.3510811051
 20
79.6037571762
 30
0.0
 10
816.5350894852
 20
79.1825061667
 30
0.0
 10
816.9895395422
 20
78.7277428557
 30
0.0
 10
817.7357084056
 20
78.3925545112
 30
0.0
 10
818.5980061885
 20
78.2753600195
 30
0.0
 10
819.4603039714
 20
78.3925545112
 30
0.0
 10
820.2064728348
 20
78.7277428557
 30
0.0
 10
820.6609228919
 20
79.1825061667
 30
0.0
 10
820.844931272
 20
79.6037571762
 30
0.0
 10
820.8756603328
 20
79.820188275
 30
0.0
 10
820.8756603328
 20
79.9259236826
 30
0.0
  0
SPLINE
  5
47A
100
AcDbEntity
  8
0
100
AcDbSpline
 62
7
  6
CONTINUOUS
 70
0
 71
3
 72
9
 73
5
 74
0
 42
0.0000001
 43
0.0000001
 44
0.0000000001
 40
0.0
 40
0.0
 40
0.0
 40
0.0
 40
0.4402133985
 40
1.0
 40
1.0
 40
1.0
 40
1.0
 10
806.1237110031
 20
81.0036475221
 30
0.0
 10
806.1237110031
 20
80.9851041511
 30
0.0
 10
806.1522692346
 20
80.9447237608
 30
0.0
 10
806.1961307788
 20
80.9357652712
 30
0.0
 10
806.2197110031
 20
80.9357652712
 30
0.0
  0
SPLINE
  5
47B
100
AcDbEntity
  8
0
100
AcDbSpline
 62
7
  6
CONTINUOUS
 70
0
 71
3
 72
11
 73
7
 74
0
 42
0.0000001
 43
0.0000001
 44
0.0000000001
 40
0.0
 40
0.0
 40
0.0
 40
0.0
 40
0.2094668498
 40
0.4446559298
 40
0.7120302568
 40
1.0
 40
1.0
 40
1.0
 40
1.0
 10
807.4437110031
 20
81.8691462223
 30
0.0
 10
807.4437110031
 20
81.8916342821
 30
0.0
 10
807.4291066327
 20
81.9399374396
 30
0.0
 10
807.3731813096
 20
81.9952519833
 30
0.0
 10
807.2946233174
 20
82.030769025
 30
0.0
 10
807.2346270207
 20
82.0388518498
 30
0.0
 10
807.2037110031
 20
82.0388518498
 30
0.0
  0
SPLINE
  5
47C
100
AcDbEntity
  8
0
100
AcDbSpline
 62
7
  6
CONTINUOUS
 70
0
 71
3
 72
11
 73
7
 74
0
 42
0.0000001
 43
0.0000001
 44
0.0000000001
 40
0.0
 40
0.0
 40
0.0
 40
0.0
 40
0.2879697432
 40
0.5553440702
 40
0.7905331502
 40
1.0
 40
1.0
 40
1.0
 40
1.0
 10
806.0037110031
 20
80.341795575
 30
0.0
 10
805.9727949856
 20
80.341795575
 30
0.0
 10
805.9127986888
 20
80.3337127502
 30
0.0
 10
805.8342406966
 20
80.2981957084
 30
0.0
 10
805.7783153735
 20
80.2428811647
 30
0.0
 10
805.7637110031
 20
80.1945780073
 30
0.0
 10
805.7637110031
 20
80.1720899475
 30
0.0
  0
SPLINE
  5
47D
100
AcDbEntity
  8
0
100
AcDbSpline
 62
7
  6
CONTINUOUS
 70
0
 71
3
 72
9
 73
5
 74
0
 42
0.0000001
 43
0.0000001
 44
0.0000000001
 40
0.0
 40
0.0
 40
0.0
 40
0.0
 40
0.4402133985
 40
1.0
 40
1.0
 40
1.0
 40
1.0
 10
806.1237110031
 20
81.2864902346
 30
0.0
 10
806.1237110031
 20
81.2679468636
 30
0.0
 10
806.1522692346
 20
81.2275664733
 30
0.0
 10
806.1961307788
 20
81.2186079836
 30
0.0
 10
806.2197110031
 20
81.2186079836
 30
0.0
  0
SPLINE
  5
47E
100
AcDbEntity
  8
0
100
AcDbSpline
 62
7
  6
CONTINUOUS
 70
0
 71
3
 72
9
 73
5
 74
0
 42
0.0000001
 43
0.0000001
 44
0.0000000001
 40
0.0
 40
0.0
 40
0.0
 40
0.0
 40
0.5
 40
1.0
 40
1.0
 40
1.0
 40
1.0
 10
816.3372456186
 20
80.0132406092
 30
0.0
 10
816.4888143394
 20
79.1372321254
 30
0.0
 10
818.5980061885
 20
78.0592405323
 30
0.0
 10
820.7071980377
 20
79.1372321254
 30
0.0
 10
820.8587667585
 20
80.0132406092
 30
0.0
  0
SPLINE
  5
47F
100
AcDbEntity
  8
0
100
AcDbSpline
 62
7
  6
CONTINUOUS
 70
0
 71
3
 72
11
 73
7
 74
0
 42
0.0000001
 43
0.0000001
 44
0.0000000001
 40
0.0
 40
0.0
 40
0.0
 40
0.0
 40
0.2094929298
 40
0.4446655277
 40
0.7119947494
 40
1.0
 40
1.0
 40
1.0
 40
1.0
 10
804.2037110031
 20
78.6447393001
 30
0.0
 10
804.2037110031
 20
78.5997578957
 30
0.0
 10
804.2329131835
 20
78.5031423048
 30
0.0
 10
804.3447925278
 20
78.3925573892
 30
0.0
 10
804.5018750419
 20
78.3214813647
 30
0.0
 10
804.6218717771
 20
78.3053280451
 30
0.0
 10
804.6837110031
 20
78.3053280451
 30
0.0
  0
SPLINE
  5
480
100
AcDbEntity
  8
0
100
AcDbSpline
 62
7
  6
CONTINUOUS
 70
0
 71
3
 72
11
 73
7
 74
0
 42
0.0000001
 43
0.0000001
 44
0.0000000001
 40
0.0
 40
0.0
 40
0.0
 40
0.0
 40
0.2879697432
 40
0.5553440702
 40
0.7905331502
 40
1.0
 40
1.0
 40
1.0
 40
1.0
 10
806.0037110031
 20
82.0388518498
 30
0.0
 10
805.9727949856
 20
82.0388518498
 30
0.0
 10
805.9127986888
 20
82.030769025
 30
0.0
 10
805.8342406966
 20
81.9952519833
 30
0.0
 10
805.7783153735
 20
81.9399374396
 30
0.0
 10
805.7637110031
 20
81.8916342821
 30
0.0
 10
805.7637110031
 20
81.8691462223
 30
0.0
  0
SPLINE
  5
481
100
AcDbEntity
  8
0
100
AcDbSpline
 62
7
  6
CONTINUOUS
 70
0
 71
3
 72
9
 73
5
 74
0
 42
0.0000001
 43
0.0000001
 44
0.0000000001
 40
0.0
 40
0.0
 40
0.0
 40
0.0
 40
0.5597866015
 40
1.0
 40
1.0
 40
1.0
 40
1.0
 10
806.5197110031
 20
81.1054708986
 30
0.0
 10
806.4961307788
 20
81.1054708986
 30
0.0
 10
806.4522692346
 20
81.0965124089
 30
0.0
 10
806.4237110031
 20
81.0561320187
 30
0.0
 10
806.4237110031
 20
81.0375886476
 30
0.0
  0
SPLINE
  5
482
100
AcDbEntity
  8
0
100
AcDbSpline
 62
7
  6
CONTINUOUS
 70
0
 71
3
 72
9
 73
5
 74
0
 42
0.0000001
 43
0.0000001
 44
0.0000000001
 40
0.0
 40
0.0
 40
0.0
 40
0.0
 40
0.5597866015
 40
1.0
 40
1.0
 40
1.0
 40
1.0
 10
806.9877110031
 20
80.9357652712
 30
0.0
 10
807.0112912274
 20
80.9357652712
 30
0.0
 10
807.0551527716
 20
80.9447237608
 30
0.0
 10
807.0837110031
 20
80.9851041511
 30
0.0
 10
807.0837110031
 20
81.0036475221
 30
0.0
  0
SPLINE
  5
483
100
AcDbEntity
  8
0
100
AcDbSpline
 62
7
  6
CONTINUOUS
 70
0
 71
3
 72
9
 73
5
 74
0
 42
0.0000001
 43
0.0000001
 44
0.0000000001
 40
0.0
 40
0.0
 40
0.0
 40
0.0
 40
0.7407738242
 40
1.0
 40
1.0
 40
1.0
 40
1.0
 10
804.2037110031
 20
78.9275820126
 30
0.0
 10
804.2037110031
 20
78.8940476033
 30
0.0
 10
804.2138254362
 20
78.8482075746
 30
0.0
 10
804.2343241047
 20
78.8078245284
 30
0.0
 10
804.2402488275
 20
78.7976949485
 30
0.0
  0
SPLINE
  5
484
100
AcDbEntity
  8
0
100
AcDbSpline
 62
7
  6
CONTINUOUS
 70
0
 71
3
 72
9
 73
5
 74
0
 42
0.0000001
 43
0.0000001
 44
0.0000000001
 40
0.0
 40
0.0
 40
0.0
 40
0.0
 40
0.461013727
 40
1.0
 40
1.0
 40
1.0
 40
1.0
 10
804.2402488275
 20
78.7976949485
 30
0.0
 10
804.279514017
 20
78.7305627154
 30
0.0
 10
804.4222006783
 20
78.6200905476
 30
0.0
 10
804.5927851474
 20
78.5881707576
 30
0.0
 10
804.6837110031
 20
78.5881707576
 30
0.0
  0
SPLINE
  5
485
100
AcDbEntity
  8
0
100
AcDbSpline
 62
7
  6
CONTINUOUS
 70
0
 71
3
 72
9
 73
5
 74
0
 42
0.0000001
 43
0.0000001
 44
0.0000000001
 40
0.0
 40
0.0
 40
0.0
 40
0.0
 40
0.5597866015
 40
1.0
 40
1.0
 40
1.0
 40
1.0
 10
806.9877110031
 20
79.2387089963
 30
0.0
 10
807.0112912274
 20
79.2387089963
 30
0.0
 10
807.0551527716
 20
79.247667486
 30
0.0
 10
807.0837110031
 20
79.2880478762
 30
0.0
 10
807.0837110031
 20
79.3065912473
 30
0.0
  0
SPLINE
  5
486
100
AcDbEntity
  8
0
100
AcDbSpline
 62
7
  6
CONTINUOUS
 70
0
 71
3
 72
11
 73
7
 74
0
 42
0.0000001
 43
0.0000001
 44
0.0000000001
 40
0.0
 40
0.0
 40
0.0
 40
0.0
 40
0.2094656921
 40
0.4446574861
 40
0.7119998836
 40
1.0
 40
1.0
 40
1.0
 40
1.0
 10
814.4348704517
 20
81.5901690043
 30
0.0
 10
814.4348704517
 20
81.6713623217
 30
0.0
 10
814.3821590155
 20
81.8457697738
 30
0.0
 10
814.1802280842
 20
82.0454605736
 30
0.0
 10
813.8966087338
 20
82.1737206071
 30
0.0
 10
813.67998696
 20
82.202900623
 30
0.0
 10
813.5683520443
 20
82.202900623
 30
0.0
  0
SPLINE
  5
487
100
AcDbEntity
  8
BEZUGSACHSEN
100
AcDbSpline
 62
7
  6
CONTINUOUS
 70
0
 71
3
 72
19
 73
15
 74
0
 42
0.0000001
 43
0.0000001
 44
0.0000000001
 40
0.0
 40
0.0
 40
0.0
 40
0.0
 40
0.051729057
 40
0.1053341786
 40
0.1622493009
 40
0.2232160554
 40
0.3564757248
 40
0.5
 40
0.6435242752
 40
0.7767839446
 40
0.8377506991
 40
0.8946658214
 40
0.948270943
 40
1.0
 40
1.0
 40
1.0
 40
1.0
 10
810.8735251913
 20
87.0180464621
 30
0.0
 10
810.8735251913
 20
86.7859062231
 30
0.0
 10
810.9408868832
 20
86.3107934495
 30
0.0
 10
811.2356905138
 20
85.6366299892
 30
0.0
 10
811.7085677699
 20
85.0209118262
 30
0.0
 10
812.572783501
 20
84.2869053216
 30
0.0
 10
813.9818372129
 20
83.6502319724
 30
0.0
 10
815.8735251913
 20
83.3955593463
 30
0.0
 10
817.7652131698
 20
83.6502319724
 30
0.0
 10
819.1742668817
 20
84.2869053216
 30
0.0
 10
820.0384826127
 20
85.0209118262
 30
0.0
 10
820.5113598688
 20
85.6366299892
 30
0.0
 10
820.8061634995
 20
86.3107934495
 30
0.0
 10
820.8735251913
 20
86.7859062231
 30
0.0
 10
820.8735251913
 20
87.0180464621
 30
0.0
  0
SPLINE
  5
488
100
AcDbEntity
  8
0
100
AcDbSpline
 62
7
  6
CONTINUOUS
 70
0
 71
3
 72
11
 73
7
 74
0
 42
0.0000001
 43
0.0000001
 44
0.0000000001
 40
0.0
 40
0.0
 40
0.0
 40
0.0
 40
0.2865059912
 40
0.5484241175
 40
0.7833822346
 40
1.0
 40
1.0
 40
1.0
 40
1.0
 10
814.0660708595
 20
80.5189984683
 30
0.0
 10
814.219017958
 20
80.554531862
 30
0.0
 10
814.5057641812
 20
80.655636744
 30
0.0
 10
814.8643737308
 20
80.9021997554
 30
0.0
 10
815.1044656922
 20
81.2216419973
 30
0.0
 10
815.1628998015
 20
81.471704305
 30
0.0
 10
815.1628819922
 20
81.590422343
 30
0.0
  0
SPLINE
  5
489
100
AcDbEntity
  8
RUNDUNGEN
100
AcDbSpline
 62
7
  6
CONTINUOUS
 70
0
 71
3
 72
10
 73
6
 74
0
 42
0.0000001
 43
0.0000001
 44
0.0000000001
 40
0.0
 40
0.0
 40
0.0
 40
0.0
 40
0.2265442612
 40
0.4650409816
 40
1.0
 40
1.0
 40
1.0
 40
1.0
 10
852.0086740453
 20
91.7151291012
 30
0.0
 10
852.0086295243
 20
91.7832924134
 30
0.0
 10
851.9837842586
 20
91.9242431089
 30
0.0
 10
851.8374298425
 20
92.1916913126
 30
0.0
 10
851.6412229184
 20
92.338296224
 30
0.0
 10
851.4969754468
 20
92.4097162483
 30
0.0
  0
SPLINE
  5
48A
100
AcDbEntity
  8
0
100
AcDbSpline
 62
7
  6
CONTINUOUS
 70
0
 71
3
 72
11
 73
7
 74
0
 42
0.0000001
 43
0.0000001
 44
0.0000000001
 40
0.0
 40
0.0
 40
0.0
 40
0.0
 40
0.227142142
 40
0.4653047767
 40
0.7220182825
 40
1.0
 40
1.0
 40
1.0
 40
1.0
 10
826.6297369423
 20
80.5228149109
 30
0.0
 10
826.6297369423
 20
80.6791504106
 30
0.0
 10
826.5759402904
 20
81.0015343578
 30
0.0
 10
826.3435843911
 20
81.4485435993
 30
0.0
 10
825.9772767081
 20
81.8416997551
 30
0.0
 10
825.6690263598
 20
82.0485425003
 30
0.0
 10
825.5007824268
 20
82.1396467073
 30
0.0
  0
SPLINE
  5
48B
100
AcDbEntity
  8
0
100
AcDbSpline
 62
7
  6
CONTINUOUS
 70
0
 71
3
 72
9
 73
5
 74
0
 42
0.0000001
 43
0.0000001
 44
0.0000000001
 40
0.0
 40
0.0
 40
0.0
 40
0.0
 40
0.4402133985
 40
1.0
 40
1.0
 40
1.0
 40
1.0
 10
806.1237110031
 20
79.3065912473
 30
0.0
 10
806.1237110031
 20
79.2880478762
 30
0.0
 10
806.1522692346
 20
79.247667486
 30
0.0
 10
806.1961307788
 20
79.2387089963
 30
0.0
 10
806.2197110031
 20
79.2387089963
 30
0.0
  0
SPLINE
  5
48C
100
AcDbEntity
  8
0
100
AcDbSpline
 62
7
  6
CONTINUOUS
 70
0
 71
3
 72
8
 73
4
 74
0
 42
0.0000001
 43
0.0000001
 44
0.0000000001
 40
0.0
 40
0.0
 40
0.0
 40
0.0
 40
1.0
 40
1.0
 40
1.0
 40
1.0
 10
825.3380339869
 20
78.3053280451
 30
0.0
 10
825.4026697183
 20
78.3053280451
 30
0.0
 10
825.468100119
 20
78.3145702687
 30
0.0
 10
825.5298672478
 20
78.3336123164
 30
0.0
  0
SPLINE
  5
48D
100
AcDbEntity
  8
0
100
AcDbSpline
 62
7
  6
CONTINUOUS
 70
0
 71
3
 72
11
 73
7
 74
0
 42
0.0000001
 43
0.0000001
 44
0.0000000001
 40
0.0
 40
0.0
 40
0.0
 40
0.0
 40
0.2847819434
 40
0.5451774547
 40
0.7807010719
 40
1.0
 40
1.0
 40
1.0
 40
1.0
 10
825.5298672478
 20
78.3336123164
 30
0.0
 10
825.816743482
 20
78.4220527384
 30
0.0
 10
826.3506567838
 20
78.6508132532
 30
0.0
 10
827.0092901956
 20
79.1616606292
 30
0.0
 10
827.443066439
 20
79.7963653082
 30
0.0
 10
827.5470174583
 20
80.2803299187
 30
0.0
 10
827.5470174583
 20
80.5115012024
 30
0.0
  0
SPLINE
  5
48E
100
AcDbEntity
  8
0
100
AcDbSpline
 62
7
  6
CONTINUOUS
 70
0
 71
3
 72
9
 73
5
 74
0
 42
0.0000001
 43
0.0000001
 44
0.0000000001
 40
0.0
 40
0.0
 40
0.0
 40
0.0
 40
0.239729366
 40
1.0
 40
1.0
 40
1.0
 40
1.0
 10
825.5007824268
 20
82.1396467073
 30
0.0
 10
825.4901773008
 20
82.1453893905
 30
0.0
 10
825.4442318604
 20
82.1661351855
 30
0.0
 10
825.3931103585
 20
82.1746163518
 30
0.0
 10
825.3548631692
 20
82.1746163518
 30
0.0
  0
SPLINE
  5
48F
100
AcDbEntity
  8
0
100
AcDbSpline
 62
7
  6
CONTINUOUS
 70
0
 71
3
 72
8
 73
4
 74
0
 42
0.0000001
 43
0.0000001
 44
0.0000000001
 40
0.0
 40
0.0
 40
0.0
 40
0.0
 40
1.0
 40
1.0
 40
1.0
 40
1.0
 10
825.3380339869
 20
78.5881707576
 30
0.0
 10
825.4026697183
 20
78.5881707576
 30
0.0
 10
825.468100119
 20
78.5974129812
 30
0.0
 10
825.5298672478
 20
78.6164550289
 30
0.0
  0
SPLINE
  5
490
100
AcDbEntity
  8
0
100
AcDbSpline
 62
7
  6
CONTINUOUS
 70
0
 71
3
 72
11
 73
7
 74
0
 42
0.0000001
 43
0.0000001
 44
0.0000000001
 40
0.0
 40
0.0
 40
0.0
 40
0.0
 40
0.2816347582
 40
0.5420479832
 40
0.7798483853
 40
1.0
 40
1.0
 40
1.0
 40
1.0
 10
825.5298672478
 20
78.6164550289
 30
0.0
 10
825.7889673697
 20
78.6963324164
 30
0.0
 10
826.2747964983
 20
78.8987716526
 30
0.0
 10
826.8915339065
 20
79.3397338567
 30
0.0
 10
827.3333410128
 20
79.8843640837
 30
0.0
 10
827.4893449565
 20
80.3081338107
 30
0.0
 10
827.5240716949
 20
80.5172121889
 30
0.0
  0
SPLINE
  5
491
100
AcDbEntity
  8
0
100
AcDbSpline
 62
7
  6
CONTINUOUS
 70
0
 71
3
 72
9
 73
5
 74
0
 42
0.0000001
 43
0.0000001
 44
0.0000000001
 40
0.0
 40
0.0
 40
0.0
 40
0.0
 40
0.2591205677
 40
1.0
 40
1.0
 40
1.0
 40
1.0
 10
825.3548631692
 20
82.4574590643
 30
0.0
 10
825.3678949658
 20
82.4574590643
 30
0.0
 10
825.418097836
 20
82.4545828484
 30
0.0
 10
825.4680171957
 20
82.4402318153
 30
0.0
 10
825.5007824268
 20
82.4224894198
 30
0.0
  0
SPLINE
  5
492
100
AcDbEntity
  8
0
100
AcDbSpline
 62
7
  6
CONTINUOUS
 70
0
 71
3
 72
11
 73
7
 74
0
 42
0.0000001
 43
0.0000001
 44
0.0000000001
 40
0.0
 40
0.0
 40
0.0
 40
0.0
 40
0.2779697373
 40
0.5346991835
 40
0.7728568778
 40
1.0
 40
1.0
 40
1.0
 40
1.0
 10
825.5007824268
 20
82.4224894198
 30
0.0
 10
825.6690197118
 20
82.3313888126
 30
0.0
 10
825.97726637
 20
82.1245373061
 30
0.0
 10
826.3435983879
 20
81.7313997891
 30
0.0
 10
826.5759454292
 20
81.2843741714
 30
0.0
 10
826.6297513351
 20
80.9619943579
 30
0.0
 10
826.6297513351
 20
80.8056576234
 30
0.0
  0
SPLINE
  5
493
100
AcDbEntity
  8
0
100
AcDbSpline
 62
7
  6
CONTINUOUS
 70
0
 71
3
 72
9
 73
5
 74
0
 42
0.0000001
 43
0.0000001
 44
0.0000000001
 40
0.0
 40
0.0
 40
0.0
 40
0.0
 40
0.5403772208
 40
1.0
 40
1.0
 40
1.0
 40
1.0
 10
814.0660708595
 20
80.8018411808
 30
0.0
 10
814.3005289972
 20
80.8563116048
 30
0.0
 10
814.7241447373
 20
81.0290353396
 30
0.0
 10
815.0339140101
 20
81.3866729198
 30
0.0
 10
815.1072438294
 20
81.5778214891
 30
0.0
  0
SPLINE
  5
494
100
AcDbEntity
  8
0
100
AcDbSpline
 62
7
  6
CONTINUOUS
 70
0
 71
3
 72
8
 73
4
 74
0
 42
0.0000001
 43
0.0000001
 44
0.0000000001
 40
0.0
 40
0.0
 40
0.0
 40
0.0
 40
1.0
 40
1.0
 40
1.0
 40
1.0
 10
815.1072438294
 20
81.5778214891
 30
0.0
 10
815.1256006517
 20
81.6256721499
 30
0.0
 10
815.139833355
 20
81.6753490417
 30
0.0
 10
815.1492233123
 20
81.7257324453
 30
0.0
  0
SPLINE
  5
495
100
AcDbEntity
  8
0
100
AcDbSpline
 62
7
  6
CONTINUOUS
 70
0
 71
3
 72
11
 73
7
 74
0
 42
0.0000001
 43
0.0000001
 44
0.0000000001
 40
0.0
 40
0.0
 40
0.0
 40
0.0
 40
0.2880066977
 40
0.5553334191
 40
0.790532629
 40
1.0
 40
1.0
 40
1.0
 40
1.0
 10
813.5683520443
 20
82.4857433355
 30
0.0
 10
813.6799890858
 20
82.4857433355
 30
0.0
 10
813.896610292
 20
82.4565746956
 30
0.0
 10
814.1802147706
 20
82.328284289
 30
0.0
 10
814.3821450468
 20
82.1286103682
 30
0.0
 10
814.4348854097
 20
81.9542053757
 30
0.0
 10
814.4348854097
 20
81.8730117167
 30
0.0
  0
SPLINE
  5
496
100
AcDbEntity
  8
0
100
AcDbSpline
 62
7
  6
CONTINUOUS
 70
0
 71
3
 72
9
 73
5
 74
0
 42
0.0000001
 43
0.0000001
 44
0.0000000001
 40
0.0
 40
0.0
 40
0.0
 40
0.0
 40
0.5597866015
 40
1.0
 40
1.0
 40
1.0
 40
1.0
 10
806.9877110031
 20
79.5215517088
 30
0.0
 10
807.0112912274
 20
79.5215517088
 30
0.0
 10
807.0551527716
 20
79.5305101985
 30
0.0
 10
807.0837110031
 20
79.5708905887
 30
0.0
 10
807.0837110031
 20
79.5894339598
 30
0.0
  0
SPLINE
  5
497
100
AcDbEntity
  8
0
100
AcDbSpline
 62
7
  6
CONTINUOUS
 70
0
 71
3
 72
9
 73
5
 74
0
 42
0.0000001
 43
0.0000001
 44
0.0000000001
 40
0.0
 40
0.0
 40
0.0
 40
0.0
 40
0.4402133985
 40
1.0
 40
1.0
 40
1.0
 40
1.0
 10
806.4237110031
 20
81.3204313601
 30
0.0
 10
806.4237110031
 20
81.3389747312
 30
0.0
 10
806.4522692346
 20
81.3793551214
 30
0.0
 10
806.4961307788
 20
81.3883136111
 30
0.0
 10
806.5197110031
 20
81.3883136111
 30
0.0
  0
SPLINE
  5
498
100
AcDbEntity
  8
RUNDUNGEN
100
AcDbSpline
 62
7
  6
CONTINUOUS
 70
0
 71
3
 72
11
 73
7
 74
0
 42
0.0000001
 43
0.0000001
 44
0.0000000001
 40
0.0
 40
0.0
 40
0.0
 40
0.0
 40
0.2256927635
 40
0.4632951072
 40
0.7206222905
 40
1.0
 40
1.0
 40
1.0
 40
1.0
 10
793.0980461142
 20
85.5222826483
 30
0.0
 10
793.097971939
 20
85.4086777615
 30
0.0
 10
793.0566568142
 20
85.1738388268
 30
0.0
 10
792.8797686311
 20
84.851033268
 30
0.0
 10
792.6027432499
 20
84.5709711576
 30
0.0
 10
792.3712412571
 20
84.4270348427
 30
0.0
 10
792.2452149509
 20
84.3646365091
 30
0.0
  0
SPLINE
  5
499
100
AcDbEntity
  8
0
100
AcDbSpline
 62
7
  6
CONTINUOUS
 70
0
 71
3
 72
9
 73
5
 74
0
 42
0.0000001
 43
0.0000001
 44
0.0000000001
 40
0.0
 40
0.0
 40
0.0
 40
0.0
 40
0.5597866015
 40
1.0
 40
1.0
 40
1.0
 40
1.0
 10
806.6877110031
 20
81.3883136111
 30
0.0
 10
806.7112912274
 20
81.3883136111
 30
0.0
 10
806.7551527716
 20
81.3793551214
 30
0.0
 10
806.7837110031
 20
81.3389747312
 30
0.0
 10
806.7837110031
 20
81.3204313601
 30
0.0
  0
SPLINE
  5
49A
100
AcDbEntity
  8
0
100
AcDbSpline
 62
7
  6
CONTINUOUS
 70
0
 71
3
 72
9
 73
5
 74
0
 42
0.0000001
 43
0.0000001
 44
0.0000000001
 40
0.0
 40
0.0
 40
0.0
 40
0.0
 40
0.5597866015
 40
1.0
 40
1.0
 40
1.0
 40
1.0
 10
806.9877110031
 20
81.2186079836
 30
0.0
 10
807.0112912274
 20
81.2186079836
 30
0.0
 10
807.0551527716
 20
81.2275664733
 30
0.0
 10
807.0837110031
 20
81.2679468636
 30
0.0
 10
807.0837110031
 20
81.2864902346
 30
0.0
  0
SPLINE
  5
49B
100
AcDbEntity
  8
0
100
AcDbSpline
 62
7
  6
CONTINUOUS
 70
0
 71
3
 72
11
 73
7
 74
0
 42
0.0000001
 43
0.0000001
 44
0.0000000001
 40
0.0
 40
0.0
 40
0.0
 40
0.0
 40
0.2876567391
 40
0.555407049
 40
0.7907201247
 40
1.0
 40
1.0
 40
1.0
 40
1.0
 10
807.2037110031
 20
82.3216945623
 30
0.0
 10
807.2345889433
 20
82.3216945623
 30
0.0
 10
807.2945387123
 20
82.3134891783
 30
0.0
 10
807.3732434625
 20
82.2781985671
 30
0.0
 10
807.4289826124
 20
82.2226798839
 30
0.0
 10
807.4437110031
 20
82.1744536665
 30
0.0
 10
807.4437110031
 20
82.1519889348
 30
0.0
  0
SPLINE
  5
49C
100
AcDbEntity
  8
0
100
AcDbSpline
 62
7
  6
CONTINUOUS
 70
0
 71
3
 72
8
 73
4
 74
0
 42
0.0000001
 43
0.0000001
 44
0.0000000001
 40
0.0
 40
0.0
 40
0.0
 40
0.0
 40
1.0
 40
1.0
 40
1.0
 40
1.0
 10
807.2678066339
 20
80.6183873063
 30
0.0
 10
807.2868709683
 20
80.6146453116
 30
0.0
 10
807.3057117055
 20
80.6092148181
 30
0.0
 10
807.3237110031
 20
80.6019020445
 30
0.0
  0
SPLINE
  5
49D
100
AcDbEntity
  8
0
100
AcDbSpline
 62
7
  6
CONTINUOUS
 70
0
 71
3
 72
9
 73
5
 74
0
 42
0.0000001
 43
0.0000001
 44
0.0000000001
 40
0.0
 40
0.0
 40
0.0
 40
0.0
 40
0.5424756321
 40
1.0
 40
1.0
 40
1.0
 40
1.0
 10
807.3237110031
 20
80.6019020445
 30
0.0
 10
807.3569365317
 20
80.5884031418
 30
0.0
 10
807.4155285603
 20
80.5516558444
 30
0.0
 10
807.4437110031
 20
80.4851795578
 30
0.0
 10
807.4437110031
 20
80.4549326599
 30
0.0
  0
SPLINE
  5
49E
100
AcDbEntity
  8
0
100
AcDbSpline
 62
7
  6
CONTINUOUS
 70
0
 71
3
 72
9
 73
5
 74
0
 42
0.0000001
 43
0.0000001
 44
0.0000000001
 40
0.0
 40
0.0
 40
0.0
 40
0.0
 40
0.4575243679
 40
1.0
 40
1.0
 40
1.0
 40
1.0
 10
805.7637110031
 20
80.4549326599
 30
0.0
 10
805.7637110031
 20
80.4851795578
 30
0.0
 10
805.7918934459
 20
80.5516558444
 30
0.0
 10
805.8504854745
 20
80.5884031418
 30
0.0
 10
805.8837110031
 20
80.6019020445
 30
0.0
  0
SPLINE
  5
49F
100
AcDbEntity
  8
0
100
AcDbSpline
 62
7
  6
CONTINUOUS
 70
0
 71
3
 72
8
 73
4
 74
0
 42
0.0000001
 43
0.0000001
 44
0.0000000001
 40
0.0
 40
0.0
 40
0.0
 40
0.0
 40
1.0
 40
1.0
 40
1.0
 40
1.0
 10
805.8837110031
 20
80.6019020445
 30
0.0
 10
805.921428566
 20
80.6172259757
 30
0.0
 10
805.9629993658
 20
80.6246382874
 30
0.0
 10
806.0037110031
 20
80.6246382874
 30
0.0
  0
SPLINE
  5
4A0
100
AcDbEntity
  8
0
100
AcDbSpline
 62
7
  6
CONTINUOUS
 70
0
 71
3
 72
11
 73
7
 74
0
 42
0.0000001
 43
0.0000001
 44
0.0000000001
 40
0.0
 40
0.0
 40
0.0
 40
0.0
 40
0.2092798753
 40
0.444592951
 40
0.7123432609
 40
1.0
 40
1.0
 40
1.0
 40
1.0
 10
805.7637110031
 20
82.1519889348
 30
0.0
 10
805.7637110031
 20
82.1744536665
 30
0.0
 10
805.7784393938
 20
82.2226798839
 30
0.0
 10
805.8341785437
 20
82.2781985671
 30
0.0
 10
805.912883294
 20
82.3134891783
 30
0.0
 10
805.972833063
 20
82.3216945623
 30
0.0
 10
806.0037110031
 20
82.3216945623
 30
0.0
  0
SPLINE
  5
4A1
100
AcDbEntity
  8
RUNDUNGEN
100
AcDbSpline
 62
7
  6
CONTINUOUS
 70
0
 71
3
 72
11
 73
7
 74
0
 42
0.0000001
 43
0.0000001
 44
0.0000000001
 40
0.0
 40
0.0
 40
0.0
 40
0.0
 40
0.2660806488
 40
0.5190943636
 40
0.7622194616
 40
1.0
 40
1.0
 40
1.0
 40
1.0
 10
830.4591924351
 20
59.9513664467
 30
0.0
 10
830.1184294024
 20
60.2954870653
 30
0.0
 10
829.50507738
 20
61.0211790116
 30
0.0
 10
828.8107203486
 20
62.2316681214
 30
0.0
 10
828.3850246413
 20
63.5074530016
 30
0.0
 10
828.2890169512
 20
64.3855414166
 30
0.0
 10
828.2890169666
 20
64.8183242596
 30
0.0
  0
SPLINE
  5
4A2
100
AcDbEntity
  8
0
100
AcDbSpline
 62
7
  6
CONTINUOUS
 70
0
 71
3
 72
9
 73
5
 74
0
 42
0.0000001
 43
0.0000001
 44
0.0000000001
 40
0.0
 40
0.0
 40
0.0
 40
0.0
 40
0.538986273
 40
1.0
 40
1.0
 40
1.0
 40
1.0
 10
808.5237110031
 20
78.5881707576
 30
0.0
 10
808.6146368588
 20
78.5881707576
 30
0.0
 10
808.785221328
 20
78.6200905476
 30
0.0
 10
808.9279079892
 20
78.7305627154
 30
0.0
 10
808.9671731787
 20
78.7976949485
 30
0.0
  0
SPLINE
  5
4A3
100
AcDbEntity
  8
0
100
AcDbSpline
 62
7
  6
CONTINUOUS
 70
0
 71
3
 72
9
 73
5
 74
0
 42
0.0000001
 43
0.0000001
 44
0.0000000001
 40
0.0
 40
0.0
 40
0.0
 40
0.0
 40
0.2592261758
 40
1.0
 40
1.0
 40
1.0
 40
1.0
 10
808.9671731787
 20
78.7976949485
 30
0.0
 10
808.9730979015
 20
78.8078245284
 30
0.0
 10
808.99359657
 20
78.8482075746
 30
0.0
 10
809.0037110031
 20
78.8940476033
 30
0.0
 10
809.0037110031
 20
78.9275820126
 30
0.0
  0
SPLINE
  5
4A4
100
AcDbEntity
  8
RUNDUNGEN
100
AcDbSpline
 62
7
  6
CONTINUOUS
 70
0
 71
3
 72
11
 73
7
 74
0
 42
0.0000001
 43
0.0000001
 44
0.0000000001
 40
0.0
 40
0.0
 40
0.0
 40
0.0
 40
0.2297109937
 40
0.4842558728
 40
0.7475644511
 40
1.0
 40
1.0
 40
1.0
 40
1.0
 10
836.8465376107
 20
87.9704712309
 30
0.0
 10
836.527225822
 20
87.6480132184
 30
0.0
 10
835.7019382787
 20
87.1155497353
 30
0.0
 10
834.2554842447
 20
86.7358213842
 30
0.0
 10
832.7163118946
 20
86.7574063596
 30
0.0
 10
831.7225420673
 20
87.0545996226
 30
0.0
 10
831.2756236881
 20
87.2758785202
 30
0.0
  0
SPLINE
  5
4A5
100
AcDbEntity
  8
RUNDUNGEN
100
AcDbSpline
 62
7
  6
CONTINUOUS
 70
0
 71
3
 72
11
 73
7
 74
0
 42
0.0000001
 43
0.0000001
 44
0.0000000001
 40
0.0
 40
0.0
 40
0.0
 40
0.0
 40
0.2524375529
 40
0.5157480446
 40
0.7702932073
 40
1.0
 40
1.0
 40
1.0
 40
1.0
 10
805.713999778
 20
89.8715891613
 30
0.0
 10
805.26707785
 20
89.6503085066
 30
0.0
 10
804.2732998839
 20
89.3531140608
 30
0.0
 10
802.7341188028
 20
89.33153372
 30
0.0
 10
801.2876702026
 20
89.7112683114
 30
0.0
 10
800.4623918051
 20
90.243729756
 30
0.0
 10
800.1430858554
 20
90.566181872
 30
0.0
  0
SPLINE
  5
4A6
100
AcDbEntity
  8
RUNDUNGEN
100
AcDbSpline
 62
7
  6
CONTINUOUS
 70
0
 71
3
 72
9
 73
5
 74
0
 42
0.0000001
 43
0.0000001
 44
0.0000000001
 40
0.0
 40
0.0
 40
0.0
 40
0.0
 40
0.492156512
 40
1.0
 40
1.0
 40
1.0
 40
1.0
 10
806.4521290984
 20
159.0945991651
 30
0.0
 10
805.7017992013
 20
159.0945991651
 30
0.0
 10
804.1779653901
 20
159.0359738254
 30
0.0
 10
802.6537869274
 20
158.992812995
 30
0.0
 10
801.8795410467
 20
158.992812995
 30
0.0
  0
SPLINE
  5
4A7
100
AcDbEntity
  8
KONSTRUKTIONSELEMENTE
100
AcDbSpline
 62
7
  6
CONTINUOUS
 70
0
 71
3
 72
9
 73
5
 74
0
 42
0.0000001
 43
0.0000001
 44
0.0000000001
 40
0.0
 40
0.0
 40
0.0
 40
0.0
 40
0.7244773545
 40
1.0
 40
1.0
 40
1.0
 40
1.0
 10
831.5972466921
 20
121.8445991651
 30
0.0
 10
831.6155431561
 20
121.8445991651
 30
0.0
 10
831.6416309971
 20
121.8550578889
 30
0.0
 10
831.658598267
 20
121.8737931262
 30
0.0
 10
831.6629073205
 20
121.8792565699
 30
0.0
  0
SPLINE
  5
4A8
100
AcDbEntity
  8
KONSTRUKTIONSELEMENTE
100
AcDbSpline
 62
7
  6
CONTINUOUS
 70
0
 71
3
 72
18
 73
14
 74
0
 42
0.0000001
 43
0.0000001
 44
0.0000000001
 40
0.0
 40
0.0
 40
0.0
 40
0.0
 40
0.0123460177
 40
0.0326550327
 40
0.0614188717
 40
0.0985579817
 40
0.1437753901
 40
0.1966304972
 40
0.3230251361
 40
0.4725670057
 40
0.6393127884
 40
0.8170773473
 40
1.0
 40
1.0
 40
1.0
 40
1.0
 10
831.6629073205
 20
121.8792565699
 30
0.0
 10
831.6926918847
 20
121.9170203822
 30
0.0
 10
831.7245133027
 20
122.0467644881
 30
0.0
 10
831.7352806459
 20
122.2833625991
 30
0.0
 10
831.7163406714
 20
122.6203669145
 30
0.0
 10
831.6664786195
 20
123.0499875957
 30
0.0
 10
831.584889815
 20
123.570669756
 30
0.0
 10
831.4232893177
 20
124.4300740937
 30
0.0
 10
831.1381067238
 20
125.67933224
 30
0.0
 10
830.6868944227
 20
127.3442155741
 30
0.0
 10
830.106720017
 20
129.1800316947
 30
0.0
 10
829.3970488822
 20
131.1091193557
 30
0.0
 10
828.8397300802
 20
132.400140417
 30
0.0
 10
828.5356239432
 20
133.0445991651
 30
0.0
  0
SPLINE
  5
4A9
100
AcDbEntity
  8
KONSTRUKTIONSELEMENTE
100
AcDbSpline
 62
7
  6
CONTINUOUS
 70
0
 71
3
 72
9
 73
5
 74
0
 42
0.0000001
 43
0.0000001
 44
0.0000000001
 40
0.0
 40
0.0
 40
0.0
 40
0.0
 40
0.2510778321
 40
1.0
 40
1.0
 40
1.0
 40
1.0
 10
820.8735251913
 20
144.8269506078
 30
0.0
 10
821.2144223573
 20
144.7692585494
 30
0.0
 10
822.5679352578
 20
144.5154395075
 30
0.0
 10
823.9035802544
 20
144.1644752039
 30
0.0
 10
824.8840148393
 20
143.8445991651
 30
0.0
  0
SPLINE
  5
4AA
100
AcDbEntity
  8
KONSTRUKTIONSELEMENTE
100
AcDbSpline
 62
7
  6
CONTINUOUS
 70
0
 71
3
 72
9
 73
5
 74
0
 42
0.0000001
 43
0.0000001
 44
0.0000000001
 40
0.0
 40
0.0
 40
0.0
 40
0.0
 40
0.248984136
 40
1.0
 40
1.0
 40
1.0
 40
1.0
 10
806.8630355434
 20
143.8445991651
 30
0.0
 10
807.1889923526
 20
143.9509456512
 30
0.0
 10
808.5063950451
 20
144.3524634611
 30
0.0
 10
809.8538295201
 20
144.6543814341
 30
0.0
 10
810.8735251913
 20
144.8269506078
 30
0.0
  0
SPLINE
  5
4AB
100
AcDbEntity
  8
KONSTRUKTIONSELEMENTE
100
AcDbSpline
 62
7
  6
CONTINUOUS
 70
0
 71
3
 72
12
 73
8
 74
0
 42
0.0000001
 43
0.0000001
 44
0.0000000001
 40
0.0
 40
0.0
 40
0.0
 40
0.0
 40
0.1250699247
 40
0.2501553866
 40
0.4997777447
 40
0.7498050362
 40
1.0
 40
1.0
 40
1.0
 40
1.0
 10
803.9171431299
 20
139.6849991651
 30
0.0
 10
803.9171431299
 20
139.9060595789
 30
0.0
 10
803.9643864055
 20
140.349524281
 30
0.0
 10
804.2321600982
 20
141.1962758144
 30
0.0
 10
804.8292722185
 20
142.1451343945
 30
0.0
 10
805.7726992952
 20
143.084672373
 30
0.0
 10
806.4905173009
 20
143.6062986556
 30
0.0
 10
806.8630355434
 20
143.8445991651
 30
0.0
  0
SPLINE
  5
4AC
100
AcDbEntity
  8
KONSTRUKTIONSELEMENTE
100
AcDbSpline
 62
7
  6
CONTINUOUS
 70
0
 71
3
 72
9
 73
5
 74
0
 42
0.0000001
 43
0.0000001
 44
0.0000000001
 40
0.0
 40
0.0
 40
0.0
 40
0.0
 40
0.5002468695
 40
1.0
 40
1.0
 40
1.0
 40
1.0
 10
803.2114264394
 20
133.0445991651
 30
0.0
 10
803.4216664603
 20
133.4901377588
 30
0.0
 10
803.7786271691
 20
134.4143146911
 30
0.0
 10
803.9171431299
 20
135.402433903
 30
0.0
 10
803.9171431299
 20
135.8945991651
 30
0.0
  0
SPLINE
  5
4AD
100
AcDbEntity
  8
KONSTRUKTIONSELEMENTE
100
AcDbSpline
 62
7
  6
CONTINUOUS
 70
0
 71
3
 72
9
 73
5
 74
0
 42
0.0000001
 43
0.0000001
 44
0.0000000001
 40
0.0
 40
0.0
 40
0.0
 40
0.0
 40
0.4997531305
 40
1.0
 40
1.0
 40
1.0
 40
1.0
 10
827.8299072528
 20
135.8945991651
 30
0.0
 10
827.8299072528
 20
135.402433903
 30
0.0
 10
827.9684232136
 20
134.4143146911
 30
0.0
 10
828.3253839224
 20
133.4901377588
 30
0.0
 10
828.5356239432
 20
133.0445991651
 30
0.0
  0
SPLINE
  5
4AE
100
AcDbEntity
  8
KONSTRUKTIONSELEMENTE
100
AcDbSpline
 62
7
  6
CONTINUOUS
 70
0
 71
3
 72
12
 73
8
 74
0
 42
0.0000001
 43
0.0000001
 44
0.0000000001
 40
0.0
 40
0.0
 40
0.0
 40
0.0
 40
0.2501944841
 40
0.5002215546
 40
0.7498441276
 40
0.8749297703
 40
1.0
 40
1.0
 40
1.0
 40
1.0
 10
824.8840148393
 20
143.8445991651
 30
0.0
 10
825.2565323671
 20
143.6062991128
 30
0.0
 10
825.9743493949
 20
143.0846736376
 30
0.0
 10
826.9177763183
 20
142.1451367306
 30
0.0
 10
827.5148890146
 20
141.1962781893
 30
0.0
 10
827.7826638679
 20
140.3495257067
 30
0.0
 10
827.8299072528
 20
139.9060601179
 30
0.0
 10
827.8299072528
 20
139.6849991651
 30
0.0
  0
SPLINE
  5
4AF
100
AcDbEntity
  8
RUNDUNGEN
100
AcDbSpline
 62
7
  6
CONTINUOUS
 70
0
 71
3
 72
15
 73
11
 74
0
 42
0.0000001
 43
0.0000001
 44
0.0000000001
 40
0.0
 40
0.0
 40
0.0
 40
0.0
 40
0.0506580437
 40
0.0823029949
 40
0.1197229212
 40
0.2136507622
 40
0.3333912895
 40
0.4767107866
 40
0.6395049098
 40
1.0
 40
1.0
 40
1.0
 40
1.0
 10
838.8735251913
 20
142.8799820723
 30
0.0
 10
838.8735251913
 20
142.9455847674
 30
0.0
 10
838.827885398
 20
143.0517389752
 30
0.0
 10
838.7203764815
 20
143.1631973529
 30
0.0
 10
838.5502362154
 20
143.2899538903
 30
0.0
 10
838.2547330124
 20
143.4307591762
 30
0.0
 10
837.8138691594
 20
143.5719609664
 30
0.0
 10
837.2742245289
 20
143.6892402686
 30
0.0
 10
836.4191383042
 20
143.8109011894
 30
0.0
 10
835.7403700938
 20
143.8445991651
 30
0.0
 10
835.2735251913
 20
143.8445991651
 30
0.0
  0
SPLINE
  5
4B0
100
AcDbEntity
  8
RUNDUNGEN
100
AcDbSpline
 62
7
  6
CONTINUOUS
 70
0
 71
3
 72
15
 73
11
 74
0
 42
0.0000001
 43
0.0000001
 44
0.0000000001
 40
0.0
 40
0.0
 40
0.0
 40
0.0
 40
0.0506580437
 40
0.0823029949
 40
0.1197229212
 40
0.2136507622
 40
0.3333912895
 40
0.4767107866
 40
0.6395049098
 40
1.0
 40
1.0
 40
1.0
 40
1.0
 10
838.8735251913
 20
148.076134495
 30
0.0
 10
838.8735251913
 20
148.1417371901
 30
0.0
 10
838.827885398
 20
148.2478913979
 30
0.0
 10
838.7203764815
 20
148.3593497756
 30
0.0
 10
838.5502362154
 20
148.486106313
 30
0.0
 10
838.2547330124
 20
148.6269115989
 30
0.0
 10
837.8138691594
 20
148.7681133891
 30
0.0
 10
837.2742245289
 20
148.8853926913
 30
0.0
 10
836.4191383042
 20
149.0070536121
 30
0.0
 10
835.7403700938
 20
149.0407515878
 30
0.0
 10
835.2735251913
 20
149.0407515878
 30
0.0
  0
SPLINE
  5
4B1
100
AcDbEntity
  8
RUNDUNGEN
100
AcDbSpline
 62
7
  6
CONTINUOUS
 70
0
 71
3
 72
9
 73
5
 74
0
 42
0.0000001
 43
0.0000001
 44
0.0000000001
 40
0.0
 40
0.0
 40
0.0
 40
0.0
 40
0.4847438183
 40
1.0
 40
1.0
 40
1.0
 40
1.0
 10
835.3267363046
 20
158.5681559557
 30
0.0
 10
834.9549186911
 20
158.7273847027
 30
0.0
 10
834.1407794683
 20
158.9476238966
 30
0.0
 10
833.3037696927
 20
159.0040143992
 30
0.0
 10
832.8738926919
 20
158.9967971182
 30
0.0
  0
SPLINE
  5
4B2
100
AcDbEntity
  8
KONSTRUKTIONSELEMENTE
100
AcDbSpline
 62
7
  6
CONTINUOUS
 70
0
 71
3
 72
19
 73
15
 74
0
 42
0.0000001
 43
0.0000001
 44
0.0000000001
 40
0.0
 40
0.0
 40
0.0
 40
0.0
 40
0.3765013995
 40
0.5490139416
 40
0.6282262524
 40
0.7015703823
 40
0.7682153434
 40
0.8274041076
 40
0.8784607165
 40
0.9208245315
 40
0.954081486
 40
0.967220656
 40
0.9780385153
 40
1.0
 40
1.0
 40
1.0
 40
1.0
 10
803.2114264394
 20
133.0445991651
 30
0.0
 10
802.5825371939
 20
131.7118632334
 30
0.0
 10
801.7965228949
 20
129.7049117674
 30
0.0
 10
801.0679665941
 20
127.3561299076
 30
0.0
 10
800.7319596078
 20
126.1288109151
 30
0.0
 10
800.5233158978
 20
125.2965119558
 30
0.0
 10
800.3505787171
 20
124.5362640044
 30
0.0
 10
800.2136954054
 20
123.8573305931
 30
0.0
 10
800.1121895741
 20
123.2690524198
 30
0.0
 10
800.0463643595
 20
122.7761437195
 30
0.0
 10
800.0172974883
 20
122.4328109265
 30
0.0
 10
800.0160327321
 20
122.2037405387
 30
0.0
 10
800.0241018343
 20
122.0392023172
 30
0.0
 10
800.0638442275
 20
121.8445991651
 30
0.0
 10
800.1498036905
 20
121.8445991651
 30
0.0
  0
SPLINE
  5
4B3
100
AcDbEntity
  8
RUNDUNGEN
100
AcDbSpline
 62
7
  6
CONTINUOUS
 70
0
 71
3
 72
9
 73
5
 74
0
 42
0.0000001
 43
0.0000001
 44
0.0000000001
 40
0.0
 40
0.0
 40
0.0
 40
0.0
 40
0.5078433254
 40
1.0
 40
1.0
 40
1.0
 40
1.0
 10
829.8675093359
 20
158.992812995
 30
0.0
 10
829.0932615167
 20
158.992812995
 30
0.0
 10
827.5690787583
 20
159.0359743296
 30
0.0
 10
826.045240628
 20
159.0945991651
 30
0.0
 10
825.2949083642
 20
159.0945991651
 30
0.0
  0
SPLINE
  5
4B4
100
AcDbEntity
  8
RUNDUNGEN
100
AcDbSpline
 62
7
  6
CONTINUOUS
 70
0
 71
3
 72
15
 73
11
 74
0
 42
0.0000001
 43
0.0000001
 44
0.0000000001
 40
0.0
 40
0.0
 40
0.0
 40
0.0
 40
0.0506580437
 40
0.0823029949
 40
0.1197229212
 40
0.2136507622
 40
0.3333912895
 40
0.4767107866
 40
0.6395049098
 40
1.0
 40
1.0
 40
1.0
 40
1.0
 10
792.8735251913
 20
148.076134495
 30
0.0
 10
792.8735251913
 20
148.1417371901
 30
0.0
 10
792.9191649846
 20
148.2478913979
 30
0.0
 10
793.0266739011
 20
148.3593497756
 30
0.0
 10
793.1968141672
 20
148.486106313
 30
0.0
 10
793.4923173703
 20
148.6269115989
 30
0.0
 10
793.9331812232
 20
148.7681133891
 30
0.0
 10
794.4728258538
 20
148.8853926913
 30
0.0
 10
795.3279120784
 20
149.0070536121
 30
0.0
 10
796.0066802888
 20
149.0407515878
 30
0.0
 10
796.4735251913
 20
149.0407515878
 30
0.0
  0
SPLINE
  5
4B5
100
AcDbEntity
  8
RUNDUNGEN
100
AcDbSpline
 62
7
  6
CONTINUOUS
 70
0
 71
3
 72
9
 73
5
 74
0
 42
0.0000001
 43
0.0000001
 44
0.0000000001
 40
0.0
 40
0.0
 40
0.0
 40
0.0
 40
0.5152567055
 40
1.0
 40
1.0
 40
1.0
 40
1.0
 10
798.8735251913
 20
158.9967909277
 30
0.0
 10
798.443585292
 20
159.0040304782
 30
0.0
 10
797.6064501464
 20
158.9476639468
 30
0.0
 10
796.7921856234
 20
158.7274077987
 30
0.0
 10
796.4203140781
 20
158.5681559557
 30
0.0
  0
SPLINE
  5
4B6
100
AcDbEntity
  8
RUNDUNGEN
100
AcDbSpline
 62
7
  6
CONTINUOUS
 70
0
 71
3
 72
15
 73
11
 74
0
 42
0.0000001
 43
0.0000001
 44
0.0000000001
 40
0.0
 40
0.0
 40
0.0
 40
0.0
 40
0.3604950902
 40
0.5232892134
 40
0.6666087105
 40
0.7863492378
 40
0.8802770788
 40
0.9176970051
 40
0.9493419563
 40
1.0
 40
1.0
 40
1.0
 40
1.0
 10
796.4735251913
 20
143.8445991651
 30
0.0
 10
796.0066802888
 20
143.8445991651
 30
0.0
 10
795.3279120784
 20
143.8109011894
 30
0.0
 10
794.4728258538
 20
143.6892402686
 30
0.0
 10
793.9331812232
 20
143.5719609664
 30
0.0
 10
793.4923173703
 20
143.4307591762
 30
0.0
 10
793.1968141672
 20
143.2899538903
 30
0.0
 10
793.0266739011
 20
143.1631973529
 30
0.0
 10
792.9191649846
 20
143.0517389752
 30
0.0
 10
792.8735251913
 20
142.9455847674
 30
0.0
 10
792.8735251913
 20
142.8799820723
 30
0.0
  0
LINE
  5
4B7
100
AcDbEntity
  8
0
100
AcDbLine
 62
7
  6
CONTINUOUS
 10
385.7214218574
 20
142.8799820723
 11
389.3214218574
 21
143.8445991651
  0
LINE
  5
4B8
100
AcDbEntity
  8
0
100
AcDbLine
 62
7
  6
CONTINUOUS
 10
382.7214218574
 20
148.076134495
 11
386.3214218574
 21
149.0407515878
  0
SPLINE
  5
4B9
100
AcDbEntity
  8
0
100
AcDbSpline
 62
7
  6
CONTINUOUS
 70
0
 71
3
 72
12
 73
8
 74
0
 42
0.0000001
 43
0.0000001
 44
0.0000000001
 40
0.0
 40
0.0
 40
0.0
 40
0.0
 40
0.4034996404
 40
0.7049525015
 40
0.9021306037
 40
0.9625803574
 40
1.0
 40
1.0
 40
1.0
 40
1.0
 10
382.8361277398
 20
158.5681559557
 30
0.0
 10
382.9268572396
 20
158.6361971393
 30
0.0
 10
383.0878432993
 20
158.7521702241
 30
0.0
 10
383.3007071875
 20
158.8891006166
 30
0.0
 10
383.4390123157
 20
158.9662157998
 30
0.0
 10
383.5162873296
 20
158.9947591074
 30
0.0
 10
383.5446206875
 20
158.9992234346
 30
0.0
 10
383.5548542163
 20
158.9967971182
 30
0.0
  0
SPLINE
  5
4BA
100
AcDbEntity
  8
0
100
AcDbSpline
 62
7
  6
CONTINUOUS
 70
0
 71
3
 72
8
 73
4
 74
0
 42
0.0000001
 43
0.0000001
 44
0.0000000001
 40
0.0
 40
0.0
 40
0.0
 40
0.0
 40
1.0
 40
1.0
 40
1.0
 40
1.0
 10
374.8070447616
 20
165.6434200271
 30
0.0
 10
374.8470030345
 20
167.7170563645
 30
0.0
 10
375.0230035176
 20
169.7914369502
 30
0.0
 10
375.3164132016
 20
171.8445991651
 30
0.0
  0
SPLINE
  5
4BB
100
AcDbEntity
  8
0
100
AcDbSpline
 62
7
  6
CONTINUOUS
 70
0
 71
3
 72
11
 73
7
 74
0
 42
0.0000001
 43
0.0000001
 44
0.0000000001
 40
0.0
 40
0.0
 40
0.0
 40
0.0
 40
0.2577328834
 40
0.5000000007
 40
0.7422671179
 40
1.0
 40
1.0
 40
1.0
 40
1.0
 10
375.3164132016
 20
196.5452534233
 30
0.0
 10
375.1551024816
 20
196.8477110232
 30
0.0
 10
374.8943849177
 20
197.4664156958
 30
0.0
 10
374.751429625
 20
198.4558556822
 30
0.0
 10
374.8943849165
 20
199.4452956674
 30
0.0
 10
375.1551024824
 20
200.064000337
 30
0.0
 10
375.3164132016
 20
200.3664579354
 30
0.0
  0
SPLINE
  5
4BC
100
AcDbEntity
  8
0
100
AcDbSpline
 62
7
  6
CONTINUOUS
 70
0
 71
3
 72
9
 73
5
 74
0
 42
0.0000001
 43
0.0000001
 44
0.0000000001
 40
0.0
 40
0.0
 40
0.0
 40
0.0
 40
0.5000000008
 40
1.0
 40
1.0
 40
1.0
 40
1.0
 10
375.3164132016
 20
186.1055285502
 30
0.0
 10
374.9814037575
 20
187.8216463418
 30
0.0
 10
374.6147732901
 20
191.3253909898
 30
0.0
 10
374.9814037586
 20
194.8291356374
 30
0.0
 10
375.3164132016
 20
196.5452534233
 30
0.0
  0
SPLINE
  5
4BD
100
AcDbEntity
  8
0
100
AcDbSpline
 62
7
  6
CONTINUOUS
 70
0
 71
3
 72
9
 73
5
 74
0
 42
0.0000001
 43
0.0000001
 44
0.0000000001
 40
0.0
 40
0.0
 40
0.0
 40
0.0
 40
0.5000000008
 40
1.0
 40
1.0
 40
1.0
 40
1.0
 10
375.3164132016
 20
171.8445991651
 30
0.0
 10
374.9792794668
 20
174.203724591
 30
0.0
 10
374.6168975808
 20
178.9750638617
 30
0.0
 10
374.9792794679
 20
183.7464031321
 30
0.0
 10
375.3164132016
 20
186.1055285502
 30
0.0
  0
SPLINE
  5
4BE
100
AcDbEntity
  8
0
100
AcDbSpline
 62
7
  6
CONTINUOUS
 70
0
 71
3
 72
11
 73
7
 74
0
 42
0.0000001
 43
0.0000001
 44
0.0000000001
 40
0.0
 40
0.0
 40
0.0
 40
0.0
 40
0.2577328834
 40
0.5000000007
 40
0.7422671179
 40
1.0
 40
1.0
 40
1.0
 40
1.0
 10
379.3264305133
 20
196.5452534233
 30
0.0
 10
379.4877412332
 20
196.8477110232
 30
0.0
 10
379.7484587971
 20
197.4664156958
 30
0.0
 10
379.8914140898
 20
198.4558556822
 30
0.0
 10
379.7484587983
 20
199.4452956674
 30
0.0
 10
379.4877412324
 20
200.064000337
 30
0.0
 10
379.3264305133
 20
200.3664579354
 30
0.0
  0
SPLINE
  5
4BF
100
AcDbEntity
  8
0
100
AcDbSpline
 62
7
  6
CONTINUOUS
 70
0
 71
3
 72
9
 73
5
 74
0
 42
0.0000001
 43
0.0000001
 44
0.0000000001
 40
0.0
 40
0.0
 40
0.0
 40
0.0
 40
0.5000000008
 40
1.0
 40
1.0
 40
1.0
 40
1.0
 10
379.3264305133
 20
186.1055285502
 30
0.0
 10
379.6614399573
 20
187.8216463418
 30
0.0
 10
380.0280704247
 20
191.3253909898
 30
0.0
 10
379.6614399562
 20
194.8291356374
 30
0.0
 10
379.3264305133
 20
196.5452534233
 30
0.0
  0
SPLINE
  5
4C0
100
AcDbEntity
  8
0
100
AcDbSpline
 62
7
  6
CONTINUOUS
 70
0
 71
3
 72
9
 73
5
 74
0
 42
0.0000001
 43
0.0000001
 44
0.0000000001
 40
0.0
 40
0.0
 40
0.0
 40
0.0
 40
0.5000000008
 40
1.0
 40
1.0
 40
1.0
 40
1.0
 10
379.3264305133
 20
171.8445991651
 30
0.0
 10
379.663564248
 20
174.203724591
 30
0.0
 10
380.025946134
 20
178.9750638617
 30
0.0
 10
379.6635642469
 20
183.7464031321
 30
0.0
 10
379.3264305133
 20
186.1055285502
 30
0.0
  0
SPLINE
  5
4C1
100
AcDbEntity
  8
0
100
AcDbSpline
 62
7
  6
CONTINUOUS
 70
0
 71
3
 72
8
 73
4
 74
0
 42
0.0000001
 43
0.0000001
 44
0.0000000001
 40
0.0
 40
0.0
 40
0.0
 40
0.0
 40
1.0
 40
1.0
 40
1.0
 40
1.0
 10
379.8357989532
 20
165.6434200271
 30
0.0
 10
379.7958406803
 20
167.7170563645
 30
0.0
 10
379.6198401972
 20
169.7914369502
 30
0.0
 10
379.3264305133
 20
171.8445991651
 30
0.0
  0
LINE
  5
4C2
100
AcDbEntity
  8
RUNDUNGEN
100
AcDbLine
 62
7
  6
CONTINUOUS
 10
368.9214218574
 20
142.8799820723
 11
365.3214218574
 21
143.8445991651
  0
LINE
  5
4C3
100
AcDbEntity
  8
RUNDUNGEN
100
AcDbLine
 62
7
  6
CONTINUOUS
 10
371.9214218574
 20
148.076134495
 11
368.3214218574
 21
149.0407515878
  0
SPLINE
  5
4C4
100
AcDbEntity
  8
RUNDUNGEN
100
AcDbSpline
 62
7
  6
CONTINUOUS
 70
0
 71
3
 72
12
 73
8
 74
0
 42
0.0000001
 43
0.0000001
 44
0.0000000001
 40
0.0
 40
0.0
 40
0.0
 40
0.0
 40
0.4034996404
 40
0.7049525015
 40
0.9021306037
 40
0.9625803574
 40
1.0
 40
1.0
 40
1.0
 40
1.0
 10
371.8067159751
 20
158.5681559557
 30
0.0
 10
371.7159864753
 20
158.6361971393
 30
0.0
 10
371.5550004155
 20
158.7521702241
 30
0.0
 10
371.3421365273
 20
158.8891006166
 30
0.0
 10
371.2038313992
 20
158.9662157998
 30
0.0
 10
371.1265563852
 20
158.9947591074
 30
0.0
 10
371.0982230273
 20
158.9992234346
 30
0.0
 10
371.0879894986
 20
158.9967971182
 30
0.0
  0
SPLINE
  5
4C5
100
AcDbEntity
  8
RUNDUNGEN
100
AcDbSpline
 62
7
  6
CONTINUOUS
 70
0
 71
3
 72
19
 73
15
 74
0
 42
0.0000001
 43
0.0000001
 44
0.0000000001
 40
0.0
 40
0.0
 40
0.0
 40
0.0
 40
0.0667864241
 40
0.1315850639
 40
0.1626310347
 40
0.1925849909
 40
0.2501497881
 40
0.3072253161
 40
0.3650911825
 40
0.4841800441
 40
0.6082584907
 40
0.7362931351
 40
0.8671967087
 40
1.0
 40
1.0
 40
1.0
 40
1.0
 10
370.9805485725
 20
127.8427991651
 30
0.0
 10
370.7508081797
 20
127.8427991651
 30
0.0
 10
370.2961354726
 20
127.8075000441
 30
0.0
 10
369.7616517799
 20
127.5952802179
 30
0.0
 10
369.4340987833
 20
127.3062721155
 30
0.0
 10
369.1983117485
 20
126.9690593604
 30
0.0
 10
369.062185114
 20
126.47491258
 30
0.0
 10
369.110700531
 20
125.8754587216
 30
0.0
 10
369.3727866496
 20
125.1079666894
 30
0.0
 10
369.9791814451
 20
124.2454857197
 30
0.0
 10
370.9541708071
 20
123.4082832692
 30
0.0
 10
372.1035628109
 20
122.7504192781
 30
0.0
 10
373.3675527455
 20
122.2704988356
 30
0.0
 10
374.2546715157
 20
122.066869901
 30
0.0
 10
374.7054601948
 20
121.9927991651
 30
0.0
  0
SPLINE
  5
4C6
100
AcDbEntity
  8
0
100
AcDbSpline
 62
7
  6
CONTINUOUS
 70
0
 71
3
 72
19
 73
15
 74
0
 42
0.0000001
 43
0.0000001
 44
0.0000000001
 40
0.0
 40
0.0
 40
0.0
 40
0.0
 40
0.0667864241
 40
0.1315850639
 40
0.1626310347
 40
0.1925849909
 40
0.2501497881
 40
0.3072253161
 40
0.3650911825
 40
0.4841800441
 40
0.6082584907
 40
0.7362931351
 40
0.8671967087
 40
1.0
 40
1.0
 40
1.0
 40
1.0
 10
383.6622951424
 20
127.8427991651
 30
0.0
 10
383.8920355351
 20
127.8427991651
 30
0.0
 10
384.3467082422
 20
127.8075000441
 30
0.0
 10
384.881191935
 20
127.5952802179
 30
0.0
 10
385.2087449316
 20
127.3062721155
 30
0.0
 10
385.4445319663
 20
126.9690593604
 30
0.0
 10
385.5806586008
 20
126.47491258
 30
0.0
 10
385.5321431838
 20
125.8754587216
 30
0.0
 10
385.2700570653
 20
125.1079666894
 30
0.0
 10
384.6636622698
 20
124.2454857197
 30
0.0
 10
383.6886729077
 20
123.4082832692
 30
0.0
 10
382.5392809039
 20
122.7504192781
 30
0.0
 10
381.2752909693
 20
122.2704988356
 30
0.0
 10
380.3881721992
 20
122.066869901
 30
0.0
 10
379.93738352
 20
121.9927991651
 30
0.0
  0
ELLIPSE
  5
4C7
100
AcDbEntity
  8
0
100
AcDbEllipse
 62
7
  6
CONTINUOUS
 10
383.4542893933
 20
153.0945991651
 30
0.0
 11
0.9758284841
 21
5.9793501608
 31
0.0
 40
0.5096845585
 41
0.5409540901
 42
1.6537856735
  0
ELLIPSE
  5
4C8
100
AcDbEntity
  8
RUNDUNGEN
100
AcDbEllipse
 62
7
  6
CONTINUOUS
 10
371.1885543216
 20
153.0945991651
 30
0.0
 11
-0.9758284841
 21
5.9793501608
 31
0.0
 40
0.5096845585
 41
-1.6537856735
 42
-0.5409540901
  0
ENDSEC
  0
SECTION
  2
OBJECTS
  0
DICTIONARY
  5
C
100
AcDbDictionary
280
0
281
1
  3
ACAD_GROUP
350
D
  3
ACAD_MLINESTYLE
350
17
  3
ACAD_LAYOUT
350
1A
  3
ACAD_PLOTSETTINGS
350
19
  3
ACAD_PLOTSTYLENAME
350
E
  0
DICTIONARY
  5
D
102
{ACAD_REACTORS
330
C
102
}
100
AcDbDictionary
280
0
281
1
  0
ACDBDICTIONARYWDFLT
  5
E
102
{ACAD_REACTORS
330
C
102
}
100
AcDbDictionary
281
1
  3
Normal
350
F
100
AcDbDictionaryWithDefault
340
F
  0
DICTIONARY
  5
17
102
{ACAD_REACTORS
330
C
102
}
100
AcDbDictionary
280
0
281
1
  3
Standard
350
18
  0
DICTIONARY
  5
19
102
{ACAD_REACTORS
330
C
102
}
100
AcDbDictionary
281
1
  0
DICTIONARY
  5
1A
102
{ACAD_REACTORS
330
C
102
}
100
AcDbDictionary
281
1
  3
Model
350
4C9
  3
Layout1
350
4CA
  0
ACDBPLACEHOLDER
  5
F
102
{ACAD_REACTORS
330
E
102
}
  0
MLINESTYLE
  5
18
102
{ACAD_REACTORS
330
17
102
}
100
AcDbMlineStyle
  2
STANDARD
 70
0
  3

 62
256
 51
90.0
 52
90.0
 71
2
 49
0.5
 62
256
  6
BYLAYER
 49
-0.5
 62
256
  6
BYLAYER
  0
LAYOUT
  5
4C9
102
{ACAD_REACTORS
330
1A
102
}
100
AcDbPlotSettings
  1

  2
none_device
  4
ISO_A0_(1189.00_x_841.00_MM)
  6

 40
0.0
 41
0.0
 42
0.0
 43
0.0
 44
1189.0
 45
841.0
 46
0.0
 47
0.0
 48
0.0
 49
0.0
140
0.0
141
0.0
142
1.0
143
1.0
 70
1024
 72
1
 73
0
 74
0
  7

 75
0
147
1.0
148
0.0
149
0.0
100
AcDbLayout
  1
Model
 70
0
 71
0
 10
0.0
 20
0.0
 11
1189.0
 21
841.0
 12
0.0
 22
0.0
 32
0.0
 14
0.0
 24
0.0
 34
0.0
 15
0.0
 25
0.0
 35
0.0
146
0.0
 13
0.0
 23
0.0
 33
0.0
 16
1.0
 26
0.0
 36
0.0
 17
0.0
 27
1.0
 37
0.0
 76
0
330
20A
345
0
346
0
  0
LAYOUT
  5
4CA
102
{ACAD_REACTORS
330
1A
102
}
100
AcDbPlotSettings
  1

  2
none_device
  4
ISO_A0_(1189.00_x_841.00_MM)
  6

 40
0.0
 41
0.0
 42
0.0
 43
0.0
 44
1189.0
 45
841.0
 46
0.0
 47
0.0
 48
0.0
 49
0.0
140
0.0
141
0.0
142
1.0
143
1.0
 70
0
 72
1
 73
0
 74
0
  7

 75
0
147
1.0
148
0.0
149
0.0
100
AcDbLayout
  1
Layout1
 70
0
 71
1
 10
0.0
 20
0.0
 11
1189.0
 21
841.0
 12
0.0
 22
0.0
 32
0.0
 14
0.0
 24
0.0
 34
0.0
 15
0.0
 25
0.0
 35
0.0
146
0.0
 13
0.0
 23
0.0
 33
0.0
 16
1.0
 26
0.0
 36
0.0
 17
0.0
 27
1.0
 37
0.0
 76
0
330
20B
345
0
346
0
  0
ENDSEC
  0
EOF
