999
DXF file: ISAK-RG-1-8_190_7903187_M34585-P-6.dxf
999
Pro/ENGINEER 2010140 by Parametric Technology Corporation
  0
SECTION
  2
HEADER
  9
$ACADVER
  1
AC1015
  9
$DWGCODEPAGE
  3
ANSI_1252
  9
$EXTMAX
 10
1189.0
 20
841.0
 30
0.0
  9
$EXTMIN
 10
0.0
 20
0.0
 30
0.0
  9
$LIMMIN
 10
0.0
 20
0.0
  9
$LIMMAX
 10
1189.0
 20
841.0
  9
$VIEWCTR
 10
594.5
 20
420.5
  9
$VIEWSIZE
 40
841.0
  9
$CLAYER
  8
0
  9
$LTSCALE
 40
65.395
  9
$CELTYPE
  6
BYLAYER
  9
$DIMSCALE
 40
1.0
  9
$DIMASZ
 40
3.5
  9
$DIMEXO
 40
7.43125
  9
$DIMDLI
 40
45.182
  9
$DIMEXE
 40
21.402
  9
$DIMCEN
 40
10.701
  9
$DIMLFAC
 40
1.0
  9
$DIMBLK
  1
_FILLED
  9
$DIMTXT
 40
3.5
  9
$DIMTOL
 70
1
  9
$DIMLIM
 70
0
  9
$DIMTFAC
 40
1.0
  9
$DIMTP
 40
0.005
  9
$DIMTM
 40
0.005
  9
$PDMODE
 70
3
  9
$PDSIZE
 40
0.3125
  9
$HANDSEED
  5
4CB
  9
$TILEMODE
 70
1
  9
$MEASUREMENT
 70
1
  9
$INSUNITS
 70
4
  0
ENDSEC
  0
SECTION
  2
CLASSES
  0
CLASS
  1
ACDBDICTIONARYWDFLT
  2
AcDbDictionaryWithDefault
  3
AutoCAD 2000
 90
0
280
0
281
0
  0
CLASS
  1
ACDBPLACEHOLDER
  2
AcDbPlaceHolder
  3
AutoCAD 2000
 90
0
280
0
281
0
  0
CLASS
  1
LAYOUT
  2
AcDbLayout
  3
AutoCAD 2000
 90
0
280
0
281
0
  0
ENDSEC
  0
SECTION
  2
TABLES
  0
TABLE
  2
VPORT
  5
8
100
AcDbSymbolTable
 70
2
  0
VPORT
  5
1F4
100
AcDbSymbolTableRecord
100
AcDbViewportTableRecord
  2
*ACTIVE
 70
0
 10
0.0
 20
0.0
 11
1.0
 21
1.0
 12
594.5
 22
420.5
 13
0.0
 23
0.0
 14
1.0
 24
1.0
 15
0.0
 25
0.0
 16
0.0
 26
0.0
 36
1.0
 17
0.0
 27
0.0
 37
0.0
 40
841.0
 41
1.4137931034
 42
50.0
 43
0.0
 44
0.0
 50
0.0
 51
0.0
 71
0
 72
100
 73
1
 74
1
 75
0
 76
0
 77
0
 78
0
  0
ENDTAB
  0
TABLE
  2
LTYPE
  5
5
100
AcDbSymbolTable
 70
6
  0
LTYPE
  5
14
100
AcDbSymbolTableRecord
100
AcDbLinetypeTableRecord
  2
BYBLOCK
 70
0
  3

 72
65
 73
0
 40
0.0
  0
LTYPE
  5
15
100
AcDbSymbolTableRecord
100
AcDbLinetypeTableRecord
  2
BYLAYER
 70
0
  3

 72
65
 73
0
 40
0.0
  0
LTYPE
  5
16
100
AcDbSymbolTableRecord
100
AcDbLinetypeTableRecord
  2
CONTINUOUS
 70
64
  3
Solid line
 72
65
 73
0
 40
0.0
  0
LTYPE
  5
1F5
100
AcDbSymbolTableRecord
100
AcDbLinetypeTableRecord
  2
CENTER
 70
64
  3
____ _ ____ _ ____ _ ____ _ ____ _ ____ _ ____
 72
65
 73
4
 40
0.6
 49
0.375
 74
0
 49
-0.075
 74
0
 49
0.075
 74
0
 49
-0.075
 74
0
  0
LTYPE
  5
1F6
100
AcDbSymbolTableRecord
100
AcDbLinetypeTableRecord
  2
HIDDEN
 70
64
  3
- - - - - - - - - - - - - - - - - - - -
 72
65
 73
2
 40
0.2
 49
0.1
 74
0
 49
-0.1
 74
0
  0
LTYPE
  5
1F7
100
AcDbSymbolTableRecord
100
AcDbLinetypeTableRecord
  2
PHANTOM
 70
64
  3
_____ _ _ _____ _ _ _____ _ _ _____
 72
65
 73
6
 40
0.8
 49
0.45
 74
0
 49
-0.05
 74
0
 49
0.1
 74
0
 49
-0.05
 74
0
 49
0.1
 74
0
 49
-0.05
 74
0
  0
LTYPE
  5
1F8
100
AcDbSymbolTableRecord
100
AcDbLinetypeTableRecord
  2
DOT
 70
64
  3
. . . . . . . . . . . . . . . . . . . .
 72
65
 73
2
 40
0.2
 49
0.1
 74
0
 49
-0.1
 74
0
  0
LTYPE
  5
1F9
100
AcDbSymbolTableRecord
100
AcDbLinetypeTableRecord
  2
DASHED
 70
64
  3
- - - - - - - - - - - - - - - - - - - -
 72
65
 73
2
 40
0.2
 49
0.1
 74
0
 49
-0.1
 74
0
  0
ENDTAB
  0
TABLE
  2
LAYER
  5
2
100
AcDbSymbolTable
 70
36
  0
LAYER
  5
10
100
AcDbSymbolTableRecord
100
AcDbLayerTableRecord
  2
0
 70
0
 62
7
  6
CONTINUOUS
370
-3
390
F
  0
LAYER
  5
1FA
100
AcDbSymbolTableRecord
100
AcDbLayerTableRecord
  2
DEFAULT_1
 70
0
 62
7
  6
CENTER
370
-3
390
F
  0
LAYER
  5
1FB
100
AcDbSymbolTableRecord
100
AcDbLayerTableRecord
  2
DEFAULT_2
 70
0
 62
8
  6
HIDDEN
370
-3
390
F
  0
LAYER
  5
1FC
100
AcDbSymbolTableRecord
100
AcDbLayerTableRecord
  2
DEFAULT_3
 70
0
 62
7
  6
PHANTOM
370
-3
390
F
  0
LAYER
  5
1FD
100
AcDbSymbolTableRecord
100
AcDbLayerTableRecord
  2
BEZUGSACHSEN
 70
0
 62
7
  6
CONTINUOUS
370
-3
390
F
  0
LAYER
  5
1FE
100
AcDbSymbolTableRecord
100
AcDbLayerTableRecord
  2
BEZUGSEBENEN
 70
0
 62
7
  6
CONTINUOUS
370
-3
390
F
  0
LAYER
  5
1FF
100
AcDbSymbolTableRecord
100
AcDbLayerTableRecord
  2
BG_STARTBEZUEGE
 70
0
 62
7
  6
CONTINUOUS
370
-3
390
F
  0
LAYER
  5
200
100
AcDbSymbolTableRecord
100
AcDbLayerTableRecord
  2
FASEN
 70
0
 62
7
  6
CONTINUOUS
370
-3
390
F
  0
LAYER
  5
201
100
AcDbSymbolTableRecord
100
AcDbLayerTableRecord
  2
HILFEN
 70
0
 62
7
  6
CONTINUOUS
370
-3
390
F
  0
LAYER
  5
202
100
AcDbSymbolTableRecord
100
AcDbLayerTableRecord
  2
KONSTRUKTIONSELEMENTE
 70
0
 62
7
  6
CONTINUOUS
370
-3
390
F
  0
LAYER
  5
203
100
AcDbSymbolTableRecord
100
AcDbLayerTableRecord
  2
NORM
 70
0
 62
7
  6
CONTINUOUS
370
-3
390
F
  0
LAYER
  5
204
100
AcDbSymbolTableRecord
100
AcDbLayerTableRecord
  2
PLATZIERUNG
 70
0
 62
7
  6
CONTINUOUS
370
-3
390
F
  0
LAYER
  5
205
100
AcDbSymbolTableRecord
100
AcDbLayerTableRecord
  2
RUNDUNGEN
 70
0
 62
7
  6
CONTINUOUS
370
-3
390
F
  0
LAYER
  5
206
100
AcDbSymbolTableRecord
100
AcDbLayerTableRecord
  2
TEIL_STARTBEZUEGE
 70
0
 62
7
  6
CONTINUOUS
370
-3
390
F
  0
LAYER
  5
207
100
AcDbSymbolTableRecord
100
AcDbLayerTableRecord
  2
T_STARTBEZUEGE
 70
0
 62
7
  6
CONTINUOUS
370
-3
390
F
  0
ENDTAB
  0
TABLE
  2
STYLE
  5
3
100
AcDbSymbolTable
 70
1
  0
STYLE
  5
11
100
AcDbSymbolTableRecord
100
AcDbTextStyleTableRecord
  2
STANDARD
 70
0
 40
0.0
 41
0.7
 50
0.0
 71
0
 42
0.2
  3
txt
  4

  0
STYLE
  5
208
100
AcDbSymbolTableRecord
100
AcDbTextStyleTableRecord
  2
TEXTSTYLE_1
 70
0
 40
0.0
 41
0.8
 50
0.0
 71
0
 42
0.2
  3
gdt
  4

  0
ENDTAB
  0
TABLE
  2
VIEW
  5
6
100
AcDbSymbolTable
 70
0
  0
ENDTAB
  0
TABLE
  2
UCS
  5
7
100
AcDbSymbolTable
 70
0
  0
ENDTAB
  0
TABLE
  2
APPID
  5
9
100
AcDbSymbolTable
 70
1
  0
APPID
  5
209
100
AcDbSymbolTableRecord
100
AcDbRegAppTableRecord
  2
ACAD
 70
0
  0
ENDTAB
  0
TABLE
  2
BLOCK_RECORD
  5
1
100
AcDbSymbolTable
 70
0
  0
BLOCK_RECORD
  5
20A
100
AcDbSymbolTableRecord
100
AcDbBlockTableRecord
  2
*Model_Space
  0
BLOCK_RECORD
  5
20B
100
AcDbSymbolTableRecord
100
AcDbBlockTableRecord
  2
*Paper_Space
  0
ENDTAB
  0
TABLE
  2
DIMSTYLE
  5
A
100
AcDbSymbolTable
 70
1
100
AcDbDimStyleTable
 71
0
  0
DIMSTYLE
105
20C
100
AcDbSymbolTableRecord
100
AcDbDimStyleTableRecord
  2
STANDARD
 70
0
  3

  4

 40
1.0
 41
3.5
 42
0.0625
 43
0.38
 44
0.18
 45
0.0
 46
0.0
 47
0.005
 48
0.005
140
3.5
141
0.09
142
0.0
143
25.4
144
1.0
145
0.0
146
1.0
147
0.09
 71
1.0
 72
0.0
 73
0
 74
0
 75
0
 76
0
 77
1
 78
8
170
0
171
2
172
0
173
0
174
0
175
0
176
0
177
0
178
5
270
2
271
3
272
3
273
2
274
2
275
0
280
0
281
0
282
0
283
1
284
8
285
0
286
0
287
3
288
0
340
11
  0
ENDTAB
  0
ENDSEC
  0
SECTION
  2
BLOCKS
  0
BLOCK
  5
20
100
AcDbEntity
  8
0
100
AcDbBlockBegin
  2
*Model_Space
 70
0
 10
0.0
 20
0.0
 30
0.0
  3
*Model_Space
  1

  0
ENDBLK
  5
21
100
AcDbEntity
  8
0
100
AcDbBlockEnd
  0
BLOCK
  5
1C
100
AcDbEntity
  8
0
100
AcDbBlockBegin
  2
*Paper_Space
 70
0
 10
0.0
 20
0.0
 30
0.0
  3
*Paper_Space
  1

  0
ENDBLK
  5
1D
100
AcDbEntity
  8
0
100
AcDbBlockEnd
  0
ENDSEC
  0
SECTION
  2
ENTITIES
  0
MTEXT
  5
20D
100
AcDbEntity
  8
0
100
AcDbMText
 62
5
  6
CONTINUOUS
  7
STANDARD
 71
1
 72
1
 10
648.1293887256
 20
513.590599184
 30
0.0
 11
0.0
 21
1.0
 31
0.0
 44
0.9
  1
RUD
 40
11.0
 41
29.3333333333
  0
MTEXT
  5
20E
100
AcDbEntity
  8
0
100
AcDbMText
 62
5
  6
CONTINUOUS
  7
STANDARD
 71
1
 72
1
 10
863.7974778896
 20
469.4889329684
 30
0.0
 11
0.0
 21
1.0
 31
0.0
 44
0.9
  1
ISAK-RG 1-8/190
 40
11.0
 41
124.4047619048
  0
MTEXT
  5
20F
100
AcDbEntity
  8
0
100
AcDbMText
 62
5
  6
CONTINUOUS
  7
STANDARD
 71
1
 72
1
 10
333.478588059
 20
450.3421681196
 30
0.0
 11
0.0
 21
1.0
 31
0.0
 44
0.9
  1
RUD ISAK-RG 1-8/190
 40
11.0
 41
160.2857142857
  0
LINE
  5
210
100
AcDbEntity
  8
0
100
AcDbLine
 62
7
  6
CONTINUOUS
 10
0.0
 20
0.0
 11
0.0
 21
841.0
  0
LINE
  5
211
100
AcDbEntity
  8
0
100
AcDbLine
 62
7
  6
CONTINUOUS
 10
0.0
 20
0.0
 11
1189.0
 21
0.0
  0
LINE
  5
212
100
AcDbEntity
  8
0
100
AcDbLine
 62
7
  6
CONTINUOUS
 10
0.0
 20
841.0
 11
1189.0
 21
841.0
  0
LINE
  5
213
100
AcDbEntity
  8
0
100
AcDbLine
 62
7
  6
CONTINUOUS
 10
1189.0
 20
0.0
 11
1189.0
 21
841.0
  0
LINE
  5
214
100
AcDbEntity
  8
RUNDUNGEN
100
AcDbLine
 62
7
  6
CONTINUOUS
 10
737.4601267767
 20
121.5302940939
 11
740.0601267767
 21
121.5302940939
  0
LINE
  5
215
100
AcDbEntity
  8
RUNDUNGEN
100
AcDbLine
 62
7
  6
CONTINUOUS
 10
781.8601267767
 20
121.5302940939
 11
784.4601267767
 21
121.5302940939
  0
LINE
  5
216
100
AcDbEntity
  8
RUNDUNGEN
100
AcDbLine
 62
7
  6
CONTINUOUS
 10
744.0601267767
 20
128.6013619057
 11
749.5098369183
 21
128.6013619057
  0
LINE
  5
217
100
AcDbEntity
  8
RUNDUNGEN
100
AcDbLine
 62
7
  6
CONTINUOUS
 10
772.4104166352
 20
128.6013619057
 11
777.8601267767
 21
128.6013619057
  0
LINE
  5
218
100
AcDbEntity
  8
0
100
AcDbLine
 62
7
  6
CONTINUOUS
 10
749.7703125885
 20
161.4111165528
 11
753.6103125885
 21
161.4111165528
  0
LINE
  5
219
100
AcDbEntity
  8
0
100
AcDbLine
 62
7
  6
CONTINUOUS
 10
755.6469536297
 20
161.4111165528
 11
756.4149536297
 21
161.4111165528
  0
LINE
  5
21A
100
AcDbEntity
  8
0
100
AcDbLine
 62
7
  6
CONTINUOUS
 10
760.0733167633
 20
161.4111165528
 11
760.9601267767
 21
161.4111165528
  0
LINE
  5
21B
100
AcDbEntity
  8
0
100
AcDbLine
 62
7
  6
CONTINUOUS
 10
767.6422619182
 20
161.4111165528
 11
770.4246355723
 21
161.4111165528
  0
LINE
  5
21C
100
AcDbEntity
  8
0
100
AcDbLine
 62
7
  6
CONTINUOUS
 10
749.7703125885
 20
161.6939592653
 11
753.6103125885
 21
161.6939592653
  0
LINE
  5
21D
100
AcDbEntity
  8
0
100
AcDbLine
 62
7
  6
CONTINUOUS
 10
755.6469536297
 20
161.6939592653
 11
756.4149536297
 21
161.6939592653
  0
LINE
  5
21E
100
AcDbEntity
  8
0
100
AcDbLine
 62
7
  6
CONTINUOUS
 10
760.0733167633
 20
161.6939592653
 11
760.7291866691
 21
161.6939592653
  0
LINE
  5
21F
100
AcDbEntity
  8
0
100
AcDbLine
 62
7
  6
CONTINUOUS
 10
767.6422619182
 20
161.6939592653
 11
770.4246355723
 21
161.6939592653
  0
LINE
  5
220
100
AcDbEntity
  8
0
100
AcDbLine
 62
7
  6
CONTINUOUS
 10
770.4414647546
 20
161.9768019778
 11
768.4102619182
 21
161.9768019778
  0
LINE
  5
221
100
AcDbEntity
  8
0
100
AcDbLine
 62
7
  6
CONTINUOUS
 10
752.2903125885
 20
162.0899390627
 11
751.0903125885
 21
162.0899390627
  0
LINE
  5
222
100
AcDbEntity
  8
0
100
AcDbLine
 62
7
  6
CONTINUOUS
 10
751.3063125885
 20
162.344497504
 11
752.0743125885
 21
162.344497504
  0
LINE
  5
223
100
AcDbEntity
  8
0
100
AcDbLine
 62
7
  6
CONTINUOUS
 10
751.3063125885
 20
162.6273402164
 11
752.0743125885
 21
162.6273402164
  0
LINE
  5
224
100
AcDbEntity
  8
0
100
AcDbLine
 62
7
  6
CONTINUOUS
 10
751.7743125885
 20
163.0233200139
 11
751.6063125885
 21
163.0233200139
  0
LINE
  5
225
100
AcDbEntity
  8
0
100
AcDbLine
 62
7
  6
CONTINUOUS
 10
752.0743125885
 20
163.1930256414
 11
751.8703125885
 21
163.1930256414
  0
LINE
  5
226
100
AcDbEntity
  8
0
100
AcDbLine
 62
7
  6
CONTINUOUS
 10
751.5103125885
 20
163.1930256414
 11
751.3063125885
 21
163.1930256414
  0
LINE
  5
227
100
AcDbEntity
  8
0
100
AcDbLine
 62
7
  6
CONTINUOUS
 10
751.0903125885
 20
163.4475840826
 11
751.5103125885
 21
163.4475840826
  0
LINE
  5
228
100
AcDbEntity
  8
0
100
AcDbLine
 62
7
  6
CONTINUOUS
 10
751.8703125885
 20
163.4475840826
 11
752.2903125885
 21
163.4475840826
  0
LINE
  5
229
100
AcDbEntity
  8
0
100
AcDbLine
 62
7
  6
CONTINUOUS
 10
756.4149536297
 20
163.5401678852
 11
758.3349536297
 21
163.5401678852
  0
LINE
  5
22A
100
AcDbEntity
  8
0
100
AcDbLine
 62
7
  6
CONTINUOUS
 10
751.0903125885
 20
163.7304267951
 11
751.5103125885
 21
163.7304267951
  0
LINE
  5
22B
100
AcDbEntity
  8
0
100
AcDbLine
 62
7
  6
CONTINUOUS
 10
751.8703125885
 20
163.7304267951
 11
752.2903125885
 21
163.7304267951
  0
LINE
  5
22C
100
AcDbEntity
  8
0
100
AcDbLine
 62
7
  6
CONTINUOUS
 10
752.2903125885
 20
163.7869953376
 11
751.8703125885
 21
163.7869953376
  0
LINE
  5
22D
100
AcDbEntity
  8
0
100
AcDbLine
 62
7
  6
CONTINUOUS
 10
751.5103125885
 20
163.7869953376
 11
751.0903125885
 21
163.7869953376
  0
LINE
  5
22E
100
AcDbEntity
  8
0
100
AcDbLine
 62
7
  6
CONTINUOUS
 10
756.4149536297
 20
163.8230105977
 11
758.3349536297
 21
163.8230105977
  0
LINE
  5
22F
100
AcDbEntity
  8
0
100
AcDbLine
 62
7
  6
CONTINUOUS
 10
751.3063125885
 20
164.0415537788
 11
751.5103125885
 21
164.0415537788
  0
LINE
  5
230
100
AcDbEntity
  8
0
100
AcDbLine
 62
7
  6
CONTINUOUS
 10
751.8703125885
 20
164.0415537788
 11
752.0743125885
 21
164.0415537788
  0
LINE
  5
231
100
AcDbEntity
  8
0
100
AcDbLine
 62
7
  6
CONTINUOUS
 10
758.6549536297
 20
164.0832258932
 11
756.4149536297
 21
164.0832258932
  0
LINE
  5
232
100
AcDbEntity
  8
0
100
AcDbLine
 62
7
  6
CONTINUOUS
 10
751.6063125885
 20
164.2112594063
 11
751.7743125885
 21
164.2112594063
  0
LINE
  5
233
100
AcDbEntity
  8
0
100
AcDbLine
 62
7
  6
CONTINUOUS
 10
751.3063125885
 20
164.3243964913
 11
751.5103125885
 21
164.3243964913
  0
LINE
  5
234
100
AcDbEntity
  8
0
100
AcDbLine
 62
7
  6
CONTINUOUS
 10
751.8703125885
 20
164.3243964913
 11
752.0743125885
 21
164.3243964913
  0
LINE
  5
235
100
AcDbEntity
  8
0
100
AcDbLine
 62
7
  6
CONTINUOUS
 10
751.6063125885
 20
164.4941021188
 11
751.7743125885
 21
164.4941021188
  0
LINE
  5
236
100
AcDbEntity
  8
0
100
AcDbLine
 62
7
  6
CONTINUOUS
 10
768.4102619182
 20
164.8052291025
 11
767.6422619182
 21
164.8052291025
  0
LINE
  5
237
100
AcDbEntity
  8
0
100
AcDbLine
 62
7
  6
CONTINUOUS
 10
756.4149536297
 20
164.8335133737
 11
755.6469536297
 21
164.8335133737
  0
LINE
  5
238
100
AcDbEntity
  8
0
100
AcDbLine
 62
7
  6
CONTINUOUS
 10
752.0743125885
 20
164.8900819162
 11
751.3063125885
 21
164.8900819162
  0
LINE
  5
239
100
AcDbEntity
  8
0
100
AcDbLine
 62
7
  6
CONTINUOUS
 10
751.0903125885
 20
165.1446403575
 11
752.2903125885
 21
165.1446403575
  0
LINE
  5
23A
100
AcDbEntity
  8
0
100
AcDbLine
 62
7
  6
CONTINUOUS
 10
767.6422619182
 20
165.2804048595
 11
770.4414647546
 21
165.2804048595
  0
LINE
  5
23B
100
AcDbEntity
  8
0
100
AcDbLine
 62
7
  6
CONTINUOUS
 10
755.6469536297
 20
165.3086891307
 11
758.6549536297
 21
165.3086891307
  0
LINE
  5
23C
100
AcDbEntity
  8
0
100
AcDbLine
 62
7
  6
CONTINUOUS
 10
751.0903125885
 20
165.4274830699
 11
752.2903125885
 21
165.4274830699
  0
LINE
  5
23D
100
AcDbEntity
  8
0
100
AcDbLine
 62
7
  6
CONTINUOUS
 10
767.6422619182
 20
165.5632475719
 11
770.4414647546
 21
165.5632475719
  0
LINE
  5
23E
100
AcDbEntity
  8
0
100
AcDbLine
 62
7
  6
CONTINUOUS
 10
755.6469536297
 20
165.5915318432
 11
758.6549536297
 21
165.5915318432
  0
LINE
  5
23F
100
AcDbEntity
  8
0
100
AcDbLine
 62
7
  6
CONTINUOUS
 10
770.4246355723
 20
165.8234628674
 11
767.6422619182
 21
165.8234628674
  0
LINE
  5
240
100
AcDbEntity
  8
0
100
AcDbLine
 62
7
  6
CONTINUOUS
 10
765.9622619182
 20
165.8234628674
 11
765.1942619182
 21
165.8234628674
  0
LINE
  5
241
100
AcDbEntity
  8
0
100
AcDbLine
 62
7
  6
CONTINUOUS
 10
762.1749536297
 20
165.8234628674
 11
761.4069536297
 21
165.8234628674
  0
LINE
  5
242
100
AcDbEntity
  8
0
100
AcDbLine
 62
7
  6
CONTINUOUS
 10
758.6549536297
 20
165.8234628674
 11
755.6469536297
 21
165.8234628674
  0
LINE
  5
243
100
AcDbEntity
  8
0
100
AcDbLine
 62
7
  6
CONTINUOUS
 10
753.6103125885
 20
165.8234628674
 11
749.7703125885
 21
165.8234628674
  0
LINE
  5
244
100
AcDbEntity
  8
KONSTRUKTIONSELEMENTE
100
AcDbLine
 62
7
  6
CONTINUOUS
 10
780.2689267767
 20
204.9503876727
 11
776.6838482775
 21
204.9503876727
  0
LINE
  5
245
100
AcDbEntity
  8
0
100
AcDbLine
 62
7
  6
CONTINUOUS
 10
776.6838482775
 20
204.9503876727
 11
776.6488715836
 21
204.9503876727
  0
LINE
  5
246
100
AcDbEntity
  8
0
100
AcDbLine
 62
7
  6
CONTINUOUS
 10
745.2713819699
 20
204.9503876727
 11
745.236405276
 21
204.9503876727
  0
LINE
  5
247
100
AcDbEntity
  8
KONSTRUKTIONSELEMENTE
100
AcDbLine
 62
7
  6
CONTINUOUS
 10
745.236405276
 20
204.9503876727
 11
741.6513267767
 21
204.9503876727
  0
LINE
  5
248
100
AcDbEntity
  8
RUNDUNGEN
100
AcDbLine
 62
7
  6
CONTINUOUS
 10
776.3622252736
 20
170.3816670279
 11
767.843044013
 21
174.5996968197
  0
LINE
  5
249
100
AcDbEntity
  8
RUNDUNGEN
100
AcDbLine
 62
7
  6
CONTINUOUS
 10
767.843044013
 20
178.1352307256
 11
776.3622252736
 21
173.9172009338
  0
LINE
  5
24A
100
AcDbEntity
  8
BEZUGSACHSEN
100
AcDbLine
 62
7
  6
CONTINUOUS
 10
755.9601267767
 20
213.3003876727
 11
765.9601267767
 21
213.3003876727
  0
LINE
  5
24B
100
AcDbEntity
  8
BEZUGSACHSEN
100
AcDbLine
 62
7
  6
CONTINUOUS
 10
755.9601267767
 20
216.3193232493
 11
765.9601267767
 21
216.3193232493
  0
LINE
  5
24C
100
AcDbEntity
  8
BEZUGSACHSEN
100
AcDbLine
 62
7
  6
CONTINUOUS
 10
755.9601267767
 20
221.5814520961
 11
765.9601267767
 21
221.5814520961
  0
LINE
  5
24D
100
AcDbEntity
  8
BEZUGSACHSEN
100
AcDbLine
 62
7
  6
CONTINUOUS
 10
755.9601267767
 20
224.6003876727
 11
765.9601267767
 21
224.6003876727
  0
LINE
  5
24E
100
AcDbEntity
  8
RUNDUNGEN
100
AcDbLine
 62
7
  6
CONTINUOUS
 10
741.5601267767
 20
226.9503876727
 11
751.9496371288
 21
226.9503876727
  0
LINE
  5
24F
100
AcDbEntity
  8
RUNDUNGEN
100
AcDbLine
 62
7
  6
CONTINUOUS
 10
769.9706164247
 20
226.9503876727
 11
780.3601267767
 21
226.9503876727
  0
LINE
  5
250
100
AcDbEntity
  8
RUNDUNGEN
100
AcDbLine
 62
7
  6
CONTINUOUS
 10
796.5835770322
 20
175.5155047559
 11
790.6856823133
 21
178.4356792272
  0
LINE
  5
251
100
AcDbEntity
  8
RUNDUNGEN
100
AcDbLine
 62
7
  6
CONTINUOUS
 10
796.5835770322
 20
179.0510386619
 11
790.6856823133
 21
181.9712131331
  0
LINE
  5
252
100
AcDbEntity
  8
RUNDUNGEN
100
AcDbLine
 62
7
  6
CONTINUOUS
 10
726.6479998135
 20
172.7118971494
 11
728.5408020535
 21
170.8004448638
  0
LINE
  5
253
100
AcDbEntity
  8
RUNDUNGEN
100
AcDbLine
 62
7
  6
CONTINUOUS
 10
734.3339240606
 20
164.9502424138
 11
746.374459533
 21
152.7910698585
  0
LINE
  5
254
100
AcDbEntity
  8
RUNDUNGEN
100
AcDbLine
 62
7
  6
CONTINUOUS
 10
765.0558869982
 20
133.9255716711
 11
769.133808458
 21
129.8074698798
  0
LINE
  5
255
100
AcDbEntity
  8
RUNDUNGEN
100
AcDbLine
 62
7
  6
CONTINUOUS
 10
737.8229677522
 20
169.4400405228
 11
735.7007349377
 21
171.5831839945
  0
LINE
  5
256
100
AcDbEntity
  8
0
100
AcDbLine
 62
7
  6
CONTINUOUS
 10
753.3717596034
 20
233.9914848081
 11
753.0539065732
 21
233.9103307752
  0
LINE
  5
257
100
AcDbEntity
  8
0
100
AcDbLine
 62
7
  6
CONTINUOUS
 10
749.5575200581
 20
233.9914848081
 11
749.2396665732
 21
233.9103307752
  0
LINE
  5
258
100
AcDbEntity
  8
0
100
AcDbLine
 62
7
  6
CONTINUOUS
 10
777.9149809731
 20
233.4234065211
 11
778.2610287954
 21
233.5045605611
  0
LINE
  5
259
100
AcDbEntity
  8
0
100
AcDbLine
 62
7
  6
CONTINUOUS
 10
771.6169008647
 20
233.4234065211
 11
771.962949083
 21
233.5045605611
  0
LINE
  5
25A
100
AcDbEntity
  8
0
100
AcDbLine
 62
7
  6
CONTINUOUS
 10
777.5689323587
 20
237.2376465211
 11
777.2228837443
 21
237.1564924882
  0
LINE
  5
25B
100
AcDbEntity
  8
0
100
AcDbLine
 62
7
  6
CONTINUOUS
 10
770.9940138341
 20
237.2376465211
 11
770.6479652197
 21
237.1564924882
  0
LINE
  5
25C
100
AcDbEntity
  8
0
100
AcDbLine
 62
7
  6
CONTINUOUS
 10
753.0539065732
 20
233.4234065211
 11
753.451223543
 21
233.5045605611
  0
LINE
  5
25D
100
AcDbEntity
  8
0
100
AcDbLine
 62
7
  6
CONTINUOUS
 10
749.2396665732
 20
233.4234065211
 11
749.6369830883
 21
233.5045605611
  0
LINE
  5
25E
100
AcDbEntity
  8
RUNDUNGEN
100
AcDbLine
 62
7
  6
CONTINUOUS
 10
780.3601267767
 20
232.1465400954
 11
765.1318918496
 21
232.1465400954
  0
LINE
  5
25F
100
AcDbEntity
  8
RUNDUNGEN
100
AcDbLine
 62
7
  6
CONTINUOUS
 10
756.7883617039
 20
232.1465400954
 11
741.5601267767
 21
232.1465400954
  0
LINE
  5
260
100
AcDbEntity
  8
0
100
AcDbLine
 62
7
  6
CONTINUOUS
 10
743.9950865732
 20
233.4234065211
 11
744.4718665732
 21
233.4234065211
  0
LINE
  5
261
100
AcDbEntity
  8
0
100
AcDbLine
 62
7
  6
CONTINUOUS
 10
746.4584498307
 20
233.4234065211
 11
747.0146933156
 21
233.4234065211
  0
LINE
  5
262
100
AcDbEntity
  8
0
100
AcDbLine
 62
7
  6
CONTINUOUS
 10
748.9218130883
 20
233.4234065211
 11
749.2396665732
 21
233.4234065211
  0
LINE
  5
263
100
AcDbEntity
  8
0
100
AcDbLine
 62
7
  6
CONTINUOUS
 10
751.1467865732
 20
233.4234065211
 11
753.0539065732
 21
233.4234065211
  0
LINE
  5
264
100
AcDbEntity
  8
0
100
AcDbLine
 62
7
  6
CONTINUOUS
 10
765.7340787767
 20
233.4234065211
 11
766.1493367972
 21
233.4234065211
  0
LINE
  5
265
100
AcDbEntity
  8
0
100
AcDbLine
 62
7
  6
CONTINUOUS
 10
766.7030141247
 20
233.4234065211
 11
767.1182721451
 21
233.4234065211
  0
LINE
  5
266
100
AcDbEntity
  8
0
100
AcDbLine
 62
7
  6
CONTINUOUS
 10
768.8485139299
 20
233.4234065211
 11
769.3329817524
 21
233.4234065211
  0
LINE
  5
267
100
AcDbEntity
  8
0
100
AcDbLine
 62
7
  6
CONTINUOUS
 10
770.9940138341
 20
233.4234065211
 11
771.6169008647
 21
233.4234065211
  0
LINE
  5
268
100
AcDbEntity
  8
0
100
AcDbLine
 62
7
  6
CONTINUOUS
 10
777.4997229526
 20
233.4234065211
 11
777.9149809731
 21
233.4234065211
  0
LINE
  5
269
100
AcDbEntity
  8
0
100
AcDbLine
 62
7
  6
CONTINUOUS
 10
777.845770775
 20
233.8291767423
 11
777.5689323587
 21
233.8291767423
  0
LINE
  5
26A
100
AcDbEntity
  8
0
100
AcDbLine
 62
7
  6
CONTINUOUS
 10
771.6169008647
 20
233.9103307752
 11
770.9940138341
 21
233.9103307752
  0
LINE
  5
26B
100
AcDbEntity
  8
0
100
AcDbLine
 62
7
  6
CONTINUOUS
 10
753.0539065732
 20
233.9103307752
 11
751.6235665732
 21
233.9103307752
  0
LINE
  5
26C
100
AcDbEntity
  8
0
100
AcDbLine
 62
7
  6
CONTINUOUS
 10
749.2396665732
 20
233.9103307752
 11
748.9218130883
 21
233.9103307752
  0
LINE
  5
26D
100
AcDbEntity
  8
0
100
AcDbLine
 62
7
  6
CONTINUOUS
 10
771.5476910626
 20
235.046487406
 11
772.1705780932
 21
235.046487406
  0
LINE
  5
26E
100
AcDbEntity
  8
0
100
AcDbLine
 62
7
  6
CONTINUOUS
 10
744.4718665732
 20
235.1276414389
 11
745.822743202
 21
235.1276414389
  0
LINE
  5
26F
100
AcDbEntity
  8
0
100
AcDbLine
 62
7
  6
CONTINUOUS
 10
767.1182721451
 20
235.1276414389
 11
768.2948365033
 21
235.1276414389
  0
LINE
  5
270
100
AcDbEntity
  8
0
100
AcDbLine
 62
7
  6
CONTINUOUS
 10
777.5689323587
 20
235.2087954718
 11
777.845770775
 21
235.2087954718
  0
LINE
  5
271
100
AcDbEntity
  8
0
100
AcDbLine
 62
7
  6
CONTINUOUS
 10
777.845770775
 20
235.5334116033
 11
777.5689323587
 21
235.5334116033
  0
LINE
  5
272
100
AcDbEntity
  8
0
100
AcDbLine
 62
7
  6
CONTINUOUS
 10
772.5858361137
 20
235.5334116033
 11
771.5476910626
 21
235.5334116033
  0
LINE
  5
273
100
AcDbEntity
  8
0
100
AcDbLine
 62
7
  6
CONTINUOUS
 10
768.4332559095
 20
235.6145656362
 11
767.1182721451
 21
235.6145656362
  0
LINE
  5
274
100
AcDbEntity
  8
0
100
AcDbLine
 62
7
  6
CONTINUOUS
 10
745.9816698307
 20
235.6145656362
 11
744.4718665732
 21
235.6145656362
  0
LINE
  5
275
100
AcDbEntity
  8
0
100
AcDbLine
 62
7
  6
CONTINUOUS
 10
772.1705780932
 20
236.2637978992
 11
772.5858361137
 21
236.2637978992
  0
LINE
  5
276
100
AcDbEntity
  8
0
100
AcDbLine
 62
7
  6
CONTINUOUS
 10
751.6235665732
 20
236.7507223238
 11
753.0539065732
 21
236.7507223238
  0
LINE
  5
277
100
AcDbEntity
  8
0
100
AcDbLine
 62
7
  6
CONTINUOUS
 10
770.9940138341
 20
236.7507223238
 11
771.6169008647
 21
236.7507223238
  0
LINE
  5
278
100
AcDbEntity
  8
0
100
AcDbLine
 62
7
  6
CONTINUOUS
 10
744.4718665732
 20
236.8318763567
 11
745.9816698307
 21
236.8318763567
  0
LINE
  5
279
100
AcDbEntity
  8
0
100
AcDbLine
 62
7
  6
CONTINUOUS
 10
767.1182721451
 20
236.8318763567
 11
768.4332559095
 21
236.8318763567
  0
LINE
  5
27A
100
AcDbEntity
  8
0
100
AcDbLine
 62
7
  6
CONTINUOUS
 10
777.5689323587
 20
236.8318763567
 11
777.845770775
 21
236.8318763567
  0
LINE
  5
27B
100
AcDbEntity
  8
0
100
AcDbLine
 62
7
  6
CONTINUOUS
 10
777.845770775
 20
237.2376465211
 11
777.5689323587
 21
237.2376465211
  0
LINE
  5
27C
100
AcDbEntity
  8
0
100
AcDbLine
 62
7
  6
CONTINUOUS
 10
771.6169008647
 20
237.2376465211
 11
770.9940138341
 21
237.2376465211
  0
LINE
  5
27D
100
AcDbEntity
  8
0
100
AcDbLine
 62
7
  6
CONTINUOUS
 10
766.1493367972
 20
237.2376465211
 11
765.7340787767
 21
237.2376465211
  0
LINE
  5
27E
100
AcDbEntity
  8
0
100
AcDbLine
 62
7
  6
CONTINUOUS
 10
768.3640463054
 20
237.2376465211
 11
766.7030141247
 21
237.2376465211
  0
LINE
  5
27F
100
AcDbEntity
  8
0
100
AcDbLine
 62
7
  6
CONTINUOUS
 10
753.0539065732
 20
237.2376465211
 11
751.1467865732
 21
237.2376465211
  0
LINE
  5
280
100
AcDbEntity
  8
0
100
AcDbLine
 62
7
  6
CONTINUOUS
 10
750.5110800581
 20
237.2376465211
 11
750.0343000581
 21
237.2376465211
  0
LINE
  5
281
100
AcDbEntity
  8
0
100
AcDbLine
 62
7
  6
CONTINUOUS
 10
748.1271800581
 20
237.2376465211
 11
747.6503998307
 21
237.2376465211
  0
LINE
  5
282
100
AcDbEntity
  8
0
100
AcDbLine
 62
7
  6
CONTINUOUS
 10
745.9022065732
 20
237.2376465211
 11
743.9950865732
 21
237.2376465211
  0
LINE
  5
283
100
AcDbEntity
  8
RUNDUNGEN
100
AcDbLine
 62
7
  6
CONTINUOUS
 10
777.492836199
 20
242.0986015027
 11
774.9541109213
 21
242.0986015027
  0
LINE
  5
284
100
AcDbEntity
  8
RUNDUNGEN
100
AcDbLine
 62
7
  6
CONTINUOUS
 10
746.9661426322
 20
242.0986015027
 11
744.4274170364
 21
242.0986015027
  0
LINE
  5
285
100
AcDbEntity
  8
RUNDUNGEN
100
AcDbLine
 62
7
  6
CONTINUOUS
 10
751.5387306838
 20
242.2003876727
 11
770.3815099496
 21
242.2003876727
  0
LINE
  5
286
100
AcDbEntity
  8
0
100
AcDbLine
 62
7
  6
CONTINUOUS
 10
748.5244965732
 20
233.5045605611
 11
748.9218130883
 21
233.4234065211
  0
LINE
  5
287
100
AcDbEntity
  8
0
100
AcDbLine
 62
7
  6
CONTINUOUS
 10
746.2995233156
 20
237.1564924882
 11
745.9022065732
 21
237.2376465211
  0
LINE
  5
288
100
AcDbEntity
  8
0
100
AcDbLine
 62
7
  6
CONTINUOUS
 10
753.451223543
 20
237.1564924882
 11
753.0539065732
 21
237.2376465211
  0
LINE
  5
289
100
AcDbEntity
  8
0
100
AcDbLine
 62
7
  6
CONTINUOUS
 10
770.6479652197
 20
233.5045605611
 11
770.9940138341
 21
233.4234065211
  0
LINE
  5
28A
100
AcDbEntity
  8
0
100
AcDbLine
 62
7
  6
CONTINUOUS
 10
777.1536743383
 20
233.5045605611
 11
777.4997229526
 21
233.4234065211
  0
LINE
  5
28B
100
AcDbEntity
  8
0
100
AcDbLine
 62
7
  6
CONTINUOUS
 10
768.7100945237
 20
237.1564924882
 11
768.3640463054
 21
237.2376465211
  0
LINE
  5
28C
100
AcDbEntity
  8
0
100
AcDbLine
 62
7
  6
CONTINUOUS
 10
771.962949083
 20
237.1564924882
 11
771.6169008647
 21
237.2376465211
  0
LINE
  5
28D
100
AcDbEntity
  8
0
100
AcDbLine
 62
7
  6
CONTINUOUS
 10
778.1918193893
 20
237.1564924882
 11
777.845770775
 21
237.2376465211
  0
LINE
  5
28E
100
AcDbEntity
  8
0
100
AcDbLine
 62
7
  6
CONTINUOUS
 10
748.9218130883
 20
233.9103307752
 11
748.6039600581
 21
233.9914848081
  0
LINE
  5
28F
100
AcDbEntity
  8
0
100
AcDbLine
 62
7
  6
CONTINUOUS
 10
753.0539065732
 20
236.7507223238
 11
753.3717596034
 21
236.669568291
  0
LINE
  5
290
100
AcDbEntity
  8
0
100
AcDbLine
 62
7
  6
CONTINUOUS
 10
770.9940138341
 20
233.9103307752
 11
770.7171750218
 21
233.9914848081
  0
LINE
  5
291
100
AcDbEntity
  8
0
100
AcDbLine
 62
7
  6
CONTINUOUS
 10
777.5689323587
 20
233.8291767423
 11
777.2920939424
 21
233.9103307752
  0
LINE
  5
292
100
AcDbEntity
  8
0
100
AcDbLine
 62
7
  6
CONTINUOUS
 10
771.6169008647
 20
236.7507223238
 11
771.893739281
 21
236.669568291
  0
LINE
  5
293
100
AcDbEntity
  8
0
100
AcDbLine
 62
7
  6
CONTINUOUS
 10
777.845770775
 20
235.2087954718
 11
778.1226099833
 21
235.1276414389
  0
LINE
  5
294
100
AcDbEntity
  8
0
100
AcDbLine
 62
7
  6
CONTINUOUS
 10
777.5689323587
 20
235.5334116033
 11
777.2920939424
 21
235.6145656362
  0
LINE
  5
295
100
AcDbEntity
  8
0
100
AcDbLine
 62
7
  6
CONTINUOUS
 10
777.845770775
 20
236.8318763567
 11
778.1226099833
 21
236.7507223238
  0
LINE
  5
296
100
AcDbEntity
  8
0
100
AcDbLine
 62
7
  6
CONTINUOUS
 10
745.9816698307
 20
236.8318763567
 11
746.2200598307
 21
236.7507223238
  0
LINE
  5
297
100
AcDbEntity
  8
0
100
AcDbLine
 62
7
  6
CONTINUOUS
 10
768.4332559095
 20
236.8318763567
 11
768.6408849197
 21
236.7507223238
  0
LINE
  5
298
100
AcDbEntity
  8
0
100
AcDbLine
 62
7
  6
CONTINUOUS
 10
748.2066430883
 20
233.6668686482
 11
748.5244965732
 21
233.5045605611
  0
LINE
  5
299
100
AcDbEntity
  8
RUNDUNGEN
100
AcDbLine
 62
7
  6
CONTINUOUS
 10
787.7367349539
 20
130.7460949719
 11
775.5457940205
 21
143.0571549544
  0
LINE
  5
29A
100
AcDbEntity
  8
RUNDUNGEN
100
AcDbLine
 62
7
  6
CONTINUOUS
 10
745.2296874408
 20
173.6719703796
 11
743.1958911403
 21
175.7258059601
  0
LINE
  5
29B
100
AcDbEntity
  8
RUNDUNGEN
100
AcDbLine
 62
7
  6
CONTINUOUS
 10
787.7367349539
 20
134.2816288779
 11
775.5457940205
 21
146.5926888603
  0
LINE
  5
29C
100
AcDbEntity
  8
RUNDUNGEN
100
AcDbLine
 62
7
  6
CONTINUOUS
 10
745.2296874408
 20
177.2075042856
 11
743.1958911403
 21
179.261339866
  0
LINE
  5
29D
100
AcDbEntity
  8
0
100
AcDbLine
 62
7
  6
CONTINUOUS
 10
753.7690765732
 20
236.9941844225
 11
753.451223543
 21
237.1564924882
  0
LINE
  5
29E
100
AcDbEntity
  8
0
100
AcDbLine
 62
7
  6
CONTINUOUS
 10
777.2920939424
 20
233.9103307752
 11
777.0152547341
 21
234.072638841
  0
LINE
  5
29F
100
AcDbEntity
  8
0
100
AcDbLine
 62
7
  6
CONTINUOUS
 10
778.5378680037
 20
235.2899495047
 11
778.3994483995
 21
235.3711035376
  0
LINE
  5
2A0
100
AcDbEntity
  8
0
100
AcDbLine
 62
7
  6
CONTINUOUS
 10
770.3711268034
 20
233.6668686482
 11
770.6479652197
 21
233.5045605611
  0
LINE
  5
2A1
100
AcDbEntity
  8
0
100
AcDbLine
 62
7
  6
CONTINUOUS
 10
772.2397878953
 20
236.9941844225
 11
771.962949083
 21
237.1564924882
  0
LINE
  5
2A2
100
AcDbEntity
  8
0
100
AcDbLine
 62
7
  6
CONTINUOUS
 10
776.876835922
 20
235.4522575704
 11
777.0152547341
 21
235.3711035376
  0
LINE
  5
2A3
100
AcDbEntity
  8
0
100
AcDbLine
 62
7
  6
CONTINUOUS
 10
778.1226099833
 20
235.1276414389
 11
778.3994483995
 21
234.9653333732
  0
LINE
  5
2A4
100
AcDbEntity
  8
0
100
AcDbLine
 62
7
  6
CONTINUOUS
 10
748.6039600581
 20
233.9914848081
 11
748.3655700581
 21
234.1537929307
  0
LINE
  5
2A5
100
AcDbEntity
  8
0
100
AcDbLine
 62
7
  6
CONTINUOUS
 10
753.3717596034
 20
236.669568291
 11
753.6101496034
 21
236.5072602252
  0
LINE
  5
2A6
100
AcDbEntity
  8
0
100
AcDbLine
 62
7
  6
CONTINUOUS
 10
746.6173765732
 20
236.9130303896
 11
746.2995233156
 21
237.1564924882
  0
LINE
  5
2A7
100
AcDbEntity
  8
0
100
AcDbLine
 62
7
  6
CONTINUOUS
 10
758.3349536297
 20
163.5401678852
 11
760.0733167633
 21
161.4111165528
  0
LINE
  5
2A8
100
AcDbEntity
  8
0
100
AcDbLine
 62
7
  6
CONTINUOUS
 10
758.3349536297
 20
163.8230105977
 11
760.0733167633
 21
161.6939592653
  0
LINE
  5
2A9
100
AcDbEntity
  8
0
100
AcDbLine
 62
7
  6
CONTINUOUS
 10
760.9601267767
 20
161.4111165528
 11
759.1526724449
 21
163.624786976
  0
LINE
  5
2AA
100
AcDbEntity
  8
0
100
AcDbLine
 62
7
  6
CONTINUOUS
 10
751.9601267767
 20
281.0607037111
 11
746.6991973916
 21
279.651041931
  0
LINE
  5
2AB
100
AcDbEntity
  8
0
100
AcDbLine
 62
7
  6
CONTINUOUS
 10
775.2210561619
 20
279.651041931
 11
769.9601267767
 21
281.0607037111
  0
LINE
  5
2AC
100
AcDbEntity
  8
0
100
AcDbLine
 62
7
  6
CONTINUOUS
 10
776.8076257239
 20
233.748022681
 11
777.1536743383
 21
233.5045605611
  0
LINE
  5
2AD
100
AcDbEntity
  8
0
100
AcDbLine
 62
7
  6
CONTINUOUS
 10
778.5378680037
 20
236.9130303896
 11
778.1918193893
 21
237.1564924882
  0
LINE
  5
2AE
100
AcDbEntity
  8
0
100
AcDbLine
 62
7
  6
CONTINUOUS
 10
770.7171750218
 20
233.9914848081
 11
770.5095460116
 21
234.1537929307
  0
LINE
  5
2AF
100
AcDbEntity
  8
0
100
AcDbLine
 62
7
  6
CONTINUOUS
 10
771.893739281
 20
236.669568291
 11
772.1013682912
 21
236.5072602252
  0
LINE
  5
2B0
100
AcDbEntity
  8
0
100
AcDbLine
 62
7
  6
CONTINUOUS
 10
768.986933336
 20
236.9130303896
 11
768.7100945237
 21
237.1564924882
  0
LINE
  5
2B1
100
AcDbEntity
  8
0
100
AcDbLine
 62
7
  6
CONTINUOUS
 10
777.2920939424
 20
235.6145656362
 11
777.0152547341
 21
235.8580277348
  0
LINE
  5
2B2
100
AcDbEntity
  8
0
100
AcDbLine
 62
7
  6
CONTINUOUS
 10
778.81470642
 20
235.046487406
 11
778.5378680037
 21
235.2899495047
  0
LINE
  5
2B3
100
AcDbEntity
  8
0
100
AcDbLine
 62
7
  6
CONTINUOUS
 10
778.1226099833
 20
236.7507223238
 11
778.3994483995
 21
236.5072602252
  0
LINE
  5
2B4
100
AcDbEntity
  8
0
100
AcDbLine
 62
7
  6
CONTINUOUS
 10
747.8887900581
 20
233.9914848081
 11
748.2066430883
 21
233.6668686482
  0
LINE
  5
2B5
100
AcDbEntity
  8
0
100
AcDbLine
 62
7
  6
CONTINUOUS
 10
746.2200598307
 20
236.7507223238
 11
746.3789865732
 21
236.5884142581
  0
LINE
  5
2B6
100
AcDbEntity
  8
0
100
AcDbLine
 62
7
  6
CONTINUOUS
 10
754.0869296034
 20
236.669568291
 11
753.7690765732
 21
236.9941844225
  0
LINE
  5
2B7
100
AcDbEntity
  8
RUNDUNGEN
100
AcDbLine
 62
7
  6
CONTINUOUS
 10
741.6513267767
 20
204.9503876727
 11
737.9601267767
 21
210.9485876727
  0
LINE
  5
2B8
100
AcDbEntity
  8
0
100
AcDbLine
 62
7
  6
CONTINUOUS
 10
639.9601267767
 20
607.7003876727
 11
639.9601267767
 21
447.7003876727
  0
LINE
  5
2B9
100
AcDbEntity
  8
0
100
AcDbLine
 62
7
  6
CONTINUOUS
 10
770.0942879911
 20
233.9914848081
 11
770.3711268034
 21
233.6668686482
  0
LINE
  5
2BA
100
AcDbEntity
  8
0
100
AcDbLine
 62
7
  6
CONTINUOUS
 10
768.6408849197
 20
236.7507223238
 11
768.7793043258
 21
236.5884142581
  0
LINE
  5
2BB
100
AcDbEntity
  8
0
100
AcDbLine
 62
7
  6
CONTINUOUS
 10
772.5166267076
 20
236.669568291
 11
772.2397878953
 21
236.9941844225
  0
LINE
  5
2BC
100
AcDbEntity
  8
0
100
AcDbLine
 62
7
  6
CONTINUOUS
 10
776.5999967137
 20
233.9914848081
 11
776.8076257239
 21
233.748022681
  0
LINE
  5
2BD
100
AcDbEntity
  8
0
100
AcDbLine
 62
7
  6
CONTINUOUS
 10
776.6692069118
 20
235.6957196691
 11
776.876835922
 21
235.4522575704
  0
LINE
  5
2BE
100
AcDbEntity
  8
0
100
AcDbLine
 62
7
  6
CONTINUOUS
 10
778.7454970139
 20
236.669568291
 11
778.5378680037
 21
236.9130303896
  0
LINE
  5
2BF
100
AcDbEntity
  8
0
100
AcDbLine
 62
7
  6
CONTINUOUS
 10
746.8557665732
 20
236.5884142581
 11
746.6173765732
 21
236.9130303896
  0
LINE
  5
2C0
100
AcDbEntity
  8
0
100
AcDbLine
 62
7
  6
CONTINUOUS
 10
748.3655700581
 20
234.1537929307
 11
748.2066430883
 21
234.3972550293
  0
LINE
  5
2C1
100
AcDbEntity
  8
0
100
AcDbLine
 62
7
  6
CONTINUOUS
 10
753.6101496034
 20
236.5072602252
 11
753.7690765732
 21
236.2637978992
  0
LINE
  5
2C2
100
AcDbEntity
  8
0
100
AcDbLine
 62
7
  6
CONTINUOUS
 10
665.9601267767
 20
607.7003876727
 11
665.9601267767
 21
447.7003876727
  0
LINE
  5
2C3
100
AcDbEntity
  8
0
100
AcDbLine
 62
7
  6
CONTINUOUS
 10
785.660781035
 20
269.2113170579
 11
775.2210561619
 21
279.651041931
  0
LINE
  5
2C4
100
AcDbEntity
  8
0
100
AcDbLine
 62
7
  6
CONTINUOUS
 10
769.1945621482
 20
236.5884142581
 11
768.986933336
 21
236.9130303896
  0
LINE
  5
2C5
100
AcDbEntity
  8
0
100
AcDbLine
 62
7
  6
CONTINUOUS
 10
777.0152547341
 20
234.072638841
 11
776.8076257239
 21
234.3972550293
  0
LINE
  5
2C6
100
AcDbEntity
  8
0
100
AcDbLine
 62
7
  6
CONTINUOUS
 10
778.3994483995
 20
234.9653333732
 11
778.6070774097
 21
234.640717128
  0
LINE
  5
2C7
100
AcDbEntity
  8
0
100
AcDbLine
 62
7
  6
CONTINUOUS
 10
770.5095460116
 20
234.1537929307
 11
770.3711268034
 21
234.3972550293
  0
LINE
  5
2C8
100
AcDbEntity
  8
0
100
AcDbLine
 62
7
  6
CONTINUOUS
 10
747.7298633156
 20
234.3161009965
 11
747.8887900581
 21
233.9914848081
  0
LINE
  5
2C9
100
AcDbEntity
  8
0
100
AcDbLine
 62
7
  6
CONTINUOUS
 10
754.2458565732
 20
236.3449521594
 11
754.0869296034
 21
236.669568291
  0
LINE
  5
2CA
100
AcDbEntity
  8
0
100
AcDbLine
 62
7
  6
CONTINUOUS
 10
777.0152547341
 20
235.8580277348
 11
776.876835922
 21
236.1014898335
  0
LINE
  5
2CB
100
AcDbEntity
  8
0
100
AcDbLine
 62
7
  6
CONTINUOUS
 10
778.3994483995
 20
236.5072602252
 11
778.5378680037
 21
236.2637978992
  0
LINE
  5
2CC
100
AcDbEntity
  8
0
100
AcDbLine
 62
7
  6
CONTINUOUS
 10
769.955868783
 20
234.3161009965
 11
770.0942879911
 21
233.9914848081
  0
LINE
  5
2CD
100
AcDbEntity
  8
0
100
AcDbLine
 62
7
  6
CONTINUOUS
 10
747.0146933156
 20
233.4234065211
 11
746.2995233156
 21
235.2899495047
  0
LINE
  5
2CE
100
AcDbEntity
  8
0
100
AcDbLine
 62
7
  6
CONTINUOUS
 10
745.822743202
 20
235.1276414389
 11
746.4584498307
 21
233.4234065211
  0
LINE
  5
2CF
100
AcDbEntity
  8
0
100
AcDbLine
 62
7
  6
CONTINUOUS
 10
746.3789865732
 20
236.5884142581
 11
746.4584498307
 21
236.3449521594
  0
LINE
  5
2D0
100
AcDbEntity
  8
0
100
AcDbLine
 62
7
  6
CONTINUOUS
 10
746.9352298307
 20
236.3449521594
 11
746.8557665732
 21
236.5884142581
  0
LINE
  5
2D1
100
AcDbEntity
  8
0
100
AcDbLine
 62
7
  6
CONTINUOUS
 10
732.4382680064
 20
254.9503876727
 11
736.2594725185
 21
240.6894582876
  0
LINE
  5
2D2
100
AcDbEntity
  8
0
100
AcDbLine
 62
7
  6
CONTINUOUS
 10
736.2594725185
 20
233.0237426763
 11
737.9601267767
 21
225.6573997863
  0
LINE
  5
2D3
100
AcDbEntity
  8
0
100
AcDbLine
 62
7
  6
CONTINUOUS
 10
776.5307873076
 20
236.0203358006
 11
776.6692069118
 21
235.6957196691
  0
LINE
  5
2D4
100
AcDbEntity
  8
0
100
AcDbLine
 62
7
  6
CONTINUOUS
 10
776.4615779016
 20
234.3972550293
 11
776.5999967137
 21
233.9914848081
  0
LINE
  5
2D5
100
AcDbEntity
  8
0
100
AcDbLine
 62
7
  6
CONTINUOUS
 10
778.9531260241
 20
234.640717128
 11
778.81470642
 21
235.046487406
  0
LINE
  5
2D6
100
AcDbEntity
  8
0
100
AcDbLine
 62
7
  6
CONTINUOUS
 10
778.883915826
 20
236.2637978992
 11
778.7454970139
 21
236.669568291
  0
LINE
  5
2D7
100
AcDbEntity
  8
0
100
AcDbLine
 62
7
  6
CONTINUOUS
 10
769.3329817524
 20
233.4234065211
 11
768.7100945237
 21
235.2899495047
  0
LINE
  5
2D8
100
AcDbEntity
  8
0
100
AcDbLine
 62
7
  6
CONTINUOUS
 10
768.2948365033
 20
235.1276414389
 11
768.8485139299
 21
233.4234065211
  0
LINE
  5
2D9
100
AcDbEntity
  8
0
100
AcDbLine
 62
7
  6
CONTINUOUS
 10
768.7793043258
 20
236.5884142581
 11
768.8485139299
 21
236.3449521594
  0
LINE
  5
2DA
100
AcDbEntity
  8
0
100
AcDbLine
 62
7
  6
CONTINUOUS
 10
769.2637719503
 20
236.3449521594
 11
769.1945621482
 21
236.5884142581
  0
LINE
  5
2DB
100
AcDbEntity
  8
0
100
AcDbLine
 62
7
  6
CONTINUOUS
 10
772.1013682912
 20
236.5072602252
 11
772.1705780932
 21
236.2637978992
  0
LINE
  5
2DC
100
AcDbEntity
  8
0
100
AcDbLine
 62
7
  6
CONTINUOUS
 10
748.2066430883
 20
234.3972550293
 11
748.1271800581
 21
234.7218711608
  0
LINE
  5
2DD
100
AcDbEntity
  8
0
100
AcDbLine
 62
7
  6
CONTINUOUS
 10
753.7690765732
 20
236.2637978992
 11
753.8485396034
 21
235.9391817677
  0
LINE
  5
2DE
100
AcDbEntity
  8
0
100
AcDbLine
 62
7
  6
CONTINUOUS
 10
747.6503998307
 20
234.7218711608
 11
747.7298633156
 21
234.3161009965
  0
LINE
  5
2DF
100
AcDbEntity
  8
0
100
AcDbLine
 62
7
  6
CONTINUOUS
 10
754.3253196034
 20
235.9391817677
 11
754.2458565732
 21
236.3449521594
  0
LINE
  5
2E0
100
AcDbEntity
  8
RUNDUNGEN
100
AcDbLine
 62
7
  6
CONTINUOUS
 10
725.9246079907
 20
174.3342163001
 11
725.9246079907
 21
177.869750206
  0
LINE
  5
2E1
100
AcDbEntity
  8
RUNDUNGEN
100
AcDbLine
 62
7
  6
CONTINUOUS
 10
733.4601267767
 20
124.3587212186
 11
733.4601267767
 21
132.6593097272
  0
LINE
  5
2E2
100
AcDbEntity
  8
RUNDUNGEN
100
AcDbLine
 62
7
  6
CONTINUOUS
 10
734.1169065138
 20
165.436938159
 11
734.1169065138
 21
168.972472065
  0
LINE
  5
2E3
100
AcDbEntity
  8
0
100
AcDbLine
 62
7
  6
CONTINUOUS
 10
736.2594725185
 20
233.0237426763
 11
736.2594725185
 21
240.6894582876
  0
LINE
  5
2E4
100
AcDbEntity
  8
RUNDUNGEN
100
AcDbLine
 62
7
  6
CONTINUOUS
 10
737.9601267767
 20
210.9485876727
 11
737.9601267767
 21
236.2003876727
  0
LINE
  5
2E5
100
AcDbEntity
  8
RUNDUNGEN
100
AcDbLine
 62
7
  6
CONTINUOUS
 10
740.0601267767
 20
121.5302940939
 11
740.0601267767
 21
125.772934781
  0
LINE
  5
2E6
100
AcDbEntity
  8
0
100
AcDbLine
 62
7
  6
CONTINUOUS
 10
770.3711268034
 20
234.3972550293
 11
770.3019170014
 21
234.7218711608
  0
LINE
  5
2E7
100
AcDbEntity
  8
0
100
AcDbLine
 62
7
  6
CONTINUOUS
 10
769.8866589809
 20
234.7218711608
 11
769.955868783
 21
234.3161009965
  0
LINE
  5
2E8
100
AcDbEntity
  8
0
100
AcDbLine
 62
7
  6
CONTINUOUS
 10
772.5858361137
 20
236.2637978992
 11
772.5166267076
 21
236.669568291
  0
LINE
  5
2E9
100
AcDbEntity
  8
0
100
AcDbLine
 62
7
  6
CONTINUOUS
 10
743.9950865732
 20
237.2376465211
 11
743.9950865732
 21
233.4234065211
  0
LINE
  5
2EA
100
AcDbEntity
  8
0
100
AcDbLine
 62
7
  6
CONTINUOUS
 10
744.4718665732
 20
233.4234065211
 11
744.4718665732
 21
235.1276414389
  0
LINE
  5
2EB
100
AcDbEntity
  8
0
100
AcDbLine
 62
7
  6
CONTINUOUS
 10
744.4718665732
 20
235.6145656362
 11
744.4718665732
 21
236.8318763567
  0
LINE
  5
2EC
100
AcDbEntity
  8
0
100
AcDbLine
 62
7
  6
CONTINUOUS
 10
746.4584498307
 20
236.3449521594
 11
746.4584498307
 21
236.1014898335
  0
LINE
  5
2ED
100
AcDbEntity
  8
0
100
AcDbLine
 62
7
  6
CONTINUOUS
 10
746.9352298307
 20
236.0203358006
 11
746.9352298307
 21
236.3449521594
  0
LINE
  5
2EE
100
AcDbEntity
  8
0
100
AcDbLine
 62
7
  6
CONTINUOUS
 10
747.6503998307
 20
237.2376465211
 11
747.6503998307
 21
234.7218711608
  0
LINE
  5
2EF
100
AcDbEntity
  8
0
100
AcDbLine
 62
7
  6
CONTINUOUS
 10
748.1271800581
 20
234.7218711608
 11
748.1271800581
 21
237.2376465211
  0
LINE
  5
2F0
100
AcDbEntity
  8
KONSTRUKTIONSELEMENTE
100
AcDbLine
 62
7
  6
CONTINUOUS
 10
749.0037447153
 20
219.0003876727
 11
749.0037447153
 21
222.7907876727
  0
LINE
  5
2F1
100
AcDbEntity
  8
0
100
AcDbLine
 62
7
  6
CONTINUOUS
 10
749.2903125885
 20
165.4840516124
 11
749.2903125885
 21
161.7505278078
  0
LINE
  5
2F2
100
AcDbEntity
  8
0
100
AcDbLine
 62
7
  6
CONTINUOUS
 10
750.0343000581
 20
237.2376465211
 11
750.0343000581
 21
234.7218711608
  0
LINE
  5
2F3
100
AcDbEntity
  8
0
100
AcDbLine
 62
7
  6
CONTINUOUS
 10
750.5110800581
 20
234.7218711608
 11
750.5110800581
 21
237.2376465211
  0
LINE
  5
2F4
100
AcDbEntity
  8
0
100
AcDbLine
 62
7
  6
CONTINUOUS
 10
750.8503125885
 20
162.2596446902
 11
750.8503125885
 21
163.5607211676
  0
LINE
  5
2F5
100
AcDbEntity
  8
0
100
AcDbLine
 62
7
  6
CONTINUOUS
 10
750.8503125885
 20
163.9567009651
 11
750.8503125885
 21
165.2577774425
  0
LINE
  5
2F6
100
AcDbEntity
  8
0
100
AcDbLine
 62
7
  6
CONTINUOUS
 10
751.1467865732
 20
237.2376465211
 11
751.1467865732
 21
233.4234065211
  0
LINE
  5
2F7
100
AcDbEntity
  8
0
100
AcDbLine
 62
7
  6
CONTINUOUS
 10
751.2103125885
 20
164.8221996652
 11
751.2103125885
 21
164.1094360298
  0
LINE
  5
2F8
100
AcDbEntity
  8
0
100
AcDbLine
 62
7
  6
CONTINUOUS
 10
751.2103125885
 20
163.1251433904
 11
751.2103125885
 21
162.412379755
  0
LINE
  5
2F9
100
AcDbEntity
  8
0
100
AcDbLine
 62
7
  6
CONTINUOUS
 10
751.5103125885
 20
163.4475840826
 11
751.5103125885
 21
163.7869953376
  0
LINE
  5
2FA
100
AcDbEntity
  8
0
100
AcDbLine
 62
7
  6
CONTINUOUS
 10
751.5103125885
 20
163.0912022649
 11
751.5103125885
 21
163.1930256414
  0
LINE
  5
2FB
100
AcDbEntity
  8
0
100
AcDbLine
 62
7
  6
CONTINUOUS
 10
751.5103125885
 20
164.0415537788
 11
751.5103125885
 21
164.4262198678
  0
LINE
  5
2FC
100
AcDbEntity
  8
0
100
AcDbLine
 62
7
  6
CONTINUOUS
 10
751.6235665732
 20
233.9103307752
 11
751.6235665732
 21
236.7507223238
  0
LINE
  5
2FD
100
AcDbEntity
  8
0
100
AcDbLine
 62
7
  6
CONTINUOUS
 10
751.8703125885
 20
164.4262198678
 11
751.8703125885
 21
164.0415537788
  0
LINE
  5
2FE
100
AcDbEntity
  8
0
100
AcDbLine
 62
7
  6
CONTINUOUS
 10
751.8703125885
 20
163.7869953376
 11
751.8703125885
 21
163.4475840826
  0
LINE
  5
2FF
100
AcDbEntity
  8
0
100
AcDbLine
 62
7
  6
CONTINUOUS
 10
751.8703125885
 20
163.1930256414
 11
751.8703125885
 21
163.0912022649
  0
LINE
  5
300
100
AcDbEntity
  8
0
100
AcDbLine
 62
7
  6
CONTINUOUS
 10
751.9601267767
 20
361.6431627971
 11
751.9601267767
 21
258.7576125483
  0
LINE
  5
301
100
AcDbEntity
  8
0
100
AcDbLine
 62
7
  6
CONTINUOUS
 10
752.1703125885
 20
162.412379755
 11
752.1703125885
 21
163.1251433904
  0
LINE
  5
302
100
AcDbEntity
  8
0
100
AcDbLine
 62
7
  6
CONTINUOUS
 10
752.1703125885
 20
164.1094360298
 11
752.1703125885
 21
164.8221996652
  0
LINE
  5
303
100
AcDbEntity
  8
0
100
AcDbLine
 62
7
  6
CONTINUOUS
 10
752.5303125885
 20
165.2577774425
 11
752.5303125885
 21
163.9567009651
  0
LINE
  5
304
100
AcDbEntity
  8
0
100
AcDbLine
 62
7
  6
CONTINUOUS
 10
752.5303125885
 20
163.5607211676
 11
752.5303125885
 21
162.2596446902
  0
LINE
  5
305
100
AcDbEntity
  8
KONSTRUKTIONSELEMENTE
100
AcDbLine
 62
7
  6
CONTINUOUS
 10
752.9601267767
 20
190.4732052596
 11
752.9601267767
 21
201.0798069774
  0
LINE
  5
306
100
AcDbEntity
  8
0
100
AcDbLine
 62
7
  6
CONTINUOUS
 10
753.8485396034
 20
235.9391817677
 11
753.8485396034
 21
234.7218711608
  0
LINE
  5
307
100
AcDbEntity
  8
0
100
AcDbLine
 62
7
  6
CONTINUOUS
 10
754.0903125885
 20
161.7505278078
 11
754.0903125885
 21
165.4840516124
  0
LINE
  5
308
100
AcDbEntity
  8
0
100
AcDbLine
 62
7
  6
CONTINUOUS
 10
754.3253196034
 20
234.7218711608
 11
754.3253196034
 21
235.9391817677
  0
LINE
  5
309
100
AcDbEntity
  8
0
100
AcDbLine
 62
7
  6
CONTINUOUS
 10
755.6469536297
 20
165.8234628674
 11
755.6469536297
 21
165.3086891307
  0
LINE
  5
30A
100
AcDbEntity
  8
0
100
AcDbLine
 62
7
  6
CONTINUOUS
 10
755.6469536297
 20
164.8335133737
 11
755.6469536297
 21
161.4111165528
  0
LINE
  5
30B
100
AcDbEntity
  8
0
100
AcDbLine
 62
7
  6
CONTINUOUS
 10
755.9601267767
 20
219.0003876727
 11
755.9601267767
 21
209.1630779082
  0
LINE
  5
30C
100
AcDbEntity
  8
KONSTRUKTIONSELEMENTE
100
AcDbLine
 62
7
  6
CONTINUOUS
 10
755.9601267767
 20
219.0003876727
 11
755.9601267767
 21
229.3903876727
  0
LINE
  5
30D
100
AcDbEntity
  8
0
100
AcDbLine
 62
7
  6
CONTINUOUS
 10
756.4149536297
 20
161.4111165528
 11
756.4149536297
 21
163.8230105977
  0
LINE
  5
30E
100
AcDbEntity
  8
0
100
AcDbLine
 62
7
  6
CONTINUOUS
 10
756.4149536297
 20
164.0832258932
 11
756.4149536297
 21
164.8335133737
  0
LINE
  5
30F
100
AcDbEntity
  8
KONSTRUKTIONSELEMENTE
100
AcDbLine
 62
7
  6
CONTINUOUS
 10
757.4601267767
 20
190.4732052596
 11
757.4601267767
 21
201.0798069774
  0
LINE
  5
310
100
AcDbEntity
  8
KONSTRUKTIONSELEMENTE
100
AcDbLine
 62
7
  6
CONTINUOUS
 10
757.4601267767
 20
224.6003876727
 11
757.4601267767
 21
232.1925053496
  0
LINE
  5
311
100
AcDbEntity
  8
0
100
AcDbLine
 62
7
  6
CONTINUOUS
 10
758.3349536297
 20
163.5401678852
 11
758.3349536297
 21
163.8230105977
  0
LINE
  5
312
100
AcDbEntity
  8
KONSTRUKTIONSELEMENTE
100
AcDbLine
 62
7
  6
CONTINUOUS
 10
758.4601267767
 20
169.6699783655
 11
758.4601267767
 21
192.1242353343
  0
LINE
  5
313
100
AcDbEntity
  8
KONSTRUKTIONSELEMENTE
100
AcDbLine
 62
7
  6
CONTINUOUS
 10
758.4601267767
 20
230.8347149381
 11
758.4601267767
 21
233.7143437125
  0
LINE
  5
314
100
AcDbEntity
  8
KONSTRUKTIONSELEMENTE
100
AcDbLine
 62
7
  6
CONTINUOUS
 10
758.4601267767
 20
242.4579036889
 11
758.4601267767
 21
250.0608542252
  0
LINE
  5
315
100
AcDbEntity
  8
KONSTRUKTIONSELEMENTE
100
AcDbLine
 62
7
  6
CONTINUOUS
 10
758.7101267767
 20
200.3287464928
 11
758.7101267767
 21
213.3003876727
  0
LINE
  5
316
100
AcDbEntity
  8
0
100
AcDbLine
 62
7
  6
CONTINUOUS
 10
759.1526724449
 20
163.624786976
 11
759.1526724449
 21
163.9076296885
  0
LINE
  5
317
100
AcDbEntity
  8
0
100
AcDbLine
 62
7
  6
CONTINUOUS
 10
759.5214869951
 20
164.9788002244
 11
759.5214869951
 21
164.6959575119
  0
LINE
  5
318
100
AcDbEntity
  8
0
100
AcDbLine
 62
7
  6
CONTINUOUS
 10
760.0733167633
 20
161.4111165528
 11
760.0733167633
 21
161.6939592653
  0
LINE
  5
319
100
AcDbEntity
  8
0
100
AcDbLine
 62
7
  6
CONTINUOUS
 10
761.4069536297
 20
165.8234628674
 11
761.4069536297
 21
163.0317121902
  0
LINE
  5
31A
100
AcDbEntity
  8
0
100
AcDbLine
 62
7
  6
CONTINUOUS
 10
762.1749536297
 20
163.0317121902
 11
762.1749536297
 21
165.8234628674
  0
LINE
  5
31B
100
AcDbEntity
  8
KONSTRUKTIONSELEMENTE
100
AcDbLine
 62
7
  6
CONTINUOUS
 10
763.2101267767
 20
200.3287464928
 11
763.2101267767
 21
213.3003876727
  0
LINE
  5
31C
100
AcDbEntity
  8
KONSTRUKTIONSELEMENTE
100
AcDbLine
 62
7
  6
CONTINUOUS
 10
763.4601267767
 20
169.6699783655
 11
763.4601267767
 21
192.1242353343
  0
LINE
  5
31D
100
AcDbEntity
  8
KONSTRUKTIONSELEMENTE
100
AcDbLine
 62
7
  6
CONTINUOUS
 10
763.4601267767
 20
230.8347149381
 11
763.4601267767
 21
233.7143437125
  0
LINE
  5
31E
100
AcDbEntity
  8
KONSTRUKTIONSELEMENTE
100
AcDbLine
 62
7
  6
CONTINUOUS
 10
763.4601267767
 20
242.4579036889
 11
763.4601267767
 21
250.0608542252
  0
LINE
  5
31F
100
AcDbEntity
  8
0
100
AcDbLine
 62
7
  6
CONTINUOUS
 10
789.481985547
 20
254.9503876727
 11
785.660781035
 21
269.2113170579
  0
LINE
  5
320
100
AcDbEntity
  8
KONSTRUKTIONSELEMENTE
100
AcDbLine
 62
7
  6
CONTINUOUS
 10
764.4601267767
 20
232.1925053496
 11
764.4601267767
 21
224.6003876727
  0
LINE
  5
321
100
AcDbEntity
  8
KONSTRUKTIONSELEMENTE
100
AcDbLine
 62
7
  6
CONTINUOUS
 10
764.4601267767
 20
201.0798069774
 11
764.4601267767
 21
190.4732052596
  0
LINE
  5
322
100
AcDbEntity
  8
0
100
AcDbLine
 62
7
  6
CONTINUOUS
 10
765.1942619182
 20
165.8234628674
 11
765.1942619182
 21
163.0317121902
  0
LINE
  5
323
100
AcDbEntity
  8
0
100
AcDbLine
 62
7
  6
CONTINUOUS
 10
765.7340787767
 20
237.2376465211
 11
765.7340787767
 21
233.4234065211
  0
LINE
  5
324
100
AcDbEntity
  8
0
100
AcDbLine
 62
7
  6
CONTINUOUS
 10
765.9601267767
 20
209.1630779082
 11
765.9601267767
 21
219.0003876727
  0
LINE
  5
325
100
AcDbEntity
  8
KONSTRUKTIONSELEMENTE
100
AcDbLine
 62
7
  6
CONTINUOUS
 10
765.9601267767
 20
219.0003876727
 11
765.9601267767
 21
229.39038793
  0
LINE
  5
326
100
AcDbEntity
  8
0
100
AcDbLine
 62
7
  6
CONTINUOUS
 10
765.9622619182
 20
163.0317121902
 11
765.9622619182
 21
165.8234628674
  0
LINE
  5
327
100
AcDbEntity
  8
0
100
AcDbLine
 62
7
  6
CONTINUOUS
 10
766.1493367972
 20
233.4234065211
 11
766.1493367972
 21
237.2376465211
  0
LINE
  5
328
100
AcDbEntity
  8
0
100
AcDbLine
 62
7
  6
CONTINUOUS
 10
766.7030141247
 20
237.2376465211
 11
766.7030141247
 21
233.4234065211
  0
LINE
  5
329
100
AcDbEntity
  8
0
100
AcDbLine
 62
7
  6
CONTINUOUS
 10
767.1182721451
 20
233.4234065211
 11
767.1182721451
 21
235.1276414389
  0
LINE
  5
32A
100
AcDbEntity
  8
0
100
AcDbLine
 62
7
  6
CONTINUOUS
 10
767.1182721451
 20
235.6145656362
 11
767.1182721451
 21
236.8318763567
  0
LINE
  5
32B
100
AcDbEntity
  8
0
100
AcDbLine
 62
7
  6
CONTINUOUS
 10
767.6422619182
 20
165.8234628674
 11
767.6422619182
 21
165.2804048595
  0
LINE
  5
32C
100
AcDbEntity
  8
0
100
AcDbLine
 62
7
  6
CONTINUOUS
 10
767.6422619182
 20
164.8052291025
 11
767.6422619182
 21
161.4111165528
  0
LINE
  5
32D
100
AcDbEntity
  8
0
100
AcDbLine
 62
7
  6
CONTINUOUS
 10
768.4102619182
 20
161.9768019778
 11
768.4102619182
 21
164.8052291025
  0
LINE
  5
32E
100
AcDbEntity
  8
0
100
AcDbLine
 62
7
  6
CONTINUOUS
 10
768.8485139299
 20
236.3449521594
 11
768.8485139299
 21
236.1014898335
  0
LINE
  5
32F
100
AcDbEntity
  8
KONSTRUKTIONSELEMENTE
100
AcDbLine
 62
7
  6
CONTINUOUS
 10
768.9601267767
 20
201.0798069774
 11
768.9601267767
 21
190.4732052596
  0
LINE
  5
330
100
AcDbEntity
  8
0
100
AcDbLine
 62
7
  6
CONTINUOUS
 10
769.2637719503
 20
236.0203358006
 11
769.2637719503
 21
236.3449521594
  0
LINE
  5
331
100
AcDbEntity
  8
0
100
AcDbLine
 62
7
  6
CONTINUOUS
 10
769.8866589809
 20
235.9391817677
 11
769.8866589809
 21
234.7218711608
  0
LINE
  5
332
100
AcDbEntity
  8
0
100
AcDbLine
 62
7
  6
CONTINUOUS
 10
769.9601267767
 20
361.6431627971
 11
769.9601267767
 21
258.7576125483
  0
LINE
  5
333
100
AcDbEntity
  8
0
100
AcDbLine
 62
7
  6
CONTINUOUS
 10
770.3019170014
 20
234.7218711608
 11
770.3019170014
 21
235.9391817677
  0
LINE
  5
334
100
AcDbEntity
  8
0
100
AcDbLine
 62
7
  6
CONTINUOUS
 10
771.5476910626
 20
235.5334116033
 11
771.5476910626
 21
235.046487406
  0
LINE
  5
335
100
AcDbEntity
  8
0
100
AcDbLine
 62
7
  6
CONTINUOUS
 10
771.7163529205
 20
163.9114461311
 11
771.7163529205
 21
163.6286034186
  0
LINE
  5
336
100
AcDbEntity
  8
0
100
AcDbLine
 62
7
  6
CONTINUOUS
 10
772.1705780932
 20
235.046487406
 11
772.1705780932
 21
234.3972550293
  0
LINE
  5
337
100
AcDbEntity
  8
0
100
AcDbLine
 62
7
  6
CONTINUOUS
 10
772.5858361137
 20
234.3161009965
 11
772.5858361137
 21
235.5334116033
  0
LINE
  5
338
100
AcDbEntity
  8
KONSTRUKTIONSELEMENTE
100
AcDbLine
 62
7
  6
CONTINUOUS
 10
772.9165088382
 20
219.0003876727
 11
772.9165088382
 21
222.7907876727
  0
LINE
  5
339
100
AcDbEntity
  8
0
100
AcDbLine
 62
7
  6
CONTINUOUS
 10
776.4615779016
 20
234.640717128
 11
776.4615779016
 21
234.3972550293
  0
LINE
  5
33A
100
AcDbEntity
  8
0
100
AcDbLine
 62
7
  6
CONTINUOUS
 10
776.5307873076
 20
236.2637978992
 11
776.5307873076
 21
236.0203358006
  0
LINE
  5
33B
100
AcDbEntity
  8
0
100
AcDbLine
 62
7
  6
CONTINUOUS
 10
776.8076257239
 20
234.3972550293
 11
776.8076257239
 21
234.640717128
  0
LINE
  5
33C
100
AcDbEntity
  8
0
100
AcDbLine
 62
7
  6
CONTINUOUS
 10
776.876835922
 20
236.1014898335
 11
776.876835922
 21
236.2637978992
  0
LINE
  5
33D
100
AcDbEntity
  8
0
100
AcDbLine
 62
7
  6
CONTINUOUS
 10
778.5378680037
 20
236.2637978992
 11
778.5378680037
 21
236.1014898335
  0
LINE
  5
33E
100
AcDbEntity
  8
0
100
AcDbLine
 62
7
  6
CONTINUOUS
 10
778.6070774097
 20
234.640717128
 11
778.6070774097
 21
234.3972550293
  0
LINE
  5
33F
100
AcDbEntity
  8
0
100
AcDbLine
 62
7
  6
CONTINUOUS
 10
778.883915826
 20
236.0203358006
 11
778.883915826
 21
236.2637978992
  0
LINE
  5
340
100
AcDbEntity
  8
0
100
AcDbLine
 62
7
  6
CONTINUOUS
 10
778.9531260241
 20
234.3972550293
 11
778.9531260241
 21
234.640717128
  0
LINE
  5
341
100
AcDbEntity
  8
RUNDUNGEN
100
AcDbLine
 62
7
  6
CONTINUOUS
 10
781.8601267767
 20
125.772934781
 11
781.8601267767
 21
121.5302940939
  0
LINE
  5
342
100
AcDbEntity
  8
RUNDUNGEN
100
AcDbLine
 62
7
  6
CONTINUOUS
 10
783.9601267767
 20
210.9485876727
 11
783.9601267767
 21
236.2003876727
  0
LINE
  5
343
100
AcDbEntity
  8
0
100
AcDbLine
 62
7
  6
CONTINUOUS
 10
785.660781035
 20
233.0237426763
 11
785.660781035
 21
240.6894582876
  0
LINE
  5
344
100
AcDbEntity
  8
0
100
AcDbLine
 62
7
  6
CONTINUOUS
 10
736.2594725185
 20
269.2113170579
 11
732.4382680064
 21
254.9503876727
  0
LINE
  5
345
100
AcDbEntity
  8
RUNDUNGEN
100
AcDbLine
 62
7
  6
CONTINUOUS
 10
788.4601267767
 20
124.3587212186
 11
788.4601267767
 21
132.6593097272
  0
LINE
  5
346
100
AcDbEntity
  8
RUNDUNGEN
100
AcDbLine
 62
7
  6
CONTINUOUS
 10
797.0952853086
 20
174.8204311975
 11
797.0952853086
 21
178.3559651035
  0
LINE
  5
347
100
AcDbEntity
  8
0
100
AcDbLine
 62
7
  6
CONTINUOUS
 10
769.955868783
 20
236.3449521594
 11
769.8866589809
 21
235.9391817677
  0
LINE
  5
348
100
AcDbEntity
  8
0
100
AcDbLine
 62
7
  6
CONTINUOUS
 10
750.4316165732
 20
234.3161009965
 11
750.5110800581
 21
234.7218711608
  0
LINE
  5
349
100
AcDbEntity
  8
0
100
AcDbLine
 62
7
  6
CONTINUOUS
 10
754.2458565732
 20
234.3161009965
 11
754.3253196034
 21
234.7218711608
  0
LINE
  5
34A
100
AcDbEntity
  8
0
100
AcDbLine
 62
7
  6
CONTINUOUS
 10
750.0343000581
 20
234.7218711608
 11
749.9548365732
 21
234.3972550293
  0
LINE
  5
34B
100
AcDbEntity
  8
0
100
AcDbLine
 62
7
  6
CONTINUOUS
 10
753.8485396034
 20
234.7218711608
 11
753.7690765732
 21
234.3972550293
  0
LINE
  5
34C
100
AcDbEntity
  8
0
100
AcDbLine
 62
7
  6
CONTINUOUS
 10
746.4584498307
 20
236.1014898335
 11
746.3789865732
 21
235.8580277348
  0
LINE
  5
34D
100
AcDbEntity
  8
0
100
AcDbLine
 62
7
  6
CONTINUOUS
 10
746.8557665732
 20
235.7768737019
 11
746.9352298307
 21
236.0203358006
  0
LINE
  5
34E
100
AcDbEntity
  8
0
100
AcDbLine
 62
7
  6
CONTINUOUS
 10
770.3019170014
 20
235.9391817677
 11
770.3711268034
 21
236.2637978992
  0
LINE
  5
34F
100
AcDbEntity
  8
0
100
AcDbLine
 62
7
  6
CONTINUOUS
 10
772.5166267076
 20
233.9914848081
 11
772.5858361137
 21
234.3161009965
  0
LINE
  5
350
100
AcDbEntity
  8
0
100
AcDbLine
 62
7
  6
CONTINUOUS
 10
785.660781035
 20
233.0237426763
 11
783.9601267767
 21
225.6573997863
  0
LINE
  5
351
100
AcDbEntity
  8
0
100
AcDbLine
 62
7
  6
CONTINUOUS
 10
768.8485139299
 20
236.1014898335
 11
768.7793043258
 21
235.8580277348
  0
LINE
  5
352
100
AcDbEntity
  8
0
100
AcDbLine
 62
7
  6
CONTINUOUS
 10
769.1945621482
 20
235.7768737019
 11
769.2637719503
 21
236.0203358006
  0
LINE
  5
353
100
AcDbEntity
  8
0
100
AcDbLine
 62
7
  6
CONTINUOUS
 10
772.1705780932
 20
234.3972550293
 11
772.1013682912
 21
234.1537929307
  0
LINE
  5
354
100
AcDbEntity
  8
0
100
AcDbLine
 62
7
  6
CONTINUOUS
 10
785.660781035
 20
240.6894582876
 11
789.481985547
 21
254.9503876727
  0
LINE
  5
355
100
AcDbEntity
  8
0
100
AcDbLine
 62
7
  6
CONTINUOUS
 10
776.6692069118
 20
236.669568291
 11
776.5307873076
 21
236.2637978992
  0
LINE
  5
356
100
AcDbEntity
  8
0
100
AcDbLine
 62
7
  6
CONTINUOUS
 10
776.5999967137
 20
235.046487406
 11
776.4615779016
 21
234.640717128
  0
LINE
  5
357
100
AcDbEntity
  8
0
100
AcDbLine
 62
7
  6
CONTINUOUS
 10
778.81470642
 20
233.9914848081
 11
778.9531260241
 21
234.3972550293
  0
LINE
  5
358
100
AcDbEntity
  8
0
100
AcDbLine
 62
7
  6
CONTINUOUS
 10
770.0942879911
 20
236.669568291
 11
769.955868783
 21
236.3449521594
  0
LINE
  5
359
100
AcDbEntity
  8
0
100
AcDbLine
 62
7
  6
CONTINUOUS
 10
750.2726900581
 20
233.9914848081
 11
750.4316165732
 21
234.3161009965
  0
LINE
  5
35A
100
AcDbEntity
  8
0
100
AcDbLine
 62
7
  6
CONTINUOUS
 10
754.0869296034
 20
233.9914848081
 11
754.2458565732
 21
234.3161009965
  0
LINE
  5
35B
100
AcDbEntity
  8
0
100
AcDbLine
 62
7
  6
CONTINUOUS
 10
855.9601267767
 20
447.7003876727
 11
855.9601267767
 21
607.7003876727
  0
LINE
  5
35C
100
AcDbEntity
  8
0
100
AcDbLine
 62
7
  6
CONTINUOUS
 10
778.7454970139
 20
235.6957196691
 11
778.883915826
 21
236.0203358006
  0
LINE
  5
35D
100
AcDbEntity
  8
0
100
AcDbLine
 62
7
  6
CONTINUOUS
 10
770.3711268034
 20
236.2637978992
 11
770.5095460116
 21
236.5072602252
  0
LINE
  5
35E
100
AcDbEntity
  8
0
100
AcDbLine
 62
7
  6
CONTINUOUS
 10
776.876835922
 20
236.2637978992
 11
777.0152547341
 21
236.5072602252
  0
LINE
  5
35F
100
AcDbEntity
  8
0
100
AcDbLine
 62
7
  6
CONTINUOUS
 10
778.5378680037
 20
236.1014898335
 11
778.3994483995
 21
235.8580277348
  0
LINE
  5
360
100
AcDbEntity
  8
0
100
AcDbLine
 62
7
  6
CONTINUOUS
 10
768.986933336
 20
235.4522575704
 11
769.1945621482
 21
235.7768737019
  0
LINE
  5
361
100
AcDbEntity
  8
0
100
AcDbLine
 62
7
  6
CONTINUOUS
 10
749.9548365732
 20
234.3972550293
 11
749.7959100581
 21
234.1537929307
  0
LINE
  5
362
100
AcDbEntity
  8
0
100
AcDbLine
 62
7
  6
CONTINUOUS
 10
753.7690765732
 20
234.3972550293
 11
753.6101496034
 21
234.1537929307
  0
LINE
  5
363
100
AcDbEntity
  8
0
100
AcDbLine
 62
7
  6
CONTINUOUS
 10
746.6173765732
 20
235.4522575704
 11
746.8557665732
 21
235.7768737019
  0
LINE
  5
364
100
AcDbEntity
  8
0
100
AcDbLine
 62
7
  6
CONTINUOUS
 10
746.6991973916
 20
279.651041931
 11
736.2594725185
 21
269.2113170579
  0
LINE
  5
365
100
AcDbEntity
  8
0
100
AcDbLine
 62
7
  6
CONTINUOUS
 10
881.9601267767
 20
447.7003876727
 11
881.9601267767
 21
607.7003876727
  0
LINE
  5
366
100
AcDbEntity
  8
RUNDUNGEN
100
AcDbLine
 62
7
  6
CONTINUOUS
 10
780.2689267767
 20
204.9503876727
 11
783.9601267767
 21
210.9485876727
  0
LINE
  5
367
100
AcDbEntity
  8
0
100
AcDbLine
 62
7
  6
CONTINUOUS
 10
776.8076257239
 20
234.640717128
 11
777.0152547341
 21
234.9653333732
  0
LINE
  5
368
100
AcDbEntity
  8
0
100
AcDbLine
 62
7
  6
CONTINUOUS
 10
778.6070774097
 20
234.3972550293
 11
778.3994483995
 21
234.072638841
  0
LINE
  5
369
100
AcDbEntity
  8
0
100
AcDbLine
 62
7
  6
CONTINUOUS
 10
768.7793043258
 20
235.8580277348
 11
768.6408849197
 21
235.6957196691
  0
LINE
  5
36A
100
AcDbEntity
  8
0
100
AcDbLine
 62
7
  6
CONTINUOUS
 10
770.3711268034
 20
236.9941844225
 11
770.0942879911
 21
236.669568291
  0
LINE
  5
36B
100
AcDbEntity
  8
0
100
AcDbLine
 62
7
  6
CONTINUOUS
 10
772.2397878953
 20
233.6668686482
 11
772.5166267076
 21
233.9914848081
  0
LINE
  5
36C
100
AcDbEntity
  8
0
100
AcDbLine
 62
7
  6
CONTINUOUS
 10
746.3789865732
 20
235.8580277348
 11
746.2200598307
 21
235.6957196691
  0
LINE
  5
36D
100
AcDbEntity
  8
0
100
AcDbLine
 62
7
  6
CONTINUOUS
 10
749.9548365732
 20
233.6668686482
 11
750.2726900581
 21
233.9914848081
  0
LINE
  5
36E
100
AcDbEntity
  8
0
100
AcDbLine
 62
7
  6
CONTINUOUS
 10
753.7690765732
 20
233.6668686482
 11
754.0869296034
 21
233.9914848081
  0
LINE
  5
36F
100
AcDbEntity
  8
0
100
AcDbLine
 62
7
  6
CONTINUOUS
 10
776.876835922
 20
236.9130303896
 11
776.6692069118
 21
236.669568291
  0
LINE
  5
370
100
AcDbEntity
  8
0
100
AcDbLine
 62
7
  6
CONTINUOUS
 10
778.5378680037
 20
235.4522575704
 11
778.7454970139
 21
235.6957196691
  0
LINE
  5
371
100
AcDbEntity
  8
0
100
AcDbLine
 62
7
  6
CONTINUOUS
 10
778.6070774097
 20
233.748022681
 11
778.81470642
 21
233.9914848081
  0
LINE
  5
372
100
AcDbEntity
  8
0
100
AcDbLine
 62
7
  6
CONTINUOUS
 10
777.0152547341
 20
236.5072602252
 11
777.2920939424
 21
236.7507223238
  0
LINE
  5
373
100
AcDbEntity
  8
0
100
AcDbLine
 62
7
  6
CONTINUOUS
 10
776.876835922
 20
235.2899495047
 11
776.5999967137
 21
235.046487406
  0
LINE
  5
374
100
AcDbEntity
  8
0
100
AcDbLine
 62
7
  6
CONTINUOUS
 10
778.3994483995
 20
235.8580277348
 11
778.1226099833
 21
235.6145656362
  0
LINE
  5
375
100
AcDbEntity
  8
0
100
AcDbLine
 62
7
  6
CONTINUOUS
 10
770.5095460116
 20
236.5072602252
 11
770.7171750218
 21
236.669568291
  0
LINE
  5
376
100
AcDbEntity
  8
0
100
AcDbLine
 62
7
  6
CONTINUOUS
 10
749.7959100581
 20
234.1537929307
 11
749.5575200581
 21
233.9914848081
  0
LINE
  5
377
100
AcDbEntity
  8
0
100
AcDbLine
 62
7
  6
CONTINUOUS
 10
753.6101496034
 20
234.1537929307
 11
753.3717596034
 21
233.9914848081
  0
LINE
  5
378
100
AcDbEntity
  8
0
100
AcDbLine
 62
7
  6
CONTINUOUS
 10
772.1013682912
 20
234.1537929307
 11
771.893739281
 21
233.9914848081
  0
LINE
  5
379
100
AcDbEntity
  8
0
100
AcDbLine
 62
7
  6
CONTINUOUS
 10
777.2228837443
 20
237.1564924882
 11
776.876835922
 21
236.9130303896
  0
LINE
  5
37A
100
AcDbEntity
  8
0
100
AcDbLine
 62
7
  6
CONTINUOUS
 10
778.2610287954
 20
233.5045605611
 11
778.6070774097
 21
233.748022681
  0
LINE
  5
37B
100
AcDbEntity
  8
0
100
AcDbLine
 62
7
  6
CONTINUOUS
 10
770.6479652197
 20
237.1564924882
 11
770.3711268034
 21
236.9941844225
  0
LINE
  5
37C
100
AcDbEntity
  8
0
100
AcDbLine
 62
7
  6
CONTINUOUS
 10
768.7100945237
 20
235.2899495047
 11
768.986933336
 21
235.4522575704
  0
LINE
  5
37D
100
AcDbEntity
  8
0
100
AcDbLine
 62
7
  6
CONTINUOUS
 10
771.962949083
 20
233.5045605611
 11
772.2397878953
 21
233.6668686482
  0
LINE
  5
37E
100
AcDbEntity
  8
0
100
AcDbLine
 62
7
  6
CONTINUOUS
 10
777.0152547341
 20
235.3711035376
 11
776.876835922
 21
235.2899495047
  0
LINE
  5
37F
100
AcDbEntity
  8
0
100
AcDbLine
 62
7
  6
CONTINUOUS
 10
777.0152547341
 20
234.9653333732
 11
777.2920939424
 21
235.1276414389
  0
LINE
  5
380
100
AcDbEntity
  8
0
100
AcDbLine
 62
7
  6
CONTINUOUS
 10
778.3994483995
 20
235.3711035376
 11
778.5378680037
 21
235.4522575704
  0
LINE
  5
381
100
AcDbEntity
  8
0
100
AcDbLine
 62
7
  6
CONTINUOUS
 10
778.3994483995
 20
234.072638841
 11
778.1226099833
 21
233.9103307752
  0
LINE
  5
382
100
AcDbEntity
  8
0
100
AcDbLine
 62
7
  6
CONTINUOUS
 10
746.2995233156
 20
235.2899495047
 11
746.6173765732
 21
235.4522575704
  0
LINE
  5
383
100
AcDbEntity
  8
0
100
AcDbLine
 62
7
  6
CONTINUOUS
 10
749.6369830883
 20
233.5045605611
 11
749.9548365732
 21
233.6668686482
  0
LINE
  5
384
100
AcDbEntity
  8
0
100
AcDbLine
 62
7
  6
CONTINUOUS
 10
753.451223543
 20
233.5045605611
 11
753.7690765732
 21
233.6668686482
  0
LINE
  5
385
100
AcDbEntity
  8
0
100
AcDbLine
 62
7
  6
CONTINUOUS
 10
746.2200598307
 20
235.6957196691
 11
745.9816698307
 21
235.6145656362
  0
LINE
  5
386
100
AcDbEntity
  8
RUNDUNGEN
100
AcDbLine
 62
7
  6
CONTINUOUS
 10
746.374459533
 20
146.5926888603
 11
734.1835185996
 21
134.2816288779
  0
LINE
  5
387
100
AcDbEntity
  8
RUNDUNGEN
100
AcDbLine
 62
7
  6
CONTINUOUS
 10
746.374459533
 20
143.0571549544
 11
734.1835185996
 21
130.7460949719
  0
LINE
  5
388
100
AcDbEntity
  8
RUNDUNGEN
100
AcDbLine
 62
7
  6
CONTINUOUS
 10
781.9331391961
 20
174.6117936445
 11
789.0144081366
 21
181.7628353199
  0
LINE
  5
389
100
AcDbEntity
  8
RUNDUNGEN
100
AcDbLine
 62
7
  6
CONTINUOUS
 10
781.9331391961
 20
171.0762597385
 11
789.0144081366
 21
178.227301414
  0
LINE
  5
38A
100
AcDbEntity
  8
0
100
AcDbLine
 62
7
  6
CONTINUOUS
 10
768.6408849197
 20
235.6957196691
 11
768.4332559095
 21
235.6145656362
  0
LINE
  5
38B
100
AcDbEntity
  8
0
100
AcDbLine
 62
7
  6
CONTINUOUS
 10
770.7171750218
 20
236.669568291
 11
770.9940138341
 21
236.7507223238
  0
LINE
  5
38C
100
AcDbEntity
  8
0
100
AcDbLine
 62
7
  6
CONTINUOUS
 10
777.2920939424
 20
236.7507223238
 11
777.5689323587
 21
236.8318763567
  0
LINE
  5
38D
100
AcDbEntity
  8
0
100
AcDbLine
 62
7
  6
CONTINUOUS
 10
771.893739281
 20
233.9914848081
 11
771.6169008647
 21
233.9103307752
  0
LINE
  5
38E
100
AcDbEntity
  8
0
100
AcDbLine
 62
7
  6
CONTINUOUS
 10
778.1226099833
 20
235.6145656362
 11
777.845770775
 21
235.5334116033
  0
LINE
  5
38F
100
AcDbEntity
  8
0
100
AcDbLine
 62
7
  6
CONTINUOUS
 10
777.2920939424
 20
235.1276414389
 11
777.5689323587
 21
235.2087954718
  0
LINE
  5
390
100
AcDbEntity
  8
0
100
AcDbLine
 62
7
  6
CONTINUOUS
 10
778.1226099833
 20
233.9103307752
 11
777.845770775
 21
233.8291767423
  0
LINE
  5
391
100
AcDbEntity
  8
RUNDUNGEN
100
AcDbLine
 62
7
  6
CONTINUOUS
 10
752.7864450955
 20
129.8074698798
 11
756.8643665553
 21
133.9255716711
  0
LINE
  5
392
100
AcDbEntity
  8
RUNDUNGEN
100
AcDbLine
 62
7
  6
CONTINUOUS
 10
775.5457940205
 20
152.7910698585
 11
796.8782677617
 21
174.3337354523
  0
LINE
  5
393
100
AcDbEntity
  8
RUNDUNGEN
100
AcDbLine
 62
7
  6
CONTINUOUS
 10
729.2686063339
 20
180.9978216427
 11
727.6303022453
 21
180.1866620674
  0
LINE
  5
394
100
AcDbEntity
  8
RUNDUNGEN
100
AcDbLine
 62
7
  6
CONTINUOUS
 10
729.2686063339
 20
177.4622877368
 11
727.6303022453
 21
176.6511281614
  0
LINE
  5
395
100
AcDbEntity
  8
RUNDUNGEN
100
AcDbLine
 62
7
  6
CONTINUOUS
 10
732.9152779764
 20
171.9304803499
 11
730.2120762303
 21
170.5920670506
  0
LINE
  5
396
100
AcDbEntity
  8
RUNDUNGEN
100
AcDbLine
 62
7
  6
CONTINUOUS
 10
734.6286147902
 20
169.6675456234
 11
736.6208890729
 21
170.6539634517
  0
LINE
  5
397
100
AcDbEntity
  8
RUNDUNGEN
100
AcDbLine
 62
7
  6
CONTINUOUS
 10
754.0772095405
 20
178.1352307256
 11
750.8006013634
 21
176.5129115749
  0
LINE
  5
398
100
AcDbEntity
  8
RUNDUNGEN
100
AcDbLine
 62
7
  6
CONTINUOUS
 10
734.6286147902
 20
166.1320117174
 11
737.3318165363
 21
167.4704250168
  0
LINE
  5
399
100
AcDbEntity
  8
RUNDUNGEN
100
AcDbLine
 62
7
  6
CONTINUOUS
 10
754.0772095405
 20
174.5996968197
 11
750.8006013634
 21
172.977377669
  0
LINE
  5
39A
100
AcDbEntity
  8
0
100
AcDbLine
 62
7
  6
CONTINUOUS
 10
338.4502939875
 20
204.9503876727
 11
340.0502939875
 21
204.9503876727
  0
LINE
  5
39B
100
AcDbEntity
  8
0
100
AcDbLine
 62
7
  6
CONTINUOUS
 10
332.9094207026
 20
210.9485876727
 11
345.5911672725
 21
210.9485876727
  0
LINE
  5
39C
100
AcDbEntity
  8
0
100
AcDbLine
 62
7
  6
CONTINUOUS
 10
337.5002939875
 20
225.6573997863
 11
341.0002939875
 21
225.6573997863
  0
LINE
  5
39D
100
AcDbEntity
  8
0
100
AcDbLine
 62
7
  6
CONTINUOUS
 10
341.0002939875
 20
233.0237426763
 11
337.5002939875
 21
233.0237426763
  0
LINE
  5
39E
100
AcDbEntity
  8
0
100
AcDbLine
 62
7
  6
CONTINUOUS
 10
341.9199797523
 20
240.6894582876
 11
336.5806082227
 21
240.6894582876
  0
LINE
  5
39F
100
AcDbEntity
  8
0
100
AcDbLine
 62
7
  6
CONTINUOUS
 10
341.2553026434
 20
254.9503876727
 11
337.2452853317
 21
254.9503876727
  0
LINE
  5
3A0
100
AcDbEntity
  8
0
100
AcDbLine
 62
7
  6
CONTINUOUS
 10
341.2553026434
 20
269.2113170579
 11
337.2452853317
 21
269.2113170579
  0
LINE
  5
3A1
100
AcDbEntity
  8
KONSTRUKTIONSELEMENTE
100
AcDbLine
 62
7
  6
CONTINUOUS
 10
443.4778335344
 20
169.9671086052
 11
435.0632628383
 21
178.3816793013
  0
LINE
  5
3A2
100
AcDbEntity
  8
KONSTRUKTIONSELEMENTE
100
AcDbLine
 62
7
  6
CONTINUOUS
 10
382.3130969618
 20
231.1318451778
 11
373.8985262657
 21
239.5464158739
  0
LINE
  5
3A3
100
AcDbEntity
  8
KONSTRUKTIONSELEMENTE
100
AcDbLine
 62
7
  6
CONTINUOUS
 10
415.2642729651
 20
200.3727001962
 11
404.6576712473
 21
210.979301914
  0
LINE
  5
3A4
100
AcDbEntity
  8
KONSTRUKTIONSELEMENTE
100
AcDbLine
 62
7
  6
CONTINUOUS
 10
447.0133674403
 20
173.5026425111
 11
438.5987967442
 21
181.9172132072
  0
LINE
  5
3A5
100
AcDbEntity
  8
KONSTRUKTIONSELEMENTE
100
AcDbLine
 62
7
  6
CONTINUOUS
 10
385.8486308677
 20
234.6673790837
 11
377.4340601716
 21
243.0819497799
  0
LINE
  5
3A6
100
AcDbEntity
  8
0
100
AcDbLine
 62
7
  6
CONTINUOUS
 10
341.2553026434
 20
279.651041931
 11
337.2452853317
 21
279.651041931
  0
LINE
  5
3A7
100
AcDbEntity
  8
0
100
AcDbLine
 62
7
  6
CONTINUOUS
 10
337.2452853317
 20
283.472246443
 11
341.2553026434
 21
283.472246443
  0
LINE
  5
3A8
100
AcDbEntity
  8
KONSTRUKTIONSELEMENTE
100
AcDbLine
 62
7
  6
CONTINUOUS
 10
418.4462534804
 20
203.5546807115
 11
407.8396517626
 21
214.1612824293
  0
LINE
  5
3A9
100
AcDbEntity
  8
KONSTRUKTIONSELEMENTE
100
AcDbLine
 62
7
  6
CONTINUOUS
 10
349.1497889241
 20
273.558252049
 11
378.1411669528
 21
244.5668740203
  0
LINE
  5
3AA
100
AcDbEntity
  8
RUNDUNGEN
100
AcDbLine
 62
7
  6
CONTINUOUS
 10
501.8848536604
 20
121.5302940939
 11
444.6739872656
 21
178.7411604887
  0
LINE
  5
3AB
100
AcDbEntity
  8
KONSTRUKTIONSELEMENTE
100
AcDbLine
 62
7
  6
CONTINUOUS
 10
389.1013220612
 20
234.6673790837
 11
407.8100070363
 21
215.9586941086
  0
LINE
  5
3AC
100
AcDbEntity
  8
KONSTRUKTIONSELEMENTE
100
AcDbLine
 62
7
  6
CONTINUOUS
 10
420.2140204334
 20
203.5546807115
 11
438.9227054086
 21
184.8459957363
  0
LINE
  5
3AD
100
AcDbEntity
  8
KONSTRUKTIONSELEMENTE
100
AcDbLine
 62
7
  6
CONTINUOUS
 10
392.2833025765
 20
237.8493595991
 11
410.9919875517
 21
219.1406746239
  0
LINE
  5
3AE
100
AcDbEntity
  8
KONSTRUKTIONSELEMENTE
100
AcDbLine
 62
7
  6
CONTINUOUS
 10
423.3960009487
 20
206.7366612269
 11
442.1046859239
 21
188.0279762517
  0
LINE
  5
3AF
100
AcDbEntity
  8
RUNDUNGEN
100
AcDbLine
 62
7
  6
CONTINUOUS
 10
448.2095146293
 20
182.2767009369
 11
505.4203875664
 21
125.0658279998
  0
LINE
  5
3B0
100
AcDbEntity
  8
KONSTRUKTIONSELEMENTE
100
AcDbLine
 62
7
  6
CONTINUOUS
 10
353.3924296112
 20
277.8008927361
 11
382.3342975127
 21
248.8590248347
  0
LINE
  5
3B1
100
AcDbEntity
  8
KONSTRUKTIONSELEMENTE
100
AcDbLine
 62
7
  6
CONTINUOUS
 10
412.7893992309
 20
219.1110298976
 11
423.3960009487
 21
208.5044281798
  0
LINE
  5
3B2
100
AcDbEntity
  8
KONSTRUKTIONSELEMENTE
100
AcDbLine
 62
7
  6
CONTINUOUS
 10
383.8687318804
 20
249.5166214886
 11
387.8992405332
 21
245.4861128359
  0
LINE
  5
3B3
100
AcDbEntity
  8
KONSTRUKTIONSELEMENTE
100
AcDbLine
 62
7
  6
CONTINUOUS
 10
388.2527939237
 20
245.1325594453
 11
392.2833025765
 21
241.1020507925
  0
LINE
  5
3B4
100
AcDbEntity
  8
KONSTRUKTIONSELEMENTE
100
AcDbLine
 62
7
  6
CONTINUOUS
 10
445.033468453
 20
188.351884916
 11
449.0639771058
 21
184.3213762632
  0
LINE
  5
3B5
100
AcDbEntity
  8
KONSTRUKTIONSELEMENTE
100
AcDbLine
 62
7
  6
CONTINUOUS
 10
449.4175304964
 20
183.9678228727
 11
453.4480391491
 21
179.9373142199
  0
LINE
  5
3B6
100
AcDbEntity
  8
KONSTRUKTIONSELEMENTE
100
AcDbLine
 62
7
  6
CONTINUOUS
 10
415.9713797463
 20
222.293010413
 11
426.5779814641
 21
211.6864086952
  0
LINE
  5
3B7
100
AcDbEntity
  8
KONSTRUKTIONSELEMENTE
100
AcDbLine
 62
7
  6
CONTINUOUS
 10
387.4042657863
 20
253.0521553946
 11
391.4347744391
 21
249.0216467418
  0
LINE
  5
3B8
100
AcDbEntity
  8
KONSTRUKTIONSELEMENTE
100
AcDbLine
 62
7
  6
CONTINUOUS
 10
391.7883278297
 20
248.6680933512
 11
395.8188364824
 21
244.6375846985
  0
LINE
  5
3B9
100
AcDbEntity
  8
KONSTRUKTIONSELEMENTE
100
AcDbLine
 62
7
  6
CONTINUOUS
 10
448.569002359
 20
191.8874188219
 11
452.5995110117
 21
187.8569101692
  0
LINE
  5
3BA
100
AcDbEntity
  8
KONSTRUKTIONSELEMENTE
100
AcDbLine
 62
7
  6
CONTINUOUS
 10
452.9530644023
 20
187.5033567786
 11
456.9835730551
 21
183.4728481258
  0
LINE
  5
3BB
100
AcDbEntity
  8
0
100
AcDbLine
 62
7
  6
CONTINUOUS
 10
348.2502939875
 20
232.1465400954
 11
351.2502939875
 21
226.9503876727
  0
LINE
  5
3BC
100
AcDbEntity
  8
0
100
AcDbLine
 62
7
  6
CONTINUOUS
 10
344.7649998699
 20
276.8915641433
 11
341.2553026434
 21
283.472246443
  0
LINE
  5
3BD
100
AcDbEntity
  8
0
100
AcDbLine
 62
7
  6
CONTINUOUS
 10
301.2502939875
 20
332.7003876727
 11
301.2502939875
 21
287.7003876727
  0
LINE
  5
3BE
100
AcDbEntity
  8
0
100
AcDbLine
 62
7
  6
CONTINUOUS
 10
319.2502939875
 20
332.7003876727
 11
319.2502939875
 21
287.7003876727
  0
LINE
  5
3BF
100
AcDbEntity
  8
RUNDUNGEN
100
AcDbLine
 62
7
  6
CONTINUOUS
 10
337.5002939875
 20
225.6573997863
 11
336.235410659
 21
236.2003876727
  0
LINE
  5
3C0
100
AcDbEntity
  8
0
100
AcDbLine
 62
7
  6
CONTINUOUS
 10
337.5002939875
 20
233.0237426763
 11
336.5806082227
 21
240.6894582876
  0
LINE
  5
3C1
100
AcDbEntity
  8
0
100
AcDbLine
 62
7
  6
CONTINUOUS
 10
341.7646710833
 20
248.7492085348
 11
341.9199797523
 21
240.6894582876
  0
LINE
  5
3C2
100
AcDbEntity
  8
0
100
AcDbLine
 62
7
  6
CONTINUOUS
 10
326.2502939875
 20
339.7003876727
 11
326.2502939875
 21
715.7003876727
  0
LINE
  5
3C3
100
AcDbEntity
  8
RUNDUNGEN
100
AcDbLine
 62
7
  6
CONTINUOUS
 10
327.2502939875
 20
216.1503876727
 11
327.2502939875
 21
226.9503876727
  0
LINE
  5
3C4
100
AcDbEntity
  8
RUNDUNGEN
100
AcDbLine
 62
7
  6
CONTINUOUS
 10
330.2502939875
 20
232.1465400954
 11
330.2502939875
 21
238.6003876681
  0
LINE
  5
3C5
100
AcDbEntity
  8
BEZUGSACHSEN
100
AcDbLine
 62
7
  6
CONTINUOUS
 10
333.0002939875
 20
273.9503876727
 11
333.0002939875
 21
250.6763176402
  0
LINE
  5
3C6
100
AcDbEntity
  8
RUNDUNGEN
100
AcDbLine
 62
7
  6
CONTINUOUS
 10
333.0002939875
 20
250.6760307019
 11
333.0002939875
 21
242.0986015027
  0
LINE
  5
3C7
100
AcDbEntity
  8
0
100
AcDbLine
 62
7
  6
CONTINUOUS
 10
337.5002939875
 20
233.0237426763
 11
337.5002939875
 21
225.6573997863
  0
LINE
  5
3C8
100
AcDbEntity
  8
0
100
AcDbLine
 62
7
  6
CONTINUOUS
 10
341.0002939875
 20
233.0237426763
 11
341.0002939875
 21
225.6573997863
  0
LINE
  5
3C9
100
AcDbEntity
  8
0
100
AcDbLine
 62
7
  6
CONTINUOUS
 10
336.7359168917
 20
248.7492085348
 11
336.5806082227
 21
240.6894582876
  0
LINE
  5
3CA
100
AcDbEntity
  8
BEZUGSACHSEN
100
AcDbLine
 62
7
  6
CONTINUOUS
 10
345.5002939875
 20
273.9503876727
 11
345.5002939875
 21
250.6763176402
  0
LINE
  5
3CB
100
AcDbEntity
  8
0
100
AcDbLine
 62
7
  6
CONTINUOUS
 10
345.5002939875
 20
250.6760307019
 11
345.5002939875
 21
242.0986015027
  0
LINE
  5
3CC
100
AcDbEntity
  8
0
100
AcDbLine
 62
7
  6
CONTINUOUS
 10
348.2502939875
 20
232.1465400954
 11
348.2502939875
 21
238.6003876727
  0
LINE
  5
3CD
100
AcDbEntity
  8
0
100
AcDbLine
 62
7
  6
CONTINUOUS
 10
351.2502939875
 20
226.9503876727
 11
351.2502939875
 21
216.1503876727
  0
LINE
  5
3CE
100
AcDbEntity
  8
0
100
AcDbLine
 62
7
  6
CONTINUOUS
 10
352.2502939875
 20
339.7003876727
 11
352.2502939875
 21
715.7003876727
  0
LINE
  5
3CF
100
AcDbEntity
  8
0
100
AcDbLine
 62
7
  6
CONTINUOUS
 10
359.2502939875
 20
287.7003876727
 11
359.2502939875
 21
332.7003876727
  0
LINE
  5
3D0
100
AcDbEntity
  8
0
100
AcDbLine
 62
7
  6
CONTINUOUS
 10
377.2502939875
 20
287.7003876727
 11
377.2502939875
 21
332.7003876727
  0
LINE
  5
3D1
100
AcDbEntity
  8
0
100
AcDbLine
 62
7
  6
CONTINUOUS
 10
341.0002939875
 20
233.0237426763
 11
341.9199797523
 21
240.6894582876
  0
LINE
  5
3D2
100
AcDbEntity
  8
0
100
AcDbLine
 62
7
  6
CONTINUOUS
 10
341.0002939875
 20
225.6573997863
 11
342.265177316
 21
236.2003876727
  0
LINE
  5
3D3
100
AcDbEntity
  8
KONSTRUKTIONSELEMENTE
100
AcDbLine
 62
7
  6
CONTINUOUS
 10
337.2452853317
 20
283.472246443
 11
333.7355881052
 21
276.8915641433
  0
LINE
  5
3D4
100
AcDbEntity
  8
RUNDUNGEN
100
AcDbLine
 62
7
  6
CONTINUOUS
 10
330.2502939875
 20
232.1465400954
 11
327.2502939875
 21
226.9503876727
  0
LINE
  5
3D5
100
AcDbEntity
  8
KONSTRUKTIONSELEMENTE
100
AcDbLine
 62
7
  6
CONTINUOUS
 10
391.4347744391
 20
249.0216467418
 11
387.8992405332
 21
245.4861128359
  0
LINE
  5
3D6
100
AcDbEntity
  8
KONSTRUKTIONSELEMENTE
100
AcDbLine
 62
7
  6
CONTINUOUS
 10
391.7883278297
 20
248.6680933512
 11
388.2527939237
 21
245.1325594453
  0
LINE
  5
3D7
100
AcDbEntity
  8
KONSTRUKTIONSELEMENTE
100
AcDbLine
 62
7
  6
CONTINUOUS
 10
452.5995110117
 20
187.8569101692
 11
449.0639771058
 21
184.3213762632
  0
LINE
  5
3D8
100
AcDbEntity
  8
KONSTRUKTIONSELEMENTE
100
AcDbLine
 62
7
  6
CONTINUOUS
 10
452.9530644023
 20
187.5033567786
 11
449.4175304964
 21
183.9678228727
  0
LINE
  5
3D9
100
AcDbEntity
  8
RUNDUNGEN
100
AcDbLine
 62
7
  6
CONTINUOUS
 10
444.6740718591
 20
178.7410758952
 11
448.209605765
 21
182.2766098012
  0
LINE
  5
3DA
100
AcDbEntity
  8
RUNDUNGEN
100
AcDbLine
 62
7
  6
CONTINUOUS
 10
448.361547854
 20
182.1246677121
 11
444.8260139481
 21
178.5891338062
  0
LINE
  5
3DB
100
AcDbEntity
  8
RUNDUNGEN
100
AcDbLine
 62
7
  6
CONTINUOUS
 10
501.8848536604
 20
121.5302940939
 11
505.4203875664
 21
125.0658279998
  0
ARC
  5
3DC
100
AcDbEntity
  8
RUNDUNGEN
100
AcDbCircle
 62
7
  6
CONTINUOUS
 10
744.4300330869
 20
269.8543398652
 40
27.7557384859
100
AcDbArc
 50
269.029932686
 51
269.9945997237
  0
ARC
  5
3DD
100
AcDbEntity
  8
RUNDUNGEN
100
AcDbCircle
 62
7
  6
CONTINUOUS
 10
743.9601267767
 20
236.2003876727
 40
6.0
100
AcDbArc
 50
116.2394469635
 51
180.0
  0
ARC
  5
3DE
100
AcDbEntity
  8
RUNDUNGEN
100
AcDbCircle
 62
7
  6
CONTINUOUS
 10
743.128219695
 20
237.8885271295
 40
4.1180105821
100
AcDbArc
 50
113.1855758857
 51
116.2420010499
  0
CIRCLE
  5
3DF
100
AcDbEntity
  8
BEZUGSACHSEN
100
AcDbCircle
 62
7
  6
CONTINUOUS
 10
746.1601267767
 20
218.7503876727
 40
1.75
  0
ARC
  5
3E0
100
AcDbEntity
  8
0
100
AcDbCircle
 62
7
  6
CONTINUOUS
 10
752.2901337383
 20
163.3968590262
 40
0.3335678168
100
AcDbArc
 50
78.8903114984
 51
89.9692795103
  0
ARC
  5
3E1
100
AcDbEntity
  8
KONSTRUKTIONSELEMENTE
100
AcDbCircle
 62
7
  6
CONTINUOUS
 10
761.0913040269
 20
274.4144218121
 40
30.7197128927
100
AcDbArc
 50
274.4262461443
 51
283.6815744353
  0
ARC
  5
3E2
100
AcDbEntity
  8
KONSTRUKTIONSELEMENTE
100
AcDbCircle
 62
7
  6
CONTINUOUS
 10
760.9601267767
 20
180.8090276727
 40
28.79136
100
AcDbArc
 50
56.9721560344
 51
79.9991254185
  0
ARC
  5
3E3
100
AcDbEntity
  8
KONSTRUKTIONSELEMENTE
100
AcDbCircle
 62
7
  6
CONTINUOUS
 10
760.9601267767
 20
180.8090276727
 40
28.79136
100
AcDbArc
 50
100.0008745815
 51
123.0278439656
  0
ARC
  5
3E4
100
AcDbEntity
  8
RUNDUNGEN
100
AcDbCircle
 62
7
  6
CONTINUOUS
 10
777.4902146061
 20
269.8552691972
 40
27.7566678183
100
AcDbArc
 50
270.0054115361
 51
270.9708056369
  0
ARC
  5
3E5
100
AcDbEntity
  8
BEZUGSACHSEN
100
AcDbCircle
 62
7
  6
CONTINUOUS
 10
760.9601267767
 20
254.9503876727
 40
12.75
100
AcDbArc
 50
134.9044389838
 51
45.0955610162
  0
ARC
  5
3E6
100
AcDbEntity
  8
0
100
AcDbCircle
 62
7
  6
CONTINUOUS
 10
760.9601267767
 20
361.7003876727
 40
9.0
100
AcDbArc
 50
0.0
 51
180.0
  0
ARC
  5
3E7
100
AcDbEntity
  8
0
100
AcDbCircle
 62
7
  6
CONTINUOUS
 10
760.9601267767
 20
258.7003876727
 40
9.0
100
AcDbArc
 50
180.0
 51
360.0
  0
ARC
  5
3E8
100
AcDbEntity
  8
RUNDUNGEN
100
AcDbCircle
 62
7
  6
CONTINUOUS
 10
777.9601267767
 20
236.2003876727
 40
6.0
100
AcDbArc
 50
0.0
 51
63.7605530365
  0
ARC
  5
3E9
100
AcDbEntity
  8
KONSTRUKTIONSELEMENTE
100
AcDbCircle
 62
7
  6
CONTINUOUS
 10
760.9601267767
 20
229.3903876727
 40
5.0
100
AcDbArc
 50
0.0000014742
 51
180.0
  0
ARC
  5
3EA
100
AcDbEntity
  8
RUNDUNGEN
100
AcDbCircle
 62
7
  6
CONTINUOUS
 10
778.7920338585
 20
237.8885271295
 40
4.1180105821
100
AcDbArc
 50
63.7579989501
 51
66.8144241143
  0
ARC
  5
3EB
100
AcDbEntity
  8
KONSTRUKTIONSELEMENTE
100
AcDbCircle
 62
7
  6
CONTINUOUS
 10
760.9601267767
 20
169.6699783655
 40
2.5
100
AcDbArc
 50
180.0
 51
360.0
  0
ARC
  5
3EC
100
AcDbEntity
  8
KONSTRUKTIONSELEMENTE
100
AcDbCircle
 62
7
  6
CONTINUOUS
 10
760.9601267767
 20
192.1845490616
 40
2.5
100
AcDbArc
 50
0.0
 51
180.0
  0
ARC
  5
3ED
100
AcDbEntity
  8
KONSTRUKTIONSELEMENTE
100
AcDbCircle
 62
7
  6
CONTINUOUS
 10
760.9601267767
 20
230.8347149381
 40
2.5
100
AcDbArc
 50
180.0
 51
360.0
  0
ARC
  5
3EE
100
AcDbEntity
  8
KONSTRUKTIONSELEMENTE
100
AcDbCircle
 62
7
  6
CONTINUOUS
 10
760.9601267767
 20
200.2795544457
 40
2.25
100
AcDbArc
 50
180.0
 51
360.0
  0
ARC
  5
3EF
100
AcDbEntity
  8
KONSTRUKTIONSELEMENTE
100
AcDbCircle
 62
7
  6
CONTINUOUS
 10
760.9601267767
 20
222.3861561635
 40
2.25
100
AcDbArc
 50
79.84376417
 51
100.15623583
  0
ARC
  5
3F0
100
AcDbEntity
  8
0
100
AcDbCircle
 62
7
  6
CONTINUOUS
 10
770.9303530091
 20
163.9022701507
 40
1.7033694965
100
AcDbArc
 50
350.5636876715
 51
355.3957076164
  0
ARC
  5
3F1
100
AcDbEntity
  8
0
100
AcDbCircle
 62
7
  6
CONTINUOUS
 10
760.9601267767
 20
447.7003876727
 40
121.0
100
AcDbArc
 50
180.0
 51
265.7342709218
  0
ARC
  5
3F2
100
AcDbEntity
  8
0
100
AcDbCircle
 62
7
  6
CONTINUOUS
 10
760.9601267767
 20
447.7003876727
 40
121.0
100
AcDbArc
 50
274.2657290782
 51
360.0
  0
ARC
  5
3F3
100
AcDbEntity
  8
0
100
AcDbCircle
 62
7
  6
CONTINUOUS
 10
760.9601267767
 20
607.7003876727
 40
121.0
100
AcDbArc
 50
0.0
 51
180.0
  0
ARC
  5
3F4
100
AcDbEntity
  8
0
100
AcDbCircle
 62
7
  6
CONTINUOUS
 10
760.9601267767
 20
447.7003876727
 40
95.0
100
AcDbArc
 50
180.0
 51
264.562973295
  0
ARC
  5
3F5
100
AcDbEntity
  8
0
100
AcDbCircle
 62
7
  6
CONTINUOUS
 10
760.9601267767
 20
447.7003876727
 40
95.0
100
AcDbArc
 50
275.437026705
 51
360.0
  0
ARC
  5
3F6
100
AcDbEntity
  8
0
100
AcDbCircle
 62
7
  6
CONTINUOUS
 10
760.9601267767
 20
607.7003876727
 40
95.0
100
AcDbArc
 50
0.0
 51
180.0
  0
ARC
  5
3F7
100
AcDbEntity
  8
0
100
AcDbCircle
 62
7
  6
CONTINUOUS
 10
340.0502939875
 20
216.1503876727
 40
11.2
100
AcDbArc
 50
283.4238135477
 51
360.0
  0
ARC
  5
3F8
100
AcDbEntity
  8
0
100
AcDbCircle
 62
7
  6
CONTINUOUS
 10
340.0502939875
 20
216.1503876727
 40
11.2
100
AcDbArc
 50
270.0
 51
279.3310985005
  0
ARC
  5
3F9
100
AcDbEntity
  8
RUNDUNGEN
100
AcDbCircle
 62
7
  6
CONTINUOUS
 10
338.4502939875
 20
216.1503876727
 40
11.2
100
AcDbArc
 50
180.0
 51
270.0
  0
ARC
  5
3FA
100
AcDbEntity
  8
BEZUGSACHSEN
100
AcDbCircle
 62
7
  6
CONTINUOUS
 10
339.2502939875
 20
273.9503876727
 40
6.25
100
AcDbArc
 50
151.9275130641
 51
180.0
  0
ARC
  5
3FB
100
AcDbEntity
  8
BEZUGSACHSEN
100
AcDbCircle
 62
7
  6
CONTINUOUS
 10
339.2502939875
 20
273.9503876727
 40
6.25
100
AcDbArc
 50
0.0
 51
28.0724869359
  0
CIRCLE
  5
3FC
100
AcDbEntity
  8
BEZUGSACHSEN
100
AcDbCircle
 62
7
  6
CONTINUOUS
 10
339.2502939875
 20
218.9503876727
 40
5.6906
  0
ARC
  5
3FD
100
AcDbEntity
  8
RUNDUNGEN
100
AcDbCircle
 62
7
  6
CONTINUOUS
 10
333.8502939875
 20
238.6003876727
 40
3.6
100
AcDbArc
 50
103.3859285006
 51
179.9999751696
  0
ARC
  5
3FE
100
AcDbEntity
  8
0
100
AcDbCircle
 62
7
  6
CONTINUOUS
 10
344.6502939875
 20
238.6003876727
 40
3.6
100
AcDbArc
 50
0.0
 51
76.6140714994
  0
ARC
  5
3FF
100
AcDbEntity
  8
KONSTRUKTIONSELEMENTE
100
AcDbCircle
 62
7
  6
CONTINUOUS
 10
351.2711092677
 20
275.6795723926
 40
3.0
100
AcDbArc
 50
45.0
 51
225.0
  0
ARC
  5
400
100
AcDbEntity
  8
RUNDUNGEN
100
AcDbCircle
 62
7
  6
CONTINUOUS
 10
332.3113719914
 20
239.7774174641
 40
2.371751715
100
AcDbArc
 50
49.5447012633
 51
53.0949122135
  0
ARC
  5
401
100
AcDbEntity
  8
0
100
AcDbCircle
 62
7
  6
CONTINUOUS
 10
346.1892159836
 20
239.7774174641
 40
2.371751715
100
AcDbArc
 50
126.9050877865
 51
130.4552987367
  0
ARC
  5
402
100
AcDbEntity
  8
0
100
AcDbCircle
 62
7
  6
CONTINUOUS
 10
339.2502939875
 20
287.7003876727
 40
38.0
100
AcDbArc
 50
180.0
 51
260.5278011496
  0
ARC
  5
403
100
AcDbEntity
  8
0
100
AcDbCircle
 62
7
  6
CONTINUOUS
 10
339.2502939875
 20
287.7003876727
 40
38.0
100
AcDbArc
 50
279.4721988504
 51
310.4705687981
  0
ARC
  5
404
100
AcDbEntity
  8
0
100
AcDbCircle
 62
7
  6
CONTINUOUS
 10
339.2502939875
 20
287.7003876727
 40
38.0
100
AcDbArc
 50
319.5294312019
 51
360.0
  0
ARC
  5
405
100
AcDbEntity
  8
0
100
AcDbCircle
 62
7
  6
CONTINUOUS
 10
339.2502939875
 20
332.7003876727
 40
38.0
100
AcDbArc
 50
0.0
 51
69.9899243063
  0
ARC
  5
406
100
AcDbEntity
  8
0
100
AcDbCircle
 62
7
  6
CONTINUOUS
 10
339.2502939875
 20
332.7003876727
 40
38.0
100
AcDbArc
 50
110.0100756937
 51
180.0
  0
ARC
  5
407
100
AcDbEntity
  8
0
100
AcDbCircle
 62
7
  6
CONTINUOUS
 10
339.2502939875
 20
287.7003876727
 40
20.0
100
AcDbArc
 50
180.0
 51
251.7780468296
  0
ARC
  5
408
100
AcDbEntity
  8
0
100
AcDbCircle
 62
7
  6
CONTINUOUS
 10
339.2502939875
 20
287.7003876727
 40
20.0
100
AcDbArc
 50
288.2219531704
 51
306.3706502024
  0
ARC
  5
409
100
AcDbEntity
  8
0
100
AcDbCircle
 62
7
  6
CONTINUOUS
 10
339.2502939875
 20
287.7003876727
 40
20.0
100
AcDbArc
 50
323.6293497976
 51
360.0
  0
ARC
  5
40A
100
AcDbEntity
  8
0
100
AcDbCircle
 62
7
  6
CONTINUOUS
 10
339.2502939875
 20
332.7003876727
 40
20.0
100
AcDbArc
 50
0.0
 51
49.4486587007
  0
ARC
  5
40B
100
AcDbEntity
  8
0
100
AcDbCircle
 62
7
  6
CONTINUOUS
 10
339.2502939875
 20
332.7003876727
 40
20.0
100
AcDbArc
 50
130.5513412993
 51
180.0
  0
ARC
  5
40C
100
AcDbEntity
  8
0
100
AcDbCircle
 62
7
  6
CONTINUOUS
 10
339.2502939875
 20
339.7003876727
 40
13.0
100
AcDbArc
 50
180.0
 51
360.0
  0
ARC
  5
40D
100
AcDbEntity
  8
KONSTRUKTIONSELEMENTE
100
AcDbCircle
 62
7
  6
CONTINUOUS
 10
389.0659667221
 20
237.8847149381
 40
9.55
100
AcDbArc
 50
328.6297070454
 51
45.0
  0
ARC
  5
40E
100
AcDbEntity
  8
KONSTRUKTIONSELEMENTE
100
AcDbCircle
 62
7
  6
CONTINUOUS
 10
389.0659667221
 20
237.8847149381
 40
9.55
100
AcDbArc
 50
225.0
 51
301.3702929546
  0
ARC
  5
40F
100
AcDbEntity
  8
KONSTRUKTIONSELEMENTE
100
AcDbCircle
 62
7
  6
CONTINUOUS
 10
380.651396026
 20
246.2992856342
 40
9.55
100
AcDbArc
 50
153.3390960058
 51
225.0
  0
ARC
  5
410
100
AcDbEntity
  8
KONSTRUKTIONSELEMENTE
100
AcDbCircle
 62
7
  6
CONTINUOUS
 10
380.651396026
 20
246.2992856342
 40
9.55
100
AcDbArc
 50
45.0
 51
116.6609039942
  0
ARC
  5
411
100
AcDbEntity
  8
KONSTRUKTIONSELEMENTE
100
AcDbCircle
 62
7
  6
CONTINUOUS
 10
389.0659667221
 20
237.8847149381
 40
4.55
100
AcDbArc
 50
344.6522021471
 51
45.0
  0
ARC
  5
412
100
AcDbEntity
  8
KONSTRUKTIONSELEMENTE
100
AcDbCircle
 62
7
  6
CONTINUOUS
 10
389.0659667221
 20
237.8847149381
 40
4.55
100
AcDbArc
 50
225.0
 51
285.3477978529
  0
ARC
  5
413
100
AcDbEntity
  8
KONSTRUKTIONSELEMENTE
100
AcDbCircle
 62
7
  6
CONTINUOUS
 10
380.651396026
 20
246.2992856342
 40
4.55
100
AcDbArc
 50
176.2724010126
 51
225.0
  0
ARC
  5
414
100
AcDbEntity
  8
KONSTRUKTIONSELEMENTE
100
AcDbCircle
 62
7
  6
CONTINUOUS
 10
380.651396026
 20
246.2992856342
 40
4.55
100
AcDbArc
 50
45.0
 51
93.7275989874
  0
ARC
  5
415
100
AcDbEntity
  8
KONSTRUKTIONSELEMENTE
100
AcDbCircle
 62
7
  6
CONTINUOUS
 10
380.2624872963
 20
246.6881943639
 40
3.0
100
AcDbArc
 50
225.0
 51
45.0
  0
ARC
  5
416
100
AcDbEntity
  8
KONSTRUKTIONSELEMENTE
100
AcDbCircle
 62
7
  6
CONTINUOUS
 10
390.6923123188
 20
236.2583693414
 40
2.25
100
AcDbArc
 50
45.0
 51
225.0
  0
ARC
  5
417
100
AcDbEntity
  8
0
100
AcDbCircle
 62
7
  6
CONTINUOUS
 10
339.2502939875
 20
715.7003876727
 40
13.0
100
AcDbArc
 50
0.0
 51
180.0
  0
ARC
  5
418
100
AcDbEntity
  8
KONSTRUKTIONSELEMENTE
100
AcDbCircle
 62
7
  6
CONTINUOUS
 10
450.2307032947
 20
176.7199783655
 40
9.55
100
AcDbArc
 50
330.1951355235
 51
45.0
  0
ARC
  5
419
100
AcDbEntity
  8
KONSTRUKTIONSELEMENTE
100
AcDbCircle
 62
7
  6
CONTINUOUS
 10
450.2307032947
 20
176.7199783655
 40
9.55
100
AcDbArc
 50
225.0
 51
299.8048644765
  0
ARC
  5
41A
100
AcDbEntity
  8
KONSTRUKTIONSELEMENTE
100
AcDbCircle
 62
7
  6
CONTINUOUS
 10
441.8161325986
 20
185.1345490616
 40
9.55
100
AcDbArc
 50
148.6297070454
 51
225.0
  0
ARC
  5
41B
100
AcDbEntity
  8
KONSTRUKTIONSELEMENTE
100
AcDbCircle
 62
7
  6
CONTINUOUS
 10
441.8161325986
 20
185.1345490616
 40
9.55
100
AcDbArc
 50
45.0
 51
121.3702929546
  0
ARC
  5
41C
100
AcDbEntity
  8
KONSTRUKTIONSELEMENTE
100
AcDbCircle
 62
7
  6
CONTINUOUS
 10
420.9211272146
 20
206.0295544457
 40
8.0
100
AcDbArc
 50
331.3642958278
 51
45.0
  0
ARC
  5
41D
100
AcDbEntity
  8
KONSTRUKTIONSELEMENTE
100
AcDbCircle
 62
7
  6
CONTINUOUS
 10
420.9211272146
 20
206.0295544457
 40
8.0
100
AcDbArc
 50
225.0
 51
298.6357041722
  0
ARC
  5
41E
100
AcDbEntity
  8
KONSTRUKTIONSELEMENTE
100
AcDbCircle
 62
7
  6
CONTINUOUS
 10
410.3145254968
 20
216.6361561635
 40
8.0
100
AcDbArc
 50
151.3642958278
 51
225.0
  0
ARC
  5
41F
100
AcDbEntity
  8
KONSTRUKTIONSELEMENTE
100
AcDbCircle
 62
7
  6
CONTINUOUS
 10
410.3145254968
 20
216.6361561635
 40
8.0
100
AcDbArc
 50
45.0
 51
118.6357041722
  0
ARC
  5
420
100
AcDbEntity
  8
KONSTRUKTIONSELEMENTE
100
AcDbCircle
 62
7
  6
CONTINUOUS
 10
450.2307032947
 20
176.7199783655
 40
4.55
100
AcDbArc
 50
348.3583327703
 51
45.0
  0
ARC
  5
421
100
AcDbEntity
  8
KONSTRUKTIONSELEMENTE
100
AcDbCircle
 62
7
  6
CONTINUOUS
 10
450.2307032947
 20
176.7199783655
 40
4.55
100
AcDbArc
 50
225.0
 51
281.6416672297
  0
ARC
  5
422
100
AcDbEntity
  8
KONSTRUKTIONSELEMENTE
100
AcDbCircle
 62
7
  6
CONTINUOUS
 10
441.8161325986
 20
185.1345490616
 40
4.55
100
AcDbArc
 50
164.6522021471
 51
225.0
  0
ARC
  5
423
100
AcDbEntity
  8
KONSTRUKTIONSELEMENTE
100
AcDbCircle
 62
7
  6
CONTINUOUS
 10
441.8161325986
 20
185.1345490616
 40
4.55
100
AcDbArc
 50
45.0
 51
105.3477978529
  0
ARC
  5
424
100
AcDbEntity
  8
KONSTRUKTIONSELEMENTE
100
AcDbCircle
 62
7
  6
CONTINUOUS
 10
420.9211272146
 20
206.0295544457
 40
3.5
100
AcDbArc
 50
355.1538775079
 51
45.0
  0
ARC
  5
425
100
AcDbEntity
  8
KONSTRUKTIONSELEMENTE
100
AcDbCircle
 62
7
  6
CONTINUOUS
 10
420.9211272146
 20
206.0295544457
 40
3.5
100
AcDbArc
 50
225.0
 51
274.8461224921
  0
ARC
  5
426
100
AcDbEntity
  8
KONSTRUKTIONSELEMENTE
100
AcDbCircle
 62
7
  6
CONTINUOUS
 10
410.3145254968
 20
216.6361561635
 40
3.5
100
AcDbArc
 50
175.1538775079
 51
225.0
  0
ARC
  5
427
100
AcDbEntity
  8
KONSTRUKTIONSELEMENTE
100
AcDbCircle
 62
7
  6
CONTINUOUS
 10
410.3145254968
 20
216.6361561635
 40
3.5
100
AcDbArc
 50
45.0
 51
94.8461224921
  0
ARC
  5
428
100
AcDbEntity
  8
KONSTRUKTIONSELEMENTE
100
AcDbCircle
 62
7
  6
CONTINUOUS
 10
409.4306420203
 20
217.52003964
 40
2.25
100
AcDbArc
 50
225.0
 51
45.0
  0
ARC
  5
429
100
AcDbEntity
  8
KONSTRUKTIONSELEMENTE
100
AcDbCircle
 62
7
  6
CONTINUOUS
 10
421.805010691
 20
205.1456709692
 40
2.25
100
AcDbArc
 50
45.0
 51
225.0
  0
ARC
  5
42A
100
AcDbEntity
  8
KONSTRUKTIONSELEMENTE
100
AcDbCircle
 62
7
  6
CONTINUOUS
 10
440.5433403925
 20
186.4073412677
 40
2.25
100
AcDbArc
 50
225.0
 51
45.0
  0
SPLINE
  5
42B
100
AcDbEntity
  8
KONSTRUKTIONSELEMENTE
100
AcDbSpline
 62
7
  6
CONTINUOUS
 70
0
 71
3
 72
13
 73
9
 74
0
 42
0.0000001
 43
0.0000001
 44
0.0000000001
 40
0.0
 40
0.0
 40
0.0
 40
0.0
 40
0.1194785188
 40
0.2392741704
 40
0.3602835725
 40
0.4830059608
 40
0.7355440041
 40
1.0
 40
1.0
 40
1.0
 40
1.0
 10
752.9601267767
 20
201.0798069774
 30
0.0
 10
752.9601267767
 20
201.4384465886
 30
0.0
 10
753.0362222599
 20
202.1589532176
 30
0.0
 10
753.3717984875
 20
203.1944489733
 30
0.0
 10
753.9077829528
 20
204.1527686525
 30
0.0
 10
754.8654785185
 20
205.3031484134
 30
0.0
 10
756.4517971612
 20
206.4424909327
 30
0.0
 10
757.9318506037
 20
206.970016953
 30
0.0
 10
758.7060144562
 20
207.145573098
 30
0.0
  0
SPLINE
  5
42C
100
AcDbEntity
  8
KONSTRUKTIONSELEMENTE
100
AcDbSpline
 62
7
  6
CONTINUOUS
 70
0
 71
3
 72
13
 73
9
 74
0
 42
0.0000001
 43
0.0000001
 44
0.0000000001
 40
0.0
 40
0.0
 40
0.0
 40
0.0
 40
0.2644681654
 40
0.5169944072
 40
0.6397129492
 40
0.760706397
 40
0.8805228501
 40
1.0
 40
1.0
 40
1.0
 40
1.0
 10
763.2122975555
 20
207.1460043103
 30
0.0
 10
763.9866948821
 20
206.9705242061
 30
0.0
 10
765.4671857296
 20
206.4432034774
 30
0.0
 10
767.0540361367
 20
205.303851014
 30
0.0
 10
768.0120080961
 20
204.1534084652
 30
0.0
 10
768.5483248538
 20
203.1949866786
 30
0.0
 10
768.8839391904
 20
202.1592332662
 30
0.0
 10
768.9601267767
 20
201.4385212477
 30
0.0
 10
768.9601267767
 20
201.0798069774
 30
0.0
  0
SPLINE
  5
42D
100
AcDbEntity
  8
KONSTRUKTIONSELEMENTE
100
AcDbSpline
 62
7
  6
CONTINUOUS
 70
0
 71
3
 72
10
 73
6
 74
0
 42
0.0000001
 43
0.0000001
 44
0.0000000001
 40
0.0
 40
0.0
 40
0.0
 40
0.0
 40
0.3116645009
 40
0.6060899939
 40
1.0
 40
1.0
 40
1.0
 40
1.0
 10
757.4601267767
 20
201.0798069774
 30
0.0
 10
757.4601267767
 20
201.2769618238
 30
0.0
 10
757.6476553333
 20
201.6482880185
 30
0.0
 10
758.1049746029
 20
202.0821611083
 30
0.0
 10
758.4833759152
 20
202.3095711417
 30
0.0
 10
758.7081348884
 20
202.4171592727
 30
0.0
  0
SPLINE
  5
42E
100
AcDbEntity
  8
KONSTRUKTIONSELEMENTE
100
AcDbSpline
 62
7
  6
CONTINUOUS
 70
0
 71
3
 72
10
 73
6
 74
0
 42
0.0000001
 43
0.0000001
 44
0.0000000001
 40
0.0
 40
0.0
 40
0.0
 40
0.0
 40
0.3939255147
 40
0.6883533687
 40
1.0
 40
1.0
 40
1.0
 40
1.0
 10
763.2118760123
 20
202.4172712007
 30
0.0
 10
763.4366839182
 20
202.3096813001
 30
0.0
 10
763.8151464399
 20
202.0822357318
 30
0.0
 10
764.2725879575
 20
201.6483579884
 30
0.0
 10
764.4601267767
 20
201.2769782812
 30
0.0
 10
764.4601267767
 20
201.0798069774
 30
0.0
  0
SPLINE
  5
42F
100
AcDbEntity
  8
KONSTRUKTIONSELEMENTE
100
AcDbSpline
 62
7
  6
CONTINUOUS
 70
0
 71
3
 72
10
 73
6
 74
0
 42
0.0000001
 43
0.0000001
 44
0.0000000001
 40
0.0
 40
0.0
 40
0.0
 40
0.0
 40
0.3192646009
 40
0.6086079864
 40
1.0
 40
1.0
 40
1.0
 40
1.0
 10
764.4601267767
 20
190.4732052596
 30
0.0
 10
764.4601267767
 20
190.3014654844
 30
0.0
 10
764.3181109902
 20
189.9806142694
 30
0.0
 10
763.9523049755
 20
189.58726193
 30
0.0
 10
763.6490171428
 20
189.3742220168
 30
0.0
 10
763.4664808417
 20
189.2693074203
 30
0.0
  0
SPLINE
  5
430
100
AcDbEntity
  8
KONSTRUKTIONSELEMENTE
100
AcDbSpline
 62
7
  6
CONTINUOUS
 70
0
 71
3
 72
10
 73
6
 74
0
 42
0.0000001
 43
0.0000001
 44
0.0000000001
 40
0.0
 40
0.0
 40
0.0
 40
0.0
 40
0.3914026107
 40
0.6807340322
 40
1.0
 40
1.0
 40
1.0
 40
1.0
 10
758.4536811757
 20
189.2693598914
 30
0.0
 10
758.2711539322
 20
189.374275301
 30
0.0
 10
757.9679143515
 20
189.5873343724
 30
0.0
 10
757.6020936468
 20
189.980632733
 30
0.0
 10
757.4601267767
 20
190.3014754739
 30
0.0
 10
757.4601267767
 20
190.4732052596
 30
0.0
  0
SPLINE
  5
431
100
AcDbEntity
  8
KONSTRUKTIONSELEMENTE
100
AcDbSpline
 62
7
  6
CONTINUOUS
 70
0
 71
3
 72
13
 73
9
 74
0
 42
0.0000001
 43
0.0000001
 44
0.0000000001
 40
0.0
 40
0.0
 40
0.0
 40
0.0
 40
0.1197290731
 40
0.2397365246
 40
0.3609040964
 40
0.4836831257
 40
0.7359942557
 40
1.0
 40
1.0
 40
1.0
 40
1.0
 10
768.9601267767
 20
190.4732052596
 30
0.0
 10
768.9601267767
 20
190.1239915575
 30
0.0
 10
768.8880231549
 20
189.4226505215
 30
0.0
 10
768.5697378202
 20
188.4124322733
 30
0.0
 10
768.0603542785
 20
187.4738540547
 30
0.0
 10
767.14855375
 20
186.341079548
 30
0.0
 10
765.6326624844
 20
185.2039361319
 30
0.0
 10
764.2097756343
 20
184.6573904079
 30
0.0
 10
763.4635511127
 20
184.4674219173
 30
0.0
  0
SPLINE
  5
432
100
AcDbEntity
  8
KONSTRUKTIONSELEMENTE
100
AcDbSpline
 62
7
  6
CONTINUOUS
 70
0
 71
3
 72
13
 73
9
 74
0
 42
0.0000001
 43
0.0000001
 44
0.0000000001
 40
0.0
 40
0.0
 40
0.0
 40
0.0
 40
0.2640112835
 40
0.5163080567
 40
0.6390830379
 40
0.7602378991
 40
0.8802701562
 40
1.0
 40
1.0
 40
1.0
 40
1.0
 10
758.4557989743
 20
184.4676691069
 30
0.0
 10
757.7096591519
 20
184.6577037082
 30
0.0
 10
756.2869827106
 20
185.2042703394
 30
0.0
 10
754.7713926434
 20
186.3414156803
 30
0.0
 10
753.859802366
 20
187.4740311889
 30
0.0
 10
753.3504114502
 20
188.4125084755
 30
0.0
 10
753.0322747311
 20
189.4226965786
 30
0.0
 10
752.9601267767
 20
190.1240264621
 30
0.0
 10
752.9601267767
 20
190.4732052596
 30
0.0
  0
SPLINE
  5
433
100
AcDbEntity
  8
KONSTRUKTIONSELEMENTE
100
AcDbSpline
 62
7
  6
CONTINUOUS
 70
0
 71
3
 72
10
 73
6
 74
0
 42
0.0000001
 43
0.0000001
 44
0.0000000001
 40
0.0
 40
0.0
 40
0.0
 40
0.0
 40
0.3192646009
 40
0.6086079864
 40
1.0
 40
1.0
 40
1.0
 40
1.0
 10
757.4601267767
 20
232.1925053496
 30
0.0
 10
757.4601267767
 20
232.3642451248
 30
0.0
 10
757.6021425633
 20
232.6850963397
 30
0.0
 10
757.967948578
 20
233.0784486791
 30
0.0
 10
758.2712364107
 20
233.2914885924
 30
0.0
 10
758.4537727117
 20
233.3964031888
 30
0.0
  0
SPLINE
  5
434
100
AcDbEntity
  8
KONSTRUKTIONSELEMENTE
100
AcDbSpline
 62
7
  6
CONTINUOUS
 70
0
 71
3
 72
10
 73
6
 74
0
 42
0.0000001
 43
0.0000001
 44
0.0000000001
 40
0.0
 40
0.0
 40
0.0
 40
0.0
 40
0.3914026107
 40
0.6807340322
 40
1.0
 40
1.0
 40
1.0
 40
1.0
 10
763.4665723778
 20
233.3963507177
 30
0.0
 10
763.6490996213
 20
233.2914353082
 30
0.0
 10
763.952339202
 20
233.0783762367
 30
0.0
 10
764.3181599066
 20
232.6850778761
 30
0.0
 10
764.4601267767
 20
232.3642351352
 30
0.0
 10
764.4601267767
 20
232.1925053496
 30
0.0
  0
SPLINE
  5
435
100
AcDbEntity
  8
KONSTRUKTIONSELEMENTE
100
AcDbSpline
 62
7
  6
CONTINUOUS
 70
0
 71
3
 72
9
 73
5
 74
0
 42
0.0000001
 43
0.0000001
 44
0.0000000001
 40
0.0
 40
0.0
 40
0.0
 40
0.0
 40
0.2518169059
 40
1.0
 40
1.0
 40
1.0
 40
1.0
 10
758.4588061266
 20
243.7862700065
 30
0.0
 10
758.0419882178
 20
243.8190582269
 30
0.0
 10
756.3895172089
 20
243.9819631595
 30
0.0
 10
754.7496815738
 20
244.2759547977
 30
0.0
 10
753.5430357164
 20
244.5712347374
 30
0.0
  0
SPLINE
  5
436
100
AcDbEntity
  8
KONSTRUKTIONSELEMENTE
100
AcDbSpline
 62
7
  6
CONTINUOUS
 70
0
 71
3
 72
9
 73
5
 74
0
 42
0.0000001
 43
0.0000001
 44
0.0000000001
 40
0.0
 40
0.0
 40
0.0
 40
0.0
 40
0.4771280743
 40
1.0
 40
1.0
 40
1.0
 40
1.0
 10
773.6039815799
 20
253.2995665332
 30
0.0
 10
772.1911359943
 20
252.3199620176
 30
0.0
 10
768.898816311
 20
250.7330883026
 30
0.0
 10
765.3377163371
 20
249.9915379341
 30
0.0
 10
763.4624937771
 20
249.8092661349
 30
0.0
  0
SPLINE
  5
437
100
AcDbEntity
  8
KONSTRUKTIONSELEMENTE
100
AcDbSpline
 62
7
  6
CONTINUOUS
 70
0
 71
3
 72
9
 73
5
 74
0
 42
0.0000001
 43
0.0000001
 44
0.0000000001
 40
0.0
 40
0.0
 40
0.0
 40
0.0
 40
0.5228783463
 40
1.0
 40
1.0
 40
1.0
 40
1.0
 10
758.4580999499
 20
249.8092263604
 30
0.0
 10
756.5823986411
 20
249.9915247259
 30
0.0
 10
753.0204222079
 20
250.7332841911
 30
0.0
 10
749.7274238605
 20
252.3208586176
 30
0.0
 10
748.3143840655
 20
253.3008725641
 30
0.0
  0
SPLINE
  5
438
100
AcDbEntity
  8
0
100
AcDbSpline
 62
7
  6
CONTINUOUS
 70
0
 71
3
 72
11
 73
7
 74
0
 42
0.0000001
 43
0.0000001
 44
0.0000000001
 40
0.0
 40
0.0
 40
0.0
 40
0.0
 40
0.2192989281
 40
0.4548225453
 40
0.7152180566
 40
1.0
 40
1.0
 40
1.0
 40
1.0
 10
772.6336190437
 20
163.6172897101
 30
0.0
 10
772.6336190437
 20
163.8484609939
 30
0.0
 10
772.5296680244
 20
164.3324256043
 30
0.0
 10
772.095891781
 20
164.9671302833
 30
0.0
 10
771.4372583692
 20
165.4779776593
 30
0.0
 10
770.9033450674
 20
165.7067381741
 30
0.0
 10
770.6164688332
 20
165.7951785962
 30
0.0
  0
SPLINE
  5
439
100
AcDbEntity
  8
0
100
AcDbSpline
 62
7
  6
CONTINUOUS
 70
0
 71
3
 72
15
 73
11
 74
0
 42
0.0000001
 43
0.0000001
 44
0.0000000001
 40
0.0
 40
0.0
 40
0.0
 40
0.0
 40
0.1047415988
 40
0.222328371
 40
0.3560160977
 40
0.5
 40
0.6439839023
 40
0.777671629
 40
0.8952584012
 40
1.0
 40
1.0
 40
1.0
 40
1.0
 10
762.1749536297
 20
163.0317121902
 30
0.0
 10
762.1749536297
 20
162.890246519
 30
0.0
 10
762.2668441287
 20
162.5864104731
 30
0.0
 10
762.618540145
 20
162.2384684116
 30
0.0
 10
763.113060587
 20
162.0150934666
 30
0.0
 10
763.684607774
 20
161.9378484259
 30
0.0
 10
764.2561549609
 20
162.0150934666
 30
0.0
 10
764.7506754029
 20
162.2384684116
 30
0.0
 10
765.1023714192
 20
162.5864104731
 30
0.0
 10
765.1942619182
 20
162.890246519
 30
0.0
 10
765.1942619182
 20
163.0317121902
 30
0.0
  0
SPLINE
  5
43A
100
AcDbEntity
  8
0
100
AcDbSpline
 62
7
  6
CONTINUOUS
 70
0
 71
3
 72
11
 73
7
 74
0
 42
0.0000001
 43
0.0000001
 44
0.0000000001
 40
0.0
 40
0.0
 40
0.0
 40
0.0
 40
0.2094689415
 40
0.4446609502
 40
0.7120169424
 40
1.0
 40
1.0
 40
1.0
 40
1.0
 10
760.2494835777
 20
164.6962108507
 30
0.0
 10
760.2494611669
 20
164.845602695
 30
0.0
 10
760.1522935534
 20
165.1664452815
 30
0.0
 10
759.7807850603
 20
165.5338627702
 30
0.0
 10
759.2588947786
 20
165.7697694449
 30
0.0
 10
758.8603412175
 20
165.8234628674
 30
0.0
 10
758.6549536297
 20
165.8234628674
 30
0.0
  0
SPLINE
  5
43B
100
AcDbEntity
  8
0
100
AcDbSpline
 62
7
  6
CONTINUOUS
 70
0
 71
3
 72
9
 73
5
 74
0
 42
0.0000001
 43
0.0000001
 44
0.0000000001
 40
0.0
 40
0.0
 40
0.0
 40
0.0
 40
0.4402133985
 40
1.0
 40
1.0
 40
1.0
 40
1.0
 10
751.5103125885
 20
163.0912022649
 30
0.0
 10
751.5103125885
 20
163.0726588938
 30
0.0
 10
751.53887082
 20
163.0322785036
 30
0.0
 10
751.5827323643
 20
163.0233200139
 30
0.0
 10
751.6063125885
 20
163.0233200139
 30
0.0
  0
SPLINE
  5
43C
100
AcDbEntity
  8
0
100
AcDbSpline
 62
7
  6
CONTINUOUS
 70
0
 71
3
 72
9
 73
5
 74
0
 42
0.0000001
 43
0.0000001
 44
0.0000000001
 40
0.0
 40
0.0
 40
0.0
 40
0.0
 40
0.4402133985
 40
1.0
 40
1.0
 40
1.0
 40
1.0
 10
752.1703125885
 20
163.1251433904
 30
0.0
 10
752.1703125885
 20
163.1436867615
 30
0.0
 10
752.1417543571
 20
163.1840671517
 30
0.0
 10
752.0978928128
 20
163.1930256414
 30
0.0
 10
752.0743125885
 20
163.1930256414
 30
0.0
  0
SPLINE
  5
43D
100
AcDbEntity
  8
RUNDUNGEN
100
AcDbSpline
 62
7
  6
CONTINUOUS
 70
0
 71
3
 72
9
 73
5
 74
0
 42
0.0000001
 43
0.0000001
 44
0.0000000001
 40
0.0
 40
0.0
 40
0.0
 40
0.0
 40
0.5194633901
 40
1.0
 40
1.0
 40
1.0
 40
1.0
 10
787.7367349539
 20
134.2816288779
 30
0.0
 10
787.9574294811
 20
134.0587598166
 30
0.0
 10
788.3218138089
 20
133.5588249925
 30
0.0
 10
788.4601267767
 20
132.9494564329
 30
0.0
 10
788.4601267767
 20
132.6593097272
 30
0.0
  0
SPLINE
  5
43E
100
AcDbEntity
  8
0
100
AcDbSpline
 62
7
  6
CONTINUOUS
 70
0
 71
3
 72
9
 73
5
 74
0
 42
0.0000001
 43
0.0000001
 44
0.0000000001
 40
0.0
 40
0.0
 40
0.0
 40
0.0
 40
0.4402133985
 40
1.0
 40
1.0
 40
1.0
 40
1.0
 10
752.1703125885
 20
164.8221996652
 30
0.0
 10
752.1703125885
 20
164.8407430363
 30
0.0
 10
752.1417543571
 20
164.8811234266
 30
0.0
 10
752.0978928128
 20
164.8900819162
 30
0.0
 10
752.0743125885
 20
164.8900819162
 30
0.0
  0
SPLINE
  5
43F
100
AcDbEntity
  8
RUNDUNGEN
100
AcDbSpline
 62
7
  6
CONTINUOUS
 70
0
 71
3
 72
10
 73
6
 74
0
 42
0.0000001
 43
0.0000001
 44
0.0000000001
 40
0.0
 40
0.0
 40
0.0
 40
0.0
 40
0.5349737816
 40
0.7734707301
 40
1.0
 40
1.0
 40
1.0
 40
1.0
 10
796.5835770322
 20
179.0510386619
 30
0.0
 10
796.7278331096
 20
178.9796143767
 30
0.0
 10
796.9240508622
 20
178.832999356
 30
0.0
 10
797.0703975441
 20
178.565535216
 30
0.0
 10
797.0952360377
 20
178.4245832902
 30
0.0
 10
797.0952766209
 20
178.3564223009
 30
0.0
  0
SPLINE
  5
440
100
AcDbEntity
  8
RUNDUNGEN
100
AcDbSpline
 62
7
  6
CONTINUOUS
 70
0
 71
3
 72
10
 73
6
 74
0
 42
0.0000001
 43
0.0000001
 44
0.0000000001
 40
0.0
 40
0.0
 40
0.0
 40
0.0
 40
0.4809192537
 40
0.7459271807
 40
1.0
 40
1.0
 40
1.0
 40
1.0
 10
789.0144081366
 20
181.7628353199
 30
0.0
 10
789.2136702809
 20
181.9640608221
 30
0.0
 10
789.6629336404
 20
182.1367953293
 30
0.0
 10
790.2524519687
 20
182.126413379
 30
0.0
 10
790.5516049777
 20
182.0375977045
 30
0.0
 10
790.6856823133
 20
181.9712131331
 30
0.0
  0
SPLINE
  5
441
100
AcDbEntity
  8
0
100
AcDbSpline
 62
7
  6
CONTINUOUS
 70
0
 71
3
 72
9
 73
5
 74
0
 42
0.0000001
 43
0.0000001
 44
0.0000000001
 40
0.0
 40
0.0
 40
0.0
 40
0.0
 40
0.2423574743
 40
1.0
 40
1.0
 40
1.0
 40
1.0
 10
767.843044013
 20
178.1352307256
 30
0.0
 10
767.5104668121
 20
178.2998968477
 30
0.0
 10
766.1093049075
 20
178.9202110549
 30
0.0
 10
764.609632604
 20
179.3103020086
 30
0.0
 10
763.4624511438
 20
179.4832170392
 30
0.0
  0
SPLINE
  5
442
100
AcDbEntity
  8
0
100
AcDbSpline
 62
7
  6
CONTINUOUS
 70
0
 71
3
 72
9
 73
5
 74
0
 42
0.0000001
 43
0.0000001
 44
0.0000000001
 40
0.0
 40
0.0
 40
0.0
 40
0.0
 40
0.2572745118
 40
1.0
 40
1.0
 40
1.0
 40
1.0
 10
758.4578024097
 20
179.4832170392
 30
0.0
 10
758.0682849864
 20
179.4245049527
 30
0.0
 10
756.5633719464
 20
179.1420958283
 30
0.0
 10
755.0963328459
 20
178.6398205837
 30
0.0
 10
754.0772095405
 20
178.1352307256
 30
0.0
  0
SPLINE
  5
443
100
AcDbEntity
  8
RUNDUNGEN
100
AcDbSpline
 62
7
  6
CONTINUOUS
 70
0
 71
3
 72
12
 73
8
 74
0
 42
0.0000001
 43
0.0000001
 44
0.0000000001
 40
0.0
 40
0.0
 40
0.0
 40
0.0
 40
0.2522580801
 40
0.5153826073
 40
0.6451774922
 40
0.770453943
 40
1.0
 40
1.0
 40
1.0
 40
1.0
 10
729.2686063339
 20
180.9978216427
 30
0.0
 10
730.3859047734
 20
181.5510201204
 30
0.0
 10
732.8696086399
 20
182.2936102948
 30
0.0
 10
736.0976812409
 20
182.3402781794
 30
0.0
 10
738.6201599816
 20
181.8462210411
 30
0.0
 10
740.8812238635
 20
181.0459239186
 30
0.0
 10
742.3976218648
 20
180.0674746005
 30
0.0
 10
743.1958911403
 20
179.261339866
 30
0.0
  0
SPLINE
  5
444
100
AcDbEntity
  8
0
100
AcDbSpline
 62
7
  6
CONTINUOUS
 70
0
 71
3
 72
11
 73
7
 74
0
 42
0.0000001
 43
0.0000001
 44
0.0000000001
 40
0.0
 40
0.0
 40
0.0
 40
0.0
 40
0.2094668498
 40
0.4446559298
 40
0.7120302568
 40
1.0
 40
1.0
 40
1.0
 40
1.0
 10
750.8503125885
 20
163.9567009651
 30
0.0
 10
750.8503125885
 20
163.9342129053
 30
0.0
 10
750.8649169589
 20
163.8859097478
 30
0.0
 10
750.9208422821
 20
163.8305952041
 30
0.0
 10
750.9994002742
 20
163.7950781624
 30
0.0
 10
751.059396571
 20
163.7869953376
 30
0.0
 10
751.0903125885
 20
163.7869953376
 30
0.0
  0
SPLINE
  5
445
100
AcDbEntity
  8
0
100
AcDbSpline
 62
7
  6
CONTINUOUS
 70
0
 71
3
 72
11
 73
7
 74
0
 42
0.0000001
 43
0.0000001
 44
0.0000000001
 40
0.0
 40
0.0
 40
0.0
 40
0.0
 40
0.2094668498
 40
0.4446559298
 40
0.7120302568
 40
1.0
 40
1.0
 40
1.0
 40
1.0
 10
750.8503125885
 20
162.2596446902
 30
0.0
 10
750.8503125885
 20
162.2371566304
 30
0.0
 10
750.8649169589
 20
162.188853473
 30
0.0
 10
750.9208422821
 20
162.1335389293
 30
0.0
 10
750.9994002742
 20
162.0980218875
 30
0.0
 10
751.059396571
 20
162.0899390627
 30
0.0
 10
751.0903125885
 20
162.0899390627
 30
0.0
  0
SPLINE
  5
446
100
AcDbEntity
  8
0
100
AcDbSpline
 62
7
  6
CONTINUOUS
 70
0
 71
3
 72
9
 73
5
 74
0
 42
0.0000001
 43
0.0000001
 44
0.0000000001
 40
0.0
 40
0.0
 40
0.0
 40
0.0
 40
0.2432035461
 40
1.0
 40
1.0
 40
1.0
 40
1.0
 10
754.0903125885
 20
165.4840516124
 30
0.0
 10
754.0903125885
 20
165.4973697057
 30
0.0
 10
754.0857589072
 20
165.5521327217
 30
0.0
 10
754.0622259043
 20
165.6045190702
 30
0.0
 10
754.0379965486
 20
165.6381413989
 30
0.0
  0
SPLINE
  5
447
100
AcDbEntity
  8
0
100
AcDbSpline
 62
7
  6
CONTINUOUS
 70
0
 71
3
 72
9
 73
5
 74
0
 42
0.0000001
 43
0.0000001
 44
0.0000000001
 40
0.0
 40
0.0
 40
0.0
 40
0.0
 40
0.2250156934
 40
1.0
 40
1.0
 40
1.0
 40
1.0
 10
754.0379965486
 20
165.6381413989
 30
0.0
 10
754.0171198979
 20
165.6671112822
 30
0.0
 10
753.9025343862
 20
165.7800717118
 30
0.0
 10
753.7332970647
 20
165.8234628674
 30
0.0
 10
753.6103125885
 20
165.8234628674
 30
0.0
  0
SPLINE
  5
448
100
AcDbEntity
  8
RUNDUNGEN
100
AcDbSpline
 62
7
  6
CONTINUOUS
 70
0
 71
3
 72
10
 73
6
 74
0
 42
0.0000001
 43
0.0000001
 44
0.0000000001
 40
0.0
 40
0.0
 40
0.0
 40
0.0
 40
0.2265435863
 40
0.4650408478
 40
1.0
 40
1.0
 40
1.0
 40
1.0
 10
734.1169161104
 20
168.9729448262
 30
0.0
 10
734.1169590672
 20
169.0411089423
 30
0.0
 10
734.1418018351
 20
169.182062301
 30
0.0
 10
734.2881552278
 20
169.4495164653
 30
0.0
 10
734.4843651535
 20
169.5961245271
 30
0.0
 10
734.6286147902
 20
169.6675456234
 30
0.0
  0
SPLINE
  5
449
100
AcDbEntity
  8
RUNDUNGEN
100
AcDbSpline
 62
7
  6
CONTINUOUS
 70
0
 71
3
 72
9
 73
5
 74
0
 42
0.0000001
 43
0.0000001
 44
0.0000000001
 40
0.0
 40
0.0
 40
0.0
 40
0.0
 40
0.4805181646
 40
1.0
 40
1.0
 40
1.0
 40
1.0
 10
734.1169150764
 20
165.4373771701
 30
0.0
 10
734.1168658634
 20
165.3502679824
 30
0.0
 10
734.1582603512
 20
165.1672765773
 30
0.0
 10
734.2676612208
 20
165.0171581507
 30
0.0
 10
734.3339240606
 20
164.9502424138
 30
0.0
  0
SPLINE
  5
44A
100
AcDbEntity
  8
RUNDUNGEN
100
AcDbSpline
 62
7
  6
CONTINUOUS
 70
0
 71
3
 72
11
 73
7
 74
0
 42
0.0000001
 43
0.0000001
 44
0.0000000001
 40
0.0
 40
0.0
 40
0.0
 40
0.0
 40
0.2256919297
 40
0.4632773963
 40
0.7205986282
 40
1.0
 40
1.0
 40
1.0
 40
1.0
 10
725.9246099315
 20
177.8692390702
 30
0.0
 10
725.924566066
 20
178.0966065507
 30
0.0
 10
726.0067894216
 20
178.5666820726
 30
0.0
 10
726.3604418695
 20
179.2129558244
 30
0.0
 10
726.9147251402
 20
179.7736431472
 30
0.0
 10
727.3780524367
 20
180.0617677641
 30
0.0
 10
727.6303022453
 20
180.1866620674
 30
0.0
  0
SPLINE
  5
44B
100
AcDbEntity
  8
RUNDUNGEN
100
AcDbSpline
 62
7
  6
CONTINUOUS
 70
0
 71
3
 72
9
 73
5
 74
0
 42
0.0000001
 43
0.0000001
 44
0.0000000001
 40
0.0
 40
0.0
 40
0.0
 40
0.0
 40
0.4805188659
 40
1.0
 40
1.0
 40
1.0
 40
1.0
 10
725.9246099315
 20
174.3337051642
 30
0.0
 10
725.9246658913
 20
174.0436494873
 30
0.0
 10
726.0630757027
 20
173.4344907539
 30
0.0
 10
726.427358838
 20
172.9347121313
 30
0.0
 10
726.6479998135
 20
172.7118971494
 30
0.0
  0
SPLINE
  5
44C
100
AcDbEntity
  8
RUNDUNGEN
100
AcDbSpline
 62
7
  6
CONTINUOUS
 70
0
 71
3
 72
11
 73
7
 74
0
 42
0.0000001
 43
0.0000001
 44
0.0000000001
 40
0.0
 40
0.0
 40
0.0
 40
0.0
 40
0.237780559
 40
0.4809056754
 40
0.7339193747
 40
1.0
 40
1.0
 40
1.0
 40
1.0
 10
773.375618552
 20
147.9241127673
 30
0.0
 10
773.3756185673
 20
148.356895591
 30
0.0
 10
773.4716263797
 20
149.2349839512
 30
0.0
 10
773.8973221709
 20
150.5107686551
 30
0.0
 10
774.591679146
 20
151.7212575392
 30
0.0
 10
775.2050310627
 20
152.4469493155
 30
0.0
 10
775.5457940205
 20
152.7910698585
 30
0.0
  0
SPLINE
  5
44D
100
AcDbEntity
  8
RUNDUNGEN
100
AcDbSpline
 62
7
  6
CONTINUOUS
 70
0
 71
3
 72
9
 73
5
 74
0
 42
0.0000001
 43
0.0000001
 44
0.0000000001
 40
0.0
 40
0.0
 40
0.0
 40
0.0
 40
0.4843491198
 40
1.0
 40
1.0
 40
1.0
 40
1.0
 10
773.6392330706
 20
149.6909214331
 30
0.0
 10
773.8100185445
 20
149.1243636776
 30
0.0
 10
774.3284072796
 20
148.0004843377
 30
0.0
 10
775.1025191645
 20
147.0403313656
 30
0.0
 10
775.5457940205
 20
146.5926888603
 30
0.0
  0
SPLINE
  5
44E
100
AcDbEntity
  8
RUNDUNGEN
100
AcDbSpline
 62
7
  6
CONTINUOUS
 70
0
 71
3
 72
9
 73
5
 74
0
 42
0.0000001
 43
0.0000001
 44
0.0000000001
 40
0.0
 40
0.0
 40
0.0
 40
0.0
 40
0.4805364547
 40
1.0
 40
1.0
 40
1.0
 40
1.0
 10
733.4601267767
 20
132.6593097272
 30
0.0
 10
733.4601267767
 20
132.9494563393
 30
0.0
 10
733.5984396947
 20
133.5588248955
 30
0.0
 10
733.9628240063
 20
134.0587597499
 30
0.0
 10
734.1835185996
 20
134.2816288779
 30
0.0
  0
SPLINE
  5
44F
100
AcDbEntity
  8
BEZUGSACHSEN
100
AcDbSpline
 62
7
  6
CONTINUOUS
 70
0
 71
3
 72
9
 73
5
 74
0
 42
0.0000001
 43
0.0000001
 44
0.0000000001
 40
0.0
 40
0.0
 40
0.0
 40
0.0
 40
0.2346500853
 40
1.0
 40
1.0
 40
1.0
 40
1.0
 10
756.631377506
 20
171.8899256118
 30
0.0
 10
756.7427681285
 20
171.7536522717
 30
0.0
 10
757.2613603109
 20
171.2087979639
 30
0.0
 10
757.9263492584
 20
170.8157276556
 30
0.0
 10
758.4577348387
 20
170.5984936474
 30
0.0
  0
SPLINE
  5
450
100
AcDbEntity
  8
BEZUGSACHSEN
100
AcDbSpline
 62
7
  6
CONTINUOUS
 70
0
 71
3
 72
9
 73
5
 74
0
 42
0.0000001
 43
0.0000001
 44
0.0000000001
 40
0.0
 40
0.0
 40
0.0
 40
0.0
 40
0.2668229076
 40
1.0
 40
1.0
 40
1.0
 40
1.0
 10
763.4625187147
 20
170.5984936474
 30
0.0
 10
763.6476831669
 20
170.674190124
 30
0.0
 10
764.3256949874
 20
170.992640208
 30
0.0
 10
764.9410023633
 20
171.4643430282
 30
0.0
 10
765.2888760475
 20
171.8899256118
 30
0.0
  0
SPLINE
  5
451
100
AcDbEntity
  8
BEZUGSACHSEN
100
AcDbSpline
 62
7
  6
CONTINUOUS
 70
0
 71
3
 72
11
 73
7
 74
0
 42
0.0000001
 43
0.0000001
 44
0.0000000001
 40
0.0
 40
0.0
 40
0.0
 40
0.0
 40
0.2228273727
 40
0.4593732167
 40
0.7180073661
 40
1.0
 40
1.0
 40
1.0
 40
1.0
 10
765.9601267767
 20
170.1238349697
 30
0.0
 10
765.9601267767
 20
170.4339455071
 30
0.0
 10
765.8362554788
 20
171.0784820091
 30
0.0
 10
765.310275676
 20
171.9479326039
 30
0.0
 10
764.4966892195
 20
172.6796907726
 30
0.0
 10
763.8257869657
 20
173.0362036877
 30
0.0
 10
763.4625187147
 20
173.184710198
 30
0.0
  0
SPLINE
  5
452
100
AcDbEntity
  8
BEZUGSACHSEN
100
AcDbSpline
 62
7
  6
CONTINUOUS
 70
0
 71
3
 72
11
 73
7
 74
0
 42
0.0000001
 43
0.0000001
 44
0.0000000001
 40
0.0
 40
0.0
 40
0.0
 40
0.0
 40
0.2819926339
 40
0.5406267833
 40
0.7771726273
 40
1.0
 40
1.0
 40
1.0
 40
1.0
 10
758.4577348387
 20
173.184710198
 30
0.0
 10
758.0944665878
 20
173.0362036877
 30
0.0
 10
757.423564334
 20
172.6796907726
 30
0.0
 10
756.6099778774
 20
171.9479326039
 30
0.0
 10
756.0839980747
 20
171.0784820091
 30
0.0
 10
755.9601267767
 20
170.4339455071
 30
0.0
 10
755.9601267767
 20
170.1238349697
 30
0.0
  0
SPLINE
  5
453
100
AcDbEntity
  8
RUNDUNGEN
100
AcDbSpline
 62
7
  6
CONTINUOUS
 70
0
 71
3
 72
13
 73
9
 74
0
 42
0.0000001
 43
0.0000001
 44
0.0000000001
 40
0.0
 40
0.0
 40
0.0
 40
0.0
 40
0.1034546555
 40
0.2106690395
 40
0.3244963599
 40
0.4464318111
 40
0.7129511617
 40
1.0
 40
1.0
 40
1.0
 40
1.0
 10
733.4601267767
 20
124.3587212186
 30
0.0
 10
733.4601267767
 20
124.1730150135
 30
0.0
 10
733.5140193477
 20
123.7929248768
 30
0.0
 10
733.7498501559
 20
123.2535901986
 30
0.0
 10
734.1281474277
 20
122.7610149763
 30
0.0
 10
734.8195964147
 20
122.1738022821
 30
0.0
 10
735.9461088607
 20
121.6644626567
 30
0.0
 10
736.9448599653
 20
121.5302940939
 30
0.0
 10
737.4601267767
 20
121.5302940939
 30
0.0
  0
SPLINE
  5
454
100
AcDbEntity
  8
RUNDUNGEN
100
AcDbSpline
 62
7
  6
CONTINUOUS
 70
0
 71
3
 72
10
 73
6
 74
0
 42
0.0000001
 43
0.0000001
 44
0.0000000001
 40
0.0
 40
0.0
 40
0.0
 40
0.0
 40
0.4808964563
 40
0.7459158441
 40
1.0
 40
1.0
 40
1.0
 40
1.0
 10
728.5408020535
 20
170.8004448638
 30
0.0
 10
728.7400548899
 20
170.5992287612
 30
0.0
 10
729.1893056593
 20
170.4264909546
 30
0.0
 10
729.7788253497
 20
170.4368621034
 30
0.0
 10
730.0779928194
 20
170.5256794713
 30
0.0
 10
730.2120762303
 20
170.5920670506
 30
0.0
  0
SPLINE
  5
455
100
AcDbEntity
  8
RUNDUNGEN
100
AcDbSpline
 62
7
  6
CONTINUOUS
 70
0
 71
3
 72
9
 73
5
 74
0
 42
0.0000001
 43
0.0000001
 44
0.0000000001
 40
0.0
 40
0.0
 40
0.0
 40
0.0
 40
0.5194816775
 40
1.0
 40
1.0
 40
1.0
 40
1.0
 10
796.8782677617
 20
174.3337354523
 30
0.0
 10
796.9445362058
 20
174.4006568487
 30
0.0
 10
797.0539452128
 20
174.5507900049
 30
0.0
 10
797.0953325311
 20
174.7338010033
 30
0.0
 10
797.0952756307
 20
174.8209176089
 30
0.0
  0
SPLINE
  5
456
100
AcDbEntity
  8
RUNDUNGEN
100
AcDbSpline
 62
7
  6
CONTINUOUS
 70
0
 71
3
 72
13
 73
9
 74
0
 42
0.0000001
 43
0.0000001
 44
0.0000000001
 40
0.0
 40
0.0
 40
0.0
 40
0.0
 40
0.2870490624
 40
0.5535683755
 40
0.6755038246
 40
0.7893311355
 40
0.8965454157
 40
1.0
 40
1.0
 40
1.0
 40
1.0
 10
784.4601267767
 20
121.5302940939
 30
0.0
 10
784.9753939903
 20
121.5302940939
 30
0.0
 10
785.9741454533
 20
121.6644627844
 30
0.0
 10
787.1006580646
 20
122.1738028539
 30
0.0
 10
787.7921068281
 20
122.7610156857
 30
0.0
 10
788.1704037599
 20
123.2535909046
 30
0.0
 10
788.4062343197
 20
123.792925315
 30
0.0
 10
788.4601267767
 20
124.1730151413
 30
0.0
 10
788.4601267767
 20
124.3587212186
 30
0.0
  0
SPLINE
  5
457
100
AcDbEntity
  8
RUNDUNGEN
100
AcDbSpline
 62
7
  6
CONTINUOUS
 70
0
 71
3
 72
9
 73
5
 74
0
 42
0.0000001
 43
0.0000001
 44
0.0000000001
 40
0.0
 40
0.0
 40
0.0
 40
0.0
 40
0.4729729907
 40
1.0
 40
1.0
 40
1.0
 40
1.0
 10
769.133808458
 20
129.8074698798
 30
0.0
 10
769.5283536955
 20
129.4090371328
 30
0.0
 10
770.591711066
 20
128.7924386464
 30
0.0
 10
771.7856067631
 20
128.6013619057
 30
0.0
 10
772.4104166352
 20
128.6013619057
 30
0.0
  0
SPLINE
  5
458
100
AcDbEntity
  8
RUNDUNGEN
100
AcDbSpline
 62
7
  6
CONTINUOUS
 70
0
 71
3
 72
9
 73
5
 74
0
 42
0.0000001
 43
0.0000001
 44
0.0000000001
 40
0.0
 40
0.0
 40
0.0
 40
0.0
 40
0.5270273161
 40
1.0
 40
1.0
 40
1.0
 40
1.0
 10
749.5098369183
 20
128.6013619057
 30
0.0
 10
750.1346471549
 20
128.6013619057
 30
0.0
 10
751.3285428896
 20
128.7924387618
 30
0.0
 10
752.3919001134
 20
129.4090373908
 30
0.0
 10
752.7864450955
 20
129.8074698798
 30
0.0
  0
SPLINE
  5
459
100
AcDbEntity
  8
0
100
AcDbSpline
 62
7
  6
CONTINUOUS
 70
0
 71
3
 72
11
 73
7
 74
0
 42
0.0000001
 43
0.0000001
 44
0.0000000001
 40
0.0
 40
0.0
 40
0.0
 40
0.0
 40
0.2880052506
 40
0.5553344723
 40
0.7905070702
 40
1.0
 40
1.0
 40
1.0
 40
1.0
 10
749.7703125885
 20
165.8234628674
 30
0.0
 10
749.7084733625
 20
165.8234628674
 30
0.0
 10
749.5884766273
 20
165.8073095478
 30
0.0
 10
749.4313941132
 20
165.7362335233
 30
0.0
 10
749.3195147689
 20
165.6256486077
 30
0.0
 10
749.2903125885
 20
165.5290330168
 30
0.0
 10
749.2903125885
 20
165.4840516124
 30
0.0
  0
SPLINE
  5
45A
100
AcDbEntity
  8
0
100
AcDbSpline
 62
7
  6
CONTINUOUS
 70
0
 71
3
 72
11
 73
7
 74
0
 42
0.0000001
 43
0.0000001
 44
0.0000000001
 40
0.0
 40
0.0
 40
0.0
 40
0.0
 40
0.2879697432
 40
0.5553440702
 40
0.7905331502
 40
1.0
 40
1.0
 40
1.0
 40
1.0
 10
752.2903125885
 20
163.7869953376
 30
0.0
 10
752.3212286061
 20
163.7869953376
 30
0.0
 10
752.3812249029
 20
163.7950781624
 30
0.0
 10
752.459782895
 20
163.8305952041
 30
0.0
 10
752.5157082181
 20
163.8859097478
 30
0.0
 10
752.5303125885
 20
163.9342129053
 30
0.0
 10
752.5303125885
 20
163.9567009651
 30
0.0
  0
SPLINE
  5
45B
100
AcDbEntity
  8
0
100
AcDbSpline
 62
7
  6
CONTINUOUS
 70
0
 71
3
 72
11
 73
7
 74
0
 42
0.0000001
 43
0.0000001
 44
0.0000000001
 40
0.0
 40
0.0
 40
0.0
 40
0.0
 40
0.2879697432
 40
0.5553440702
 40
0.7905331502
 40
1.0
 40
1.0
 40
1.0
 40
1.0
 10
752.2903125885
 20
162.0899390627
 30
0.0
 10
752.3212286061
 20
162.0899390627
 30
0.0
 10
752.3812249029
 20
162.0980218875
 30
0.0
 10
752.459782895
 20
162.1335389293
 30
0.0
 10
752.5157082181
 20
162.188853473
 30
0.0
 10
752.5303125885
 20
162.2371566304
 30
0.0
 10
752.5303125885
 20
162.2596446902
 30
0.0
  0
SPLINE
  5
45C
100
AcDbEntity
  8
0
100
AcDbSpline
 62
7
  6
CONTINUOUS
 70
0
 71
3
 72
9
 73
5
 74
0
 42
0.0000001
 43
0.0000001
 44
0.0000000001
 40
0.0
 40
0.0
 40
0.0
 40
0.0
 40
0.5597866015
 40
1.0
 40
1.0
 40
1.0
 40
1.0
 10
751.3063125885
 20
164.8900819162
 30
0.0
 10
751.2827323643
 20
164.8900819162
 30
0.0
 10
751.23887082
 20
164.8811234266
 30
0.0
 10
751.2103125885
 20
164.8407430363
 30
0.0
 10
751.2103125885
 20
164.8221996652
 30
0.0
  0
SPLINE
  5
45D
100
AcDbEntity
  8
0
100
AcDbSpline
 62
7
  6
CONTINUOUS
 70
0
 71
3
 72
9
 73
5
 74
0
 42
0.0000001
 43
0.0000001
 44
0.0000000001
 40
0.0
 40
0.0
 40
0.0
 40
0.0
 40
0.5597866015
 40
1.0
 40
1.0
 40
1.0
 40
1.0
 10
751.3063125885
 20
163.1930256414
 30
0.0
 10
751.2827323643
 20
163.1930256414
 30
0.0
 10
751.23887082
 20
163.1840671517
 30
0.0
 10
751.2103125885
 20
163.1436867615
 30
0.0
 10
751.2103125885
 20
163.1251433904
 30
0.0
  0
SPLINE
  5
45E
100
AcDbEntity
  8
0
100
AcDbSpline
 62
7
  6
CONTINUOUS
 70
0
 71
3
 72
9
 73
5
 74
0
 42
0.0000001
 43
0.0000001
 44
0.0000000001
 40
0.0
 40
0.0
 40
0.0
 40
0.0
 40
0.5597866015
 40
1.0
 40
1.0
 40
1.0
 40
1.0
 10
751.7743125885
 20
163.0233200139
 30
0.0
 10
751.7978928128
 20
163.0233200139
 30
0.0
 10
751.8417543571
 20
163.0322785036
 30
0.0
 10
751.8703125885
 20
163.0726588938
 30
0.0
 10
751.8703125885
 20
163.0912022649
 30
0.0
  0
SPLINE
  5
45F
100
AcDbEntity
  8
0
100
AcDbSpline
 62
7
  6
CONTINUOUS
 70
0
 71
3
 72
11
 73
7
 74
0
 42
0.0000001
 43
0.0000001
 44
0.0000000001
 40
0.0
 40
0.0
 40
0.0
 40
0.0
 40
0.2880001164
 40
0.5553425139
 40
0.7905343079
 40
1.0
 40
1.0
 40
1.0
 40
1.0
 10
758.6549536297
 20
164.0832258932
 30
0.0
 10
758.7665885454
 20
164.0832258932
 30
0.0
 10
758.9832103192
 20
164.1124059091
 30
0.0
 10
759.2668296697
 20
164.2406659426
 30
0.0
 10
759.468760601
 20
164.4403567425
 30
0.0
 10
759.5214720372
 20
164.6147641945
 30
0.0
 10
759.5214720372
 20
164.6959575119
 30
0.0
  0
SPLINE
  5
460
100
AcDbEntity
  8
0
100
AcDbSpline
 62
7
  6
CONTINUOUS
 70
0
 71
3
 72
8
 73
4
 74
0
 42
0.0000001
 43
0.0000001
 44
0.0000000001
 40
0.0
 40
0.0
 40
0.0
 40
0.0
 40
1.0
 40
1.0
 40
1.0
 40
1.0
 10
770.6164688332
 20
165.7951785962
 30
0.0
 10
770.5547017044
 20
165.8142206439
 30
0.0
 10
770.4892713037
 20
165.8234628674
 30
0.0
 10
770.4246355723
 20
165.8234628674
 30
0.0
  0
SPLINE
  5
461
100
AcDbEntity
  8
0
100
AcDbSpline
 62
7
  6
CONTINUOUS
 70
0
 71
3
 72
11
 73
7
 74
0
 42
0.0000001
 43
0.0000001
 44
0.0000000001
 40
0.0
 40
0.0
 40
0.0
 40
0.0
 40
0.2779817175
 40
0.5346952233
 40
0.772857858
 40
1.0
 40
1.0
 40
1.0
 40
1.0
 10
770.5873840123
 20
162.0117716222
 30
0.0
 10
770.7556279452
 20
162.1028758293
 30
0.0
 10
771.0638782935
 20
162.3097185744
 30
0.0
 10
771.4301859765
 20
162.7028747303
 30
0.0
 10
771.6625418758
 20
163.1498839717
 30
0.0
 10
771.7163385277
 20
163.4722679189
 30
0.0
 10
771.7163385277
 20
163.6286034186
 30
0.0
  0
SPLINE
  5
462
100
AcDbEntity
  8
0
100
AcDbSpline
 62
7
  6
CONTINUOUS
 70
0
 71
3
 72
9
 73
5
 74
0
 42
0.0000001
 43
0.0000001
 44
0.0000000001
 40
0.0
 40
0.0
 40
0.0
 40
0.0
 40
0.2591205677
 40
1.0
 40
1.0
 40
1.0
 40
1.0
 10
770.4414647546
 20
161.9768019778
 30
0.0
 10
770.4544965513
 20
161.9768019778
 30
0.0
 10
770.5046994214
 20
161.9796781936
 30
0.0
 10
770.5546187812
 20
161.9940292267
 30
0.0
 10
770.5873840123
 20
162.0117716222
 30
0.0
  0
SPLINE
  5
463
100
AcDbEntity
  8
RUNDUNGEN
100
AcDbSpline
 62
7
  6
CONTINUOUS
 70
0
 71
3
 72
13
 73
9
 74
0
 42
0.0000001
 43
0.0000001
 44
0.0000000001
 40
0.0
 40
0.0
 40
0.0
 40
0.0
 40
0.1034546555
 40
0.2106690395
 40
0.3244963599
 40
0.4464318111
 40
0.7129511617
 40
1.0
 40
1.0
 40
1.0
 40
1.0
 10
740.0601267767
 20
125.772934781
 30
0.0
 10
740.0601267767
 20
125.9586409861
 30
0.0
 10
740.1140193477
 20
126.3387311228
 30
0.0
 10
740.3498501559
 20
126.8780658011
 30
0.0
 10
740.7281474277
 20
127.3706410233
 30
0.0
 10
741.4195964147
 20
127.9578537176
 30
0.0
 10
742.5461088607
 20
128.467193343
 30
0.0
 10
743.5448599653
 20
128.6013619057
 30
0.0
 10
744.0601267767
 20
128.6013619057
 30
0.0
  0
SPLINE
  5
464
100
AcDbEntity
  8
RUNDUNGEN
100
AcDbSpline
 62
7
  6
CONTINUOUS
 70
0
 71
3
 72
13
 73
9
 74
0
 42
0.0000001
 43
0.0000001
 44
0.0000000001
 40
0.0
 40
0.0
 40
0.0
 40
0.0
 40
0.2870490624
 40
0.5535683755
 40
0.6755038246
 40
0.7893311355
 40
0.8965454157
 40
1.0
 40
1.0
 40
1.0
 40
1.0
 10
777.8601267767
 20
128.6013619057
 30
0.0
 10
778.3753939903
 20
128.6013619057
 30
0.0
 10
779.3741454533
 20
128.4671932152
 30
0.0
 10
780.5006580646
 20
127.9578531457
 30
0.0
 10
781.1921068281
 20
127.3706403139
 30
0.0
 10
781.5704037599
 20
126.8780650951
 30
0.0
 10
781.8062343197
 20
126.3387306847
 30
0.0
 10
781.8601267767
 20
125.9586408584
 30
0.0
 10
781.8601267767
 20
125.772934781
 30
0.0
  0
SPLINE
  5
465
100
AcDbEntity
  8
RUNDUNGEN
100
AcDbSpline
 62
7
  6
CONTINUOUS
 70
0
 71
3
 72
13
 73
9
 74
0
 42
0.0000001
 43
0.0000001
 44
0.0000000001
 40
0.0
 40
0.0
 40
0.0
 40
0.0
 40
0.2360077452
 40
0.3661261418
 40
0.5000000756
 40
0.6338740402
 40
0.7639924068
 40
1.0
 40
1.0
 40
1.0
 40
1.0
 10
756.8643665553
 20
133.9255716711
 30
0.0
 10
757.3575465718
 20
134.4236110595
 30
0.0
 10
758.3373469081
 20
134.9910917908
 30
0.0
 10
759.7762114053
 20
135.3667335684
 30
0.0
 10
760.9601275642
 20
135.4669160589
 30
0.0
 10
762.144043614
 20
135.3667333296
 30
0.0
 10
763.5829076045
 20
134.991091358
 30
0.0
 10
764.5627072993
 20
134.4236107387
 30
0.0
 10
765.0558869982
 20
133.9255716711
 30
0.0
  0
SPLINE
  5
466
100
AcDbEntity
  8
RUNDUNGEN
100
AcDbSpline
 62
7
  6
CONTINUOUS
 70
0
 71
3
 72
9
 73
5
 74
0
 42
0.0000001
 43
0.0000001
 44
0.0000000001
 40
0.0
 40
0.0
 40
0.0
 40
0.0
 40
0.5156509212
 40
1.0
 40
1.0
 40
1.0
 40
1.0
 10
746.374459533
 20
146.5926888603
 30
0.0
 10
746.8177370654
 20
147.0403340683
 30
0.0
 10
747.5918530776
 20
148.0004933553
 30
0.0
 10
748.1102423027
 20
149.1243808482
 30
0.0
 10
748.2810268464
 20
149.6909425141
 30
0.0
  0
SPLINE
  5
467
100
AcDbEntity
  8
RUNDUNGEN
100
AcDbSpline
 62
7
  6
CONTINUOUS
 70
0
 71
3
 72
11
 73
7
 74
0
 42
0.0000001
 43
0.0000001
 44
0.0000000001
 40
0.0
 40
0.0
 40
0.0
 40
0.0
 40
0.2660806488
 40
0.5190943636
 40
0.7622194616
 40
1.0
 40
1.0
 40
1.0
 40
1.0
 10
746.374459533
 20
152.7910698585
 30
0.0
 10
746.7152225656
 20
152.44694924
 30
0.0
 10
747.3285745881
 20
151.7212572936
 30
0.0
 10
748.0229316194
 20
150.5107681838
 30
0.0
 10
748.4486273268
 20
149.2349833036
 30
0.0
 10
748.5446350168
 20
148.3568948886
 30
0.0
 10
748.5446350015
 20
147.9241120456
 30
0.0
  0
SPLINE
  5
468
100
AcDbEntity
  8
RUNDUNGEN
100
AcDbSpline
 62
7
  6
CONTINUOUS
 70
0
 71
3
 72
10
 73
6
 74
0
 42
0.0000001
 43
0.0000001
 44
0.0000000001
 40
0.0
 40
0.0
 40
0.0
 40
0.0
 40
0.2540843695
 40
0.5191023225
 40
1.0
 40
1.0
 40
1.0
 40
1.0
 10
732.9152779764
 20
171.9304803499
 30
0.0
 10
733.1387505068
 20
172.041126404
 30
0.0
 10
733.6373618401
 20
172.1891548115
 30
0.0
 10
734.6198944448
 20
172.2064408852
 30
0.0
 10
735.3686460468
 20
171.9185450038
 30
0.0
 10
735.7007349377
 20
171.5831839945
 30
0.0
  0
SPLINE
  5
469
100
AcDbEntity
  8
RUNDUNGEN
100
AcDbSpline
 62
7
  6
CONTINUOUS
 70
0
 71
3
 72
9
 73
5
 74
0
 42
0.0000001
 43
0.0000001
 44
0.0000000001
 40
0.0
 40
0.0
 40
0.0
 40
0.0
 40
0.5194825986
 40
1.0
 40
1.0
 40
1.0
 40
1.0
 10
737.8229677522
 20
169.4400405228
 30
0.0
 10
737.9334152495
 20
169.3285047708
 30
0.0
 10
738.1157631375
 20
169.0782829473
 30
0.0
 10
738.1847425002
 20
168.7732650817
 30
0.0
 10
738.1846476997
 20
168.6280711559
 30
0.0
  0
SPLINE
  5
46A
100
AcDbEntity
  8
RUNDUNGEN
100
AcDbSpline
 62
7
  6
CONTINUOUS
 70
0
 71
3
 72
11
 73
7
 74
0
 42
0.0000001
 43
0.0000001
 44
0.0000000001
 40
0.0
 40
0.0
 40
0.0
 40
0.0
 40
0.2524375529
 40
0.5157480446
 40
0.7702932073
 40
1.0
 40
1.0
 40
1.0
 40
1.0
 10
776.3622252736
 20
173.9172009338
 30
0.0
 10
776.8091472015
 20
173.6959202791
 30
0.0
 10
777.8029251676
 20
173.3987258333
 30
0.0
 10
779.3421062487
 20
173.3771454925
 30
0.0
 10
780.788554849
 20
173.7568800839
 30
0.0
 10
781.6138332464
 20
174.2893415285
 30
0.0
 10
781.9331391961
 20
174.6117936445
 30
0.0
  0
SPLINE
  5
46B
100
AcDbEntity
  8
RUNDUNGEN
100
AcDbSpline
 62
7
  6
CONTINUOUS
 70
0
 71
3
 72
11
 73
7
 74
0
 42
0.0000001
 43
0.0000001
 44
0.0000000001
 40
0.0
 40
0.0
 40
0.0
 40
0.0
 40
0.2297109937
 40
0.4842558728
 40
0.7475644511
 40
1.0
 40
1.0
 40
1.0
 40
1.0
 10
745.2296874408
 20
177.2075042856
 30
0.0
 10
745.5489992295
 20
176.8850462731
 30
0.0
 10
746.3742867729
 20
176.35258279
 30
0.0
 10
747.8207408068
 20
175.9728544389
 30
0.0
 10
749.3599131569
 20
175.9944394143
 30
0.0
 10
750.3536829843
 20
176.2916326773
 30
0.0
 10
750.8006013634
 20
176.5129115749
 30
0.0
  0
SPLINE
  5
46C
100
AcDbEntity
  8
0
100
AcDbSpline
 62
7
  6
CONTINUOUS
 70
0
 71
3
 72
9
 73
5
 74
0
 42
0.0000001
 43
0.0000001
 44
0.0000000001
 40
0.0
 40
0.0
 40
0.0
 40
0.0
 40
0.4402133985
 40
1.0
 40
1.0
 40
1.0
 40
1.0
 10
751.2103125885
 20
162.6952224674
 30
0.0
 10
751.2103125885
 20
162.6766790964
 30
0.0
 10
751.23887082
 20
162.6362987061
 30
0.0
 10
751.2827323643
 20
162.6273402164
 30
0.0
 10
751.3063125885
 20
162.6273402164
 30
0.0
  0
SPLINE
  5
46D
100
AcDbEntity
  8
RUNDUNGEN
100
AcDbSpline
 62
7
  6
CONTINUOUS
 70
0
 71
3
 72
11
 73
7
 74
0
 42
0.0000001
 43
0.0000001
 44
0.0000000001
 40
0.0
 40
0.0
 40
0.0
 40
0.0
 40
0.237780559
 40
0.4809056754
 40
0.7339193747
 40
1.0
 40
1.0
 40
1.0
 40
1.0
 10
748.5446350015
 20
147.9241120456
 30
0.0
 10
748.5446349862
 20
147.4913292219
 30
0.0
 10
748.4486271737
 20
146.6132408616
 30
0.0
 10
748.0229313826
 20
145.3374561578
 30
0.0
 10
747.3285744075
 20
144.1269672736
 30
0.0
 10
746.7152224908
 20
143.4012754974
 30
0.0
 10
746.374459533
 20
143.0571549544
 30
0.0
  0
SPLINE
  5
46E
100
AcDbEntity
  8
RUNDUNGEN
100
AcDbSpline
 62
7
  6
CONTINUOUS
 70
0
 71
3
 72
9
 73
5
 74
0
 42
0.0000001
 43
0.0000001
 44
0.0000000001
 40
0.0
 40
0.0
 40
0.0
 40
0.0
 40
0.4805366099
 40
1.0
 40
1.0
 40
1.0
 40
1.0
 10
788.4601267767
 20
129.1237758213
 30
0.0
 10
788.4601267767
 20
129.413922527
 30
0.0
 10
788.3218138089
 20
130.0232910865
 30
0.0
 10
787.9574294811
 20
130.5232259107
 30
0.0
 10
787.7367349539
 20
130.7460949719
 30
0.0
  0
SPLINE
  5
46F
100
AcDbEntity
  8
0
100
AcDbSpline
 62
7
  6
CONTINUOUS
 70
0
 71
3
 72
9
 73
5
 74
0
 42
0.0000001
 43
0.0000001
 44
0.0000000001
 40
0.0
 40
0.0
 40
0.0
 40
0.0
 40
0.4402133985
 40
1.0
 40
1.0
 40
1.0
 40
1.0
 10
751.8703125885
 20
164.1433771553
 30
0.0
 10
751.8703125885
 20
164.1619205264
 30
0.0
 10
751.8417543571
 20
164.2023009166
 30
0.0
 10
751.7978928128
 20
164.2112594063
 30
0.0
 10
751.7743125885
 20
164.2112594063
 30
0.0
  0
SPLINE
  5
470
100
AcDbEntity
  8
0
100
AcDbSpline
 62
7
  6
CONTINUOUS
 70
0
 71
3
 72
11
 73
7
 74
0
 42
0.0000001
 43
0.0000001
 44
0.0000000001
 40
0.0
 40
0.0
 40
0.0
 40
0.0
 40
0.2094668498
 40
0.4446559298
 40
0.7120302568
 40
1.0
 40
1.0
 40
1.0
 40
1.0
 10
752.5303125885
 20
163.2778784551
 30
0.0
 10
752.5303125885
 20
163.3003665149
 30
0.0
 10
752.5157082181
 20
163.3486696724
 30
0.0
 10
752.459782895
 20
163.4039842161
 30
0.0
 10
752.3812249029
 20
163.4395012579
 30
0.0
 10
752.3212286061
 20
163.4475840826
 30
0.0
 10
752.2903125885
 20
163.4475840826
 30
0.0
  0
SPLINE
  5
471
100
AcDbEntity
  8
RUNDUNGEN
100
AcDbSpline
 62
7
  6
CONTINUOUS
 70
0
 71
3
 72
9
 73
5
 74
0
 42
0.0000001
 43
0.0000001
 44
0.0000000001
 40
0.0
 40
0.0
 40
0.0
 40
0.0
 40
0.5194635453
 40
1.0
 40
1.0
 40
1.0
 40
1.0
 10
734.1835185996
 20
130.7460949719
 30
0.0
 10
733.9628240063
 20
130.5232258439
 30
0.0
 10
733.5984396947
 20
130.0232909896
 30
0.0
 10
733.4601267767
 20
129.4139224334
 30
0.0
 10
733.4601267767
 20
129.1237758213
 30
0.0
  0
SPLINE
  5
472
100
AcDbEntity
  8
RUNDUNGEN
100
AcDbSpline
 62
7
  6
CONTINUOUS
 70
0
 71
3
 72
10
 73
6
 74
0
 42
0.0000001
 43
0.0000001
 44
0.0000000001
 40
0.0
 40
0.0
 40
0.0
 40
0.0
 40
0.5349741761
 40
0.7734715455
 40
1.0
 40
1.0
 40
1.0
 40
1.0
 10
734.6286147902
 20
166.1320117174
 30
0.0
 10
734.4843557682
 20
166.0605859743
 30
0.0
 10
734.2881339209
 20
165.9139668285
 30
0.0
 10
734.1417888245
 20
165.6464946425
 30
0.0
 10
734.1169535851
 20
165.5055392563
 30
0.0
 10
734.1169150764
 20
165.4373771701
 30
0.0
  0
SPLINE
  5
473
100
AcDbEntity
  8
RUNDUNGEN
100
AcDbSpline
 62
7
  6
CONTINUOUS
 70
0
 71
3
 72
11
 73
7
 74
0
 42
0.0000001
 43
0.0000001
 44
0.0000000001
 40
0.0
 40
0.0
 40
0.0
 40
0.0
 40
0.2794013718
 40
0.5367226037
 40
0.7743080703
 40
1.0
 40
1.0
 40
1.0
 40
1.0
 10
727.6303022453
 20
176.6511281614
 30
0.0
 10
727.3780524367
 20
176.5262338582
 30
0.0
 10
726.9147251402
 20
176.2381092412
 30
0.0
 10
726.3604418695
 20
175.6774219185
 30
0.0
 10
726.0067894216
 20
175.0311481667
 30
0.0
 10
725.924566066
 20
174.5610726448
 30
0.0
 10
725.9246099315
 20
174.3337051642
 30
0.0
  0
SPLINE
  5
474
100
AcDbEntity
  8
RUNDUNGEN
100
AcDbSpline
 62
7
  6
CONTINUOUS
 70
0
 71
3
 72
12
 73
8
 74
0
 42
0.0000001
 43
0.0000001
 44
0.0000000001
 40
0.0
 40
0.0
 40
0.0
 40
0.0
 40
0.2295487136
 40
0.3548258051
 40
0.4846200283
 40
0.7477432149
 40
1.0
 40
1.0
 40
1.0
 40
1.0
 10
743.1958911403
 20
175.7258059601
 30
0.0
 10
742.3976126463
 20
176.5319500039
 30
0.0
 10
740.881196562
 20
177.5104038834
 30
0.0
 10
738.6201181927
 20
178.3106984667
 30
0.0
 10
736.0976445315
 20
178.8047459132
 30
0.0
 10
732.8695890382
 20
178.7580719828
 30
0.0
 10
730.3858990096
 20
178.0154833607
 30
0.0
 10
729.2686063339
 20
177.4622877368
 30
0.0
  0
SPLINE
  5
475
100
AcDbEntity
  8
0
100
AcDbSpline
 62
7
  6
CONTINUOUS
 70
0
 71
3
 72
9
 73
5
 74
0
 42
0.0000001
 43
0.0000001
 44
0.0000000001
 40
0.0
 40
0.0
 40
0.0
 40
0.0
 40
0.2423574743
 40
1.0
 40
1.0
 40
1.0
 40
1.0
 10
767.843044013
 20
174.5996968197
 30
0.0
 10
767.5104668121
 20
174.7643629417
 30
0.0
 10
766.1093049075
 20
175.384677149
 30
0.0
 10
764.609632604
 20
175.7747681026
 30
0.0
 10
763.4624511438
 20
175.9476831333
 30
0.0
  0
SPLINE
  5
476
100
AcDbEntity
  8
0
100
AcDbSpline
 62
7
  6
CONTINUOUS
 70
0
 71
3
 72
9
 73
5
 74
0
 42
0.0000001
 43
0.0000001
 44
0.0000000001
 40
0.0
 40
0.0
 40
0.0
 40
0.0
 40
0.2572745118
 40
1.0
 40
1.0
 40
1.0
 40
1.0
 10
758.4578024097
 20
175.9476831333
 30
0.0
 10
758.0682849864
 20
175.8889710467
 30
0.0
 10
756.5633719464
 20
175.6065619223
 30
0.0
 10
755.0963328459
 20
175.1042866778
 30
0.0
 10
754.0772095405
 20
174.5996968197
 30
0.0
  0
SPLINE
  5
477
100
AcDbEntity
  8
RUNDUNGEN
100
AcDbSpline
 62
7
  6
CONTINUOUS
 70
0
 71
3
 72
10
 73
6
 74
0
 42
0.0000001
 43
0.0000001
 44
0.0000000001
 40
0.0
 40
0.0
 40
0.0
 40
0.0
 40
0.2540841022
 40
0.5191024011
 40
1.0
 40
1.0
 40
1.0
 40
1.0
 10
790.6856823133
 20
178.4356792272
 30
0.0
 10
790.5515989353
 20
178.5020667902
 30
0.0
 10
790.2524321437
 20
178.590884014
 30
0.0
 10
789.6629125448
 20
178.6012554866
 30
0.0
 10
789.2136614397
 20
178.4285179878
 30
0.0
 10
789.0144081366
 20
178.227301414
 30
0.0
  0
SPLINE
  5
478
100
AcDbEntity
  8
0
100
AcDbSpline
 62
7
  6
CONTINUOUS
 70
0
 71
3
 72
11
 73
7
 74
0
 42
0.0000001
 43
0.0000001
 44
0.0000000001
 40
0.0
 40
0.0
 40
0.0
 40
0.0
 40
0.2880052506
 40
0.5553344723
 40
0.7905070702
 40
1.0
 40
1.0
 40
1.0
 40
1.0
 10
753.6103125885
 20
161.4111165528
 30
0.0
 10
753.6721518146
 20
161.4111165528
 30
0.0
 10
753.7921485498
 20
161.4272698724
 30
0.0
 10
753.9492310638
 20
161.4983458969
 30
0.0
 10
754.0611104082
 20
161.6089308125
 30
0.0
 10
754.0903125885
 20
161.7055464034
 30
0.0
 10
754.0903125885
 20
161.7505278078
 30
0.0
  0
SPLINE
  5
479
100
AcDbEntity
  8
0
100
AcDbSpline
 62
7
  6
CONTINUOUS
 70
0
 71
3
 72
17
 73
13
 74
0
 42
0.0000001
 43
0.0000001
 44
0.0000000001
 40
0.0
 40
0.0
 40
0.0
 40
0.0
 40
0.0517921087
 40
0.1054769531
 40
0.2228492041
 40
0.356284866
 40
0.5
 40
0.643715134
 40
0.7771507959
 40
0.8945230469
 40
0.9482078913
 40
1.0
 40
1.0
 40
1.0
 40
1.0
 10
761.4069536297
 20
163.0317121902
 30
0.0
 10
761.4069536297
 20
162.9259767827
 30
0.0
 10
761.4376826905
 20
162.7095456839
 30
0.0
 10
761.6216910706
 20
162.2882946744
 30
0.0
 10
762.0761411277
 20
161.8335313634
 30
0.0
 10
762.8223099911
 20
161.4983430189
 30
0.0
 10
763.684607774
 20
161.3811485272
 30
0.0
 10
764.5469055569
 20
161.4983430189
 30
0.0
 10
765.2930744203
 20
161.8335313634
 30
0.0
 10
765.7475244773
 20
162.2882946744
 30
0.0
 10
765.9315328574
 20
162.7095456839
 30
0.0
 10
765.9622619182
 20
162.9259767827
 30
0.0
 10
765.9622619182
 20
163.0317121902
 30
0.0
  0
SPLINE
  5
47A
100
AcDbEntity
  8
0
100
AcDbSpline
 62
7
  6
CONTINUOUS
 70
0
 71
3
 72
9
 73
5
 74
0
 42
0.0000001
 43
0.0000001
 44
0.0000000001
 40
0.0
 40
0.0
 40
0.0
 40
0.0
 40
0.4402133985
 40
1.0
 40
1.0
 40
1.0
 40
1.0
 10
751.2103125885
 20
164.1094360298
 30
0.0
 10
751.2103125885
 20
164.0908926588
 30
0.0
 10
751.23887082
 20
164.0505122685
 30
0.0
 10
751.2827323643
 20
164.0415537788
 30
0.0
 10
751.3063125885
 20
164.0415537788
 30
0.0
  0
SPLINE
  5
47B
100
AcDbEntity
  8
0
100
AcDbSpline
 62
7
  6
CONTINUOUS
 70
0
 71
3
 72
11
 73
7
 74
0
 42
0.0000001
 43
0.0000001
 44
0.0000000001
 40
0.0
 40
0.0
 40
0.0
 40
0.0
 40
0.2094668498
 40
0.4446559298
 40
0.7120302568
 40
1.0
 40
1.0
 40
1.0
 40
1.0
 10
752.5303125885
 20
164.97493473
 30
0.0
 10
752.5303125885
 20
164.9974227898
 30
0.0
 10
752.5157082181
 20
165.0457259472
 30
0.0
 10
752.459782895
 20
165.1010404909
 30
0.0
 10
752.3812249029
 20
165.1365575327
 30
0.0
 10
752.3212286061
 20
165.1446403575
 30
0.0
 10
752.2903125885
 20
165.1446403575
 30
0.0
  0
SPLINE
  5
47C
100
AcDbEntity
  8
0
100
AcDbSpline
 62
7
  6
CONTINUOUS
 70
0
 71
3
 72
11
 73
7
 74
0
 42
0.0000001
 43
0.0000001
 44
0.0000000001
 40
0.0
 40
0.0
 40
0.0
 40
0.0
 40
0.2879697432
 40
0.5553440702
 40
0.7905331502
 40
1.0
 40
1.0
 40
1.0
 40
1.0
 10
751.0903125885
 20
163.4475840826
 30
0.0
 10
751.059396571
 20
163.4475840826
 30
0.0
 10
750.9994002742
 20
163.4395012579
 30
0.0
 10
750.9208422821
 20
163.4039842161
 30
0.0
 10
750.8649169589
 20
163.3486696724
 30
0.0
 10
750.8503125885
 20
163.3003665149
 30
0.0
 10
750.8503125885
 20
163.2778784551
 30
0.0
  0
SPLINE
  5
47D
100
AcDbEntity
  8
0
100
AcDbSpline
 62
7
  6
CONTINUOUS
 70
0
 71
3
 72
9
 73
5
 74
0
 42
0.0000001
 43
0.0000001
 44
0.0000000001
 40
0.0
 40
0.0
 40
0.0
 40
0.0
 40
0.4402133985
 40
1.0
 40
1.0
 40
1.0
 40
1.0
 10
751.2103125885
 20
164.3922787423
 30
0.0
 10
751.2103125885
 20
164.3737353712
 30
0.0
 10
751.23887082
 20
164.333354981
 30
0.0
 10
751.2827323643
 20
164.3243964913
 30
0.0
 10
751.3063125885
 20
164.3243964913
 30
0.0
  0
SPLINE
  5
47E
100
AcDbEntity
  8
0
100
AcDbSpline
 62
7
  6
CONTINUOUS
 70
0
 71
3
 72
9
 73
5
 74
0
 42
0.0000001
 43
0.0000001
 44
0.0000000001
 40
0.0
 40
0.0
 40
0.0
 40
0.0
 40
0.5
 40
1.0
 40
1.0
 40
1.0
 40
1.0
 10
761.423847204
 20
163.1190291169
 30
0.0
 10
761.5754159248
 20
162.243020633
 30
0.0
 10
763.684607774
 20
161.1650290399
 30
0.0
 10
765.7937996231
 20
162.243020633
 30
0.0
 10
765.9453683439
 20
163.1190291169
 30
0.0
  0
SPLINE
  5
47F
100
AcDbEntity
  8
0
100
AcDbSpline
 62
7
  6
CONTINUOUS
 70
0
 71
3
 72
11
 73
7
 74
0
 42
0.0000001
 43
0.0000001
 44
0.0000000001
 40
0.0
 40
0.0
 40
0.0
 40
0.0
 40
0.2094929298
 40
0.4446655277
 40
0.7119947494
 40
1.0
 40
1.0
 40
1.0
 40
1.0
 10
749.2903125885
 20
161.7505278078
 30
0.0
 10
749.2903125885
 20
161.7055464034
 30
0.0
 10
749.3195147689
 20
161.6089308125
 30
0.0
 10
749.4313941132
 20
161.4983458969
 30
0.0
 10
749.5884766273
 20
161.4272698724
 30
0.0
 10
749.7084733625
 20
161.4111165528
 30
0.0
 10
749.7703125885
 20
161.4111165528
 30
0.0
  0
SPLINE
  5
480
100
AcDbEntity
  8
0
100
AcDbSpline
 62
7
  6
CONTINUOUS
 70
0
 71
3
 72
11
 73
7
 74
0
 42
0.0000001
 43
0.0000001
 44
0.0000000001
 40
0.0
 40
0.0
 40
0.0
 40
0.0
 40
0.2879697432
 40
0.5553440702
 40
0.7905331502
 40
1.0
 40
1.0
 40
1.0
 40
1.0
 10
751.0903125885
 20
165.1446403575
 30
0.0
 10
751.059396571
 20
165.1446403575
 30
0.0
 10
750.9994002742
 20
165.1365575327
 30
0.0
 10
750.9208422821
 20
165.1010404909
 30
0.0
 10
750.8649169589
 20
165.0457259472
 30
0.0
 10
750.8503125885
 20
164.9974227898
 30
0.0
 10
750.8503125885
 20
164.97493473
 30
0.0
  0
SPLINE
  5
481
100
AcDbEntity
  8
0
100
AcDbSpline
 62
7
  6
CONTINUOUS
 70
0
 71
3
 72
9
 73
5
 74
0
 42
0.0000001
 43
0.0000001
 44
0.0000000001
 40
0.0
 40
0.0
 40
0.0
 40
0.0
 40
0.5597866015
 40
1.0
 40
1.0
 40
1.0
 40
1.0
 10
751.6063125885
 20
164.2112594063
 30
0.0
 10
751.5827323643
 20
164.2112594063
 30
0.0
 10
751.53887082
 20
164.2023009166
 30
0.0
 10
751.5103125885
 20
164.1619205264
 30
0.0
 10
751.5103125885
 20
164.1433771553
 30
0.0
  0
SPLINE
  5
482
100
AcDbEntity
  8
0
100
AcDbSpline
 62
7
  6
CONTINUOUS
 70
0
 71
3
 72
9
 73
5
 74
0
 42
0.0000001
 43
0.0000001
 44
0.0000000001
 40
0.0
 40
0.0
 40
0.0
 40
0.0
 40
0.5597866015
 40
1.0
 40
1.0
 40
1.0
 40
1.0
 10
752.0743125885
 20
164.0415537788
 30
0.0
 10
752.0978928128
 20
164.0415537788
 30
0.0
 10
752.1417543571
 20
164.0505122685
 30
0.0
 10
752.1703125885
 20
164.0908926588
 30
0.0
 10
752.1703125885
 20
164.1094360298
 30
0.0
  0
SPLINE
  5
483
100
AcDbEntity
  8
0
100
AcDbSpline
 62
7
  6
CONTINUOUS
 70
0
 71
3
 72
9
 73
5
 74
0
 42
0.0000001
 43
0.0000001
 44
0.0000000001
 40
0.0
 40
0.0
 40
0.0
 40
0.0
 40
0.7407738242
 40
1.0
 40
1.0
 40
1.0
 40
1.0
 10
749.2903125885
 20
162.0333705202
 30
0.0
 10
749.2903125885
 20
161.9998361109
 30
0.0
 10
749.3004270216
 20
161.9539960822
 30
0.0
 10
749.3209256901
 20
161.913613036
 30
0.0
 10
749.3268504129
 20
161.9034834562
 30
0.0
  0
SPLINE
  5
484
100
AcDbEntity
  8
0
100
AcDbSpline
 62
7
  6
CONTINUOUS
 70
0
 71
3
 72
9
 73
5
 74
0
 42
0.0000001
 43
0.0000001
 44
0.0000000001
 40
0.0
 40
0.0
 40
0.0
 40
0.0
 40
0.461013727
 40
1.0
 40
1.0
 40
1.0
 40
1.0
 10
749.3268504129
 20
161.9034834562
 30
0.0
 10
749.3661156024
 20
161.8363512231
 30
0.0
 10
749.5088022637
 20
161.7258790553
 30
0.0
 10
749.6793867328
 20
161.6939592653
 30
0.0
 10
749.7703125885
 20
161.6939592653
 30
0.0
  0
SPLINE
  5
485
100
AcDbEntity
  8
0
100
AcDbSpline
 62
7
  6
CONTINUOUS
 70
0
 71
3
 72
9
 73
5
 74
0
 42
0.0000001
 43
0.0000001
 44
0.0000000001
 40
0.0
 40
0.0
 40
0.0
 40
0.0
 40
0.5597866015
 40
1.0
 40
1.0
 40
1.0
 40
1.0
 10
752.0743125885
 20
162.344497504
 30
0.0
 10
752.0978928128
 20
162.344497504
 30
0.0
 10
752.1417543571
 20
162.3534559937
 30
0.0
 10
752.1703125885
 20
162.3938363839
 30
0.0
 10
752.1703125885
 20
162.412379755
 30
0.0
  0
SPLINE
  5
486
100
AcDbEntity
  8
0
100
AcDbSpline
 62
7
  6
CONTINUOUS
 70
0
 71
3
 72
11
 73
7
 74
0
 42
0.0000001
 43
0.0000001
 44
0.0000000001
 40
0.0
 40
0.0
 40
0.0
 40
0.0
 40
0.2094656921
 40
0.4446574861
 40
0.7119998836
 40
1.0
 40
1.0
 40
1.0
 40
1.0
 10
759.5214720372
 20
164.6959575119
 30
0.0
 10
759.5214720372
 20
164.7771508294
 30
0.0
 10
759.468760601
 20
164.9515582814
 30
0.0
 10
759.2668296697
 20
165.1512490812
 30
0.0
 10
758.9832103192
 20
165.2795091148
 30
0.0
 10
758.7665885454
 20
165.3086891307
 30
0.0
 10
758.6549536297
 20
165.3086891307
 30
0.0
  0
SPLINE
  5
487
100
AcDbEntity
  8
BEZUGSACHSEN
100
AcDbSpline
 62
7
  6
CONTINUOUS
 70
0
 71
3
 72
19
 73
15
 74
0
 42
0.0000001
 43
0.0000001
 44
0.0000000001
 40
0.0
 40
0.0
 40
0.0
 40
0.0
 40
0.051729057
 40
0.1053341786
 40
0.1622493009
 40
0.2232160554
 40
0.3564757248
 40
0.5
 40
0.6435242752
 40
0.7767839446
 40
0.8377506991
 40
0.8946658214
 40
0.948270943
 40
1.0
 40
1.0
 40
1.0
 40
1.0
 10
755.9601267767
 20
170.1238349697
 30
0.0
 10
755.9601267767
 20
169.8916947308
 30
0.0
 10
756.0274884686
 20
169.4165819572
 30
0.0
 10
756.3222920993
 20
168.7424184968
 30
0.0
 10
756.7951693553
 20
168.1267003339
 30
0.0
 10
757.6593850864
 20
167.3926938293
 30
0.0
 10
759.0684387983
 20
166.7560204801
 30
0.0
 10
760.9601267767
 20
166.501347854
 30
0.0
 10
762.8518147552
 20
166.7560204801
 30
0.0
 10
764.2608684671
 20
167.3926938293
 30
0.0
 10
765.1250841982
 20
168.1267003339
 30
0.0
 10
765.5979614542
 20
168.7424184968
 30
0.0
 10
765.8927650849
 20
169.4165819572
 30
0.0
 10
765.9601267767
 20
169.8916947308
 30
0.0
 10
765.9601267767
 20
170.1238349697
 30
0.0
  0
SPLINE
  5
488
100
AcDbEntity
  8
0
100
AcDbSpline
 62
7
  6
CONTINUOUS
 70
0
 71
3
 72
11
 73
7
 74
0
 42
0.0000001
 43
0.0000001
 44
0.0000000001
 40
0.0
 40
0.0
 40
0.0
 40
0.0
 40
0.2865059912
 40
0.5484241175
 40
0.7833822346
 40
1.0
 40
1.0
 40
1.0
 40
1.0
 10
759.1526724449
 20
163.624786976
 30
0.0
 10
759.3056195434
 20
163.6603203696
 30
0.0
 10
759.5923657666
 20
163.7614252516
 30
0.0
 10
759.9509753162
 20
164.0079882631
 30
0.0
 10
760.1910672776
 20
164.327430505
 30
0.0
 10
760.2495013869
 20
164.5774928126
 30
0.0
 10
760.2494835777
 20
164.6962108507
 30
0.0
  0
SPLINE
  5
489
100
AcDbEntity
  8
RUNDUNGEN
100
AcDbSpline
 62
7
  6
CONTINUOUS
 70
0
 71
3
 72
10
 73
6
 74
0
 42
0.0000001
 43
0.0000001
 44
0.0000000001
 40
0.0
 40
0.0
 40
0.0
 40
0.0
 40
0.2265442612
 40
0.4650409816
 40
1.0
 40
1.0
 40
1.0
 40
1.0
 10
797.0952756307
 20
174.8209176089
 30
0.0
 10
797.0952311097
 20
174.8890809211
 30
0.0
 10
797.070385844
 20
175.0300316165
 30
0.0
 10
796.9240314279
 20
175.2974798203
 30
0.0
 10
796.7278245039
 20
175.4440847316
 30
0.0
 10
796.5835770322
 20
175.5155047559
 30
0.0
  0
SPLINE
  5
48A
100
AcDbEntity
  8
0
100
AcDbSpline
 62
7
  6
CONTINUOUS
 70
0
 71
3
 72
11
 73
7
 74
0
 42
0.0000001
 43
0.0000001
 44
0.0000000001
 40
0.0
 40
0.0
 40
0.0
 40
0.0
 40
0.227142142
 40
0.4653047767
 40
0.7220182825
 40
1.0
 40
1.0
 40
1.0
 40
1.0
 10
771.7163385277
 20
163.6286034186
 30
0.0
 10
771.7163385277
 20
163.7849389183
 30
0.0
 10
771.6625418758
 20
164.1073228655
 30
0.0
 10
771.4301859765
 20
164.554332107
 30
0.0
 10
771.0638782935
 20
164.9474882628
 30
0.0
 10
770.7556279452
 20
165.1543310079
 30
0.0
 10
770.5873840123
 20
165.245435215
 30
0.0
  0
SPLINE
  5
48B
100
AcDbEntity
  8
0
100
AcDbSpline
 62
7
  6
CONTINUOUS
 70
0
 71
3
 72
9
 73
5
 74
0
 42
0.0000001
 43
0.0000001
 44
0.0000000001
 40
0.0
 40
0.0
 40
0.0
 40
0.0
 40
0.4402133985
 40
1.0
 40
1.0
 40
1.0
 40
1.0
 10
751.2103125885
 20
162.412379755
 30
0.0
 10
751.2103125885
 20
162.3938363839
 30
0.0
 10
751.23887082
 20
162.3534559937
 30
0.0
 10
751.2827323643
 20
162.344497504
 30
0.0
 10
751.3063125885
 20
162.344497504
 30
0.0
  0
SPLINE
  5
48C
100
AcDbEntity
  8
0
100
AcDbSpline
 62
7
  6
CONTINUOUS
 70
0
 71
3
 72
8
 73
4
 74
0
 42
0.0000001
 43
0.0000001
 44
0.0000000001
 40
0.0
 40
0.0
 40
0.0
 40
0.0
 40
1.0
 40
1.0
 40
1.0
 40
1.0
 10
770.4246355723
 20
161.4111165528
 30
0.0
 10
770.4892713037
 20
161.4111165528
 30
0.0
 10
770.5547017044
 20
161.4203587763
 30
0.0
 10
770.6164688332
 20
161.4394008241
 30
0.0
  0
SPLINE
  5
48D
100
AcDbEntity
  8
0
100
AcDbSpline
 62
7
  6
CONTINUOUS
 70
0
 71
3
 72
11
 73
7
 74
0
 42
0.0000001
 43
0.0000001
 44
0.0000000001
 40
0.0
 40
0.0
 40
0.0
 40
0.0
 40
0.2847819434
 40
0.5451774547
 40
0.7807010719
 40
1.0
 40
1.0
 40
1.0
 40
1.0
 10
770.6164688332
 20
161.4394008241
 30
0.0
 10
770.9033450674
 20
161.5278412461
 30
0.0
 10
771.4372583692
 20
161.7566017609
 30
0.0
 10
772.095891781
 20
162.2674491369
 30
0.0
 10
772.5296680244
 20
162.9021538159
 30
0.0
 10
772.6336190437
 20
163.3861184263
 30
0.0
 10
772.6336190437
 20
163.6172897101
 30
0.0
  0
SPLINE
  5
48E
100
AcDbEntity
  8
0
100
AcDbSpline
 62
7
  6
CONTINUOUS
 70
0
 71
3
 72
9
 73
5
 74
0
 42
0.0000001
 43
0.0000001
 44
0.0000000001
 40
0.0
 40
0.0
 40
0.0
 40
0.0
 40
0.239729366
 40
1.0
 40
1.0
 40
1.0
 40
1.0
 10
770.5873840123
 20
165.245435215
 30
0.0
 10
770.5767788862
 20
165.2511778982
 30
0.0
 10
770.5308334458
 20
165.2719236931
 30
0.0
 10
770.4797119439
 20
165.2804048595
 30
0.0
 10
770.4414647546
 20
165.2804048595
 30
0.0
  0
SPLINE
  5
48F
100
AcDbEntity
  8
0
100
AcDbSpline
 62
7
  6
CONTINUOUS
 70
0
 71
3
 72
8
 73
4
 74
0
 42
0.0000001
 43
0.0000001
 44
0.0000000001
 40
0.0
 40
0.0
 40
0.0
 40
0.0
 40
1.0
 40
1.0
 40
1.0
 40
1.0
 10
770.4246355723
 20
161.6939592653
 30
0.0
 10
770.4892713037
 20
161.6939592653
 30
0.0
 10
770.5547017044
 20
161.7032014888
 30
0.0
 10
770.6164688332
 20
161.7222435365
 30
0.0
  0
SPLINE
  5
490
100
AcDbEntity
  8
0
100
AcDbSpline
 62
7
  6
CONTINUOUS
 70
0
 71
3
 72
11
 73
7
 74
0
 42
0.0000001
 43
0.0000001
 44
0.0000000001
 40
0.0
 40
0.0
 40
0.0
 40
0.0
 40
0.2816347582
 40
0.5420479832
 40
0.7798483853
 40
1.0
 40
1.0
 40
1.0
 40
1.0
 10
770.6164688332
 20
161.7222435365
 30
0.0
 10
770.8755689551
 20
161.8021209241
 30
0.0
 10
771.3613980837
 20
162.0045601602
 30
0.0
 10
771.978135492
 20
162.4455223643
 30
0.0
 10
772.4199425982
 20
162.9901525914
 30
0.0
 10
772.5759465419
 20
163.4139223184
 30
0.0
 10
772.6106732803
 20
163.6230006965
 30
0.0
  0
SPLINE
  5
491
100
AcDbEntity
  8
0
100
AcDbSpline
 62
7
  6
CONTINUOUS
 70
0
 71
3
 72
9
 73
5
 74
0
 42
0.0000001
 43
0.0000001
 44
0.0000000001
 40
0.0
 40
0.0
 40
0.0
 40
0.0
 40
0.2591205677
 40
1.0
 40
1.0
 40
1.0
 40
1.0
 10
770.4414647546
 20
165.5632475719
 30
0.0
 10
770.4544965513
 20
165.5632475719
 30
0.0
 10
770.5046994214
 20
165.5603713561
 30
0.0
 10
770.5546187812
 20
165.546020323
 30
0.0
 10
770.5873840123
 20
165.5282779275
 30
0.0
  0
SPLINE
  5
492
100
AcDbEntity
  8
0
100
AcDbSpline
 62
7
  6
CONTINUOUS
 70
0
 71
3
 72
11
 73
7
 74
0
 42
0.0000001
 43
0.0000001
 44
0.0000000001
 40
0.0
 40
0.0
 40
0.0
 40
0.0
 40
0.2779697373
 40
0.5346991835
 40
0.7728568778
 40
1.0
 40
1.0
 40
1.0
 40
1.0
 10
770.5873840123
 20
165.5282779275
 30
0.0
 10
770.7556212972
 20
165.4371773203
 30
0.0
 10
771.0638679554
 20
165.2303258137
 30
0.0
 10
771.4301999733
 20
164.8371882968
 30
0.0
 10
771.6625470146
 20
164.3901626791
 30
0.0
 10
771.7163529205
 20
164.0677828656
 30
0.0
 10
771.7163529205
 20
163.9114461311
 30
0.0
  0
SPLINE
  5
493
100
AcDbEntity
  8
0
100
AcDbSpline
 62
7
  6
CONTINUOUS
 70
0
 71
3
 72
9
 73
5
 74
0
 42
0.0000001
 43
0.0000001
 44
0.0000000001
 40
0.0
 40
0.0
 40
0.0
 40
0.0
 40
0.5403772208
 40
1.0
 40
1.0
 40
1.0
 40
1.0
 10
759.1526724449
 20
163.9076296885
 30
0.0
 10
759.3871305826
 20
163.9621001124
 30
0.0
 10
759.8107463227
 20
164.1348238473
 30
0.0
 10
760.1205155955
 20
164.4924614275
 30
0.0
 10
760.1938454149
 20
164.6836099968
 30
0.0
  0
SPLINE
  5
494
100
AcDbEntity
  8
0
100
AcDbSpline
 62
7
  6
CONTINUOUS
 70
0
 71
3
 72
8
 73
4
 74
0
 42
0.0000001
 43
0.0000001
 44
0.0000000001
 40
0.0
 40
0.0
 40
0.0
 40
0.0
 40
1.0
 40
1.0
 40
1.0
 40
1.0
 10
760.1938454149
 20
164.6836099968
 30
0.0
 10
760.2122022371
 20
164.7314606576
 30
0.0
 10
760.2264349404
 20
164.7811375493
 30
0.0
 10
760.2358248977
 20
164.831520953
 30
0.0
  0
SPLINE
  5
495
100
AcDbEntity
  8
0
100
AcDbSpline
 62
7
  6
CONTINUOUS
 70
0
 71
3
 72
11
 73
7
 74
0
 42
0.0000001
 43
0.0000001
 44
0.0000000001
 40
0.0
 40
0.0
 40
0.0
 40
0.0
 40
0.2880066977
 40
0.5553334191
 40
0.790532629
 40
1.0
 40
1.0
 40
1.0
 40
1.0
 10
758.6549536297
 20
165.5915318432
 30
0.0
 10
758.7665906712
 20
165.5915318432
 30
0.0
 10
758.9832118774
 20
165.5623632033
 30
0.0
 10
759.266816356
 20
165.4340727967
 30
0.0
 10
759.4687466323
 20
165.2343988759
 30
0.0
 10
759.5214869951
 20
165.0599938834
 30
0.0
 10
759.5214869951
 20
164.9788002244
 30
0.0
  0
SPLINE
  5
496
100
AcDbEntity
  8
0
100
AcDbSpline
 62
7
  6
CONTINUOUS
 70
0
 71
3
 72
9
 73
5
 74
0
 42
0.0000001
 43
0.0000001
 44
0.0000000001
 40
0.0
 40
0.0
 40
0.0
 40
0.0
 40
0.5597866015
 40
1.0
 40
1.0
 40
1.0
 40
1.0
 10
752.0743125885
 20
162.6273402164
 30
0.0
 10
752.0978928128
 20
162.6273402164
 30
0.0
 10
752.1417543571
 20
162.6362987061
 30
0.0
 10
752.1703125885
 20
162.6766790964
 30
0.0
 10
752.1703125885
 20
162.6952224674
 30
0.0
  0
SPLINE
  5
497
100
AcDbEntity
  8
0
100
AcDbSpline
 62
7
  6
CONTINUOUS
 70
0
 71
3
 72
9
 73
5
 74
0
 42
0.0000001
 43
0.0000001
 44
0.0000000001
 40
0.0
 40
0.0
 40
0.0
 40
0.0
 40
0.4402133985
 40
1.0
 40
1.0
 40
1.0
 40
1.0
 10
751.5103125885
 20
164.4262198678
 30
0.0
 10
751.5103125885
 20
164.4447632388
 30
0.0
 10
751.53887082
 20
164.4851436291
 30
0.0
 10
751.5827323643
 20
164.4941021188
 30
0.0
 10
751.6063125885
 20
164.4941021188
 30
0.0
  0
SPLINE
  5
498
100
AcDbEntity
  8
RUNDUNGEN
100
AcDbSpline
 62
7
  6
CONTINUOUS
 70
0
 71
3
 72
11
 73
7
 74
0
 42
0.0000001
 43
0.0000001
 44
0.0000000001
 40
0.0
 40
0.0
 40
0.0
 40
0.0
 40
0.2256927635
 40
0.4632951072
 40
0.7206222905
 40
1.0
 40
1.0
 40
1.0
 40
1.0
 10
738.1846476997
 20
168.6280711559
 30
0.0
 10
738.1845735244
 20
168.5144662692
 30
0.0
 10
738.1432583996
 20
168.2796273344
 30
0.0
 10
737.9663702166
 20
167.9568217757
 30
0.0
 10
737.6893448353
 20
167.6767596653
 30
0.0
 10
737.4578428425
 20
167.5328233503
 30
0.0
 10
737.3318165363
 20
167.4704250168
 30
0.0
  0
SPLINE
  5
499
100
AcDbEntity
  8
0
100
AcDbSpline
 62
7
  6
CONTINUOUS
 70
0
 71
3
 72
9
 73
5
 74
0
 42
0.0000001
 43
0.0000001
 44
0.0000000001
 40
0.0
 40
0.0
 40
0.0
 40
0.0
 40
0.5597866015
 40
1.0
 40
1.0
 40
1.0
 40
1.0
 10
751.7743125885
 20
164.4941021188
 30
0.0
 10
751.7978928128
 20
164.4941021188
 30
0.0
 10
751.8417543571
 20
164.4851436291
 30
0.0
 10
751.8703125885
 20
164.4447632388
 30
0.0
 10
751.8703125885
 20
164.4262198678
 30
0.0
  0
SPLINE
  5
49A
100
AcDbEntity
  8
0
100
AcDbSpline
 62
7
  6
CONTINUOUS
 70
0
 71
3
 72
9
 73
5
 74
0
 42
0.0000001
 43
0.0000001
 44
0.0000000001
 40
0.0
 40
0.0
 40
0.0
 40
0.0
 40
0.5597866015
 40
1.0
 40
1.0
 40
1.0
 40
1.0
 10
752.0743125885
 20
164.3243964913
 30
0.0
 10
752.0978928128
 20
164.3243964913
 30
0.0
 10
752.1417543571
 20
164.333354981
 30
0.0
 10
752.1703125885
 20
164.3737353712
 30
0.0
 10
752.1703125885
 20
164.3922787423
 30
0.0
  0
SPLINE
  5
49B
100
AcDbEntity
  8
0
100
AcDbSpline
 62
7
  6
CONTINUOUS
 70
0
 71
3
 72
11
 73
7
 74
0
 42
0.0000001
 43
0.0000001
 44
0.0000000001
 40
0.0
 40
0.0
 40
0.0
 40
0.0
 40
0.2876567391
 40
0.555407049
 40
0.7907201247
 40
1.0
 40
1.0
 40
1.0
 40
1.0
 10
752.2903125885
 20
165.4274830699
 30
0.0
 10
752.3211905287
 20
165.4274830699
 30
0.0
 10
752.3811402977
 20
165.4192776859
 30
0.0
 10
752.4598450479
 20
165.3839870748
 30
0.0
 10
752.5155841978
 20
165.3284683916
 30
0.0
 10
752.5303125885
 20
165.2802421742
 30
0.0
 10
752.5303125885
 20
165.2577774425
 30
0.0
  0
SPLINE
  5
49C
100
AcDbEntity
  8
0
100
AcDbSpline
 62
7
  6
CONTINUOUS
 70
0
 71
3
 72
8
 73
4
 74
0
 42
0.0000001
 43
0.0000001
 44
0.0000000001
 40
0.0
 40
0.0
 40
0.0
 40
0.0
 40
1.0
 40
1.0
 40
1.0
 40
1.0
 10
752.3544082193
 20
163.7241758139
 30
0.0
 10
752.3734725538
 20
163.7204338192
 30
0.0
 10
752.3923132909
 20
163.7150033258
 30
0.0
 10
752.4103125885
 20
163.7076905522
 30
0.0
  0
SPLINE
  5
49D
100
AcDbEntity
  8
0
100
AcDbSpline
 62
7
  6
CONTINUOUS
 70
0
 71
3
 72
9
 73
5
 74
0
 42
0.0000001
 43
0.0000001
 44
0.0000000001
 40
0.0
 40
0.0
 40
0.0
 40
0.0
 40
0.5424756321
 40
1.0
 40
1.0
 40
1.0
 40
1.0
 10
752.4103125885
 20
163.7076905522
 30
0.0
 10
752.4435381171
 20
163.6941916494
 30
0.0
 10
752.5021301457
 20
163.657444352
 30
0.0
 10
752.5303125885
 20
163.5909680655
 30
0.0
 10
752.5303125885
 20
163.5607211676
 30
0.0
  0
SPLINE
  5
49E
100
AcDbEntity
  8
0
100
AcDbSpline
 62
7
  6
CONTINUOUS
 70
0
 71
3
 72
9
 73
5
 74
0
 42
0.0000001
 43
0.0000001
 44
0.0000000001
 40
0.0
 40
0.0
 40
0.0
 40
0.0
 40
0.4575243679
 40
1.0
 40
1.0
 40
1.0
 40
1.0
 10
750.8503125885
 20
163.5607211676
 30
0.0
 10
750.8503125885
 20
163.5909680655
 30
0.0
 10
750.8784950314
 20
163.657444352
 30
0.0
 10
750.93708706
 20
163.6941916494
 30
0.0
 10
750.9703125885
 20
163.7076905522
 30
0.0
  0
SPLINE
  5
49F
100
AcDbEntity
  8
0
100
AcDbSpline
 62
7
  6
CONTINUOUS
 70
0
 71
3
 72
8
 73
4
 74
0
 42
0.0000001
 43
0.0000001
 44
0.0000000001
 40
0.0
 40
0.0
 40
0.0
 40
0.0
 40
1.0
 40
1.0
 40
1.0
 40
1.0
 10
750.9703125885
 20
163.7076905522
 30
0.0
 10
751.0080301514
 20
163.7230144833
 30
0.0
 10
751.0496009512
 20
163.7304267951
 30
0.0
 10
751.0903125885
 20
163.7304267951
 30
0.0
  0
SPLINE
  5
4A0
100
AcDbEntity
  8
0
100
AcDbSpline
 62
7
  6
CONTINUOUS
 70
0
 71
3
 72
11
 73
7
 74
0
 42
0.0000001
 43
0.0000001
 44
0.0000000001
 40
0.0
 40
0.0
 40
0.0
 40
0.0
 40
0.2092798753
 40
0.444592951
 40
0.7123432609
 40
1.0
 40
1.0
 40
1.0
 40
1.0
 10
750.8503125885
 20
165.2577774425
 30
0.0
 10
750.8503125885
 20
165.2802421742
 30
0.0
 10
750.8650409792
 20
165.3284683916
 30
0.0
 10
750.9207801291
 20
165.3839870748
 30
0.0
 10
750.9994848794
 20
165.4192776859
 30
0.0
 10
751.0594346484
 20
165.4274830699
 30
0.0
 10
751.0903125885
 20
165.4274830699
 30
0.0
  0
SPLINE
  5
4A1
100
AcDbEntity
  8
RUNDUNGEN
100
AcDbSpline
 62
7
  6
CONTINUOUS
 70
0
 71
3
 72
11
 73
7
 74
0
 42
0.0000001
 43
0.0000001
 44
0.0000000001
 40
0.0
 40
0.0
 40
0.0
 40
0.0
 40
0.2660806488
 40
0.5190943636
 40
0.7622194616
 40
1.0
 40
1.0
 40
1.0
 40
1.0
 10
775.5457940205
 20
143.0571549544
 30
0.0
 10
775.2050309879
 20
143.4012755729
 30
0.0
 10
774.5916789654
 20
144.1269675193
 30
0.0
 10
773.897321934
 20
145.3374566291
 30
0.0
 10
773.4716262267
 20
146.6132415093
 30
0.0
 10
773.3756185366
 20
147.4913299243
 30
0.0
 10
773.375618552
 20
147.9241127673
 30
0.0
  0
SPLINE
  5
4A2
100
AcDbEntity
  8
0
100
AcDbSpline
 62
7
  6
CONTINUOUS
 70
0
 71
3
 72
9
 73
5
 74
0
 42
0.0000001
 43
0.0000001
 44
0.0000000001
 40
0.0
 40
0.0
 40
0.0
 40
0.0
 40
0.538986273
 40
1.0
 40
1.0
 40
1.0
 40
1.0
 10
753.6103125885
 20
161.6939592653
 30
0.0
 10
753.7012384442
 20
161.6939592653
 30
0.0
 10
753.8718229134
 20
161.7258790553
 30
0.0
 10
754.0145095746
 20
161.8363512231
 30
0.0
 10
754.0537747641
 20
161.9034834562
 30
0.0
  0
SPLINE
  5
4A3
100
AcDbEntity
  8
0
100
AcDbSpline
 62
7
  6
CONTINUOUS
 70
0
 71
3
 72
9
 73
5
 74
0
 42
0.0000001
 43
0.0000001
 44
0.0000000001
 40
0.0
 40
0.0
 40
0.0
 40
0.0
 40
0.2592261758
 40
1.0
 40
1.0
 40
1.0
 40
1.0
 10
754.0537747641
 20
161.9034834562
 30
0.0
 10
754.0596994869
 20
161.913613036
 30
0.0
 10
754.0801981554
 20
161.9539960822
 30
0.0
 10
754.0903125885
 20
161.9998361109
 30
0.0
 10
754.0903125885
 20
162.0333705202
 30
0.0
  0
SPLINE
  5
4A4
100
AcDbEntity
  8
RUNDUNGEN
100
AcDbSpline
 62
7
  6
CONTINUOUS
 70
0
 71
3
 72
11
 73
7
 74
0
 42
0.0000001
 43
0.0000001
 44
0.0000000001
 40
0.0
 40
0.0
 40
0.0
 40
0.0
 40
0.2297109937
 40
0.4842558728
 40
0.7475644511
 40
1.0
 40
1.0
 40
1.0
 40
1.0
 10
781.9331391961
 20
171.0762597385
 30
0.0
 10
781.6138274074
 20
170.753801726
 30
0.0
 10
780.7885398641
 20
170.2213382429
 30
0.0
 10
779.3420858301
 20
169.8416098919
 30
0.0
 10
777.80291348
 20
169.8631948673
 30
0.0
 10
776.8091436527
 20
170.1603881303
 30
0.0
 10
776.3622252736
 20
170.3816670279
 30
0.0
  0
SPLINE
  5
4A5
100
AcDbEntity
  8
RUNDUNGEN
100
AcDbSpline
 62
7
  6
CONTINUOUS
 70
0
 71
3
 72
11
 73
7
 74
0
 42
0.0000001
 43
0.0000001
 44
0.0000000001
 40
0.0
 40
0.0
 40
0.0
 40
0.0
 40
0.2524375529
 40
0.5157480446
 40
0.7702932073
 40
1.0
 40
1.0
 40
1.0
 40
1.0
 10
750.8006013634
 20
172.977377669
 30
0.0
 10
750.3536794355
 20
172.7560970143
 30
0.0
 10
749.3599014693
 20
172.4589025685
 30
0.0
 10
747.8207203882
 20
172.4373222277
 30
0.0
 10
746.374271788
 20
172.8170568191
 30
0.0
 10
745.5489933905
 20
173.3495182637
 30
0.0
 10
745.2296874408
 20
173.6719703796
 30
0.0
  0
SPLINE
  5
4A6
100
AcDbEntity
  8
RUNDUNGEN
100
AcDbSpline
 62
7
  6
CONTINUOUS
 70
0
 71
3
 72
9
 73
5
 74
0
 42
0.0000001
 43
0.0000001
 44
0.0000000001
 40
0.0
 40
0.0
 40
0.0
 40
0.0
 40
0.492156512
 40
1.0
 40
1.0
 40
1.0
 40
1.0
 10
751.5387306838
 20
242.2003876727
 30
0.0
 10
750.7884007867
 20
242.2003876727
 30
0.0
 10
749.2645669756
 20
242.1417623331
 30
0.0
 10
747.7403885128
 20
242.0986015027
 30
0.0
 10
746.9661426322
 20
242.0986015027
 30
0.0
  0
SPLINE
  5
4A7
100
AcDbEntity
  8
KONSTRUKTIONSELEMENTE
100
AcDbSpline
 62
7
  6
CONTINUOUS
 70
0
 71
3
 72
9
 73
5
 74
0
 42
0.0000001
 43
0.0000001
 44
0.0000000001
 40
0.0
 40
0.0
 40
0.0
 40
0.0
 40
0.7244773545
 40
1.0
 40
1.0
 40
1.0
 40
1.0
 10
776.6838482775
 20
204.9503876727
 30
0.0
 10
776.7021447415
 20
204.9503876727
 30
0.0
 10
776.7282325825
 20
204.9608463966
 30
0.0
 10
776.7451998524
 20
204.9795816339
 30
0.0
 10
776.7495089059
 20
204.9850450775
 30
0.0
  0
SPLINE
  5
4A8
100
AcDbEntity
  8
KONSTRUKTIONSELEMENTE
100
AcDbSpline
 62
7
  6
CONTINUOUS
 70
0
 71
3
 72
18
 73
14
 74
0
 42
0.0000001
 43
0.0000001
 44
0.0000000001
 40
0.0
 40
0.0
 40
0.0
 40
0.0
 40
0.0123460177
 40
0.0326550327
 40
0.0614188717
 40
0.0985579817
 40
0.1437753901
 40
0.1966304972
 40
0.3230251361
 40
0.4725670057
 40
0.6393127884
 40
0.8170773473
 40
1.0
 40
1.0
 40
1.0
 40
1.0
 10
776.7495089059
 20
204.9850450775
 30
0.0
 10
776.7792934701
 20
205.0228088899
 30
0.0
 10
776.8111148881
 20
205.1525529958
 30
0.0
 10
776.8218822313
 20
205.3891511068
 30
0.0
 10
776.8029422569
 20
205.7261554221
 30
0.0
 10
776.7530802049
 20
206.1557761033
 30
0.0
 10
776.6714914005
 20
206.6764582637
 30
0.0
 10
776.5098909032
 20
207.5358626014
 30
0.0
 10
776.2247083092
 20
208.7851207477
 30
0.0
 10
775.7734960081
 20
210.4500040818
 30
0.0
 10
775.1933216025
 20
212.2858202024
 30
0.0
 10
774.4836504676
 20
214.2149078633
 30
0.0
 10
773.9263316656
 20
215.5059289247
 30
0.0
 10
773.6222255286
 20
216.1503876727
 30
0.0
  0
SPLINE
  5
4A9
100
AcDbEntity
  8
KONSTRUKTIONSELEMENTE
100
AcDbSpline
 62
7
  6
CONTINUOUS
 70
0
 71
3
 72
9
 73
5
 74
0
 42
0.0000001
 43
0.0000001
 44
0.0000000001
 40
0.0
 40
0.0
 40
0.0
 40
0.0
 40
0.2510778321
 40
1.0
 40
1.0
 40
1.0
 40
1.0
 10
765.9601267767
 20
227.9327391155
 30
0.0
 10
766.3010239427
 20
227.875047057
 30
0.0
 10
767.6545368432
 20
227.6212280151
 30
0.0
 10
768.9901818398
 20
227.2702637116
 30
0.0
 10
769.9706164247
 20
226.9503876727
 30
0.0
  0
SPLINE
  5
4AA
100
AcDbEntity
  8
KONSTRUKTIONSELEMENTE
100
AcDbSpline
 62
7
  6
CONTINUOUS
 70
0
 71
3
 72
9
 73
5
 74
0
 42
0.0000001
 43
0.0000001
 44
0.0000000001
 40
0.0
 40
0.0
 40
0.0
 40
0.0
 40
0.248984136
 40
1.0
 40
1.0
 40
1.0
 40
1.0
 10
751.9496371288
 20
226.9503876727
 30
0.0
 10
752.2755939381
 20
227.0567341589
 30
0.0
 10
753.5929966305
 20
227.4582519687
 30
0.0
 10
754.9404311055
 20
227.7601699418
 30
0.0
 10
755.9601267767
 20
227.9327391155
 30
0.0
  0
SPLINE
  5
4AB
100
AcDbEntity
  8
KONSTRUKTIONSELEMENTE
100
AcDbSpline
 62
7
  6
CONTINUOUS
 70
0
 71
3
 72
12
 73
8
 74
0
 42
0.0000001
 43
0.0000001
 44
0.0000000001
 40
0.0
 40
0.0
 40
0.0
 40
0.0
 40
0.1250699247
 40
0.2501553866
 40
0.4997777447
 40
0.7498050362
 40
1.0
 40
1.0
 40
1.0
 40
1.0
 10
749.0037447153
 20
222.7907876727
 30
0.0
 10
749.0037447153
 20
223.0118480865
 30
0.0
 10
749.0509879909
 20
223.4553127886
 30
0.0
 10
749.3187616836
 20
224.3020643221
 30
0.0
 10
749.915873804
 20
225.2509229021
 30
0.0
 10
750.8593008806
 20
226.1904608806
 30
0.0
 10
751.5771188863
 20
226.7120871633
 30
0.0
 10
751.9496371288
 20
226.9503876727
 30
0.0
  0
SPLINE
  5
4AC
100
AcDbEntity
  8
KONSTRUKTIONSELEMENTE
100
AcDbSpline
 62
7
  6
CONTINUOUS
 70
0
 71
3
 72
9
 73
5
 74
0
 42
0.0000001
 43
0.0000001
 44
0.0000000001
 40
0.0
 40
0.0
 40
0.0
 40
0.0
 40
0.5002468695
 40
1.0
 40
1.0
 40
1.0
 40
1.0
 10
748.2980280248
 20
216.1503876727
 30
0.0
 10
748.5082680457
 20
216.5959262664
 30
0.0
 10
748.8652287545
 20
217.5201031987
 30
0.0
 10
749.0037447153
 20
218.5082224106
 30
0.0
 10
749.0037447153
 20
219.0003876727
 30
0.0
  0
SPLINE
  5
4AD
100
AcDbEntity
  8
KONSTRUKTIONSELEMENTE
100
AcDbSpline
 62
7
  6
CONTINUOUS
 70
0
 71
3
 72
9
 73
5
 74
0
 42
0.0000001
 43
0.0000001
 44
0.0000000001
 40
0.0
 40
0.0
 40
0.0
 40
0.0
 40
0.4997531305
 40
1.0
 40
1.0
 40
1.0
 40
1.0
 10
772.9165088382
 20
219.0003876727
 30
0.0
 10
772.9165088382
 20
218.5082224106
 30
0.0
 10
773.055024799
 20
217.5201031987
 30
0.0
 10
773.4119855078
 20
216.5959262664
 30
0.0
 10
773.6222255286
 20
216.1503876727
 30
0.0
  0
SPLINE
  5
4AE
100
AcDbEntity
  8
KONSTRUKTIONSELEMENTE
100
AcDbSpline
 62
7
  6
CONTINUOUS
 70
0
 71
3
 72
12
 73
8
 74
0
 42
0.0000001
 43
0.0000001
 44
0.0000000001
 40
0.0
 40
0.0
 40
0.0
 40
0.0
 40
0.2501944841
 40
0.5002215546
 40
0.7498441276
 40
0.8749297703
 40
1.0
 40
1.0
 40
1.0
 40
1.0
 10
769.9706164247
 20
226.9503876727
 30
0.0
 10
770.3431339526
 20
226.7120876204
 30
0.0
 10
771.0609509803
 20
226.1904621453
 30
0.0
 10
772.0043779038
 20
225.2509252383
 30
0.0
 10
772.6014906
 20
224.3020666969
 30
0.0
 10
772.8692654533
 20
223.4553142143
 30
0.0
 10
772.9165088382
 20
223.0118486256
 30
0.0
 10
772.9165088382
 20
222.7907876727
 30
0.0
  0
SPLINE
  5
4AF
100
AcDbEntity
  8
RUNDUNGEN
100
AcDbSpline
 62
7
  6
CONTINUOUS
 70
0
 71
3
 72
15
 73
11
 74
0
 42
0.0000001
 43
0.0000001
 44
0.0000000001
 40
0.0
 40
0.0
 40
0.0
 40
0.0
 40
0.0506580437
 40
0.0823029949
 40
0.1197229212
 40
0.2136507622
 40
0.3333912895
 40
0.4767107866
 40
0.6395049098
 40
1.0
 40
1.0
 40
1.0
 40
1.0
 10
783.9601267767
 20
225.98577058
 30
0.0
 10
783.9601267767
 20
226.0513732751
 30
0.0
 10
783.9144869835
 20
226.1575274829
 30
0.0
 10
783.806978067
 20
226.2689858605
 30
0.0
 10
783.6368378008
 20
226.395742398
 30
0.0
 10
783.3413345978
 20
226.5365476839
 30
0.0
 10
782.9004707448
 20
226.6777494741
 30
0.0
 10
782.3608261143
 20
226.7950287763
 30
0.0
 10
781.5057398897
 20
226.916689697
 30
0.0
 10
780.8269716793
 20
226.9503876727
 30
0.0
 10
780.3601267767
 20
226.9503876727
 30
0.0
  0
SPLINE
  5
4B0
100
AcDbEntity
  8
RUNDUNGEN
100
AcDbSpline
 62
7
  6
CONTINUOUS
 70
0
 71
3
 72
15
 73
11
 74
0
 42
0.0000001
 43
0.0000001
 44
0.0000000001
 40
0.0
 40
0.0
 40
0.0
 40
0.0
 40
0.0506580437
 40
0.0823029949
 40
0.1197229212
 40
0.2136507622
 40
0.3333912895
 40
0.4767107866
 40
0.6395049098
 40
1.0
 40
1.0
 40
1.0
 40
1.0
 10
783.9601267767
 20
231.1819230027
 30
0.0
 10
783.9601267767
 20
231.2475256978
 30
0.0
 10
783.9144869835
 20
231.3536799056
 30
0.0
 10
783.806978067
 20
231.4651382832
 30
0.0
 10
783.6368378008
 20
231.5918948207
 30
0.0
 10
783.3413345978
 20
231.7327001066
 30
0.0
 10
782.9004707448
 20
231.8739018968
 30
0.0
 10
782.3608261143
 20
231.991181199
 30
0.0
 10
781.5057398897
 20
232.1128421197
 30
0.0
 10
780.8269716793
 20
232.1465400954
 30
0.0
 10
780.3601267767
 20
232.1465400954
 30
0.0
  0
SPLINE
  5
4B1
100
AcDbEntity
  8
RUNDUNGEN
100
AcDbSpline
 62
7
  6
CONTINUOUS
 70
0
 71
3
 72
9
 73
5
 74
0
 42
0.0000001
 43
0.0000001
 44
0.0000000001
 40
0.0
 40
0.0
 40
0.0
 40
0.0
 40
0.4847438183
 40
1.0
 40
1.0
 40
1.0
 40
1.0
 10
780.41333789
 20
241.6739444634
 30
0.0
 10
780.0415202766
 20
241.8331732104
 30
0.0
 10
779.2273810537
 20
242.0534124043
 30
0.0
 10
778.3903712781
 20
242.1098029069
 30
0.0
 10
777.9604942774
 20
242.1025856259
 30
0.0
  0
SPLINE
  5
4B2
100
AcDbEntity
  8
KONSTRUKTIONSELEMENTE
100
AcDbSpline
 62
7
  6
CONTINUOUS
 70
0
 71
3
 72
19
 73
15
 74
0
 42
0.0000001
 43
0.0000001
 44
0.0000000001
 40
0.0
 40
0.0
 40
0.0
 40
0.0
 40
0.3765013995
 40
0.5490139416
 40
0.6282262524
 40
0.7015703823
 40
0.7682153434
 40
0.8274041076
 40
0.8784607165
 40
0.9208245315
 40
0.954081486
 40
0.967220656
 40
0.9780385153
 40
1.0
 40
1.0
 40
1.0
 40
1.0
 10
748.2980280248
 20
216.1503876727
 30
0.0
 10
747.6691387794
 20
214.817651741
 30
0.0
 10
746.8831244803
 20
212.8107002751
 30
0.0
 10
746.1545681795
 20
210.4619184152
 30
0.0
 10
745.8185611933
 20
209.2345994227
 30
0.0
 10
745.6099174832
 20
208.4023004635
 30
0.0
 10
745.4371803025
 20
207.6420525121
 30
0.0
 10
745.3002969908
 20
206.9631191008
 30
0.0
 10
745.1987911596
 20
206.3748409275
 30
0.0
 10
745.1329659449
 20
205.8819322271
 30
0.0
 10
745.1038990737
 20
205.5385994342
 30
0.0
 10
745.1026343175
 20
205.3095290464
 30
0.0
 10
745.1107034198
 20
205.1449908248
 30
0.0
 10
745.150445813
 20
204.9503876727
 30
0.0
 10
745.236405276
 20
204.9503876727
 30
0.0
  0
SPLINE
  5
4B3
100
AcDbEntity
  8
RUNDUNGEN
100
AcDbSpline
 62
7
  6
CONTINUOUS
 70
0
 71
3
 72
9
 73
5
 74
0
 42
0.0000001
 43
0.0000001
 44
0.0000000001
 40
0.0
 40
0.0
 40
0.0
 40
0.0
 40
0.5078433254
 40
1.0
 40
1.0
 40
1.0
 40
1.0
 10
774.9541109213
 20
242.0986015027
 30
0.0
 10
774.1798631021
 20
242.0986015027
 30
0.0
 10
772.6556803437
 20
242.1417628372
 30
0.0
 10
771.1318422134
 20
242.2003876727
 30
0.0
 10
770.3815099496
 20
242.2003876727
 30
0.0
  0
SPLINE
  5
4B4
100
AcDbEntity
  8
RUNDUNGEN
100
AcDbSpline
 62
7
  6
CONTINUOUS
 70
0
 71
3
 72
15
 73
11
 74
0
 42
0.0000001
 43
0.0000001
 44
0.0000000001
 40
0.0
 40
0.0
 40
0.0
 40
0.0
 40
0.0506580437
 40
0.0823029949
 40
0.1197229212
 40
0.2136507622
 40
0.3333912895
 40
0.4767107866
 40
0.6395049098
 40
1.0
 40
1.0
 40
1.0
 40
1.0
 10
737.9601267767
 20
231.1819230027
 30
0.0
 10
737.9601267767
 20
231.2475256978
 30
0.0
 10
738.00576657
 20
231.3536799056
 30
0.0
 10
738.1132754865
 20
231.4651382832
 30
0.0
 10
738.2834157527
 20
231.5918948207
 30
0.0
 10
738.5789189557
 20
231.7327001066
 30
0.0
 10
739.0197828087
 20
231.8739018968
 30
0.0
 10
739.5594274392
 20
231.991181199
 30
0.0
 10
740.4145136638
 20
232.1128421197
 30
0.0
 10
741.0932818742
 20
232.1465400954
 30
0.0
 10
741.5601267767
 20
232.1465400954
 30
0.0
  0
SPLINE
  5
4B5
100
AcDbEntity
  8
RUNDUNGEN
100
AcDbSpline
 62
7
  6
CONTINUOUS
 70
0
 71
3
 72
9
 73
5
 74
0
 42
0.0000001
 43
0.0000001
 44
0.0000000001
 40
0.0
 40
0.0
 40
0.0
 40
0.0
 40
0.5152567055
 40
1.0
 40
1.0
 40
1.0
 40
1.0
 10
743.9601267767
 20
242.1025794354
 30
0.0
 10
743.5301868775
 20
242.1098189858
 30
0.0
 10
742.6930517318
 20
242.0534524545
 30
0.0
 10
741.8787872088
 20
241.8331963064
 30
0.0
 10
741.5069156635
 20
241.6739444634
 30
0.0
  0
SPLINE
  5
4B6
100
AcDbEntity
  8
RUNDUNGEN
100
AcDbSpline
 62
7
  6
CONTINUOUS
 70
0
 71
3
 72
15
 73
11
 74
0
 42
0.0000001
 43
0.0000001
 44
0.0000000001
 40
0.0
 40
0.0
 40
0.0
 40
0.0
 40
0.3604950902
 40
0.5232892134
 40
0.6666087105
 40
0.7863492378
 40
0.8802770788
 40
0.9176970051
 40
0.9493419563
 40
1.0
 40
1.0
 40
1.0
 40
1.0
 10
741.5601267767
 20
226.9503876727
 30
0.0
 10
741.0932818742
 20
226.9503876727
 30
0.0
 10
740.4145136638
 20
226.916689697
 30
0.0
 10
739.5594274392
 20
226.7950287763
 30
0.0
 10
739.0197828087
 20
226.6777494741
 30
0.0
 10
738.5789189557
 20
226.5365476839
 30
0.0
 10
738.2834157527
 20
226.395742398
 30
0.0
 10
738.1132754865
 20
226.2689858605
 30
0.0
 10
738.00576657
 20
226.1575274829
 30
0.0
 10
737.9601267767
 20
226.0513732751
 30
0.0
 10
737.9601267767
 20
225.98577058
 30
0.0
  0
LINE
  5
4B7
100
AcDbEntity
  8
0
100
AcDbLine
 62
7
  6
CONTINUOUS
 10
347.6502939875
 20
225.98577058
 11
351.2502939875
 21
226.9503876727
  0
LINE
  5
4B8
100
AcDbEntity
  8
0
100
AcDbLine
 62
7
  6
CONTINUOUS
 10
344.6502939875
 20
231.1819230027
 11
348.2502939875
 21
232.1465400954
  0
SPLINE
  5
4B9
100
AcDbEntity
  8
0
100
AcDbSpline
 62
7
  6
CONTINUOUS
 70
0
 71
3
 72
12
 73
8
 74
0
 42
0.0000001
 43
0.0000001
 44
0.0000000001
 40
0.0
 40
0.0
 40
0.0
 40
0.0
 40
0.4034996404
 40
0.7049525015
 40
0.9021306037
 40
0.9625803574
 40
1.0
 40
1.0
 40
1.0
 40
1.0
 10
344.7649998699
 20
241.6739444634
 30
0.0
 10
344.8557293697
 20
241.7419856469
 30
0.0
 10
345.0167154294
 20
241.8579587317
 30
0.0
 10
345.2295793176
 20
241.9948891243
 30
0.0
 10
345.3678844458
 20
242.0720043074
 30
0.0
 10
345.4451594597
 20
242.1005476151
 30
0.0
 10
345.4734928176
 20
242.1050119423
 30
0.0
 10
345.4837263464
 20
242.1025856259
 30
0.0
  0
SPLINE
  5
4BA
100
AcDbEntity
  8
0
100
AcDbSpline
 62
7
  6
CONTINUOUS
 70
0
 71
3
 72
8
 73
4
 74
0
 42
0.0000001
 43
0.0000001
 44
0.0000000001
 40
0.0
 40
0.0
 40
0.0
 40
0.0
 40
1.0
 40
1.0
 40
1.0
 40
1.0
 10
336.7359168917
 20
248.7492085348
 30
0.0
 10
336.7758751646
 20
250.8228448721
 30
0.0
 10
336.9518756477
 20
252.8972254579
 30
0.0
 10
337.2452853317
 20
254.9503876727
 30
0.0
  0
SPLINE
  5
4BB
100
AcDbEntity
  8
0
100
AcDbSpline
 62
7
  6
CONTINUOUS
 70
0
 71
3
 72
11
 73
7
 74
0
 42
0.0000001
 43
0.0000001
 44
0.0000000001
 40
0.0
 40
0.0
 40
0.0
 40
0.0
 40
0.2577328834
 40
0.5000000007
 40
0.7422671179
 40
1.0
 40
1.0
 40
1.0
 40
1.0
 10
337.2452853317
 20
279.651041931
 30
0.0
 10
337.0839746117
 20
279.9534995308
 30
0.0
 10
336.8232570478
 20
280.5722042034
 30
0.0
 10
336.6803017551
 20
281.5616441898
 30
0.0
 10
336.8232570466
 20
282.5510841751
 30
0.0
 10
337.0839746125
 20
283.1697888447
 30
0.0
 10
337.2452853317
 20
283.472246443
 30
0.0
  0
SPLINE
  5
4BC
100
AcDbEntity
  8
0
100
AcDbSpline
 62
7
  6
CONTINUOUS
 70
0
 71
3
 72
9
 73
5
 74
0
 42
0.0000001
 43
0.0000001
 44
0.0000000001
 40
0.0
 40
0.0
 40
0.0
 40
0.0
 40
0.5000000008
 40
1.0
 40
1.0
 40
1.0
 40
1.0
 10
337.2452853317
 20
269.2113170579
 30
0.0
 10
336.9102758876
 20
270.9274348494
 30
0.0
 10
336.5436454202
 20
274.4311794974
 30
0.0
 10
336.9102758887
 20
277.9349241451
 30
0.0
 10
337.2452853317
 20
279.651041931
 30
0.0
  0
SPLINE
  5
4BD
100
AcDbEntity
  8
0
100
AcDbSpline
 62
7
  6
CONTINUOUS
 70
0
 71
3
 72
9
 73
5
 74
0
 42
0.0000001
 43
0.0000001
 44
0.0000000001
 40
0.0
 40
0.0
 40
0.0
 40
0.0
 40
0.5000000008
 40
1.0
 40
1.0
 40
1.0
 40
1.0
 10
337.2452853317
 20
254.9503876727
 30
0.0
 10
336.9081515969
 20
257.3095130986
 30
0.0
 10
336.5457697109
 20
262.0808523693
 30
0.0
 10
336.908151598
 20
266.8521916398
 30
0.0
 10
337.2452853317
 20
269.2113170579
 30
0.0
  0
SPLINE
  5
4BE
100
AcDbEntity
  8
0
100
AcDbSpline
 62
7
  6
CONTINUOUS
 70
0
 71
3
 72
11
 73
7
 74
0
 42
0.0000001
 43
0.0000001
 44
0.0000000001
 40
0.0
 40
0.0
 40
0.0
 40
0.0
 40
0.2577328834
 40
0.5000000007
 40
0.7422671179
 40
1.0
 40
1.0
 40
1.0
 40
1.0
 10
341.2553026434
 20
279.651041931
 30
0.0
 10
341.4166133633
 20
279.9534995308
 30
0.0
 10
341.6773309272
 20
280.5722042034
 30
0.0
 10
341.8202862199
 20
281.5616441898
 30
0.0
 10
341.6773309284
 20
282.5510841751
 30
0.0
 10
341.4166133625
 20
283.1697888447
 30
0.0
 10
341.2553026434
 20
283.472246443
 30
0.0
  0
SPLINE
  5
4BF
100
AcDbEntity
  8
0
100
AcDbSpline
 62
7
  6
CONTINUOUS
 70
0
 71
3
 72
9
 73
5
 74
0
 42
0.0000001
 43
0.0000001
 44
0.0000000001
 40
0.0
 40
0.0
 40
0.0
 40
0.0
 40
0.5000000008
 40
1.0
 40
1.0
 40
1.0
 40
1.0
 10
341.2553026434
 20
269.2113170579
 30
0.0
 10
341.5903120874
 20
270.9274348494
 30
0.0
 10
341.9569425548
 20
274.4311794974
 30
0.0
 10
341.5903120863
 20
277.9349241451
 30
0.0
 10
341.2553026434
 20
279.651041931
 30
0.0
  0
SPLINE
  5
4C0
100
AcDbEntity
  8
0
100
AcDbSpline
 62
7
  6
CONTINUOUS
 70
0
 71
3
 72
9
 73
5
 74
0
 42
0.0000001
 43
0.0000001
 44
0.0000000001
 40
0.0
 40
0.0
 40
0.0
 40
0.0
 40
0.5000000008
 40
1.0
 40
1.0
 40
1.0
 40
1.0
 10
341.2553026434
 20
254.9503876727
 30
0.0
 10
341.5924363781
 20
257.3095130986
 30
0.0
 10
341.9548182641
 20
262.0808523693
 30
0.0
 10
341.592436377
 20
266.8521916398
 30
0.0
 10
341.2553026434
 20
269.2113170579
 30
0.0
  0
SPLINE
  5
4C1
100
AcDbEntity
  8
0
100
AcDbSpline
 62
7
  6
CONTINUOUS
 70
0
 71
3
 72
8
 73
4
 74
0
 42
0.0000001
 43
0.0000001
 44
0.0000000001
 40
0.0
 40
0.0
 40
0.0
 40
0.0
 40
1.0
 40
1.0
 40
1.0
 40
1.0
 10
341.7646710833
 20
248.7492085348
 30
0.0
 10
341.7247128104
 20
250.8228448721
 30
0.0
 10
341.5487123273
 20
252.8972254579
 30
0.0
 10
341.2553026434
 20
254.9503876727
 30
0.0
  0
LINE
  5
4C2
100
AcDbEntity
  8
RUNDUNGEN
100
AcDbLine
 62
7
  6
CONTINUOUS
 10
330.8502939875
 20
225.98577058
 11
327.2502939875
 21
226.9503876727
  0
LINE
  5
4C3
100
AcDbEntity
  8
RUNDUNGEN
100
AcDbLine
 62
7
  6
CONTINUOUS
 10
333.8502939875
 20
231.1819230027
 11
330.2502939875
 21
232.1465400954
  0
SPLINE
  5
4C4
100
AcDbEntity
  8
RUNDUNGEN
100
AcDbSpline
 62
7
  6
CONTINUOUS
 70
0
 71
3
 72
12
 73
8
 74
0
 42
0.0000001
 43
0.0000001
 44
0.0000000001
 40
0.0
 40
0.0
 40
0.0
 40
0.0
 40
0.4034996404
 40
0.7049525015
 40
0.9021306037
 40
0.9625803574
 40
1.0
 40
1.0
 40
1.0
 40
1.0
 10
333.7355881052
 20
241.6739444634
 30
0.0
 10
333.6448586054
 20
241.7419856469
 30
0.0
 10
333.4838725456
 20
241.8579587317
 30
0.0
 10
333.2710086574
 20
241.9948891243
 30
0.0
 10
333.1327035293
 20
242.0720043074
 30
0.0
 10
333.0554285154
 20
242.1005476151
 30
0.0
 10
333.0270951574
 20
242.1050119423
 30
0.0
 10
333.0168616287
 20
242.1025856259
 30
0.0
  0
SPLINE
  5
4C5
100
AcDbEntity
  8
RUNDUNGEN
100
AcDbSpline
 62
7
  6
CONTINUOUS
 70
0
 71
3
 72
19
 73
15
 74
0
 42
0.0000001
 43
0.0000001
 44
0.0000000001
 40
0.0
 40
0.0
 40
0.0
 40
0.0
 40
0.0667864241
 40
0.1315850639
 40
0.1626310347
 40
0.1925849909
 40
0.2501497881
 40
0.3072253161
 40
0.3650911825
 40
0.4841800441
 40
0.6082584907
 40
0.7362931351
 40
0.8671967087
 40
1.0
 40
1.0
 40
1.0
 40
1.0
 10
332.9094207026
 20
210.9485876727
 30
0.0
 10
332.6796803098
 20
210.9485876727
 30
0.0
 10
332.2250076027
 20
210.9132885518
 30
0.0
 10
331.69052391
 20
210.7010687255
 30
0.0
 10
331.3629709134
 20
210.4120606231
 30
0.0
 10
331.1271838786
 20
210.0748478681
 30
0.0
 10
330.9910572441
 20
209.5807010876
 30
0.0
 10
331.0395726611
 20
208.9812472293
 30
0.0
 10
331.3016587797
 20
208.2137551971
 30
0.0
 10
331.9080535752
 20
207.3512742273
 30
0.0
 10
332.8830429372
 20
206.5140717769
 30
0.0
 10
334.032434941
 20
205.8562077858
 30
0.0
 10
335.2964248756
 20
205.3762873433
 30
0.0
 10
336.1835436458
 20
205.1726584086
 30
0.0
 10
336.6343323249
 20
205.0985876727
 30
0.0
  0
SPLINE
  5
4C6
100
AcDbEntity
  8
0
100
AcDbSpline
 62
7
  6
CONTINUOUS
 70
0
 71
3
 72
19
 73
15
 74
0
 42
0.0000001
 43
0.0000001
 44
0.0000000001
 40
0.0
 40
0.0
 40
0.0
 40
0.0
 40
0.0667864241
 40
0.1315850639
 40
0.1626310347
 40
0.1925849909
 40
0.2501497881
 40
0.3072253161
 40
0.3650911825
 40
0.4841800441
 40
0.6082584907
 40
0.7362931351
 40
0.8671967087
 40
1.0
 40
1.0
 40
1.0
 40
1.0
 10
345.5911672725
 20
210.9485876727
 30
0.0
 10
345.8209076652
 20
210.9485876727
 30
0.0
 10
346.2755803723
 20
210.9132885518
 30
0.0
 10
346.8100640651
 20
210.7010687255
 30
0.0
 10
347.1376170617
 20
210.4120606231
 30
0.0
 10
347.3734040964
 20
210.0748478681
 30
0.0
 10
347.5095307309
 20
209.5807010876
 30
0.0
 10
347.4610153139
 20
208.9812472293
 30
0.0
 10
347.1989291954
 20
208.2137551971
 30
0.0
 10
346.5925343999
 20
207.3512742273
 30
0.0
 10
345.6175450378
 20
206.5140717769
 30
0.0
 10
344.468153034
 20
205.8562077858
 30
0.0
 10
343.2041630994
 20
205.3762873433
 30
0.0
 10
342.3170443293
 20
205.1726584086
 30
0.0
 10
341.8662556501
 20
205.0985876727
 30
0.0
  0
ELLIPSE
  5
4C7
100
AcDbEntity
  8
0
100
AcDbEllipse
 62
7
  6
CONTINUOUS
 10
345.3831615234
 20
236.2003876727
 30
0.0
 11
0.9758284841
 21
5.9793501608
 31
0.0
 40
0.5096845585
 41
0.5409540901
 42
1.6537856735
  0
ELLIPSE
  5
4C8
100
AcDbEntity
  8
RUNDUNGEN
100
AcDbEllipse
 62
7
  6
CONTINUOUS
 10
333.1174264517
 20
236.2003876727
 30
0.0
 11
-0.9758284841
 21
5.9793501608
 31
0.0
 40
0.5096845585
 41
-1.6537856735
 42
-0.5409540901
  0
ENDSEC
  0
SECTION
  2
OBJECTS
  0
DICTIONARY
  5
C
100
AcDbDictionary
280
0
281
1
  3
ACAD_GROUP
350
D
  3
ACAD_MLINESTYLE
350
17
  3
ACAD_LAYOUT
350
1A
  3
ACAD_PLOTSETTINGS
350
19
  3
ACAD_PLOTSTYLENAME
350
E
  0
DICTIONARY
  5
D
102
{ACAD_REACTORS
330
C
102
}
100
AcDbDictionary
280
0
281
1
  0
ACDBDICTIONARYWDFLT
  5
E
102
{ACAD_REACTORS
330
C
102
}
100
AcDbDictionary
281
1
  3
Normal
350
F
100
AcDbDictionaryWithDefault
340
F
  0
DICTIONARY
  5
17
102
{ACAD_REACTORS
330
C
102
}
100
AcDbDictionary
280
0
281
1
  3
Standard
350
18
  0
DICTIONARY
  5
19
102
{ACAD_REACTORS
330
C
102
}
100
AcDbDictionary
281
1
  0
DICTIONARY
  5
1A
102
{ACAD_REACTORS
330
C
102
}
100
AcDbDictionary
281
1
  3
Model
350
4C9
  3
Layout1
350
4CA
  0
ACDBPLACEHOLDER
  5
F
102
{ACAD_REACTORS
330
E
102
}
  0
MLINESTYLE
  5
18
102
{ACAD_REACTORS
330
17
102
}
100
AcDbMlineStyle
  2
STANDARD
 70
0
  3

 62
256
 51
90.0
 52
90.0
 71
2
 49
0.5
 62
256
  6
BYLAYER
 49
-0.5
 62
256
  6
BYLAYER
  0
LAYOUT
  5
4C9
102
{ACAD_REACTORS
330
1A
102
}
100
AcDbPlotSettings
  1

  2
none_device
  4
ISO_A0_(1189.00_x_841.00_MM)
  6

 40
0.0
 41
0.0
 42
0.0
 43
0.0
 44
1189.0
 45
841.0
 46
0.0
 47
0.0
 48
0.0
 49
0.0
140
0.0
141
0.0
142
1.0
143
1.0
 70
1024
 72
1
 73
0
 74
0
  7

 75
0
147
1.0
148
0.0
149
0.0
100
AcDbLayout
  1
Model
 70
0
 71
0
 10
0.0
 20
0.0
 11
1189.0
 21
841.0
 12
0.0
 22
0.0
 32
0.0
 14
0.0
 24
0.0
 34
0.0
 15
0.0
 25
0.0
 35
0.0
146
0.0
 13
0.0
 23
0.0
 33
0.0
 16
1.0
 26
0.0
 36
0.0
 17
0.0
 27
1.0
 37
0.0
 76
0
330
20A
345
0
346
0
  0
LAYOUT
  5
4CA
102
{ACAD_REACTORS
330
1A
102
}
100
AcDbPlotSettings
  1

  2
none_device
  4
ISO_A0_(1189.00_x_841.00_MM)
  6

 40
0.0
 41
0.0
 42
0.0
 43
0.0
 44
1189.0
 45
841.0
 46
0.0
 47
0.0
 48
0.0
 49
0.0
140
0.0
141
0.0
142
1.0
143
1.0
 70
0
 72
1
 73
0
 74
0
  7

 75
0
147
1.0
148
0.0
149
0.0
100
AcDbLayout
  1
Layout1
 70
0
 71
1
 10
0.0
 20
0.0
 11
1189.0
 21
841.0
 12
0.0
 22
0.0
 32
0.0
 14
0.0
 24
0.0
 34
0.0
 15
0.0
 25
0.0
 35
0.0
146
0.0
 13
0.0
 23
0.0
 33
0.0
 16
1.0
 26
0.0
 36
0.0
 17
0.0
 27
1.0
 37
0.0
 76
0
330
20B
345
0
346
0
  0
ENDSEC
  0
EOF
