999
DXF file: ISAK-RG-1-8_140_7903183_M34585-P-2.dxf
999
Pro/ENGINEER 2010140 by Parametric Technology Corporation
  0
SECTION
  2
HEADER
  9
$ACADVER
  1
AC1015
  9
$DWGCODEPAGE
  3
ANSI_1252
  9
$EXTMAX
 10
841.0
 20
594.0
 30
0.0
  9
$EXTMIN
 10
0.0
 20
0.0
 30
0.0
  9
$LIMMIN
 10
0.0
 20
0.0
  9
$LIMMAX
 10
841.0
 20
594.0
  9
$VIEWCTR
 10
420.5
 20
297.0
  9
$VIEWSIZE
 40
594.0
  9
$CLAYER
  8
0
  9
$LTSCALE
 40
46.255
  9
$CELTYPE
  6
BYLAYER
  9
$DIMSCALE
 40
1.0
  9
$DIMASZ
 40
3.5
  9
$DIMEXO
 40
5.25625
  9
$DIMDLI
 40
31.958
  9
$DIMEXE
 40
15.138
  9
$DIMCEN
 40
7.569
  9
$DIMLFAC
 40
1.0
  9
$DIMBLK
  1
_FILLED
  9
$DIMTXT
 40
3.5
  9
$DIMTOL
 70
1
  9
$DIMLIM
 70
0
  9
$DIMTFAC
 40
1.0
  9
$DIMTP
 40
0.005
  9
$DIMTM
 40
0.005
  9
$PDMODE
 70
3
  9
$PDSIZE
 40
0.3125
  9
$HANDSEED
  5
4CB
  9
$TILEMODE
 70
1
  9
$MEASUREMENT
 70
1
  9
$INSUNITS
 70
4
  0
ENDSEC
  0
SECTION
  2
CLASSES
  0
CLASS
  1
ACDBDICTIONARYWDFLT
  2
AcDbDictionaryWithDefault
  3
AutoCAD 2000
 90
0
280
0
281
0
  0
CLASS
  1
ACDBPLACEHOLDER
  2
AcDbPlaceHolder
  3
AutoCAD 2000
 90
0
280
0
281
0
  0
CLASS
  1
LAYOUT
  2
AcDbLayout
  3
AutoCAD 2000
 90
0
280
0
281
0
  0
ENDSEC
  0
SECTION
  2
TABLES
  0
TABLE
  2
VPORT
  5
8
100
AcDbSymbolTable
 70
2
  0
VPORT
  5
1F4
100
AcDbSymbolTableRecord
100
AcDbViewportTableRecord
  2
*ACTIVE
 70
0
 10
0.0
 20
0.0
 11
1.0
 21
1.0
 12
420.5
 22
297.0
 13
0.0
 23
0.0
 14
1.0
 24
1.0
 15
0.0
 25
0.0
 16
0.0
 26
0.0
 36
1.0
 17
0.0
 27
0.0
 37
0.0
 40
594.0
 41
1.4158249158
 42
50.0
 43
0.0
 44
0.0
 50
0.0
 51
0.0
 71
0
 72
100
 73
1
 74
1
 75
0
 76
0
 77
0
 78
0
  0
ENDTAB
  0
TABLE
  2
LTYPE
  5
5
100
AcDbSymbolTable
 70
6
  0
LTYPE
  5
14
100
AcDbSymbolTableRecord
100
AcDbLinetypeTableRecord
  2
BYBLOCK
 70
0
  3

 72
65
 73
0
 40
0.0
  0
LTYPE
  5
15
100
AcDbSymbolTableRecord
100
AcDbLinetypeTableRecord
  2
BYLAYER
 70
0
  3

 72
65
 73
0
 40
0.0
  0
LTYPE
  5
16
100
AcDbSymbolTableRecord
100
AcDbLinetypeTableRecord
  2
CONTINUOUS
 70
64
  3
Solid line
 72
65
 73
0
 40
0.0
  0
LTYPE
  5
1F5
100
AcDbSymbolTableRecord
100
AcDbLinetypeTableRecord
  2
CENTER
 70
64
  3
____ _ ____ _ ____ _ ____ _ ____ _ ____ _ ____
 72
65
 73
4
 40
0.6
 49
0.375
 74
0
 49
-0.075
 74
0
 49
0.075
 74
0
 49
-0.075
 74
0
  0
LTYPE
  5
1F6
100
AcDbSymbolTableRecord
100
AcDbLinetypeTableRecord
  2
HIDDEN
 70
64
  3
- - - - - - - - - - - - - - - - - - - -
 72
65
 73
2
 40
0.2
 49
0.1
 74
0
 49
-0.1
 74
0
  0
LTYPE
  5
1F7
100
AcDbSymbolTableRecord
100
AcDbLinetypeTableRecord
  2
PHANTOM
 70
64
  3
_____ _ _ _____ _ _ _____ _ _ _____
 72
65
 73
6
 40
0.8
 49
0.45
 74
0
 49
-0.05
 74
0
 49
0.1
 74
0
 49
-0.05
 74
0
 49
0.1
 74
0
 49
-0.05
 74
0
  0
LTYPE
  5
1F8
100
AcDbSymbolTableRecord
100
AcDbLinetypeTableRecord
  2
DOT
 70
64
  3
. . . . . . . . . . . . . . . . . . . .
 72
65
 73
2
 40
0.2
 49
0.1
 74
0
 49
-0.1
 74
0
  0
LTYPE
  5
1F9
100
AcDbSymbolTableRecord
100
AcDbLinetypeTableRecord
  2
DASHED
 70
64
  3
- - - - - - - - - - - - - - - - - - - -
 72
65
 73
2
 40
0.2
 49
0.1
 74
0
 49
-0.1
 74
0
  0
ENDTAB
  0
TABLE
  2
LAYER
  5
2
100
AcDbSymbolTable
 70
36
  0
LAYER
  5
10
100
AcDbSymbolTableRecord
100
AcDbLayerTableRecord
  2
0
 70
0
 62
7
  6
CONTINUOUS
370
-3
390
F
  0
LAYER
  5
1FA
100
AcDbSymbolTableRecord
100
AcDbLayerTableRecord
  2
DEFAULT_1
 70
0
 62
7
  6
CENTER
370
-3
390
F
  0
LAYER
  5
1FB
100
AcDbSymbolTableRecord
100
AcDbLayerTableRecord
  2
DEFAULT_2
 70
0
 62
8
  6
HIDDEN
370
-3
390
F
  0
LAYER
  5
1FC
100
AcDbSymbolTableRecord
100
AcDbLayerTableRecord
  2
DEFAULT_3
 70
0
 62
7
  6
PHANTOM
370
-3
390
F
  0
LAYER
  5
1FD
100
AcDbSymbolTableRecord
100
AcDbLayerTableRecord
  2
BEZUGSACHSEN
 70
0
 62
7
  6
CONTINUOUS
370
-3
390
F
  0
LAYER
  5
1FE
100
AcDbSymbolTableRecord
100
AcDbLayerTableRecord
  2
BEZUGSEBENEN
 70
0
 62
7
  6
CONTINUOUS
370
-3
390
F
  0
LAYER
  5
1FF
100
AcDbSymbolTableRecord
100
AcDbLayerTableRecord
  2
BG_STARTBEZUEGE
 70
0
 62
7
  6
CONTINUOUS
370
-3
390
F
  0
LAYER
  5
200
100
AcDbSymbolTableRecord
100
AcDbLayerTableRecord
  2
FASEN
 70
0
 62
7
  6
CONTINUOUS
370
-3
390
F
  0
LAYER
  5
201
100
AcDbSymbolTableRecord
100
AcDbLayerTableRecord
  2
HILFEN
 70
0
 62
7
  6
CONTINUOUS
370
-3
390
F
  0
LAYER
  5
202
100
AcDbSymbolTableRecord
100
AcDbLayerTableRecord
  2
KONSTRUKTIONSELEMENTE
 70
0
 62
7
  6
CONTINUOUS
370
-3
390
F
  0
LAYER
  5
203
100
AcDbSymbolTableRecord
100
AcDbLayerTableRecord
  2
NORM
 70
0
 62
7
  6
CONTINUOUS
370
-3
390
F
  0
LAYER
  5
204
100
AcDbSymbolTableRecord
100
AcDbLayerTableRecord
  2
PLATZIERUNG
 70
0
 62
7
  6
CONTINUOUS
370
-3
390
F
  0
LAYER
  5
205
100
AcDbSymbolTableRecord
100
AcDbLayerTableRecord
  2
RUNDUNGEN
 70
0
 62
7
  6
CONTINUOUS
370
-3
390
F
  0
LAYER
  5
206
100
AcDbSymbolTableRecord
100
AcDbLayerTableRecord
  2
TEIL_STARTBEZUEGE
 70
0
 62
7
  6
CONTINUOUS
370
-3
390
F
  0
LAYER
  5
207
100
AcDbSymbolTableRecord
100
AcDbLayerTableRecord
  2
T_STARTBEZUEGE
 70
0
 62
7
  6
CONTINUOUS
370
-3
390
F
  0
ENDTAB
  0
TABLE
  2
STYLE
  5
3
100
AcDbSymbolTable
 70
1
  0
STYLE
  5
11
100
AcDbSymbolTableRecord
100
AcDbTextStyleTableRecord
  2
STANDARD
 70
0
 40
0.0
 41
0.7
 50
0.0
 71
0
 42
0.2
  3
txt
  4

  0
STYLE
  5
208
100
AcDbSymbolTableRecord
100
AcDbTextStyleTableRecord
  2
TEXTSTYLE_1
 70
0
 40
0.0
 41
0.8
 50
0.0
 71
0
 42
0.2
  3
gdt
  4

  0
ENDTAB
  0
TABLE
  2
VIEW
  5
6
100
AcDbSymbolTable
 70
0
  0
ENDTAB
  0
TABLE
  2
UCS
  5
7
100
AcDbSymbolTable
 70
0
  0
ENDTAB
  0
TABLE
  2
APPID
  5
9
100
AcDbSymbolTable
 70
1
  0
APPID
  5
209
100
AcDbSymbolTableRecord
100
AcDbRegAppTableRecord
  2
ACAD
 70
0
  0
ENDTAB
  0
TABLE
  2
BLOCK_RECORD
  5
1
100
AcDbSymbolTable
 70
0
  0
BLOCK_RECORD
  5
20A
100
AcDbSymbolTableRecord
100
AcDbBlockTableRecord
  2
*Model_Space
  0
BLOCK_RECORD
  5
20B
100
AcDbSymbolTableRecord
100
AcDbBlockTableRecord
  2
*Paper_Space
  0
ENDTAB
  0
TABLE
  2
DIMSTYLE
  5
A
100
AcDbSymbolTable
 70
1
100
AcDbDimStyleTable
 71
0
  0
DIMSTYLE
105
20C
100
AcDbSymbolTableRecord
100
AcDbDimStyleTableRecord
  2
STANDARD
 70
0
  3

  4

 40
1.0
 41
3.5
 42
0.0625
 43
0.38
 44
0.18
 45
0.0
 46
0.0
 47
0.005
 48
0.005
140
3.5
141
0.09
142
0.0
143
25.4
144
1.0
145
0.0
146
1.0
147
0.09
 71
1.0
 72
0.0
 73
0
 74
0
 75
0
 76
0
 77
1
 78
8
170
0
171
2
172
0
173
0
174
0
175
0
176
0
177
0
178
5
270
2
271
3
272
3
273
2
274
2
275
0
280
0
281
0
282
0
283
1
284
8
285
0
286
0
287
3
288
0
340
11
  0
ENDTAB
  0
ENDSEC
  0
SECTION
  2
BLOCKS
  0
BLOCK
  5
20
100
AcDbEntity
  8
0
100
AcDbBlockBegin
  2
*Model_Space
 70
0
 10
0.0
 20
0.0
 30
0.0
  3
*Model_Space
  1

  0
ENDBLK
  5
21
100
AcDbEntity
  8
0
100
AcDbBlockEnd
  0
BLOCK
  5
1C
100
AcDbEntity
  8
0
100
AcDbBlockBegin
  2
*Paper_Space
 70
0
 10
0.0
 20
0.0
 30
0.0
  3
*Paper_Space
  1

  0
ENDBLK
  5
1D
100
AcDbEntity
  8
0
100
AcDbBlockEnd
  0
ENDSEC
  0
SECTION
  2
ENTITIES
  0
MTEXT
  5
20D
100
AcDbEntity
  8
0
100
AcDbMText
 62
5
  6
CONTINUOUS
  7
STANDARD
 71
1
 72
1
 10
475.688641303
 20
369.1192809732
 30
0.0
 11
0.0
 21
1.0
 31
0.0
 44
0.9
  1
RUD
 40
11.0
 41
29.3333333333
  0
MTEXT
  5
20E
100
AcDbEntity
  8
0
100
AcDbMText
 62
5
  6
CONTINUOUS
  7
STANDARD
 71
1
 72
1
 10
637.737838242
 20
325.8931709892
 30
0.0
 11
0.0
 21
1.0
 31
0.0
 44
0.9
  1
ISAK-RG 1-8/140
 40
11.0
 41
124.4047619048
  0
MTEXT
  5
20F
100
AcDbEntity
  8
0
100
AcDbMText
 62
5
  6
CONTINUOUS
  7
STANDARD
 71
1
 72
1
 10
234.2286590347
 20
307.7657248848
 30
0.0
 11
0.0
 21
1.0
 31
0.0
 44
0.9
  1
RUD ISAK-RG 1-8/140
 40
11.0
 41
160.2857142857
  0
LINE
  5
210
100
AcDbEntity
  8
0
100
AcDbLine
 62
7
  6
CONTINUOUS
 10
0.0
 20
0.0
 11
0.0
 21
594.0
  0
LINE
  5
211
100
AcDbEntity
  8
0
100
AcDbLine
 62
7
  6
CONTINUOUS
 10
0.0
 20
0.0
 11
841.0
 21
0.0
  0
LINE
  5
212
100
AcDbEntity
  8
0
100
AcDbLine
 62
7
  6
CONTINUOUS
 10
0.0
 20
594.0
 11
841.0
 21
594.0
  0
LINE
  5
213
100
AcDbEntity
  8
0
100
AcDbLine
 62
7
  6
CONTINUOUS
 10
841.0
 20
0.0
 11
841.0
 21
594.0
  0
LINE
  5
214
100
AcDbEntity
  8
RUNDUNGEN
100
AcDbLine
 62
7
  6
CONTINUOUS
 10
538.4019444965
 20
26.2352243884
 11
541.0019444965
 21
26.2352243884
  0
LINE
  5
215
100
AcDbEntity
  8
RUNDUNGEN
100
AcDbLine
 62
7
  6
CONTINUOUS
 10
582.8019444965
 20
26.2352243884
 11
585.4019444965
 21
26.2352243884
  0
LINE
  5
216
100
AcDbEntity
  8
RUNDUNGEN
100
AcDbLine
 62
7
  6
CONTINUOUS
 10
545.0019444965
 20
33.3062922002
 11
550.4516546381
 21
33.3062922002
  0
LINE
  5
217
100
AcDbEntity
  8
RUNDUNGEN
100
AcDbLine
 62
7
  6
CONTINUOUS
 10
573.352234355
 20
33.3062922002
 11
578.8019444965
 21
33.3062922002
  0
LINE
  5
218
100
AcDbEntity
  8
0
100
AcDbLine
 62
7
  6
CONTINUOUS
 10
550.7121303083
 20
66.1160468473
 11
554.5521303083
 21
66.1160468473
  0
LINE
  5
219
100
AcDbEntity
  8
0
100
AcDbLine
 62
7
  6
CONTINUOUS
 10
556.5887713495
 20
66.1160468473
 11
557.3567713495
 21
66.1160468473
  0
LINE
  5
21A
100
AcDbEntity
  8
0
100
AcDbLine
 62
7
  6
CONTINUOUS
 10
561.0151344831
 20
66.1160468473
 11
561.9019444965
 21
66.1160468473
  0
LINE
  5
21B
100
AcDbEntity
  8
0
100
AcDbLine
 62
7
  6
CONTINUOUS
 10
568.584079638
 20
66.1160468473
 11
571.3664532921
 21
66.1160468473
  0
LINE
  5
21C
100
AcDbEntity
  8
0
100
AcDbLine
 62
7
  6
CONTINUOUS
 10
550.7121303083
 20
66.3988895598
 11
554.5521303083
 21
66.3988895598
  0
LINE
  5
21D
100
AcDbEntity
  8
0
100
AcDbLine
 62
7
  6
CONTINUOUS
 10
556.5887713495
 20
66.3988895598
 11
557.3567713495
 21
66.3988895598
  0
LINE
  5
21E
100
AcDbEntity
  8
0
100
AcDbLine
 62
7
  6
CONTINUOUS
 10
561.0151344831
 20
66.3988895598
 11
561.6710043889
 21
66.3988895598
  0
LINE
  5
21F
100
AcDbEntity
  8
0
100
AcDbLine
 62
7
  6
CONTINUOUS
 10
568.584079638
 20
66.3988895598
 11
571.3664532921
 21
66.3988895598
  0
LINE
  5
220
100
AcDbEntity
  8
0
100
AcDbLine
 62
7
  6
CONTINUOUS
 10
571.3832824744
 20
66.6817322722
 11
569.352079638
 21
66.6817322722
  0
LINE
  5
221
100
AcDbEntity
  8
0
100
AcDbLine
 62
7
  6
CONTINUOUS
 10
553.2321303083
 20
66.7948693572
 11
552.0321303083
 21
66.7948693572
  0
LINE
  5
222
100
AcDbEntity
  8
0
100
AcDbLine
 62
7
  6
CONTINUOUS
 10
552.2481303083
 20
67.0494277985
 11
553.0161303083
 21
67.0494277985
  0
LINE
  5
223
100
AcDbEntity
  8
0
100
AcDbLine
 62
7
  6
CONTINUOUS
 10
552.2481303083
 20
67.3322705109
 11
553.0161303083
 21
67.3322705109
  0
LINE
  5
224
100
AcDbEntity
  8
0
100
AcDbLine
 62
7
  6
CONTINUOUS
 10
552.7161303083
 20
67.7282503084
 11
552.5481303083
 21
67.7282503084
  0
LINE
  5
225
100
AcDbEntity
  8
0
100
AcDbLine
 62
7
  6
CONTINUOUS
 10
553.0161303083
 20
67.8979559359
 11
552.8121303083
 21
67.8979559359
  0
LINE
  5
226
100
AcDbEntity
  8
0
100
AcDbLine
 62
7
  6
CONTINUOUS
 10
552.4521303083
 20
67.8979559359
 11
552.2481303083
 21
67.8979559359
  0
LINE
  5
227
100
AcDbEntity
  8
0
100
AcDbLine
 62
7
  6
CONTINUOUS
 10
552.0321303083
 20
68.1525143771
 11
552.4521303083
 21
68.1525143771
  0
LINE
  5
228
100
AcDbEntity
  8
0
100
AcDbLine
 62
7
  6
CONTINUOUS
 10
552.8121303083
 20
68.1525143771
 11
553.2321303083
 21
68.1525143771
  0
LINE
  5
229
100
AcDbEntity
  8
0
100
AcDbLine
 62
7
  6
CONTINUOUS
 10
557.3567713495
 20
68.2450981797
 11
559.2767713495
 21
68.2450981797
  0
LINE
  5
22A
100
AcDbEntity
  8
0
100
AcDbLine
 62
7
  6
CONTINUOUS
 10
552.0321303083
 20
68.4353570896
 11
552.4521303083
 21
68.4353570896
  0
LINE
  5
22B
100
AcDbEntity
  8
0
100
AcDbLine
 62
7
  6
CONTINUOUS
 10
552.8121303083
 20
68.4353570896
 11
553.2321303083
 21
68.4353570896
  0
LINE
  5
22C
100
AcDbEntity
  8
0
100
AcDbLine
 62
7
  6
CONTINUOUS
 10
553.2321303083
 20
68.4919256321
 11
552.8121303083
 21
68.4919256321
  0
LINE
  5
22D
100
AcDbEntity
  8
0
100
AcDbLine
 62
7
  6
CONTINUOUS
 10
552.4521303083
 20
68.4919256321
 11
552.0321303083
 21
68.4919256321
  0
LINE
  5
22E
100
AcDbEntity
  8
0
100
AcDbLine
 62
7
  6
CONTINUOUS
 10
557.3567713495
 20
68.5279408922
 11
559.2767713495
 21
68.5279408922
  0
LINE
  5
22F
100
AcDbEntity
  8
0
100
AcDbLine
 62
7
  6
CONTINUOUS
 10
552.2481303083
 20
68.7464840733
 11
552.4521303083
 21
68.7464840733
  0
LINE
  5
230
100
AcDbEntity
  8
0
100
AcDbLine
 62
7
  6
CONTINUOUS
 10
552.8121303083
 20
68.7464840733
 11
553.0161303083
 21
68.7464840733
  0
LINE
  5
231
100
AcDbEntity
  8
0
100
AcDbLine
 62
7
  6
CONTINUOUS
 10
559.5967713495
 20
68.7881561877
 11
557.3567713495
 21
68.7881561877
  0
LINE
  5
232
100
AcDbEntity
  8
0
100
AcDbLine
 62
7
  6
CONTINUOUS
 10
552.5481303083
 20
68.9161897008
 11
552.7161303083
 21
68.9161897008
  0
LINE
  5
233
100
AcDbEntity
  8
0
100
AcDbLine
 62
7
  6
CONTINUOUS
 10
552.2481303083
 20
69.0293267858
 11
552.4521303083
 21
69.0293267858
  0
LINE
  5
234
100
AcDbEntity
  8
0
100
AcDbLine
 62
7
  6
CONTINUOUS
 10
552.8121303083
 20
69.0293267858
 11
553.0161303083
 21
69.0293267858
  0
LINE
  5
235
100
AcDbEntity
  8
0
100
AcDbLine
 62
7
  6
CONTINUOUS
 10
552.5481303083
 20
69.1990324133
 11
552.7161303083
 21
69.1990324133
  0
LINE
  5
236
100
AcDbEntity
  8
0
100
AcDbLine
 62
7
  6
CONTINUOUS
 10
569.352079638
 20
69.510159397
 11
568.584079638
 21
69.510159397
  0
LINE
  5
237
100
AcDbEntity
  8
0
100
AcDbLine
 62
7
  6
CONTINUOUS
 10
557.3567713495
 20
69.5384436682
 11
556.5887713495
 21
69.5384436682
  0
LINE
  5
238
100
AcDbEntity
  8
0
100
AcDbLine
 62
7
  6
CONTINUOUS
 10
553.0161303083
 20
69.5950122107
 11
552.2481303083
 21
69.5950122107
  0
LINE
  5
239
100
AcDbEntity
  8
0
100
AcDbLine
 62
7
  6
CONTINUOUS
 10
552.0321303083
 20
69.849570652
 11
553.2321303083
 21
69.849570652
  0
LINE
  5
23A
100
AcDbEntity
  8
0
100
AcDbLine
 62
7
  6
CONTINUOUS
 10
568.584079638
 20
69.9853351539
 11
571.3832824744
 21
69.9853351539
  0
LINE
  5
23B
100
AcDbEntity
  8
0
100
AcDbLine
 62
7
  6
CONTINUOUS
 10
556.5887713495
 20
70.0136194252
 11
559.5967713495
 21
70.0136194252
  0
LINE
  5
23C
100
AcDbEntity
  8
0
100
AcDbLine
 62
7
  6
CONTINUOUS
 10
552.0321303083
 20
70.1324133644
 11
553.2321303083
 21
70.1324133644
  0
LINE
  5
23D
100
AcDbEntity
  8
0
100
AcDbLine
 62
7
  6
CONTINUOUS
 10
568.584079638
 20
70.2681778664
 11
571.3832824744
 21
70.2681778664
  0
LINE
  5
23E
100
AcDbEntity
  8
0
100
AcDbLine
 62
7
  6
CONTINUOUS
 10
556.5887713495
 20
70.2964621377
 11
559.5967713495
 21
70.2964621377
  0
LINE
  5
23F
100
AcDbEntity
  8
0
100
AcDbLine
 62
7
  6
CONTINUOUS
 10
571.3664532921
 20
70.5283931619
 11
568.584079638
 21
70.5283931619
  0
LINE
  5
240
100
AcDbEntity
  8
0
100
AcDbLine
 62
7
  6
CONTINUOUS
 10
566.904079638
 20
70.5283931619
 11
566.136079638
 21
70.5283931619
  0
LINE
  5
241
100
AcDbEntity
  8
0
100
AcDbLine
 62
7
  6
CONTINUOUS
 10
563.1167713495
 20
70.5283931619
 11
562.3487713495
 21
70.5283931619
  0
LINE
  5
242
100
AcDbEntity
  8
0
100
AcDbLine
 62
7
  6
CONTINUOUS
 10
559.5967713495
 20
70.5283931619
 11
556.5887713495
 21
70.5283931619
  0
LINE
  5
243
100
AcDbEntity
  8
0
100
AcDbLine
 62
7
  6
CONTINUOUS
 10
554.5521303083
 20
70.5283931619
 11
550.7121303083
 21
70.5283931619
  0
LINE
  5
244
100
AcDbEntity
  8
RUNDUNGEN
100
AcDbLine
 62
7
  6
CONTINUOUS
 10
577.3040429934
 20
75.0865973224
 11
568.7848617328
 21
79.3046271141
  0
LINE
  5
245
100
AcDbEntity
  8
KONSTRUKTIONSELEMENTE
100
AcDbLine
 62
7
  6
CONTINUOUS
 10
581.2107444965
 20
109.6553179672
 11
577.6256659973
 21
109.6553179672
  0
LINE
  5
246
100
AcDbEntity
  8
0
100
AcDbLine
 62
7
  6
CONTINUOUS
 10
577.6256659973
 20
109.6553179672
 11
577.5906893034
 21
109.6553179672
  0
LINE
  5
247
100
AcDbEntity
  8
0
100
AcDbLine
 62
7
  6
CONTINUOUS
 10
546.2131996897
 20
109.6553179672
 11
546.1782229958
 21
109.6553179672
  0
LINE
  5
248
100
AcDbEntity
  8
KONSTRUKTIONSELEMENTE
100
AcDbLine
 62
7
  6
CONTINUOUS
 10
546.1782229958
 20
109.6553179672
 11
542.5931444965
 21
109.6553179672
  0
LINE
  5
249
100
AcDbEntity
  8
BEZUGSACHSEN
100
AcDbLine
 62
7
  6
CONTINUOUS
 10
556.9019444965
 20
118.0053179672
 11
566.9019444965
 21
118.0053179672
  0
LINE
  5
24A
100
AcDbEntity
  8
BEZUGSACHSEN
100
AcDbLine
 62
7
  6
CONTINUOUS
 10
556.9019444965
 20
121.0242535438
 11
566.9019444965
 21
121.0242535438
  0
LINE
  5
24B
100
AcDbEntity
  8
RUNDUNGEN
100
AcDbLine
 62
7
  6
CONTINUOUS
 10
568.7848617328
 20
82.8401610201
 11
577.3040429934
 21
78.6221312283
  0
LINE
  5
24C
100
AcDbEntity
  8
RUNDUNGEN
100
AcDbLine
 62
7
  6
CONTINUOUS
 10
597.525394752
 20
80.2204350504
 11
591.6275000331
 21
83.1406095217
  0
LINE
  5
24D
100
AcDbEntity
  8
RUNDUNGEN
100
AcDbLine
 62
7
  6
CONTINUOUS
 10
597.525394752
 20
83.7559689564
 11
591.6275000331
 21
86.6761434276
  0
LINE
  5
24E
100
AcDbEntity
  8
RUNDUNGEN
100
AcDbLine
 62
7
  6
CONTINUOUS
 10
527.5898175333
 20
77.4168274439
 11
529.4826197733
 21
75.5053751582
  0
LINE
  5
24F
100
AcDbEntity
  8
RUNDUNGEN
100
AcDbLine
 62
7
  6
CONTINUOUS
 10
535.2757417804
 20
69.6551727083
 11
547.3162772528
 21
57.496000153
  0
LINE
  5
250
100
AcDbEntity
  8
RUNDUNGEN
100
AcDbLine
 62
7
  6
CONTINUOUS
 10
565.997704718
 20
38.6305019656
 11
570.0756261778
 21
34.5124001743
  0
LINE
  5
251
100
AcDbEntity
  8
RUNDUNGEN
100
AcDbLine
 62
7
  6
CONTINUOUS
 10
538.764785472
 20
74.1449708173
 11
536.6425526575
 21
76.288114289
  0
LINE
  5
252
100
AcDbEntity
  8
0
100
AcDbLine
 62
7
  6
CONTINUOUS
 10
578.8567986929
 20
138.1283368156
 11
579.2028465152
 21
138.2094908556
  0
LINE
  5
253
100
AcDbEntity
  8
0
100
AcDbLine
 62
7
  6
CONTINUOUS
 10
572.5587185845
 20
138.1283368156
 11
572.9047668028
 21
138.2094908556
  0
LINE
  5
254
100
AcDbEntity
  8
BEZUGSACHSEN
100
AcDbLine
 62
7
  6
CONTINUOUS
 10
556.9019444965
 20
126.2863823906
 11
566.9019444965
 21
126.2863823906
  0
LINE
  5
255
100
AcDbEntity
  8
BEZUGSACHSEN
100
AcDbLine
 62
7
  6
CONTINUOUS
 10
556.9019444965
 20
129.3053179672
 11
566.9019444965
 21
129.3053179672
  0
LINE
  5
256
100
AcDbEntity
  8
RUNDUNGEN
100
AcDbLine
 62
7
  6
CONTINUOUS
 10
542.5019444965
 20
131.6553179672
 11
552.8914548486
 21
131.6553179672
  0
LINE
  5
257
100
AcDbEntity
  8
RUNDUNGEN
100
AcDbLine
 62
7
  6
CONTINUOUS
 10
570.9124341445
 20
131.6553179672
 11
581.3019444965
 21
131.6553179672
  0
LINE
  5
258
100
AcDbEntity
  8
RUNDUNGEN
100
AcDbLine
 62
7
  6
CONTINUOUS
 10
581.3019444965
 20
136.8514703899
 11
566.0737095694
 21
136.8514703899
  0
LINE
  5
259
100
AcDbEntity
  8
RUNDUNGEN
100
AcDbLine
 62
7
  6
CONTINUOUS
 10
557.7301794237
 20
136.8514703899
 11
542.5019444965
 21
136.8514703899
  0
LINE
  5
25A
100
AcDbEntity
  8
0
100
AcDbLine
 62
7
  6
CONTINUOUS
 10
544.936904293
 20
138.1283368156
 11
545.413684293
 21
138.1283368156
  0
LINE
  5
25B
100
AcDbEntity
  8
0
100
AcDbLine
 62
7
  6
CONTINUOUS
 10
547.4002675505
 20
138.1283368156
 11
547.9565110354
 21
138.1283368156
  0
LINE
  5
25C
100
AcDbEntity
  8
0
100
AcDbLine
 62
7
  6
CONTINUOUS
 10
549.8636308081
 20
138.1283368156
 11
550.181484293
 21
138.1283368156
  0
LINE
  5
25D
100
AcDbEntity
  8
0
100
AcDbLine
 62
7
  6
CONTINUOUS
 10
552.088604293
 20
138.1283368156
 11
553.995724293
 21
138.1283368156
  0
LINE
  5
25E
100
AcDbEntity
  8
0
100
AcDbLine
 62
7
  6
CONTINUOUS
 10
566.6758964965
 20
138.1283368156
 11
567.091154517
 21
138.1283368156
  0
LINE
  5
25F
100
AcDbEntity
  8
0
100
AcDbLine
 62
7
  6
CONTINUOUS
 10
567.6448318445
 20
138.1283368156
 11
568.0600898649
 21
138.1283368156
  0
LINE
  5
260
100
AcDbEntity
  8
0
100
AcDbLine
 62
7
  6
CONTINUOUS
 10
569.7903316497
 20
138.1283368156
 11
570.2747994722
 21
138.1283368156
  0
LINE
  5
261
100
AcDbEntity
  8
0
100
AcDbLine
 62
7
  6
CONTINUOUS
 10
571.9358315539
 20
138.1283368156
 11
572.5587185845
 21
138.1283368156
  0
LINE
  5
262
100
AcDbEntity
  8
0
100
AcDbLine
 62
7
  6
CONTINUOUS
 10
578.4415406724
 20
138.1283368156
 11
578.8567986929
 21
138.1283368156
  0
LINE
  5
263
100
AcDbEntity
  8
0
100
AcDbLine
 62
7
  6
CONTINUOUS
 10
578.7875884948
 20
138.5341070368
 11
578.5107500785
 21
138.5341070368
  0
LINE
  5
264
100
AcDbEntity
  8
0
100
AcDbLine
 62
7
  6
CONTINUOUS
 10
572.5587185845
 20
138.6152610697
 11
571.9358315539
 21
138.6152610697
  0
LINE
  5
265
100
AcDbEntity
  8
0
100
AcDbLine
 62
7
  6
CONTINUOUS
 10
553.995724293
 20
138.6152610697
 11
552.565384293
 21
138.6152610697
  0
LINE
  5
266
100
AcDbEntity
  8
0
100
AcDbLine
 62
7
  6
CONTINUOUS
 10
550.181484293
 20
138.6152610697
 11
549.8636308081
 21
138.6152610697
  0
LINE
  5
267
100
AcDbEntity
  8
0
100
AcDbLine
 62
7
  6
CONTINUOUS
 10
572.4895087824
 20
139.7514177005
 11
573.112395813
 21
139.7514177005
  0
LINE
  5
268
100
AcDbEntity
  8
0
100
AcDbLine
 62
7
  6
CONTINUOUS
 10
545.413684293
 20
139.8325717334
 11
546.7645609218
 21
139.8325717334
  0
LINE
  5
269
100
AcDbEntity
  8
0
100
AcDbLine
 62
7
  6
CONTINUOUS
 10
568.0600898649
 20
139.8325717334
 11
569.2366542231
 21
139.8325717334
  0
LINE
  5
26A
100
AcDbEntity
  8
0
100
AcDbLine
 62
7
  6
CONTINUOUS
 10
549.466314293
 20
138.2094908556
 11
549.8636308081
 21
138.1283368156
  0
LINE
  5
26B
100
AcDbEntity
  8
RUNDUNGEN
100
AcDbLine
 62
7
  6
CONTINUOUS
 10
588.6785526737
 20
35.4510252664
 11
576.4876117403
 21
47.7620852489
  0
LINE
  5
26C
100
AcDbEntity
  8
RUNDUNGEN
100
AcDbLine
 62
7
  6
CONTINUOUS
 10
546.1715051606
 20
78.3769006741
 11
544.1377088601
 21
80.4307362546
  0
LINE
  5
26D
100
AcDbEntity
  8
RUNDUNGEN
100
AcDbLine
 62
7
  6
CONTINUOUS
 10
588.6785526737
 20
38.9865591724
 11
576.4876117403
 21
51.2976191548
  0
LINE
  5
26E
100
AcDbEntity
  8
RUNDUNGEN
100
AcDbLine
 62
7
  6
CONTINUOUS
 10
546.1715051606
 20
81.9124345801
 11
544.1377088601
 21
83.9662701605
  0
LINE
  5
26F
100
AcDbEntity
  8
0
100
AcDbLine
 62
7
  6
CONTINUOUS
 10
554.3135773232
 20
138.6964151026
 11
553.995724293
 21
138.6152610697
  0
LINE
  5
270
100
AcDbEntity
  8
0
100
AcDbLine
 62
7
  6
CONTINUOUS
 10
550.4993377779
 20
138.6964151026
 11
550.181484293
 21
138.6152610697
  0
LINE
  5
271
100
AcDbEntity
  8
0
100
AcDbLine
 62
7
  6
CONTINUOUS
 10
578.5107500785
 20
141.9425768156
 11
578.1647014641
 21
141.8614227827
  0
LINE
  5
272
100
AcDbEntity
  8
0
100
AcDbLine
 62
7
  6
CONTINUOUS
 10
571.9358315539
 20
141.9425768156
 11
571.5897829395
 21
141.8614227827
  0
LINE
  5
273
100
AcDbEntity
  8
0
100
AcDbLine
 62
7
  6
CONTINUOUS
 10
553.995724293
 20
138.1283368156
 11
554.3930412628
 21
138.2094908556
  0
LINE
  5
274
100
AcDbEntity
  8
0
100
AcDbLine
 62
7
  6
CONTINUOUS
 10
550.181484293
 20
138.1283368156
 11
550.5788008081
 21
138.2094908556
  0
LINE
  5
275
100
AcDbEntity
  8
0
100
AcDbLine
 62
7
  6
CONTINUOUS
 10
578.5107500785
 20
139.9137257663
 11
578.7875884948
 21
139.9137257663
  0
LINE
  5
276
100
AcDbEntity
  8
0
100
AcDbLine
 62
7
  6
CONTINUOUS
 10
578.7875884948
 20
140.2383418978
 11
578.5107500785
 21
140.2383418978
  0
LINE
  5
277
100
AcDbEntity
  8
0
100
AcDbLine
 62
7
  6
CONTINUOUS
 10
573.5276538335
 20
140.2383418978
 11
572.4895087824
 21
140.2383418978
  0
LINE
  5
278
100
AcDbEntity
  8
0
100
AcDbLine
 62
7
  6
CONTINUOUS
 10
569.3750736293
 20
140.3194959307
 11
568.0600898649
 21
140.3194959307
  0
LINE
  5
279
100
AcDbEntity
  8
0
100
AcDbLine
 62
7
  6
CONTINUOUS
 10
546.9234875505
 20
140.3194959307
 11
545.413684293
 21
140.3194959307
  0
LINE
  5
27A
100
AcDbEntity
  8
0
100
AcDbLine
 62
7
  6
CONTINUOUS
 10
573.112395813
 20
140.9687281937
 11
573.5276538335
 21
140.9687281937
  0
LINE
  5
27B
100
AcDbEntity
  8
0
100
AcDbLine
 62
7
  6
CONTINUOUS
 10
552.565384293
 20
141.4556526183
 11
553.995724293
 21
141.4556526183
  0
LINE
  5
27C
100
AcDbEntity
  8
0
100
AcDbLine
 62
7
  6
CONTINUOUS
 10
571.9358315539
 20
141.4556526183
 11
572.5587185845
 21
141.4556526183
  0
LINE
  5
27D
100
AcDbEntity
  8
0
100
AcDbLine
 62
7
  6
CONTINUOUS
 10
545.413684293
 20
141.5368066512
 11
546.9234875505
 21
141.5368066512
  0
LINE
  5
27E
100
AcDbEntity
  8
0
100
AcDbLine
 62
7
  6
CONTINUOUS
 10
568.0600898649
 20
141.5368066512
 11
569.3750736293
 21
141.5368066512
  0
LINE
  5
27F
100
AcDbEntity
  8
0
100
AcDbLine
 62
7
  6
CONTINUOUS
 10
578.5107500785
 20
141.5368066512
 11
578.7875884948
 21
141.5368066512
  0
LINE
  5
280
100
AcDbEntity
  8
0
100
AcDbLine
 62
7
  6
CONTINUOUS
 10
578.7875884948
 20
141.9425768156
 11
578.5107500785
 21
141.9425768156
  0
LINE
  5
281
100
AcDbEntity
  8
0
100
AcDbLine
 62
7
  6
CONTINUOUS
 10
572.5587185845
 20
141.9425768156
 11
571.9358315539
 21
141.9425768156
  0
LINE
  5
282
100
AcDbEntity
  8
0
100
AcDbLine
 62
7
  6
CONTINUOUS
 10
569.3058640252
 20
141.9425768156
 11
567.6448318445
 21
141.9425768156
  0
LINE
  5
283
100
AcDbEntity
  8
0
100
AcDbLine
 62
7
  6
CONTINUOUS
 10
567.091154517
 20
141.9425768156
 11
566.6758964965
 21
141.9425768156
  0
LINE
  5
284
100
AcDbEntity
  8
0
100
AcDbLine
 62
7
  6
CONTINUOUS
 10
553.995724293
 20
141.9425768156
 11
552.088604293
 21
141.9425768156
  0
LINE
  5
285
100
AcDbEntity
  8
0
100
AcDbLine
 62
7
  6
CONTINUOUS
 10
551.4528977779
 20
141.9425768156
 11
550.9761177779
 21
141.9425768156
  0
LINE
  5
286
100
AcDbEntity
  8
0
100
AcDbLine
 62
7
  6
CONTINUOUS
 10
549.0689977779
 20
141.9425768156
 11
548.5922175505
 21
141.9425768156
  0
LINE
  5
287
100
AcDbEntity
  8
0
100
AcDbLine
 62
7
  6
CONTINUOUS
 10
546.844024293
 20
141.9425768156
 11
544.936904293
 21
141.9425768156
  0
LINE
  5
288
100
AcDbEntity
  8
RUNDUNGEN
100
AcDbLine
 62
7
  6
CONTINUOUS
 10
578.4346539188
 20
146.8035317971
 11
575.8959286411
 21
146.8035317971
  0
LINE
  5
289
100
AcDbEntity
  8
RUNDUNGEN
100
AcDbLine
 62
7
  6
CONTINUOUS
 10
547.907960352
 20
146.8035317971
 11
545.3692347562
 21
146.8035317971
  0
LINE
  5
28A
100
AcDbEntity
  8
RUNDUNGEN
100
AcDbLine
 62
7
  6
CONTINUOUS
 10
552.4805484036
 20
146.9053179672
 11
571.3233276694
 21
146.9053179672
  0
LINE
  5
28B
100
AcDbEntity
  8
0
100
AcDbLine
 62
7
  6
CONTINUOUS
 10
547.2413410354
 20
141.8614227827
 11
546.844024293
 21
141.9425768156
  0
LINE
  5
28C
100
AcDbEntity
  8
0
100
AcDbLine
 62
7
  6
CONTINUOUS
 10
554.3930412628
 20
141.8614227827
 11
553.995724293
 21
141.9425768156
  0
LINE
  5
28D
100
AcDbEntity
  8
0
100
AcDbLine
 62
7
  6
CONTINUOUS
 10
571.5897829395
 20
138.2094908556
 11
571.9358315539
 21
138.1283368156
  0
LINE
  5
28E
100
AcDbEntity
  8
0
100
AcDbLine
 62
7
  6
CONTINUOUS
 10
578.0954920581
 20
138.2094908556
 11
578.4415406724
 21
138.1283368156
  0
LINE
  5
28F
100
AcDbEntity
  8
0
100
AcDbLine
 62
7
  6
CONTINUOUS
 10
569.6519122435
 20
141.8614227827
 11
569.3058640252
 21
141.9425768156
  0
LINE
  5
290
100
AcDbEntity
  8
0
100
AcDbLine
 62
7
  6
CONTINUOUS
 10
572.9047668028
 20
141.8614227827
 11
572.5587185845
 21
141.9425768156
  0
LINE
  5
291
100
AcDbEntity
  8
0
100
AcDbLine
 62
7
  6
CONTINUOUS
 10
579.1336371091
 20
141.8614227827
 11
578.7875884948
 21
141.9425768156
  0
LINE
  5
292
100
AcDbEntity
  8
0
100
AcDbLine
 62
7
  6
CONTINUOUS
 10
549.8636308081
 20
138.6152610697
 11
549.5457777779
 21
138.6964151026
  0
LINE
  5
293
100
AcDbEntity
  8
0
100
AcDbLine
 62
7
  6
CONTINUOUS
 10
553.995724293
 20
141.4556526183
 11
554.3135773232
 21
141.3744985854
  0
LINE
  5
294
100
AcDbEntity
  8
0
100
AcDbLine
 62
7
  6
CONTINUOUS
 10
571.9358315539
 20
138.6152610697
 11
571.6589927416
 21
138.6964151026
  0
LINE
  5
295
100
AcDbEntity
  8
0
100
AcDbLine
 62
7
  6
CONTINUOUS
 10
578.5107500785
 20
138.5341070368
 11
578.2339116622
 21
138.6152610697
  0
LINE
  5
296
100
AcDbEntity
  8
0
100
AcDbLine
 62
7
  6
CONTINUOUS
 10
572.5587185845
 20
141.4556526183
 11
572.8355570008
 21
141.3744985854
  0
LINE
  5
297
100
AcDbEntity
  8
0
100
AcDbLine
 62
7
  6
CONTINUOUS
 10
578.7875884948
 20
139.9137257663
 11
579.0644277031
 21
139.8325717334
  0
LINE
  5
298
100
AcDbEntity
  8
0
100
AcDbLine
 62
7
  6
CONTINUOUS
 10
578.5107500785
 20
140.2383418978
 11
578.2339116622
 21
140.3194959307
  0
LINE
  5
299
100
AcDbEntity
  8
0
100
AcDbLine
 62
7
  6
CONTINUOUS
 10
578.7875884948
 20
141.5368066512
 11
579.0644277031
 21
141.4556526183
  0
LINE
  5
29A
100
AcDbEntity
  8
0
100
AcDbLine
 62
7
  6
CONTINUOUS
 10
546.9234875505
 20
141.5368066512
 11
547.1618775505
 21
141.4556526183
  0
LINE
  5
29B
100
AcDbEntity
  8
0
100
AcDbLine
 62
7
  6
CONTINUOUS
 10
569.3750736293
 20
141.5368066512
 11
569.5827026395
 21
141.4556526183
  0
LINE
  5
29C
100
AcDbEntity
  8
0
100
AcDbLine
 62
7
  6
CONTINUOUS
 10
549.1484608081
 20
138.3717989426
 11
549.466314293
 21
138.2094908556
  0
LINE
  5
29D
100
AcDbEntity
  8
0
100
AcDbLine
 62
7
  6
CONTINUOUS
 10
554.710894293
 20
141.699114717
 11
554.3930412628
 21
141.8614227827
  0
LINE
  5
29E
100
AcDbEntity
  8
0
100
AcDbLine
 62
7
  6
CONTINUOUS
 10
549.5457777779
 20
138.6964151026
 11
549.3073877779
 21
138.8587232252
  0
LINE
  5
29F
100
AcDbEntity
  8
0
100
AcDbLine
 62
7
  6
CONTINUOUS
 10
559.2767713495
 20
68.2450981797
 11
561.0151344831
 21
66.1160468473
  0
LINE
  5
2A0
100
AcDbEntity
  8
0
100
AcDbLine
 62
7
  6
CONTINUOUS
 10
559.2767713495
 20
68.5279408922
 11
561.0151344831
 21
66.3988895598
  0
LINE
  5
2A1
100
AcDbEntity
  8
0
100
AcDbLine
 62
7
  6
CONTINUOUS
 10
561.9019444965
 20
66.1160468473
 11
560.0944901647
 21
68.3297172705
  0
LINE
  5
2A2
100
AcDbEntity
  8
0
100
AcDbLine
 62
7
  6
CONTINUOUS
 10
578.2339116622
 20
138.6152610697
 11
577.9570724539
 21
138.7775691355
  0
LINE
  5
2A3
100
AcDbEntity
  8
0
100
AcDbLine
 62
7
  6
CONTINUOUS
 10
579.4796857235
 20
139.9948797992
 11
579.3412661193
 21
140.076033832
  0
LINE
  5
2A4
100
AcDbEntity
  8
0
100
AcDbLine
 62
7
  6
CONTINUOUS
 10
571.3129445232
 20
138.3717989426
 11
571.5897829395
 21
138.2094908556
  0
LINE
  5
2A5
100
AcDbEntity
  8
0
100
AcDbLine
 62
7
  6
CONTINUOUS
 10
573.1816056151
 20
141.699114717
 11
572.9047668028
 21
141.8614227827
  0
LINE
  5
2A6
100
AcDbEntity
  8
0
100
AcDbLine
 62
7
  6
CONTINUOUS
 10
577.8186536418
 20
140.1571878649
 11
577.9570724539
 21
140.076033832
  0
LINE
  5
2A7
100
AcDbEntity
  8
0
100
AcDbLine
 62
7
  6
CONTINUOUS
 10
579.0644277031
 20
139.8325717334
 11
579.3412661193
 21
139.6702636676
  0
LINE
  5
2A8
100
AcDbEntity
  8
0
100
AcDbLine
 62
7
  6
CONTINUOUS
 10
554.3135773232
 20
141.3744985854
 11
554.5519673232
 21
141.2121905197
  0
LINE
  5
2A9
100
AcDbEntity
  8
0
100
AcDbLine
 62
7
  6
CONTINUOUS
 10
577.7494434437
 20
138.4529529755
 11
578.0954920581
 21
138.2094908556
  0
LINE
  5
2AA
100
AcDbEntity
  8
0
100
AcDbLine
 62
7
  6
CONTINUOUS
 10
547.559194293
 20
141.6179606841
 11
547.2413410354
 21
141.8614227827
  0
LINE
  5
2AB
100
AcDbEntity
  8
0
100
AcDbLine
 62
7
  6
CONTINUOUS
 10
571.6589927416
 20
138.6964151026
 11
571.4513637314
 21
138.8587232252
  0
LINE
  5
2AC
100
AcDbEntity
  8
0
100
AcDbLine
 62
7
  6
CONTINUOUS
 10
548.8306077779
 20
138.6964151026
 11
549.1484608081
 21
138.3717989426
  0
LINE
  5
2AD
100
AcDbEntity
  8
0
100
AcDbLine
 62
7
  6
CONTINUOUS
 10
547.1618775505
 20
141.4556526183
 11
547.320804293
 21
141.2933445526
  0
LINE
  5
2AE
100
AcDbEntity
  8
RUNDUNGEN
100
AcDbLine
 62
7
  6
CONTINUOUS
 10
542.5931444965
 20
109.6553179672
 11
538.9019444965
 21
115.6535179672
  0
LINE
  5
2AF
100
AcDbEntity
  8
0
100
AcDbLine
 62
7
  6
CONTINUOUS
 10
469.9019444965
 20
447.4053179672
 11
469.9019444965
 21
327.4053179672
  0
LINE
  5
2B0
100
AcDbEntity
  8
0
100
AcDbLine
 62
7
  6
CONTINUOUS
 10
552.9019444965
 20
185.7656340056
 11
547.6410151114
 21
184.3559722254
  0
LINE
  5
2B1
100
AcDbEntity
  8
0
100
AcDbLine
 62
7
  6
CONTINUOUS
 10
576.1628738817
 20
184.3559722254
 11
570.9019444965
 21
185.7656340056
  0
LINE
  5
2B2
100
AcDbEntity
  8
0
100
AcDbLine
 62
7
  6
CONTINUOUS
 10
579.4796857235
 20
141.6179606841
 11
579.1336371091
 21
141.8614227827
  0
LINE
  5
2B3
100
AcDbEntity
  8
0
100
AcDbLine
 62
7
  6
CONTINUOUS
 10
572.8355570008
 20
141.3744985854
 11
573.043186011
 21
141.2121905197
  0
LINE
  5
2B4
100
AcDbEntity
  8
0
100
AcDbLine
 62
7
  6
CONTINUOUS
 10
569.9287510558
 20
141.6179606841
 11
569.6519122435
 21
141.8614227827
  0
LINE
  5
2B5
100
AcDbEntity
  8
0
100
AcDbLine
 62
7
  6
CONTINUOUS
 10
578.2339116622
 20
140.3194959307
 11
577.9570724539
 21
140.5629580293
  0
LINE
  5
2B6
100
AcDbEntity
  8
0
100
AcDbLine
 62
7
  6
CONTINUOUS
 10
579.7565241398
 20
139.7514177005
 11
579.4796857235
 21
139.9948797992
  0
LINE
  5
2B7
100
AcDbEntity
  8
0
100
AcDbLine
 62
7
  6
CONTINUOUS
 10
579.0644277031
 20
141.4556526183
 11
579.3412661193
 21
141.2121905197
  0
LINE
  5
2B8
100
AcDbEntity
  8
0
100
AcDbLine
 62
7
  6
CONTINUOUS
 10
555.0287473232
 20
141.3744985854
 11
554.710894293
 21
141.699114717
  0
LINE
  5
2B9
100
AcDbEntity
  8
0
100
AcDbLine
 62
7
  6
CONTINUOUS
 10
547.797584293
 20
141.2933445526
 11
547.559194293
 21
141.6179606841
  0
LINE
  5
2BA
100
AcDbEntity
  8
0
100
AcDbLine
 62
7
  6
CONTINUOUS
 10
549.3073877779
 20
138.8587232252
 11
549.1484608081
 21
139.1021853238
  0
LINE
  5
2BB
100
AcDbEntity
  8
0
100
AcDbLine
 62
7
  6
CONTINUOUS
 10
571.036105711
 20
138.6964151026
 11
571.3129445232
 21
138.3717989426
  0
LINE
  5
2BC
100
AcDbEntity
  8
0
100
AcDbLine
 62
7
  6
CONTINUOUS
 10
569.5827026395
 20
141.4556526183
 11
569.7211220456
 21
141.2933445526
  0
LINE
  5
2BD
100
AcDbEntity
  8
0
100
AcDbLine
 62
7
  6
CONTINUOUS
 10
573.4584444274
 20
141.3744985854
 11
573.1816056151
 21
141.699114717
  0
LINE
  5
2BE
100
AcDbEntity
  8
0
100
AcDbLine
 62
7
  6
CONTINUOUS
 10
577.5418144335
 20
138.6964151026
 11
577.7494434437
 21
138.4529529755
  0
LINE
  5
2BF
100
AcDbEntity
  8
0
100
AcDbLine
 62
7
  6
CONTINUOUS
 10
577.6110246316
 20
140.4006499635
 11
577.8186536418
 21
140.1571878649
  0
LINE
  5
2C0
100
AcDbEntity
  8
0
100
AcDbLine
 62
7
  6
CONTINUOUS
 10
579.6873147337
 20
141.3744985854
 11
579.4796857235
 21
141.6179606841
  0
LINE
  5
2C1
100
AcDbEntity
  8
0
100
AcDbLine
 62
7
  6
CONTINUOUS
 10
554.5519673232
 20
141.2121905197
 11
554.710894293
 21
140.9687281937
  0
LINE
  5
2C2
100
AcDbEntity
  8
0
100
AcDbLine
 62
7
  6
CONTINUOUS
 10
548.6716810354
 20
139.0210312909
 11
548.8306077779
 21
138.6964151026
  0
LINE
  5
2C3
100
AcDbEntity
  8
0
100
AcDbLine
 62
7
  6
CONTINUOUS
 10
491.9019444965
 20
447.4053179672
 11
491.9019444965
 21
327.4053179672
  0
LINE
  5
2C4
100
AcDbEntity
  8
0
100
AcDbLine
 62
7
  6
CONTINUOUS
 10
586.6025987548
 20
173.9162473524
 11
576.1628738817
 21
184.3559722254
  0
LINE
  5
2C5
100
AcDbEntity
  8
0
100
AcDbLine
 62
7
  6
CONTINUOUS
 10
570.136379868
 20
141.2933445526
 11
569.9287510558
 21
141.6179606841
  0
LINE
  5
2C6
100
AcDbEntity
  8
0
100
AcDbLine
 62
7
  6
CONTINUOUS
 10
577.9570724539
 20
138.7775691355
 11
577.7494434437
 21
139.1021853238
  0
LINE
  5
2C7
100
AcDbEntity
  8
0
100
AcDbLine
 62
7
  6
CONTINUOUS
 10
579.3412661193
 20
139.6702636676
 11
579.5488951295
 21
139.3456474224
  0
LINE
  5
2C8
100
AcDbEntity
  8
0
100
AcDbLine
 62
7
  6
CONTINUOUS
 10
571.4513637314
 20
138.8587232252
 11
571.3129445232
 21
139.1021853238
  0
LINE
  5
2C9
100
AcDbEntity
  8
0
100
AcDbLine
 62
7
  6
CONTINUOUS
 10
577.9570724539
 20
140.5629580293
 11
577.8186536418
 21
140.8064201279
  0
LINE
  5
2CA
100
AcDbEntity
  8
0
100
AcDbLine
 62
7
  6
CONTINUOUS
 10
579.3412661193
 20
141.2121905197
 11
579.4796857235
 21
140.9687281937
  0
LINE
  5
2CB
100
AcDbEntity
  8
0
100
AcDbLine
 62
7
  6
CONTINUOUS
 10
555.187674293
 20
141.0498824539
 11
555.0287473232
 21
141.3744985854
  0
LINE
  5
2CC
100
AcDbEntity
  8
0
100
AcDbLine
 62
7
  6
CONTINUOUS
 10
547.9565110354
 20
138.1283368156
 11
547.2413410354
 21
139.9948797992
  0
LINE
  5
2CD
100
AcDbEntity
  8
0
100
AcDbLine
 62
7
  6
CONTINUOUS
 10
546.7645609218
 20
139.8325717334
 11
547.4002675505
 21
138.1283368156
  0
LINE
  5
2CE
100
AcDbEntity
  8
0
100
AcDbLine
 62
7
  6
CONTINUOUS
 10
547.320804293
 20
141.2933445526
 11
547.4002675505
 21
141.0498824539
  0
LINE
  5
2CF
100
AcDbEntity
  8
0
100
AcDbLine
 62
7
  6
CONTINUOUS
 10
547.8770475505
 20
141.0498824539
 11
547.797584293
 21
141.2933445526
  0
LINE
  5
2D0
100
AcDbEntity
  8
0
100
AcDbLine
 62
7
  6
CONTINUOUS
 10
533.3800857263
 20
159.6553179672
 11
537.2012902383
 21
145.3943885821
  0
LINE
  5
2D1
100
AcDbEntity
  8
0
100
AcDbLine
 62
7
  6
CONTINUOUS
 10
537.2012902383
 20
137.7286729708
 11
538.9019444965
 21
130.3623300808
  0
LINE
  5
2D2
100
AcDbEntity
  8
RUNDUNGEN
100
AcDbLine
 62
7
  6
CONTINUOUS
 10
526.8664257105
 20
79.0391465945
 11
526.8664257105
 21
82.5746805005
  0
LINE
  5
2D3
100
AcDbEntity
  8
0
100
AcDbLine
 62
7
  6
CONTINUOUS
 10
570.8976865028
 20
139.0210312909
 11
571.036105711
 21
138.6964151026
  0
LINE
  5
2D4
100
AcDbEntity
  8
0
100
AcDbLine
 62
7
  6
CONTINUOUS
 10
577.4726050274
 20
140.7252660951
 11
577.6110246316
 21
140.4006499635
  0
LINE
  5
2D5
100
AcDbEntity
  8
0
100
AcDbLine
 62
7
  6
CONTINUOUS
 10
570.2747994722
 20
138.1283368156
 11
569.6519122435
 21
139.9948797992
  0
LINE
  5
2D6
100
AcDbEntity
  8
0
100
AcDbLine
 62
7
  6
CONTINUOUS
 10
569.2366542231
 20
139.8325717334
 11
569.7903316497
 21
138.1283368156
  0
LINE
  5
2D7
100
AcDbEntity
  8
0
100
AcDbLine
 62
7
  6
CONTINUOUS
 10
549.1484608081
 20
139.1021853238
 11
549.0689977779
 21
139.4268014553
  0
LINE
  5
2D8
100
AcDbEntity
  8
0
100
AcDbLine
 62
7
  6
CONTINUOUS
 10
554.710894293
 20
140.9687281937
 11
554.7903573232
 21
140.6441120622
  0
LINE
  5
2D9
100
AcDbEntity
  8
0
100
AcDbLine
 62
7
  6
CONTINUOUS
 10
548.5922175505
 20
139.4268014553
 11
548.6716810354
 21
139.0210312909
  0
LINE
  5
2DA
100
AcDbEntity
  8
RUNDUNGEN
100
AcDbLine
 62
7
  6
CONTINUOUS
 10
534.4019444965
 20
29.0636515131
 11
534.4019444965
 21
37.3642400217
  0
LINE
  5
2DB
100
AcDbEntity
  8
RUNDUNGEN
100
AcDbLine
 62
7
  6
CONTINUOUS
 10
535.0587242336
 20
70.1418684535
 11
535.0587242336
 21
73.6774023594
  0
LINE
  5
2DC
100
AcDbEntity
  8
0
100
AcDbLine
 62
7
  6
CONTINUOUS
 10
537.2012902383
 20
137.7286729708
 11
537.2012902383
 21
145.3943885821
  0
LINE
  5
2DD
100
AcDbEntity
  8
RUNDUNGEN
100
AcDbLine
 62
7
  6
CONTINUOUS
 10
538.9019444965
 20
115.6535179672
 11
538.9019444965
 21
140.9053179672
  0
LINE
  5
2DE
100
AcDbEntity
  8
RUNDUNGEN
100
AcDbLine
 62
7
  6
CONTINUOUS
 10
541.0019444965
 20
26.2352243884
 11
541.0019444965
 21
30.4778650755
  0
LINE
  5
2DF
100
AcDbEntity
  8
0
100
AcDbLine
 62
7
  6
CONTINUOUS
 10
544.936904293
 20
141.9425768156
 11
544.936904293
 21
138.1283368156
  0
LINE
  5
2E0
100
AcDbEntity
  8
0
100
AcDbLine
 62
7
  6
CONTINUOUS
 10
545.413684293
 20
138.1283368156
 11
545.413684293
 21
139.8325717334
  0
LINE
  5
2E1
100
AcDbEntity
  8
0
100
AcDbLine
 62
7
  6
CONTINUOUS
 10
545.413684293
 20
140.3194959307
 11
545.413684293
 21
141.5368066512
  0
LINE
  5
2E2
100
AcDbEntity
  8
0
100
AcDbLine
 62
7
  6
CONTINUOUS
 10
577.4033956214
 20
139.1021853238
 11
577.5418144335
 21
138.6964151026
  0
LINE
  5
2E3
100
AcDbEntity
  8
0
100
AcDbLine
 62
7
  6
CONTINUOUS
 10
579.8949437439
 20
139.3456474224
 11
579.7565241398
 21
139.7514177005
  0
LINE
  5
2E4
100
AcDbEntity
  8
0
100
AcDbLine
 62
7
  6
CONTINUOUS
 10
579.8257335458
 20
140.9687281937
 11
579.6873147337
 21
141.3744985854
  0
LINE
  5
2E5
100
AcDbEntity
  8
0
100
AcDbLine
 62
7
  6
CONTINUOUS
 10
569.7211220456
 20
141.2933445526
 11
569.7903316497
 21
141.0498824539
  0
LINE
  5
2E6
100
AcDbEntity
  8
0
100
AcDbLine
 62
7
  6
CONTINUOUS
 10
570.2055896701
 20
141.0498824539
 11
570.136379868
 21
141.2933445526
  0
LINE
  5
2E7
100
AcDbEntity
  8
0
100
AcDbLine
 62
7
  6
CONTINUOUS
 10
573.043186011
 20
141.2121905197
 11
573.112395813
 21
140.9687281937
  0
LINE
  5
2E8
100
AcDbEntity
  8
0
100
AcDbLine
 62
7
  6
CONTINUOUS
 10
571.3129445232
 20
139.1021853238
 11
571.2437347212
 21
139.4268014553
  0
LINE
  5
2E9
100
AcDbEntity
  8
0
100
AcDbLine
 62
7
  6
CONTINUOUS
 10
555.2671373232
 20
140.6441120622
 11
555.187674293
 21
141.0498824539
  0
LINE
  5
2EA
100
AcDbEntity
  8
0
100
AcDbLine
 62
7
  6
CONTINUOUS
 10
547.4002675505
 20
141.0498824539
 11
547.4002675505
 21
140.8064201279
  0
LINE
  5
2EB
100
AcDbEntity
  8
0
100
AcDbLine
 62
7
  6
CONTINUOUS
 10
547.8770475505
 20
140.7252660951
 11
547.8770475505
 21
141.0498824539
  0
LINE
  5
2EC
100
AcDbEntity
  8
0
100
AcDbLine
 62
7
  6
CONTINUOUS
 10
548.5922175505
 20
141.9425768156
 11
548.5922175505
 21
139.4268014553
  0
LINE
  5
2ED
100
AcDbEntity
  8
0
100
AcDbLine
 62
7
  6
CONTINUOUS
 10
549.0689977779
 20
139.4268014553
 11
549.0689977779
 21
141.9425768156
  0
LINE
  5
2EE
100
AcDbEntity
  8
KONSTRUKTIONSELEMENTE
100
AcDbLine
 62
7
  6
CONTINUOUS
 10
549.9455624351
 20
123.7053179672
 11
549.9455624351
 21
127.4957179672
  0
LINE
  5
2EF
100
AcDbEntity
  8
0
100
AcDbLine
 62
7
  6
CONTINUOUS
 10
550.2321303083
 20
70.1889819069
 11
550.2321303083
 21
66.4554581023
  0
LINE
  5
2F0
100
AcDbEntity
  8
0
100
AcDbLine
 62
7
  6
CONTINUOUS
 10
550.9761177779
 20
141.9425768156
 11
550.9761177779
 21
139.4268014553
  0
LINE
  5
2F1
100
AcDbEntity
  8
0
100
AcDbLine
 62
7
  6
CONTINUOUS
 10
551.4528977779
 20
139.4268014553
 11
551.4528977779
 21
141.9425768156
  0
LINE
  5
2F2
100
AcDbEntity
  8
0
100
AcDbLine
 62
7
  6
CONTINUOUS
 10
551.7921303083
 20
66.9645749847
 11
551.7921303083
 21
68.2656514621
  0
LINE
  5
2F3
100
AcDbEntity
  8
0
100
AcDbLine
 62
7
  6
CONTINUOUS
 10
551.7921303083
 20
68.6616312596
 11
551.7921303083
 21
69.9627077369
  0
LINE
  5
2F4
100
AcDbEntity
  8
0
100
AcDbLine
 62
7
  6
CONTINUOUS
 10
552.088604293
 20
141.9425768156
 11
552.088604293
 21
138.1283368156
  0
LINE
  5
2F5
100
AcDbEntity
  8
0
100
AcDbLine
 62
7
  6
CONTINUOUS
 10
552.1521303083
 20
69.5271299597
 11
552.1521303083
 21
68.8143663243
  0
LINE
  5
2F6
100
AcDbEntity
  8
0
100
AcDbLine
 62
7
  6
CONTINUOUS
 10
552.1521303083
 20
67.8300736849
 11
552.1521303083
 21
67.1173100494
  0
LINE
  5
2F7
100
AcDbEntity
  8
0
100
AcDbLine
 62
7
  6
CONTINUOUS
 10
552.4521303083
 20
67.7961325594
 11
552.4521303083
 21
67.8979559359
  0
LINE
  5
2F8
100
AcDbEntity
  8
0
100
AcDbLine
 62
7
  6
CONTINUOUS
 10
552.4521303083
 20
68.1525143771
 11
552.4521303083
 21
68.4919256321
  0
LINE
  5
2F9
100
AcDbEntity
  8
0
100
AcDbLine
 62
7
  6
CONTINUOUS
 10
552.4521303083
 20
68.7464840733
 11
552.4521303083
 21
69.1311501623
  0
LINE
  5
2FA
100
AcDbEntity
  8
0
100
AcDbLine
 62
7
  6
CONTINUOUS
 10
552.565384293
 20
138.6152610697
 11
552.565384293
 21
141.4556526183
  0
LINE
  5
2FB
100
AcDbEntity
  8
0
100
AcDbLine
 62
7
  6
CONTINUOUS
 10
552.8121303083
 20
68.4919256321
 11
552.8121303083
 21
68.1525143771
  0
LINE
  5
2FC
100
AcDbEntity
  8
0
100
AcDbLine
 62
7
  6
CONTINUOUS
 10
552.8121303083
 20
69.1311501623
 11
552.8121303083
 21
68.7464840733
  0
LINE
  5
2FD
100
AcDbEntity
  8
0
100
AcDbLine
 62
7
  6
CONTINUOUS
 10
552.8121303083
 20
67.8979559359
 11
552.8121303083
 21
67.7961325594
  0
LINE
  5
2FE
100
AcDbEntity
  8
0
100
AcDbLine
 62
7
  6
CONTINUOUS
 10
552.9019444965
 20
266.3480930916
 11
552.9019444965
 21
163.4625428428
  0
LINE
  5
2FF
100
AcDbEntity
  8
0
100
AcDbLine
 62
7
  6
CONTINUOUS
 10
553.1121303083
 20
67.1173100494
 11
553.1121303083
 21
67.8300736849
  0
LINE
  5
300
100
AcDbEntity
  8
0
100
AcDbLine
 62
7
  6
CONTINUOUS
 10
553.1121303083
 20
68.8143663243
 11
553.1121303083
 21
69.5271299597
  0
LINE
  5
301
100
AcDbEntity
  8
0
100
AcDbLine
 62
7
  6
CONTINUOUS
 10
553.4721303083
 20
69.9627077369
 11
553.4721303083
 21
68.6616312596
  0
LINE
  5
302
100
AcDbEntity
  8
0
100
AcDbLine
 62
7
  6
CONTINUOUS
 10
553.4721303083
 20
68.2656514621
 11
553.4721303083
 21
66.9645749847
  0
LINE
  5
303
100
AcDbEntity
  8
KONSTRUKTIONSELEMENTE
100
AcDbLine
 62
7
  6
CONTINUOUS
 10
553.9019444965
 20
95.1781355541
 11
553.9019444965
 21
105.7847372719
  0
LINE
  5
304
100
AcDbEntity
  8
0
100
AcDbLine
 62
7
  6
CONTINUOUS
 10
554.7903573232
 20
140.6441120622
 11
554.7903573232
 21
139.4268014553
  0
LINE
  5
305
100
AcDbEntity
  8
0
100
AcDbLine
 62
7
  6
CONTINUOUS
 10
555.0321303083
 20
66.4554581023
 11
555.0321303083
 21
70.1889819069
  0
LINE
  5
306
100
AcDbEntity
  8
0
100
AcDbLine
 62
7
  6
CONTINUOUS
 10
555.2671373232
 20
139.4268014553
 11
555.2671373232
 21
140.6441120622
  0
LINE
  5
307
100
AcDbEntity
  8
0
100
AcDbLine
 62
7
  6
CONTINUOUS
 10
556.5887713495
 20
70.5283931619
 11
556.5887713495
 21
70.0136194252
  0
LINE
  5
308
100
AcDbEntity
  8
0
100
AcDbLine
 62
7
  6
CONTINUOUS
 10
556.5887713495
 20
69.5384436682
 11
556.5887713495
 21
66.1160468473
  0
LINE
  5
309
100
AcDbEntity
  8
0
100
AcDbLine
 62
7
  6
CONTINUOUS
 10
556.9019444965
 20
123.7053179672
 11
556.9019444965
 21
113.8680082027
  0
LINE
  5
30A
100
AcDbEntity
  8
KONSTRUKTIONSELEMENTE
100
AcDbLine
 62
7
  6
CONTINUOUS
 10
556.9019444965
 20
123.7053179672
 11
556.9019444965
 21
134.0953179672
  0
LINE
  5
30B
100
AcDbEntity
  8
0
100
AcDbLine
 62
7
  6
CONTINUOUS
 10
557.3567713495
 20
66.1160468473
 11
557.3567713495
 21
68.5279408922
  0
LINE
  5
30C
100
AcDbEntity
  8
0
100
AcDbLine
 62
7
  6
CONTINUOUS
 10
557.3567713495
 20
68.7881561877
 11
557.3567713495
 21
69.5384436682
  0
LINE
  5
30D
100
AcDbEntity
  8
KONSTRUKTIONSELEMENTE
100
AcDbLine
 62
7
  6
CONTINUOUS
 10
558.4019444965
 20
95.1781355541
 11
558.4019444965
 21
105.7847372719
  0
LINE
  5
30E
100
AcDbEntity
  8
KONSTRUKTIONSELEMENTE
100
AcDbLine
 62
7
  6
CONTINUOUS
 10
558.4019444965
 20
129.3053179672
 11
558.4019444965
 21
136.8974356441
  0
LINE
  5
30F
100
AcDbEntity
  8
0
100
AcDbLine
 62
7
  6
CONTINUOUS
 10
559.2767713495
 20
68.2450981797
 11
559.2767713495
 21
68.5279408922
  0
LINE
  5
310
100
AcDbEntity
  8
KONSTRUKTIONSELEMENTE
100
AcDbLine
 62
7
  6
CONTINUOUS
 10
559.4019444965
 20
74.37490866
 11
559.4019444965
 21
96.8291656288
  0
LINE
  5
311
100
AcDbEntity
  8
KONSTRUKTIONSELEMENTE
100
AcDbLine
 62
7
  6
CONTINUOUS
 10
559.4019444965
 20
135.5396452326
 11
559.4019444965
 21
138.419274007
  0
LINE
  5
312
100
AcDbEntity
  8
KONSTRUKTIONSELEMENTE
100
AcDbLine
 62
7
  6
CONTINUOUS
 10
559.4019444965
 20
147.1628339834
 11
559.4019444965
 21
154.7657845197
  0
LINE
  5
313
100
AcDbEntity
  8
KONSTRUKTIONSELEMENTE
100
AcDbLine
 62
7
  6
CONTINUOUS
 10
559.6519444965
 20
105.0336767873
 11
559.6519444965
 21
118.0053179672
  0
LINE
  5
314
100
AcDbEntity
  8
0
100
AcDbLine
 62
7
  6
CONTINUOUS
 10
560.0944901647
 20
68.3297172705
 11
560.0944901647
 21
68.6125599829
  0
LINE
  5
315
100
AcDbEntity
  8
0
100
AcDbLine
 62
7
  6
CONTINUOUS
 10
560.4633047149
 20
69.6837305189
 11
560.4633047149
 21
69.4008878064
  0
LINE
  5
316
100
AcDbEntity
  8
0
100
AcDbLine
 62
7
  6
CONTINUOUS
 10
561.0151344831
 20
66.1160468473
 11
561.0151344831
 21
66.3988895598
  0
LINE
  5
317
100
AcDbEntity
  8
0
100
AcDbLine
 62
7
  6
CONTINUOUS
 10
562.3487713495
 20
70.5283931619
 11
562.3487713495
 21
67.7366424847
  0
LINE
  5
318
100
AcDbEntity
  8
0
100
AcDbLine
 62
7
  6
CONTINUOUS
 10
563.1167713495
 20
67.7366424847
 11
563.1167713495
 21
70.5283931619
  0
LINE
  5
319
100
AcDbEntity
  8
KONSTRUKTIONSELEMENTE
100
AcDbLine
 62
7
  6
CONTINUOUS
 10
564.1519444965
 20
105.0336767873
 11
564.1519444965
 21
118.0053179672
  0
LINE
  5
31A
100
AcDbEntity
  8
0
100
AcDbLine
 62
7
  6
CONTINUOUS
 10
590.4238032668
 20
159.6553179672
 11
586.6025987548
 21
173.9162473524
  0
LINE
  5
31B
100
AcDbEntity
  8
0
100
AcDbLine
 62
7
  6
CONTINUOUS
 10
570.8284767007
 20
139.4268014553
 11
570.8976865028
 21
139.0210312909
  0
LINE
  5
31C
100
AcDbEntity
  8
0
100
AcDbLine
 62
7
  6
CONTINUOUS
 10
573.5276538335
 20
140.9687281937
 11
573.4584444274
 21
141.3744985854
  0
LINE
  5
31D
100
AcDbEntity
  8
KONSTRUKTIONSELEMENTE
100
AcDbLine
 62
7
  6
CONTINUOUS
 10
564.4019444965
 20
74.37490866
 11
564.4019444965
 21
96.8291656288
  0
LINE
  5
31E
100
AcDbEntity
  8
KONSTRUKTIONSELEMENTE
100
AcDbLine
 62
7
  6
CONTINUOUS
 10
564.4019444965
 20
135.5396452326
 11
564.4019444965
 21
138.419274007
  0
LINE
  5
31F
100
AcDbEntity
  8
KONSTRUKTIONSELEMENTE
100
AcDbLine
 62
7
  6
CONTINUOUS
 10
564.4019444965
 20
147.1628339834
 11
564.4019444965
 21
154.7657845197
  0
LINE
  5
320
100
AcDbEntity
  8
KONSTRUKTIONSELEMENTE
100
AcDbLine
 62
7
  6
CONTINUOUS
 10
565.4019444965
 20
136.8974356441
 11
565.4019444965
 21
129.3053179672
  0
LINE
  5
321
100
AcDbEntity
  8
KONSTRUKTIONSELEMENTE
100
AcDbLine
 62
7
  6
CONTINUOUS
 10
565.4019444965
 20
105.7847372719
 11
565.4019444965
 21
95.1781355541
  0
LINE
  5
322
100
AcDbEntity
  8
0
100
AcDbLine
 62
7
  6
CONTINUOUS
 10
566.136079638
 20
70.5283931619
 11
566.136079638
 21
67.7366424847
  0
LINE
  5
323
100
AcDbEntity
  8
0
100
AcDbLine
 62
7
  6
CONTINUOUS
 10
566.6758964965
 20
141.9425768156
 11
566.6758964965
 21
138.1283368156
  0
LINE
  5
324
100
AcDbEntity
  8
0
100
AcDbLine
 62
7
  6
CONTINUOUS
 10
566.9019444965
 20
113.8680082027
 11
566.9019444965
 21
123.7053179672
  0
LINE
  5
325
100
AcDbEntity
  8
KONSTRUKTIONSELEMENTE
100
AcDbLine
 62
7
  6
CONTINUOUS
 10
566.9019444965
 20
123.7053179672
 11
566.9019444965
 21
134.0953182245
  0
LINE
  5
326
100
AcDbEntity
  8
0
100
AcDbLine
 62
7
  6
CONTINUOUS
 10
566.904079638
 20
67.7366424847
 11
566.904079638
 21
70.5283931619
  0
LINE
  5
327
100
AcDbEntity
  8
0
100
AcDbLine
 62
7
  6
CONTINUOUS
 10
567.091154517
 20
138.1283368156
 11
567.091154517
 21
141.9425768156
  0
LINE
  5
328
100
AcDbEntity
  8
0
100
AcDbLine
 62
7
  6
CONTINUOUS
 10
567.6448318445
 20
141.9425768156
 11
567.6448318445
 21
138.1283368156
  0
LINE
  5
329
100
AcDbEntity
  8
0
100
AcDbLine
 62
7
  6
CONTINUOUS
 10
568.0600898649
 20
138.1283368156
 11
568.0600898649
 21
139.8325717334
  0
LINE
  5
32A
100
AcDbEntity
  8
0
100
AcDbLine
 62
7
  6
CONTINUOUS
 10
568.0600898649
 20
140.3194959307
 11
568.0600898649
 21
141.5368066512
  0
LINE
  5
32B
100
AcDbEntity
  8
0
100
AcDbLine
 62
7
  6
CONTINUOUS
 10
568.584079638
 20
70.5283931619
 11
568.584079638
 21
69.9853351539
  0
LINE
  5
32C
100
AcDbEntity
  8
0
100
AcDbLine
 62
7
  6
CONTINUOUS
 10
568.584079638
 20
69.510159397
 11
568.584079638
 21
66.1160468473
  0
LINE
  5
32D
100
AcDbEntity
  8
0
100
AcDbLine
 62
7
  6
CONTINUOUS
 10
569.352079638
 20
66.6817322722
 11
569.352079638
 21
69.510159397
  0
LINE
  5
32E
100
AcDbEntity
  8
0
100
AcDbLine
 62
7
  6
CONTINUOUS
 10
569.7903316497
 20
141.0498824539
 11
569.7903316497
 21
140.8064201279
  0
LINE
  5
32F
100
AcDbEntity
  8
KONSTRUKTIONSELEMENTE
100
AcDbLine
 62
7
  6
CONTINUOUS
 10
569.9019444965
 20
105.7847372719
 11
569.9019444965
 21
95.1781355541
  0
LINE
  5
330
100
AcDbEntity
  8
0
100
AcDbLine
 62
7
  6
CONTINUOUS
 10
570.2055896701
 20
140.7252660951
 11
570.2055896701
 21
141.0498824539
  0
LINE
  5
331
100
AcDbEntity
  8
0
100
AcDbLine
 62
7
  6
CONTINUOUS
 10
570.8284767007
 20
140.6441120622
 11
570.8284767007
 21
139.4268014553
  0
LINE
  5
332
100
AcDbEntity
  8
0
100
AcDbLine
 62
7
  6
CONTINUOUS
 10
570.9019444965
 20
266.3480930916
 11
570.9019444965
 21
163.4625428428
  0
LINE
  5
333
100
AcDbEntity
  8
0
100
AcDbLine
 62
7
  6
CONTINUOUS
 10
571.2437347212
 20
139.4268014553
 11
571.2437347212
 21
140.6441120622
  0
LINE
  5
334
100
AcDbEntity
  8
0
100
AcDbLine
 62
7
  6
CONTINUOUS
 10
572.4895087824
 20
140.2383418978
 11
572.4895087824
 21
139.7514177005
  0
LINE
  5
335
100
AcDbEntity
  8
0
100
AcDbLine
 62
7
  6
CONTINUOUS
 10
572.6581706403
 20
68.6163764256
 11
572.6581706403
 21
68.3335337131
  0
LINE
  5
336
100
AcDbEntity
  8
0
100
AcDbLine
 62
7
  6
CONTINUOUS
 10
573.112395813
 20
139.7514177005
 11
573.112395813
 21
139.1021853238
  0
LINE
  5
337
100
AcDbEntity
  8
0
100
AcDbLine
 62
7
  6
CONTINUOUS
 10
573.5276538335
 20
139.0210312909
 11
573.5276538335
 21
140.2383418978
  0
LINE
  5
338
100
AcDbEntity
  8
KONSTRUKTIONSELEMENTE
100
AcDbLine
 62
7
  6
CONTINUOUS
 10
573.858326558
 20
123.7053179672
 11
573.858326558
 21
127.4957179672
  0
LINE
  5
339
100
AcDbEntity
  8
0
100
AcDbLine
 62
7
  6
CONTINUOUS
 10
577.4033956214
 20
139.3456474224
 11
577.4033956214
 21
139.1021853238
  0
LINE
  5
33A
100
AcDbEntity
  8
0
100
AcDbLine
 62
7
  6
CONTINUOUS
 10
577.4726050274
 20
140.9687281937
 11
577.4726050274
 21
140.7252660951
  0
LINE
  5
33B
100
AcDbEntity
  8
0
100
AcDbLine
 62
7
  6
CONTINUOUS
 10
577.7494434437
 20
139.1021853238
 11
577.7494434437
 21
139.3456474224
  0
LINE
  5
33C
100
AcDbEntity
  8
0
100
AcDbLine
 62
7
  6
CONTINUOUS
 10
577.8186536418
 20
140.8064201279
 11
577.8186536418
 21
140.9687281937
  0
LINE
  5
33D
100
AcDbEntity
  8
0
100
AcDbLine
 62
7
  6
CONTINUOUS
 10
579.4796857235
 20
140.9687281937
 11
579.4796857235
 21
140.8064201279
  0
LINE
  5
33E
100
AcDbEntity
  8
0
100
AcDbLine
 62
7
  6
CONTINUOUS
 10
579.5488951295
 20
139.3456474224
 11
579.5488951295
 21
139.1021853238
  0
LINE
  5
33F
100
AcDbEntity
  8
0
100
AcDbLine
 62
7
  6
CONTINUOUS
 10
579.8257335458
 20
140.7252660951
 11
579.8257335458
 21
140.9687281937
  0
LINE
  5
340
100
AcDbEntity
  8
0
100
AcDbLine
 62
7
  6
CONTINUOUS
 10
579.8949437439
 20
139.1021853238
 11
579.8949437439
 21
139.3456474224
  0
LINE
  5
341
100
AcDbEntity
  8
0
100
AcDbLine
 62
7
  6
CONTINUOUS
 10
551.373434293
 20
139.0210312909
 11
551.4528977779
 21
139.4268014553
  0
LINE
  5
342
100
AcDbEntity
  8
0
100
AcDbLine
 62
7
  6
CONTINUOUS
 10
537.2012902383
 20
173.9162473524
 11
533.3800857263
 21
159.6553179672
  0
LINE
  5
343
100
AcDbEntity
  8
RUNDUNGEN
100
AcDbLine
 62
7
  6
CONTINUOUS
 10
582.8019444965
 20
30.4778650755
 11
582.8019444965
 21
26.2352243884
  0
LINE
  5
344
100
AcDbEntity
  8
RUNDUNGEN
100
AcDbLine
 62
7
  6
CONTINUOUS
 10
584.9019444965
 20
115.6535179672
 11
584.9019444965
 21
140.9053179672
  0
LINE
  5
345
100
AcDbEntity
  8
0
100
AcDbLine
 62
7
  6
CONTINUOUS
 10
586.6025987548
 20
137.7286729708
 11
586.6025987548
 21
145.3943885821
  0
LINE
  5
346
100
AcDbEntity
  8
RUNDUNGEN
100
AcDbLine
 62
7
  6
CONTINUOUS
 10
589.4019444965
 20
29.0636515131
 11
589.4019444965
 21
37.3642400217
  0
LINE
  5
347
100
AcDbEntity
  8
RUNDUNGEN
100
AcDbLine
 62
7
  6
CONTINUOUS
 10
598.0371030284
 20
79.525361492
 11
598.0371030284
 21
83.0608953979
  0
LINE
  5
348
100
AcDbEntity
  8
0
100
AcDbLine
 62
7
  6
CONTINUOUS
 10
570.8976865028
 20
141.0498824539
 11
570.8284767007
 21
140.6441120622
  0
LINE
  5
349
100
AcDbEntity
  8
0
100
AcDbLine
 62
7
  6
CONTINUOUS
 10
555.187674293
 20
139.0210312909
 11
555.2671373232
 21
139.4268014553
  0
LINE
  5
34A
100
AcDbEntity
  8
0
100
AcDbLine
 62
7
  6
CONTINUOUS
 10
571.2437347212
 20
140.6441120622
 11
571.3129445232
 21
140.9687281937
  0
LINE
  5
34B
100
AcDbEntity
  8
0
100
AcDbLine
 62
7
  6
CONTINUOUS
 10
550.9761177779
 20
139.4268014553
 11
550.896654293
 21
139.1021853238
  0
LINE
  5
34C
100
AcDbEntity
  8
0
100
AcDbLine
 62
7
  6
CONTINUOUS
 10
554.7903573232
 20
139.4268014553
 11
554.710894293
 21
139.1021853238
  0
LINE
  5
34D
100
AcDbEntity
  8
0
100
AcDbLine
 62
7
  6
CONTINUOUS
 10
547.4002675505
 20
140.8064201279
 11
547.320804293
 21
140.5629580293
  0
LINE
  5
34E
100
AcDbEntity
  8
0
100
AcDbLine
 62
7
  6
CONTINUOUS
 10
547.797584293
 20
140.4818039964
 11
547.8770475505
 21
140.7252660951
  0
LINE
  5
34F
100
AcDbEntity
  8
0
100
AcDbLine
 62
7
  6
CONTINUOUS
 10
573.4584444274
 20
138.6964151026
 11
573.5276538335
 21
139.0210312909
  0
LINE
  5
350
100
AcDbEntity
  8
0
100
AcDbLine
 62
7
  6
CONTINUOUS
 10
586.6025987548
 20
137.7286729708
 11
584.9019444965
 21
130.3623300808
  0
LINE
  5
351
100
AcDbEntity
  8
0
100
AcDbLine
 62
7
  6
CONTINUOUS
 10
569.7903316497
 20
140.8064201279
 11
569.7211220456
 21
140.5629580293
  0
LINE
  5
352
100
AcDbEntity
  8
0
100
AcDbLine
 62
7
  6
CONTINUOUS
 10
570.136379868
 20
140.4818039964
 11
570.2055896701
 21
140.7252660951
  0
LINE
  5
353
100
AcDbEntity
  8
0
100
AcDbLine
 62
7
  6
CONTINUOUS
 10
573.112395813
 20
139.1021853238
 11
573.043186011
 21
138.8587232252
  0
LINE
  5
354
100
AcDbEntity
  8
0
100
AcDbLine
 62
7
  6
CONTINUOUS
 10
551.2145077779
 20
138.6964151026
 11
551.373434293
 21
139.0210312909
  0
LINE
  5
355
100
AcDbEntity
  8
0
100
AcDbLine
 62
7
  6
CONTINUOUS
 10
631.9019444965
 20
327.4053179672
 11
631.9019444965
 21
447.4053179672
  0
LINE
  5
356
100
AcDbEntity
  8
0
100
AcDbLine
 62
7
  6
CONTINUOUS
 10
586.6025987548
 20
145.3943885821
 11
590.4238032668
 21
159.6553179672
  0
LINE
  5
357
100
AcDbEntity
  8
0
100
AcDbLine
 62
7
  6
CONTINUOUS
 10
577.6110246316
 20
141.3744985854
 11
577.4726050274
 21
140.9687281937
  0
LINE
  5
358
100
AcDbEntity
  8
0
100
AcDbLine
 62
7
  6
CONTINUOUS
 10
577.5418144335
 20
139.7514177005
 11
577.4033956214
 21
139.3456474224
  0
LINE
  5
359
100
AcDbEntity
  8
0
100
AcDbLine
 62
7
  6
CONTINUOUS
 10
579.7565241398
 20
138.6964151026
 11
579.8949437439
 21
139.1021853238
  0
LINE
  5
35A
100
AcDbEntity
  8
0
100
AcDbLine
 62
7
  6
CONTINUOUS
 10
571.036105711
 20
141.3744985854
 11
570.8976865028
 21
141.0498824539
  0
LINE
  5
35B
100
AcDbEntity
  8
0
100
AcDbLine
 62
7
  6
CONTINUOUS
 10
579.6873147337
 20
140.4006499635
 11
579.8257335458
 21
140.7252660951
  0
LINE
  5
35C
100
AcDbEntity
  8
0
100
AcDbLine
 62
7
  6
CONTINUOUS
 10
555.0287473232
 20
138.6964151026
 11
555.187674293
 21
139.0210312909
  0
LINE
  5
35D
100
AcDbEntity
  8
0
100
AcDbLine
 62
7
  6
CONTINUOUS
 10
550.896654293
 20
139.1021853238
 11
550.7377277779
 21
138.8587232252
  0
LINE
  5
35E
100
AcDbEntity
  8
0
100
AcDbLine
 62
7
  6
CONTINUOUS
 10
554.710894293
 20
139.1021853238
 11
554.5519673232
 21
138.8587232252
  0
LINE
  5
35F
100
AcDbEntity
  8
0
100
AcDbLine
 62
7
  6
CONTINUOUS
 10
547.559194293
 20
140.1571878649
 11
547.797584293
 21
140.4818039964
  0
LINE
  5
360
100
AcDbEntity
  8
0
100
AcDbLine
 62
7
  6
CONTINUOUS
 10
547.6410151114
 20
184.3559722254
 11
537.2012902383
 21
173.9162473524
  0
LINE
  5
361
100
AcDbEntity
  8
0
100
AcDbLine
 62
7
  6
CONTINUOUS
 10
653.9019444965
 20
327.4053179672
 11
653.9019444965
 21
447.4053179672
  0
LINE
  5
362
100
AcDbEntity
  8
0
100
AcDbLine
 62
7
  6
CONTINUOUS
 10
571.3129445232
 20
140.9687281937
 11
571.4513637314
 21
141.2121905197
  0
LINE
  5
363
100
AcDbEntity
  8
0
100
AcDbLine
 62
7
  6
CONTINUOUS
 10
577.8186536418
 20
140.9687281937
 11
577.9570724539
 21
141.2121905197
  0
LINE
  5
364
100
AcDbEntity
  8
0
100
AcDbLine
 62
7
  6
CONTINUOUS
 10
579.4796857235
 20
140.8064201279
 11
579.3412661193
 21
140.5629580293
  0
LINE
  5
365
100
AcDbEntity
  8
0
100
AcDbLine
 62
7
  6
CONTINUOUS
 10
569.9287510558
 20
140.1571878649
 11
570.136379868
 21
140.4818039964
  0
LINE
  5
366
100
AcDbEntity
  8
0
100
AcDbLine
 62
7
  6
CONTINUOUS
 10
577.7494434437
 20
139.3456474224
 11
577.9570724539
 21
139.6702636676
  0
LINE
  5
367
100
AcDbEntity
  8
0
100
AcDbLine
 62
7
  6
CONTINUOUS
 10
579.5488951295
 20
139.1021853238
 11
579.3412661193
 21
138.7775691355
  0
LINE
  5
368
100
AcDbEntity
  8
0
100
AcDbLine
 62
7
  6
CONTINUOUS
 10
547.320804293
 20
140.5629580293
 11
547.1618775505
 21
140.4006499635
  0
LINE
  5
369
100
AcDbEntity
  8
0
100
AcDbLine
 62
7
  6
CONTINUOUS
 10
550.896654293
 20
138.3717989426
 11
551.2145077779
 21
138.6964151026
  0
LINE
  5
36A
100
AcDbEntity
  8
RUNDUNGEN
100
AcDbLine
 62
7
  6
CONTINUOUS
 10
581.2107444965
 20
109.6553179672
 11
584.9019444965
 21
115.6535179672
  0
LINE
  5
36B
100
AcDbEntity
  8
0
100
AcDbLine
 62
7
  6
CONTINUOUS
 10
569.7211220456
 20
140.5629580293
 11
569.5827026395
 21
140.4006499635
  0
LINE
  5
36C
100
AcDbEntity
  8
0
100
AcDbLine
 62
7
  6
CONTINUOUS
 10
571.3129445232
 20
141.699114717
 11
571.036105711
 21
141.3744985854
  0
LINE
  5
36D
100
AcDbEntity
  8
0
100
AcDbLine
 62
7
  6
CONTINUOUS
 10
573.1816056151
 20
138.3717989426
 11
573.4584444274
 21
138.6964151026
  0
LINE
  5
36E
100
AcDbEntity
  8
0
100
AcDbLine
 62
7
  6
CONTINUOUS
 10
577.8186536418
 20
141.6179606841
 11
577.6110246316
 21
141.3744985854
  0
LINE
  5
36F
100
AcDbEntity
  8
0
100
AcDbLine
 62
7
  6
CONTINUOUS
 10
579.4796857235
 20
140.1571878649
 11
579.6873147337
 21
140.4006499635
  0
LINE
  5
370
100
AcDbEntity
  8
0
100
AcDbLine
 62
7
  6
CONTINUOUS
 10
579.5488951295
 20
138.4529529755
 11
579.7565241398
 21
138.6964151026
  0
LINE
  5
371
100
AcDbEntity
  8
0
100
AcDbLine
 62
7
  6
CONTINUOUS
 10
554.710894293
 20
138.3717989426
 11
555.0287473232
 21
138.6964151026
  0
LINE
  5
372
100
AcDbEntity
  8
0
100
AcDbLine
 62
7
  6
CONTINUOUS
 10
577.9570724539
 20
141.2121905197
 11
578.2339116622
 21
141.4556526183
  0
LINE
  5
373
100
AcDbEntity
  8
0
100
AcDbLine
 62
7
  6
CONTINUOUS
 10
577.8186536418
 20
139.9948797992
 11
577.5418144335
 21
139.7514177005
  0
LINE
  5
374
100
AcDbEntity
  8
0
100
AcDbLine
 62
7
  6
CONTINUOUS
 10
579.3412661193
 20
140.5629580293
 11
579.0644277031
 21
140.3194959307
  0
LINE
  5
375
100
AcDbEntity
  8
0
100
AcDbLine
 62
7
  6
CONTINUOUS
 10
571.4513637314
 20
141.2121905197
 11
571.6589927416
 21
141.3744985854
  0
LINE
  5
376
100
AcDbEntity
  8
0
100
AcDbLine
 62
7
  6
CONTINUOUS
 10
573.043186011
 20
138.8587232252
 11
572.8355570008
 21
138.6964151026
  0
LINE
  5
377
100
AcDbEntity
  8
0
100
AcDbLine
 62
7
  6
CONTINUOUS
 10
578.1647014641
 20
141.8614227827
 11
577.8186536418
 21
141.6179606841
  0
LINE
  5
378
100
AcDbEntity
  8
0
100
AcDbLine
 62
7
  6
CONTINUOUS
 10
579.2028465152
 20
138.2094908556
 11
579.5488951295
 21
138.4529529755
  0
LINE
  5
379
100
AcDbEntity
  8
0
100
AcDbLine
 62
7
  6
CONTINUOUS
 10
550.7377277779
 20
138.8587232252
 11
550.4993377779
 21
138.6964151026
  0
LINE
  5
37A
100
AcDbEntity
  8
0
100
AcDbLine
 62
7
  6
CONTINUOUS
 10
554.5519673232
 20
138.8587232252
 11
554.3135773232
 21
138.6964151026
  0
LINE
  5
37B
100
AcDbEntity
  8
0
100
AcDbLine
 62
7
  6
CONTINUOUS
 10
571.5897829395
 20
141.8614227827
 11
571.3129445232
 21
141.699114717
  0
LINE
  5
37C
100
AcDbEntity
  8
0
100
AcDbLine
 62
7
  6
CONTINUOUS
 10
569.6519122435
 20
139.9948797992
 11
569.9287510558
 21
140.1571878649
  0
LINE
  5
37D
100
AcDbEntity
  8
0
100
AcDbLine
 62
7
  6
CONTINUOUS
 10
547.2413410354
 20
139.9948797992
 11
547.559194293
 21
140.1571878649
  0
LINE
  5
37E
100
AcDbEntity
  8
0
100
AcDbLine
 62
7
  6
CONTINUOUS
 10
550.5788008081
 20
138.2094908556
 11
550.896654293
 21
138.3717989426
  0
LINE
  5
37F
100
AcDbEntity
  8
0
100
AcDbLine
 62
7
  6
CONTINUOUS
 10
554.3930412628
 20
138.2094908556
 11
554.710894293
 21
138.3717989426
  0
LINE
  5
380
100
AcDbEntity
  8
0
100
AcDbLine
 62
7
  6
CONTINUOUS
 10
572.9047668028
 20
138.2094908556
 11
573.1816056151
 21
138.3717989426
  0
LINE
  5
381
100
AcDbEntity
  8
0
100
AcDbLine
 62
7
  6
CONTINUOUS
 10
577.9570724539
 20
140.076033832
 11
577.8186536418
 21
139.9948797992
  0
LINE
  5
382
100
AcDbEntity
  8
0
100
AcDbLine
 62
7
  6
CONTINUOUS
 10
577.9570724539
 20
139.6702636676
 11
578.2339116622
 21
139.8325717334
  0
LINE
  5
383
100
AcDbEntity
  8
0
100
AcDbLine
 62
7
  6
CONTINUOUS
 10
579.3412661193
 20
140.076033832
 11
579.4796857235
 21
140.1571878649
  0
LINE
  5
384
100
AcDbEntity
  8
0
100
AcDbLine
 62
7
  6
CONTINUOUS
 10
579.3412661193
 20
138.7775691355
 11
579.0644277031
 21
138.6152610697
  0
LINE
  5
385
100
AcDbEntity
  8
0
100
AcDbLine
 62
7
  6
CONTINUOUS
 10
569.5827026395
 20
140.4006499635
 11
569.3750736293
 21
140.3194959307
  0
LINE
  5
386
100
AcDbEntity
  8
0
100
AcDbLine
 62
7
  6
CONTINUOUS
 10
547.1618775505
 20
140.4006499635
 11
546.9234875505
 21
140.3194959307
  0
LINE
  5
387
100
AcDbEntity
  8
0
100
AcDbLine
 62
7
  6
CONTINUOUS
 10
571.6589927416
 20
141.3744985854
 11
571.9358315539
 21
141.4556526183
  0
LINE
  5
388
100
AcDbEntity
  8
0
100
AcDbLine
 62
7
  6
CONTINUOUS
 10
578.2339116622
 20
141.4556526183
 11
578.5107500785
 21
141.5368066512
  0
LINE
  5
389
100
AcDbEntity
  8
0
100
AcDbLine
 62
7
  6
CONTINUOUS
 10
572.8355570008
 20
138.6964151026
 11
572.5587185845
 21
138.6152610697
  0
LINE
  5
38A
100
AcDbEntity
  8
0
100
AcDbLine
 62
7
  6
CONTINUOUS
 10
579.0644277031
 20
140.3194959307
 11
578.7875884948
 21
140.2383418978
  0
LINE
  5
38B
100
AcDbEntity
  8
0
100
AcDbLine
 62
7
  6
CONTINUOUS
 10
578.2339116622
 20
139.8325717334
 11
578.5107500785
 21
139.9137257663
  0
LINE
  5
38C
100
AcDbEntity
  8
0
100
AcDbLine
 62
7
  6
CONTINUOUS
 10
579.0644277031
 20
138.6152610697
 11
578.7875884948
 21
138.5341070368
  0
LINE
  5
38D
100
AcDbEntity
  8
RUNDUNGEN
100
AcDbLine
 62
7
  6
CONTINUOUS
 10
547.3162772528
 20
51.2976191548
 11
535.1253363194
 21
38.9865591724
  0
LINE
  5
38E
100
AcDbEntity
  8
RUNDUNGEN
100
AcDbLine
 62
7
  6
CONTINUOUS
 10
547.3162772528
 20
47.7620852489
 11
535.1253363194
 21
35.4510252664
  0
LINE
  5
38F
100
AcDbEntity
  8
RUNDUNGEN
100
AcDbLine
 62
7
  6
CONTINUOUS
 10
582.8749569159
 20
79.316723939
 11
589.9562258564
 21
86.4677656144
  0
LINE
  5
390
100
AcDbEntity
  8
RUNDUNGEN
100
AcDbLine
 62
7
  6
CONTINUOUS
 10
582.8749569159
 20
75.781190033
 11
589.9562258564
 21
82.9322317085
  0
LINE
  5
391
100
AcDbEntity
  8
RUNDUNGEN
100
AcDbLine
 62
7
  6
CONTINUOUS
 10
530.2104240537
 20
85.7027519372
 11
528.5721199651
 21
84.8915923618
  0
LINE
  5
392
100
AcDbEntity
  8
RUNDUNGEN
100
AcDbLine
 62
7
  6
CONTINUOUS
 10
530.2104240537
 20
82.1672180313
 11
528.5721199651
 21
81.3560584559
  0
LINE
  5
393
100
AcDbEntity
  8
RUNDUNGEN
100
AcDbLine
 62
7
  6
CONTINUOUS
 10
553.7282628153
 20
34.5124001743
 11
557.8061842751
 21
38.6305019656
  0
LINE
  5
394
100
AcDbEntity
  8
RUNDUNGEN
100
AcDbLine
 62
7
  6
CONTINUOUS
 10
576.4876117403
 20
57.496000153
 11
597.8200854816
 21
79.0386657468
  0
LINE
  5
395
100
AcDbEntity
  8
RUNDUNGEN
100
AcDbLine
 62
7
  6
CONTINUOUS
 10
533.8570956962
 20
76.6354106444
 11
531.1538939501
 21
75.296997345
  0
LINE
  5
396
100
AcDbEntity
  8
RUNDUNGEN
100
AcDbLine
 62
7
  6
CONTINUOUS
 10
535.57043251
 20
74.3724759179
 11
537.5627067927
 21
75.3588937462
  0
LINE
  5
397
100
AcDbEntity
  8
RUNDUNGEN
100
AcDbLine
 62
7
  6
CONTINUOUS
 10
555.0190272603
 20
82.8401610201
 11
551.7424190832
 21
81.2178418694
  0
LINE
  5
398
100
AcDbEntity
  8
RUNDUNGEN
100
AcDbLine
 62
7
  6
CONTINUOUS
 10
535.57043251
 20
70.8369420119
 11
538.2736342561
 21
72.1753553112
  0
LINE
  5
399
100
AcDbEntity
  8
RUNDUNGEN
100
AcDbLine
 62
7
  6
CONTINUOUS
 10
555.0190272603
 20
79.3046271141
 11
551.7424190832
 21
77.6823079635
  0
LINE
  5
39A
100
AcDbEntity
  8
0
100
AcDbLine
 62
7
  6
CONTINUOUS
 10
239.1240224633
 20
109.6553179672
 11
240.7240224633
 21
109.6553179672
  0
LINE
  5
39B
100
AcDbEntity
  8
0
100
AcDbLine
 62
7
  6
CONTINUOUS
 10
233.5831491783
 20
115.6535179672
 11
246.2648957482
 21
115.6535179672
  0
LINE
  5
39C
100
AcDbEntity
  8
0
100
AcDbLine
 62
7
  6
CONTINUOUS
 10
238.1740224633
 20
130.3623300808
 11
241.6740224633
 21
130.3623300808
  0
LINE
  5
39D
100
AcDbEntity
  8
0
100
AcDbLine
 62
7
  6
CONTINUOUS
 10
241.6740224633
 20
137.7286729708
 11
238.1740224633
 21
137.7286729708
  0
LINE
  5
39E
100
AcDbEntity
  8
0
100
AcDbLine
 62
7
  6
CONTINUOUS
 10
242.5937082281
 20
145.3943885821
 11
237.2543366985
 21
145.3943885821
  0
LINE
  5
39F
100
AcDbEntity
  8
0
100
AcDbLine
 62
7
  6
CONTINUOUS
 10
241.9290311191
 20
159.6553179672
 11
237.9190138074
 21
159.6553179672
  0
LINE
  5
3A0
100
AcDbEntity
  8
0
100
AcDbLine
 62
7
  6
CONTINUOUS
 10
241.9290311191
 20
173.9162473524
 11
237.9190138074
 21
173.9162473524
  0
LINE
  5
3A1
100
AcDbEntity
  8
KONSTRUKTIONSELEMENTE
100
AcDbLine
 62
7
  6
CONTINUOUS
 10
344.1515620102
 20
74.6720388996
 11
335.7369913141
 21
83.0866095958
  0
LINE
  5
3A2
100
AcDbEntity
  8
KONSTRUKTIONSELEMENTE
100
AcDbLine
 62
7
  6
CONTINUOUS
 10
282.9868254375
 20
135.8367754723
 11
274.5722547414
 21
144.2513461684
  0
LINE
  5
3A3
100
AcDbEntity
  8
KONSTRUKTIONSELEMENTE
100
AcDbLine
 62
7
  6
CONTINUOUS
 10
315.9380014408
 20
105.0776304907
 11
305.331399723
 21
115.6842322085
  0
LINE
  5
3A4
100
AcDbEntity
  8
KONSTRUKTIONSELEMENTE
100
AcDbLine
 62
7
  6
CONTINUOUS
 10
347.6870959161
 20
78.2075728056
 11
339.27252522
 21
86.6221435017
  0
LINE
  5
3A5
100
AcDbEntity
  8
KONSTRUKTIONSELEMENTE
100
AcDbLine
 62
7
  6
CONTINUOUS
 10
286.5223593435
 20
139.3723093782
 11
278.1077886474
 21
147.7868800743
  0
LINE
  5
3A6
100
AcDbEntity
  8
KONSTRUKTIONSELEMENTE
100
AcDbLine
 62
7
  6
CONTINUOUS
 10
319.1199819562
 20
108.259611006
 11
308.5133802384
 21
118.8662127238
  0
LINE
  5
3A7
100
AcDbEntity
  8
KONSTRUKTIONSELEMENTE
100
AcDbLine
 62
7
  6
CONTINUOUS
 10
249.8235173999
 20
178.2631823435
 11
278.8148954285
 21
149.2718043148
  0
LINE
  5
3A8
100
AcDbEntity
  8
RUNDUNGEN
100
AcDbLine
 62
7
  6
CONTINUOUS
 10
402.5585821362
 20
26.2352243884
 11
345.3477157413
 21
83.4460907832
  0
LINE
  5
3A9
100
AcDbEntity
  8
KONSTRUKTIONSELEMENTE
100
AcDbLine
 62
7
  6
CONTINUOUS
 10
289.7750505369
 20
139.3723093782
 11
308.4837355121
 21
120.663624403
  0
LINE
  5
3AA
100
AcDbEntity
  8
KONSTRUKTIONSELEMENTE
100
AcDbLine
 62
7
  6
CONTINUOUS
 10
320.8877489091
 20
108.259611006
 11
339.5964338843
 21
89.5509260308
  0
LINE
  5
3AB
100
AcDbEntity
  8
0
100
AcDbLine
 62
7
  6
CONTINUOUS
 10
248.9240224633
 20
136.8514703899
 11
251.9240224633
 21
131.6553179672
  0
LINE
  5
3AC
100
AcDbEntity
  8
0
100
AcDbLine
 62
7
  6
CONTINUOUS
 10
201.9240224633
 20
237.4053179672
 11
201.9240224633
 21
192.4053179672
  0
LINE
  5
3AD
100
AcDbEntity
  8
0
100
AcDbLine
 62
7
  6
CONTINUOUS
 10
241.9290311191
 20
184.3559722254
 11
237.9190138074
 21
184.3559722254
  0
LINE
  5
3AE
100
AcDbEntity
  8
0
100
AcDbLine
 62
7
  6
CONTINUOUS
 10
237.9190138074
 20
188.1771767375
 11
241.9290311191
 21
188.1771767375
  0
LINE
  5
3AF
100
AcDbEntity
  8
KONSTRUKTIONSELEMENTE
100
AcDbLine
 62
7
  6
CONTINUOUS
 10
292.9570310523
 20
142.5542898936
 11
311.6657160275
 21
123.8456049184
  0
LINE
  5
3B0
100
AcDbEntity
  8
KONSTRUKTIONSELEMENTE
100
AcDbLine
 62
7
  6
CONTINUOUS
 10
324.0697294245
 20
111.4415915213
 11
342.7784143997
 21
92.7329065462
  0
LINE
  5
3B1
100
AcDbEntity
  8
RUNDUNGEN
100
AcDbLine
 62
7
  6
CONTINUOUS
 10
348.8832431051
 20
86.9816312313
 11
406.0941160421
 21
29.7707582943
  0
LINE
  5
3B2
100
AcDbEntity
  8
KONSTRUKTIONSELEMENTE
100
AcDbLine
 62
7
  6
CONTINUOUS
 10
254.066158087
 20
182.5058230306
 11
283.0080259885
 21
153.5639551291
  0
LINE
  5
3B3
100
AcDbEntity
  8
KONSTRUKTIONSELEMENTE
100
AcDbLine
 62
7
  6
CONTINUOUS
 10
313.4631277067
 20
123.8159601921
 11
324.0697294245
 21
113.2093584743
  0
LINE
  5
3B4
100
AcDbEntity
  8
KONSTRUKTIONSELEMENTE
100
AcDbLine
 62
7
  6
CONTINUOUS
 10
284.5424603562
 20
154.2215517831
 11
288.5729690089
 21
150.1910431304
  0
LINE
  5
3B5
100
AcDbEntity
  8
KONSTRUKTIONSELEMENTE
100
AcDbLine
 62
7
  6
CONTINUOUS
 10
288.9265223995
 20
149.8374897398
 11
292.9570310523
 21
145.806981087
  0
LINE
  5
3B6
100
AcDbEntity
  8
KONSTRUKTIONSELEMENTE
100
AcDbLine
 62
7
  6
CONTINUOUS
 10
345.7071969288
 20
93.0568152105
 11
349.7377055816
 21
89.0263065577
  0
LINE
  5
3B7
100
AcDbEntity
  8
KONSTRUKTIONSELEMENTE
100
AcDbLine
 62
7
  6
CONTINUOUS
 10
350.0912589721
 20
88.6727531671
 11
354.1217676249
 21
84.6422445144
  0
LINE
  5
3B8
100
AcDbEntity
  8
KONSTRUKTIONSELEMENTE
100
AcDbLine
 62
7
  6
CONTINUOUS
 10
316.645108222
 20
126.9979407074
 11
327.2517099398
 21
116.3913389896
  0
LINE
  5
3B9
100
AcDbEntity
  8
KONSTRUKTIONSELEMENTE
100
AcDbLine
 62
7
  6
CONTINUOUS
 10
288.0779942621
 20
157.7570856891
 11
292.1085029148
 21
153.7265770363
  0
LINE
  5
3BA
100
AcDbEntity
  8
KONSTRUKTIONSELEMENTE
100
AcDbLine
 62
7
  6
CONTINUOUS
 10
292.4620563054
 20
153.3730236457
 11
296.4925649582
 21
149.3425149929
  0
LINE
  5
3BB
100
AcDbEntity
  8
KONSTRUKTIONSELEMENTE
100
AcDbLine
 62
7
  6
CONTINUOUS
 10
349.2427308347
 20
96.5923491164
 11
353.2732394875
 21
92.5618404637
  0
LINE
  5
3BC
100
AcDbEntity
  8
KONSTRUKTIONSELEMENTE
100
AcDbLine
 62
7
  6
CONTINUOUS
 10
353.6267928781
 20
92.2082870731
 11
357.6573015308
 21
88.1777784203
  0
LINE
  5
3BD
100
AcDbEntity
  8
0
100
AcDbLine
 62
7
  6
CONTINUOUS
 10
245.4387283456
 20
181.5964944378
 11
241.9290311191
 21
188.1771767375
  0
LINE
  5
3BE
100
AcDbEntity
  8
0
100
AcDbLine
 62
7
  6
CONTINUOUS
 10
219.9240224633
 20
237.4053179672
 11
219.9240224633
 21
192.4053179672
  0
LINE
  5
3BF
100
AcDbEntity
  8
RUNDUNGEN
100
AcDbLine
 62
7
  6
CONTINUOUS
 10
227.9240224633
 20
120.8553179672
 11
227.9240224633
 21
131.6553179672
  0
LINE
  5
3C0
100
AcDbEntity
  8
0
100
AcDbLine
 62
7
  6
CONTINUOUS
 10
228.9240224633
 20
246.4053179672
 11
228.9240224633
 21
528.4053179672
  0
LINE
  5
3C1
100
AcDbEntity
  8
RUNDUNGEN
100
AcDbLine
 62
7
  6
CONTINUOUS
 10
230.9240224633
 20
136.8514703899
 11
230.9240224633
 21
143.3053179625
  0
LINE
  5
3C2
100
AcDbEntity
  8
RUNDUNGEN
100
AcDbLine
 62
7
  6
CONTINUOUS
 10
238.1740224633
 20
130.3623300808
 11
236.9091391348
 21
140.9053179672
  0
LINE
  5
3C3
100
AcDbEntity
  8
0
100
AcDbLine
 62
7
  6
CONTINUOUS
 10
238.1740224633
 20
137.7286729708
 11
237.2543366985
 21
145.3943885821
  0
LINE
  5
3C4
100
AcDbEntity
  8
0
100
AcDbLine
 62
7
  6
CONTINUOUS
 10
242.4383995591
 20
153.4541388292
 11
242.5937082281
 21
145.3943885821
  0
LINE
  5
3C5
100
AcDbEntity
  8
BEZUGSACHSEN
100
AcDbLine
 62
7
  6
CONTINUOUS
 10
233.6740224633
 20
178.6553179672
 11
233.6740224633
 21
155.3812479347
  0
LINE
  5
3C6
100
AcDbEntity
  8
RUNDUNGEN
100
AcDbLine
 62
7
  6
CONTINUOUS
 10
233.6740224633
 20
155.3809609964
 11
233.6740224633
 21
146.8035317971
  0
LINE
  5
3C7
100
AcDbEntity
  8
0
100
AcDbLine
 62
7
  6
CONTINUOUS
 10
238.1740224633
 20
137.7286729708
 11
238.1740224633
 21
130.3623300808
  0
LINE
  5
3C8
100
AcDbEntity
  8
0
100
AcDbLine
 62
7
  6
CONTINUOUS
 10
241.6740224633
 20
137.7286729708
 11
241.6740224633
 21
130.3623300808
  0
LINE
  5
3C9
100
AcDbEntity
  8
BEZUGSACHSEN
100
AcDbLine
 62
7
  6
CONTINUOUS
 10
246.1740224633
 20
178.6553179672
 11
246.1740224633
 21
155.3812479347
  0
LINE
  5
3CA
100
AcDbEntity
  8
0
100
AcDbLine
 62
7
  6
CONTINUOUS
 10
246.1740224633
 20
155.3809609964
 11
246.1740224633
 21
146.8035317971
  0
LINE
  5
3CB
100
AcDbEntity
  8
0
100
AcDbLine
 62
7
  6
CONTINUOUS
 10
248.9240224633
 20
136.8514703899
 11
248.9240224633
 21
143.3053179672
  0
LINE
  5
3CC
100
AcDbEntity
  8
0
100
AcDbLine
 62
7
  6
CONTINUOUS
 10
250.9240224633
 20
246.4053179672
 11
250.9240224633
 21
528.4053179672
  0
LINE
  5
3CD
100
AcDbEntity
  8
0
100
AcDbLine
 62
7
  6
CONTINUOUS
 10
237.4096453675
 20
153.4541388292
 11
237.2543366985
 21
145.3943885821
  0
LINE
  5
3CE
100
AcDbEntity
  8
0
100
AcDbLine
 62
7
  6
CONTINUOUS
 10
251.9240224633
 20
131.6553179672
 11
251.9240224633
 21
120.8553179672
  0
LINE
  5
3CF
100
AcDbEntity
  8
0
100
AcDbLine
 62
7
  6
CONTINUOUS
 10
259.9240224633
 20
192.4053179672
 11
259.9240224633
 21
237.4053179672
  0
LINE
  5
3D0
100
AcDbEntity
  8
0
100
AcDbLine
 62
7
  6
CONTINUOUS
 10
241.6740224633
 20
137.7286729708
 11
242.5937082281
 21
145.3943885821
  0
LINE
  5
3D1
100
AcDbEntity
  8
0
100
AcDbLine
 62
7
  6
CONTINUOUS
 10
241.6740224633
 20
130.3623300808
 11
242.9389057918
 21
140.9053179672
  0
LINE
  5
3D2
100
AcDbEntity
  8
0
100
AcDbLine
 62
7
  6
CONTINUOUS
 10
277.9240224633
 20
192.4053179672
 11
277.9240224633
 21
237.4053179672
  0
LINE
  5
3D3
100
AcDbEntity
  8
KONSTRUKTIONSELEMENTE
100
AcDbLine
 62
7
  6
CONTINUOUS
 10
237.9190138074
 20
188.1771767375
 11
234.4093165809
 21
181.5964944378
  0
LINE
  5
3D4
100
AcDbEntity
  8
RUNDUNGEN
100
AcDbLine
 62
7
  6
CONTINUOUS
 10
230.9240224633
 20
136.8514703899
 11
227.9240224633
 21
131.6553179672
  0
LINE
  5
3D5
100
AcDbEntity
  8
KONSTRUKTIONSELEMENTE
100
AcDbLine
 62
7
  6
CONTINUOUS
 10
292.1085029148
 20
153.7265770363
 11
288.5729690089
 21
150.1910431304
  0
LINE
  5
3D6
100
AcDbEntity
  8
KONSTRUKTIONSELEMENTE
100
AcDbLine
 62
7
  6
CONTINUOUS
 10
292.4620563054
 20
153.3730236457
 11
288.9265223995
 21
149.8374897398
  0
LINE
  5
3D7
100
AcDbEntity
  8
KONSTRUKTIONSELEMENTE
100
AcDbLine
 62
7
  6
CONTINUOUS
 10
353.2732394875
 20
92.5618404637
 11
349.7377055816
 21
89.0263065577
  0
LINE
  5
3D8
100
AcDbEntity
  8
KONSTRUKTIONSELEMENTE
100
AcDbLine
 62
7
  6
CONTINUOUS
 10
353.6267928781
 20
92.2082870731
 11
350.0912589721
 21
88.6727531671
  0
LINE
  5
3D9
100
AcDbEntity
  8
RUNDUNGEN
100
AcDbLine
 62
7
  6
CONTINUOUS
 10
345.3478003348
 20
83.4460061897
 11
348.8833342408
 21
86.9815400957
  0
LINE
  5
3DA
100
AcDbEntity
  8
RUNDUNGEN
100
AcDbLine
 62
7
  6
CONTINUOUS
 10
349.0352763298
 20
86.8295980066
 11
345.4997424239
 21
83.2940641007
  0
LINE
  5
3DB
100
AcDbEntity
  8
RUNDUNGEN
100
AcDbLine
 62
7
  6
CONTINUOUS
 10
402.5585821362
 20
26.2352243884
 11
406.0941160421
 21
29.7707582943
  0
ARC
  5
3DC
100
AcDbEntity
  8
RUNDUNGEN
100
AcDbCircle
 62
7
  6
CONTINUOUS
 10
545.3718508067
 20
174.5592701589
 40
27.755738485
100
AcDbArc
 50
269.029932686
 51
269.9945997237
  0
ARC
  5
3DD
100
AcDbEntity
  8
RUNDUNGEN
100
AcDbCircle
 62
7
  6
CONTINUOUS
 10
544.9019444965
 20
140.9053179672
 40
6.0
100
AcDbArc
 50
116.2394469635
 51
180.0
  0
ARC
  5
3DE
100
AcDbEntity
  8
RUNDUNGEN
100
AcDbCircle
 62
7
  6
CONTINUOUS
 10
544.0700374148
 20
142.5934574239
 40
4.1180105821
100
AcDbArc
 50
113.1855758857
 51
116.2420010499
  0
CIRCLE
  5
3DF
100
AcDbEntity
  8
BEZUGSACHSEN
100
AcDbCircle
 62
7
  6
CONTINUOUS
 10
547.1019444965
 20
123.4553179672
 40
1.75
  0
ARC
  5
3E0
100
AcDbEntity
  8
0
100
AcDbCircle
 62
7
  6
CONTINUOUS
 10
553.2319514581
 20
68.1017893207
 40
0.3335678168
100
AcDbArc
 50
78.8903114984
 51
89.9692795103
  0
ARC
  5
3E1
100
AcDbEntity
  8
KONSTRUKTIONSELEMENTE
100
AcDbCircle
 62
7
  6
CONTINUOUS
 10
562.0331217467
 20
179.1193521066
 40
30.7197128927
100
AcDbArc
 50
274.4262461443
 51
283.6815744353
  0
ARC
  5
3E2
100
AcDbEntity
  8
KONSTRUKTIONSELEMENTE
100
AcDbCircle
 62
7
  6
CONTINUOUS
 10
561.9019444965
 20
85.5139579672
 40
28.79136
100
AcDbArc
 50
56.9721560344
 51
79.9991254185
  0
ARC
  5
3E3
100
AcDbEntity
  8
KONSTRUKTIONSELEMENTE
100
AcDbCircle
 62
7
  6
CONTINUOUS
 10
561.9019444965
 20
85.5139579672
 40
28.79136
100
AcDbArc
 50
100.0008745815
 51
123.0278439656
  0
ARC
  5
3E4
100
AcDbEntity
  8
RUNDUNGEN
100
AcDbCircle
 62
7
  6
CONTINUOUS
 10
578.4320323259
 20
174.5601994919
 40
27.7566678185
100
AcDbArc
 50
270.0054115361
 51
270.9708056369
  0
ARC
  5
3E5
100
AcDbEntity
  8
BEZUGSACHSEN
100
AcDbCircle
 62
7
  6
CONTINUOUS
 10
561.9019444965
 20
159.6553179672
 40
12.75
100
AcDbArc
 50
134.9044389838
 51
45.0955610162
  0
ARC
  5
3E6
100
AcDbEntity
  8
0
100
AcDbCircle
 62
7
  6
CONTINUOUS
 10
561.9019444965
 20
163.4053179672
 40
9.0
100
AcDbArc
 50
180.0
 51
360.0
  0
ARC
  5
3E7
100
AcDbEntity
  8
RUNDUNGEN
100
AcDbCircle
 62
7
  6
CONTINUOUS
 10
578.9019444965
 20
140.9053179672
 40
6.0
100
AcDbArc
 50
0.0
 51
63.7605530365
  0
ARC
  5
3E8
100
AcDbEntity
  8
KONSTRUKTIONSELEMENTE
100
AcDbCircle
 62
7
  6
CONTINUOUS
 10
561.9019444965
 20
134.0953179672
 40
5.0
100
AcDbArc
 50
0.0000014742
 51
180.0
  0
ARC
  5
3E9
100
AcDbEntity
  8
RUNDUNGEN
100
AcDbCircle
 62
7
  6
CONTINUOUS
 10
579.7338515783
 20
142.5934574239
 40
4.1180105821
100
AcDbArc
 50
63.7579989501
 51
66.8144241143
  0
ARC
  5
3EA
100
AcDbEntity
  8
KONSTRUKTIONSELEMENTE
100
AcDbCircle
 62
7
  6
CONTINUOUS
 10
561.9019444965
 20
74.37490866
 40
2.5
100
AcDbArc
 50
180.0
 51
360.0
  0
ARC
  5
3EB
100
AcDbEntity
  8
KONSTRUKTIONSELEMENTE
100
AcDbCircle
 62
7
  6
CONTINUOUS
 10
561.9019444965
 20
96.8894793561
 40
2.5
100
AcDbArc
 50
0.0
 51
180.0
  0
ARC
  5
3EC
100
AcDbEntity
  8
KONSTRUKTIONSELEMENTE
100
AcDbCircle
 62
7
  6
CONTINUOUS
 10
561.9019444965
 20
135.5396452326
 40
2.5
100
AcDbArc
 50
180.0
 51
360.0
  0
ARC
  5
3ED
100
AcDbEntity
  8
KONSTRUKTIONSELEMENTE
100
AcDbCircle
 62
7
  6
CONTINUOUS
 10
561.9019444965
 20
104.9844847402
 40
2.25
100
AcDbArc
 50
180.0
 51
360.0
  0
ARC
  5
3EE
100
AcDbEntity
  8
KONSTRUKTIONSELEMENTE
100
AcDbCircle
 62
7
  6
CONTINUOUS
 10
561.9019444965
 20
127.091086458
 40
2.25
100
AcDbArc
 50
79.84376417
 51
100.15623583
  0
ARC
  5
3EF
100
AcDbEntity
  8
0
100
AcDbCircle
 62
7
  6
CONTINUOUS
 10
571.8721707291
 20
68.6072004451
 40
1.7033694964
100
AcDbArc
 50
350.5636876713
 51
355.3957076167
  0
ARC
  5
3F0
100
AcDbEntity
  8
0
100
AcDbCircle
 62
7
  6
CONTINUOUS
 10
561.9019444965
 20
327.4053179672
 40
92.0
100
AcDbArc
 50
180.0
 51
264.3848569188
  0
ARC
  5
3F1
100
AcDbEntity
  8
0
100
AcDbCircle
 62
7
  6
CONTINUOUS
 10
561.9019444965
 20
327.4053179672
 40
92.0
100
AcDbArc
 50
275.6151430812
 51
360.0
  0
ARC
  5
3F2
100
AcDbEntity
  8
0
100
AcDbCircle
 62
7
  6
CONTINUOUS
 10
561.9019444965
 20
447.4053179672
 40
92.0
100
AcDbArc
 50
0.0
 51
180.0
  0
ARC
  5
3F3
100
AcDbEntity
  8
0
100
AcDbCircle
 62
7
  6
CONTINUOUS
 10
561.9019444965
 20
327.4053179672
 40
70.0
100
AcDbArc
 50
180.0
 51
262.6122309054
  0
ARC
  5
3F4
100
AcDbEntity
  8
0
100
AcDbCircle
 62
7
  6
CONTINUOUS
 10
561.9019444965
 20
327.4053179672
 40
70.0
100
AcDbArc
 50
277.3877690946
 51
360.0
  0
ARC
  5
3F5
100
AcDbEntity
  8
0
100
AcDbCircle
 62
7
  6
CONTINUOUS
 10
561.9019444965
 20
447.4053179672
 40
70.0
100
AcDbArc
 50
0.0
 51
180.0
  0
ARC
  5
3F6
100
AcDbEntity
  8
0
100
AcDbCircle
 62
7
  6
CONTINUOUS
 10
561.9019444965
 20
266.4053179672
 40
9.0
100
AcDbArc
 50
0.0
 51
180.0
  0
ARC
  5
3F7
100
AcDbEntity
  8
0
100
AcDbCircle
 62
7
  6
CONTINUOUS
 10
240.7240224633
 20
120.8553179672
 40
11.2
100
AcDbArc
 50
283.4238135477
 51
360.0
  0
ARC
  5
3F8
100
AcDbEntity
  8
0
100
AcDbCircle
 62
7
  6
CONTINUOUS
 10
240.7240224633
 20
120.8553179672
 40
11.2
100
AcDbArc
 50
270.0
 51
279.3310985005
  0
ARC
  5
3F9
100
AcDbEntity
  8
RUNDUNGEN
100
AcDbCircle
 62
7
  6
CONTINUOUS
 10
239.1240224633
 20
120.8553179672
 40
11.2
100
AcDbArc
 50
180.0
 51
270.0
  0
ARC
  5
3FA
100
AcDbEntity
  8
BEZUGSACHSEN
100
AcDbCircle
 62
7
  6
CONTINUOUS
 10
239.9240224633
 20
178.6553179672
 40
6.25
100
AcDbArc
 50
151.9275130641
 51
180.0
  0
ARC
  5
3FB
100
AcDbEntity
  8
BEZUGSACHSEN
100
AcDbCircle
 62
7
  6
CONTINUOUS
 10
239.9240224633
 20
178.6553179672
 40
6.25
100
AcDbArc
 50
0.0
 51
28.0724869359
  0
CIRCLE
  5
3FC
100
AcDbEntity
  8
BEZUGSACHSEN
100
AcDbCircle
 62
7
  6
CONTINUOUS
 10
239.9240224633
 20
123.6553179672
 40
5.6906
  0
ARC
  5
3FD
100
AcDbEntity
  8
RUNDUNGEN
100
AcDbCircle
 62
7
  6
CONTINUOUS
 10
234.5240224633
 20
143.3053179672
 40
3.6
100
AcDbArc
 50
103.3859285006
 51
179.9999751696
  0
ARC
  5
3FE
100
AcDbEntity
  8
0
100
AcDbCircle
 62
7
  6
CONTINUOUS
 10
245.3240224633
 20
143.3053179672
 40
3.6
100
AcDbArc
 50
0.0
 51
76.6140714994
  0
ARC
  5
3FF
100
AcDbEntity
  8
KONSTRUKTIONSELEMENTE
100
AcDbCircle
 62
7
  6
CONTINUOUS
 10
251.9448377435
 20
180.384502687
 40
3.0
100
AcDbArc
 50
45.0
 51
225.0
  0
ARC
  5
400
100
AcDbEntity
  8
RUNDUNGEN
100
AcDbCircle
 62
7
  6
CONTINUOUS
 10
232.9851004673
 20
144.4823477588
 40
2.3717517148
100
AcDbArc
 50
49.5447012632
 51
53.0949122137
  0
ARC
  5
401
100
AcDbEntity
  8
0
100
AcDbCircle
 62
7
  6
CONTINUOUS
 10
246.8629444593
 20
144.4823477588
 40
2.3717517148
100
AcDbArc
 50
126.9050877863
 51
130.4552987368
  0
ARC
  5
402
100
AcDbEntity
  8
0
100
AcDbCircle
 62
7
  6
CONTINUOUS
 10
239.9240224633
 20
192.4053179672
 40
38.0
100
AcDbArc
 50
180.0
 51
260.5278011496
  0
ARC
  5
403
100
AcDbEntity
  8
0
100
AcDbCircle
 62
7
  6
CONTINUOUS
 10
239.9240224633
 20
192.4053179672
 40
38.0
100
AcDbArc
 50
279.4721988504
 51
310.4705687981
  0
ARC
  5
404
100
AcDbEntity
  8
0
100
AcDbCircle
 62
7
  6
CONTINUOUS
 10
239.9240224633
 20
192.4053179672
 40
38.0
100
AcDbArc
 50
319.5294312019
 51
360.0
  0
ARC
  5
405
100
AcDbEntity
  8
0
100
AcDbCircle
 62
7
  6
CONTINUOUS
 10
239.9240224633
 20
237.4053179672
 40
38.0
100
AcDbArc
 50
0.0
 51
73.1688087921
  0
ARC
  5
406
100
AcDbEntity
  8
0
100
AcDbCircle
 62
7
  6
CONTINUOUS
 10
239.9240224633
 20
237.4053179672
 40
38.0
100
AcDbArc
 50
106.8311912079
 51
180.0
  0
ARC
  5
407
100
AcDbEntity
  8
0
100
AcDbCircle
 62
7
  6
CONTINUOUS
 10
239.9240224633
 20
192.4053179672
 40
20.0
100
AcDbArc
 50
180.0
 51
251.7780468296
  0
ARC
  5
408
100
AcDbEntity
  8
0
100
AcDbCircle
 62
7
  6
CONTINUOUS
 10
239.9240224633
 20
192.4053179672
 40
20.0
100
AcDbArc
 50
288.2219531704
 51
306.3706502024
  0
ARC
  5
409
100
AcDbEntity
  8
0
100
AcDbCircle
 62
7
  6
CONTINUOUS
 10
239.9240224633
 20
192.4053179672
 40
20.0
100
AcDbArc
 50
323.6293497976
 51
360.0
  0
ARC
  5
40A
100
AcDbEntity
  8
0
100
AcDbCircle
 62
7
  6
CONTINUOUS
 10
239.9240224633
 20
237.4053179672
 40
20.0
100
AcDbArc
 50
0.0
 51
56.6271912836
  0
ARC
  5
40B
100
AcDbEntity
  8
0
100
AcDbCircle
 62
7
  6
CONTINUOUS
 10
239.9240224633
 20
237.4053179672
 40
20.0
100
AcDbArc
 50
123.3728087164
 51
180.0
  0
ARC
  5
40C
100
AcDbEntity
  8
0
100
AcDbCircle
 62
7
  6
CONTINUOUS
 10
239.9240224633
 20
246.4053179672
 40
11.0
100
AcDbArc
 50
180.0
 51
360.0
  0
ARC
  5
40D
100
AcDbEntity
  8
KONSTRUKTIONSELEMENTE
100
AcDbCircle
 62
7
  6
CONTINUOUS
 10
289.7396951979
 20
142.5896452326
 40
9.55
100
AcDbArc
 50
328.6297070454
 51
45.0
  0
ARC
  5
40E
100
AcDbEntity
  8
KONSTRUKTIONSELEMENTE
100
AcDbCircle
 62
7
  6
CONTINUOUS
 10
289.7396951979
 20
142.5896452326
 40
9.55
100
AcDbArc
 50
225.0
 51
301.3702929546
  0
ARC
  5
40F
100
AcDbEntity
  8
KONSTRUKTIONSELEMENTE
100
AcDbCircle
 62
7
  6
CONTINUOUS
 10
281.3251245018
 20
151.0042159287
 40
9.55
100
AcDbArc
 50
153.3390960058
 51
225.0
  0
ARC
  5
410
100
AcDbEntity
  8
KONSTRUKTIONSELEMENTE
100
AcDbCircle
 62
7
  6
CONTINUOUS
 10
281.3251245018
 20
151.0042159287
 40
9.55
100
AcDbArc
 50
45.0
 51
116.6609039942
  0
ARC
  5
411
100
AcDbEntity
  8
KONSTRUKTIONSELEMENTE
100
AcDbCircle
 62
7
  6
CONTINUOUS
 10
289.7396951979
 20
142.5896452326
 40
4.55
100
AcDbArc
 50
344.6522021471
 51
45.0
  0
ARC
  5
412
100
AcDbEntity
  8
KONSTRUKTIONSELEMENTE
100
AcDbCircle
 62
7
  6
CONTINUOUS
 10
289.7396951979
 20
142.5896452326
 40
4.55
100
AcDbArc
 50
225.0
 51
285.3477978529
  0
ARC
  5
413
100
AcDbEntity
  8
KONSTRUKTIONSELEMENTE
100
AcDbCircle
 62
7
  6
CONTINUOUS
 10
281.3251245018
 20
151.0042159287
 40
4.55
100
AcDbArc
 50
176.2724010126
 51
225.0
  0
ARC
  5
414
100
AcDbEntity
  8
KONSTRUKTIONSELEMENTE
100
AcDbCircle
 62
7
  6
CONTINUOUS
 10
281.3251245018
 20
151.0042159287
 40
4.55
100
AcDbArc
 50
45.0
 51
93.7275989874
  0
ARC
  5
415
100
AcDbEntity
  8
KONSTRUKTIONSELEMENTE
100
AcDbCircle
 62
7
  6
CONTINUOUS
 10
280.9362157721
 20
151.3931246584
 40
3.0
100
AcDbArc
 50
225.0
 51
45.0
  0
ARC
  5
416
100
AcDbEntity
  8
KONSTRUKTIONSELEMENTE
100
AcDbCircle
 62
7
  6
CONTINUOUS
 10
291.3660407946
 20
140.9632996359
 40
2.25
100
AcDbArc
 50
45.0
 51
225.0
  0
ARC
  5
417
100
AcDbEntity
  8
0
100
AcDbCircle
 62
7
  6
CONTINUOUS
 10
239.9240224633
 20
528.4053179672
 40
11.0
100
AcDbArc
 50
0.0
 51
180.0
  0
ARC
  5
418
100
AcDbEntity
  8
KONSTRUKTIONSELEMENTE
100
AcDbCircle
 62
7
  6
CONTINUOUS
 10
350.9044317705
 20
81.42490866
 40
9.55
100
AcDbArc
 50
330.1951355235
 51
45.0
  0
ARC
  5
419
100
AcDbEntity
  8
KONSTRUKTIONSELEMENTE
100
AcDbCircle
 62
7
  6
CONTINUOUS
 10
350.9044317705
 20
81.42490866
 40
9.55
100
AcDbArc
 50
225.0
 51
299.8048644765
  0
ARC
  5
41A
100
AcDbEntity
  8
KONSTRUKTIONSELEMENTE
100
AcDbCircle
 62
7
  6
CONTINUOUS
 10
342.4898610744
 20
89.8394793561
 40
9.55
100
AcDbArc
 50
148.6297070454
 51
225.0
  0
ARC
  5
41B
100
AcDbEntity
  8
KONSTRUKTIONSELEMENTE
100
AcDbCircle
 62
7
  6
CONTINUOUS
 10
342.4898610744
 20
89.8394793561
 40
9.55
100
AcDbArc
 50
45.0
 51
121.3702929546
  0
ARC
  5
41C
100
AcDbEntity
  8
KONSTRUKTIONSELEMENTE
100
AcDbCircle
 62
7
  6
CONTINUOUS
 10
321.5948556903
 20
110.7344847402
 40
8.0
100
AcDbArc
 50
331.3642958278
 51
45.0
  0
ARC
  5
41D
100
AcDbEntity
  8
KONSTRUKTIONSELEMENTE
100
AcDbCircle
 62
7
  6
CONTINUOUS
 10
321.5948556903
 20
110.7344847402
 40
8.0
100
AcDbArc
 50
225.0
 51
298.6357041722
  0
ARC
  5
41E
100
AcDbEntity
  8
KONSTRUKTIONSELEMENTE
100
AcDbCircle
 62
7
  6
CONTINUOUS
 10
310.9882539725
 20
121.341086458
 40
8.0
100
AcDbArc
 50
151.3642958278
 51
225.0
  0
ARC
  5
41F
100
AcDbEntity
  8
KONSTRUKTIONSELEMENTE
100
AcDbCircle
 62
7
  6
CONTINUOUS
 10
310.9882539725
 20
121.341086458
 40
8.0
100
AcDbArc
 50
45.0
 51
118.6357041722
  0
ARC
  5
420
100
AcDbEntity
  8
KONSTRUKTIONSELEMENTE
100
AcDbCircle
 62
7
  6
CONTINUOUS
 10
350.9044317705
 20
81.42490866
 40
4.55
100
AcDbArc
 50
348.3583327703
 51
45.0
  0
ARC
  5
421
100
AcDbEntity
  8
KONSTRUKTIONSELEMENTE
100
AcDbCircle
 62
7
  6
CONTINUOUS
 10
350.9044317705
 20
81.42490866
 40
4.55
100
AcDbArc
 50
225.0
 51
281.6416672297
  0
ARC
  5
422
100
AcDbEntity
  8
KONSTRUKTIONSELEMENTE
100
AcDbCircle
 62
7
  6
CONTINUOUS
 10
342.4898610744
 20
89.8394793561
 40
4.55
100
AcDbArc
 50
164.6522021471
 51
225.0
  0
ARC
  5
423
100
AcDbEntity
  8
KONSTRUKTIONSELEMENTE
100
AcDbCircle
 62
7
  6
CONTINUOUS
 10
342.4898610744
 20
89.8394793561
 40
4.55
100
AcDbArc
 50
45.0
 51
105.3477978529
  0
ARC
  5
424
100
AcDbEntity
  8
KONSTRUKTIONSELEMENTE
100
AcDbCircle
 62
7
  6
CONTINUOUS
 10
321.5948556903
 20
110.7344847402
 40
3.5
100
AcDbArc
 50
355.1538775079
 51
45.0
  0
ARC
  5
425
100
AcDbEntity
  8
KONSTRUKTIONSELEMENTE
100
AcDbCircle
 62
7
  6
CONTINUOUS
 10
321.5948556903
 20
110.7344847402
 40
3.5
100
AcDbArc
 50
225.0
 51
274.8461224921
  0
ARC
  5
426
100
AcDbEntity
  8
KONSTRUKTIONSELEMENTE
100
AcDbCircle
 62
7
  6
CONTINUOUS
 10
310.9882539725
 20
121.341086458
 40
3.5
100
AcDbArc
 50
175.1538775079
 51
225.0
  0
ARC
  5
427
100
AcDbEntity
  8
KONSTRUKTIONSELEMENTE
100
AcDbCircle
 62
7
  6
CONTINUOUS
 10
310.9882539725
 20
121.341086458
 40
3.5
100
AcDbArc
 50
45.0
 51
94.8461224921
  0
ARC
  5
428
100
AcDbEntity
  8
KONSTRUKTIONSELEMENTE
100
AcDbCircle
 62
7
  6
CONTINUOUS
 10
322.4787391668
 20
109.8506012637
 40
2.25
100
AcDbArc
 50
45.0
 51
225.0
  0
ARC
  5
429
100
AcDbEntity
  8
KONSTRUKTIONSELEMENTE
100
AcDbCircle
 62
7
  6
CONTINUOUS
 10
341.2170688683
 20
91.1122715622
 40
2.25
100
AcDbArc
 50
225.0
 51
45.0
  0
ARC
  5
42A
100
AcDbEntity
  8
KONSTRUKTIONSELEMENTE
100
AcDbCircle
 62
7
  6
CONTINUOUS
 10
310.104370496
 20
122.2249699344
 40
2.25
100
AcDbArc
 50
225.0
 51
45.0
  0
SPLINE
  5
42B
100
AcDbEntity
  8
KONSTRUKTIONSELEMENTE
100
AcDbSpline
 62
7
  6
CONTINUOUS
 70
0
 71
3
 72
13
 73
9
 74
0
 42
0.0000001
 43
0.0000001
 44
0.0000000001
 40
0.0
 40
0.0
 40
0.0
 40
0.0
 40
0.1194785188
 40
0.2392741704
 40
0.3602835725
 40
0.4830059608
 40
0.7355440041
 40
1.0
 40
1.0
 40
1.0
 40
1.0
 10
553.9019444965
 20
105.7847372719
 30
0.0
 10
553.9019444965
 20
106.1433768831
 30
0.0
 10
553.9780399797
 20
106.8638835121
 30
0.0
 10
554.3136162073
 20
107.8993792678
 30
0.0
 10
554.8496006726
 20
108.8576989469
 30
0.0
 10
555.8072962383
 20
110.0080787078
 30
0.0
 10
557.393614881
 20
111.1474212271
 30
0.0
 10
558.8736683235
 20
111.6749472474
 30
0.0
 10
559.647832176
 20
111.8505033925
 30
0.0
  0
SPLINE
  5
42C
100
AcDbEntity
  8
KONSTRUKTIONSELEMENTE
100
AcDbSpline
 62
7
  6
CONTINUOUS
 70
0
 71
3
 72
13
 73
9
 74
0
 42
0.0000001
 43
0.0000001
 44
0.0000000001
 40
0.0
 40
0.0
 40
0.0
 40
0.0
 40
0.2644681654
 40
0.5169944072
 40
0.6397129492
 40
0.760706397
 40
0.8805228501
 40
1.0
 40
1.0
 40
1.0
 40
1.0
 10
564.1541152753
 20
111.8509346048
 30
0.0
 10
564.9285126019
 20
111.6754545006
 30
0.0
 10
566.4090034494
 20
111.1481337719
 30
0.0
 10
567.9958538565
 20
110.0087813085
 30
0.0
 10
568.9538258159
 20
108.8583387596
 30
0.0
 10
569.4901425736
 20
107.8999169731
 30
0.0
 10
569.8257569102
 20
106.8641635606
 30
0.0
 10
569.9019444965
 20
106.1434515422
 30
0.0
 10
569.9019444965
 20
105.7847372719
 30
0.0
  0
SPLINE
  5
42D
100
AcDbEntity
  8
KONSTRUKTIONSELEMENTE
100
AcDbSpline
 62
7
  6
CONTINUOUS
 70
0
 71
3
 72
10
 73
6
 74
0
 42
0.0000001
 43
0.0000001
 44
0.0000000001
 40
0.0
 40
0.0
 40
0.0
 40
0.0
 40
0.3116645009
 40
0.6060899939
 40
1.0
 40
1.0
 40
1.0
 40
1.0
 10
558.4019444965
 20
105.7847372719
 30
0.0
 10
558.4019444965
 20
105.9818921183
 30
0.0
 10
558.5894730531
 20
106.353218313
 30
0.0
 10
559.0467923227
 20
106.7870914027
 30
0.0
 10
559.425193635
 20
107.0145014362
 30
0.0
 10
559.6499526083
 20
107.1220895672
 30
0.0
  0
SPLINE
  5
42E
100
AcDbEntity
  8
KONSTRUKTIONSELEMENTE
100
AcDbSpline
 62
7
  6
CONTINUOUS
 70
0
 71
3
 72
10
 73
6
 74
0
 42
0.0000001
 43
0.0000001
 44
0.0000000001
 40
0.0
 40
0.0
 40
0.0
 40
0.0
 40
0.3939255147
 40
0.6883533687
 40
1.0
 40
1.0
 40
1.0
 40
1.0
 10
564.1536937321
 20
107.1222014952
 30
0.0
 10
564.378501638
 20
107.0146115946
 30
0.0
 10
564.7569641597
 20
106.7871660263
 30
0.0
 10
565.2144056773
 20
106.3532882829
 30
0.0
 10
565.4019444965
 20
105.9819085757
 30
0.0
 10
565.4019444965
 20
105.7847372719
 30
0.0
  0
SPLINE
  5
42F
100
AcDbEntity
  8
KONSTRUKTIONSELEMENTE
100
AcDbSpline
 62
7
  6
CONTINUOUS
 70
0
 71
3
 72
10
 73
6
 74
0
 42
0.0000001
 43
0.0000001
 44
0.0000000001
 40
0.0
 40
0.0
 40
0.0
 40
0.0
 40
0.3192646009
 40
0.6086079864
 40
1.0
 40
1.0
 40
1.0
 40
1.0
 10
565.4019444965
 20
95.1781355541
 30
0.0
 10
565.4019444965
 20
95.0063957789
 30
0.0
 10
565.25992871
 20
94.6855445639
 30
0.0
 10
564.8941226953
 20
94.2921922245
 30
0.0
 10
564.5908348626
 20
94.0791523112
 30
0.0
 10
564.4082985615
 20
93.9742377148
 30
0.0
  0
SPLINE
  5
430
100
AcDbEntity
  8
KONSTRUKTIONSELEMENTE
100
AcDbSpline
 62
7
  6
CONTINUOUS
 70
0
 71
3
 72
10
 73
6
 74
0
 42
0.0000001
 43
0.0000001
 44
0.0000000001
 40
0.0
 40
0.0
 40
0.0
 40
0.0
 40
0.3914026107
 40
0.6807340322
 40
1.0
 40
1.0
 40
1.0
 40
1.0
 10
559.3954988955
 20
93.9742901859
 30
0.0
 10
559.212971652
 20
94.0792055954
 30
0.0
 10
558.9097320713
 20
94.2922646669
 30
0.0
 10
558.5439113667
 20
94.6855630275
 30
0.0
 10
558.4019444965
 20
95.0064057684
 30
0.0
 10
558.4019444965
 20
95.1781355541
 30
0.0
  0
SPLINE
  5
431
100
AcDbEntity
  8
KONSTRUKTIONSELEMENTE
100
AcDbSpline
 62
7
  6
CONTINUOUS
 70
0
 71
3
 72
13
 73
9
 74
0
 42
0.0000001
 43
0.0000001
 44
0.0000000001
 40
0.0
 40
0.0
 40
0.0
 40
0.0
 40
0.1197290731
 40
0.2397365246
 40
0.3609040964
 40
0.4836831257
 40
0.7359942557
 40
1.0
 40
1.0
 40
1.0
 40
1.0
 10
569.9019444965
 20
95.1781355541
 30
0.0
 10
569.9019444965
 20
94.8289218519
 30
0.0
 10
569.8298408747
 20
94.1275808159
 30
0.0
 10
569.51155554
 20
93.1173625678
 30
0.0
 10
569.0021719983
 20
92.1787843491
 30
0.0
 10
568.0903714698
 20
91.0460098424
 30
0.0
 10
566.5744802042
 20
89.9088664263
 30
0.0
 10
565.1515933541
 20
89.3623207024
 30
0.0
 10
564.4053688325
 20
89.1723522118
 30
0.0
  0
SPLINE
  5
432
100
AcDbEntity
  8
KONSTRUKTIONSELEMENTE
100
AcDbSpline
 62
7
  6
CONTINUOUS
 70
0
 71
3
 72
13
 73
9
 74
0
 42
0.0000001
 43
0.0000001
 44
0.0000000001
 40
0.0
 40
0.0
 40
0.0
 40
0.0
 40
0.2640112835
 40
0.5163080567
 40
0.6390830379
 40
0.7602378991
 40
0.8802701562
 40
1.0
 40
1.0
 40
1.0
 40
1.0
 10
559.3976166941
 20
89.1725994014
 30
0.0
 10
558.6514768717
 20
89.3626340027
 30
0.0
 10
557.2288004304
 20
89.9092006338
 30
0.0
 10
555.7132103632
 20
91.0463459748
 30
0.0
 10
554.8016200858
 20
92.1789614834
 30
0.0
 10
554.29222917
 20
93.11743877
 30
0.0
 10
553.9740924509
 20
94.1276268731
 30
0.0
 10
553.9019444965
 20
94.8289567566
 30
0.0
 10
553.9019444965
 20
95.1781355541
 30
0.0
  0
SPLINE
  5
433
100
AcDbEntity
  8
KONSTRUKTIONSELEMENTE
100
AcDbSpline
 62
7
  6
CONTINUOUS
 70
0
 71
3
 72
10
 73
6
 74
0
 42
0.0000001
 43
0.0000001
 44
0.0000000001
 40
0.0
 40
0.0
 40
0.0
 40
0.0
 40
0.3192646009
 40
0.6086079864
 40
1.0
 40
1.0
 40
1.0
 40
1.0
 10
558.4019444965
 20
136.8974356441
 30
0.0
 10
558.4019444965
 20
137.0691754193
 30
0.0
 10
558.5439602831
 20
137.3900266342
 30
0.0
 10
558.9097662978
 20
137.7833789736
 30
0.0
 10
559.2130541305
 20
137.9964188869
 30
0.0
 10
559.3955904315
 20
138.1013334833
 30
0.0
  0
SPLINE
  5
434
100
AcDbEntity
  8
KONSTRUKTIONSELEMENTE
100
AcDbSpline
 62
7
  6
CONTINUOUS
 70
0
 71
3
 72
10
 73
6
 74
0
 42
0.0000001
 43
0.0000001
 44
0.0000000001
 40
0.0
 40
0.0
 40
0.0
 40
0.0
 40
0.3914026107
 40
0.6807340322
 40
1.0
 40
1.0
 40
1.0
 40
1.0
 10
564.4083900976
 20
138.1012810122
 30
0.0
 10
564.5909173411
 20
137.9963656027
 30
0.0
 10
564.8941569218
 20
137.7833065312
 30
0.0
 10
565.2599776264
 20
137.3900081706
 30
0.0
 10
565.4019444965
 20
137.0691654297
 30
0.0
 10
565.4019444965
 20
136.8974356441
 30
0.0
  0
SPLINE
  5
435
100
AcDbEntity
  8
KONSTRUKTIONSELEMENTE
100
AcDbSpline
 62
7
  6
CONTINUOUS
 70
0
 71
3
 72
9
 73
5
 74
0
 42
0.0000001
 43
0.0000001
 44
0.0000000001
 40
0.0
 40
0.0
 40
0.0
 40
0.0
 40
0.2518169059
 40
1.0
 40
1.0
 40
1.0
 40
1.0
 10
559.4006238464
 20
148.4912003009
 30
0.0
 10
558.9838059376
 20
148.5239885214
 30
0.0
 10
557.3313349287
 20
148.686893454
 30
0.0
 10
555.6914992936
 20
148.9808850921
 30
0.0
 10
554.4848534362
 20
149.2761650319
 30
0.0
  0
SPLINE
  5
436
100
AcDbEntity
  8
KONSTRUKTIONSELEMENTE
100
AcDbSpline
 62
7
  6
CONTINUOUS
 70
0
 71
3
 72
9
 73
5
 74
0
 42
0.0000001
 43
0.0000001
 44
0.0000000001
 40
0.0
 40
0.0
 40
0.0
 40
0.0
 40
0.4771280743
 40
1.0
 40
1.0
 40
1.0
 40
1.0
 10
574.5457992997
 20
158.0044968277
 30
0.0
 10
573.1329537141
 20
157.0248923121
 30
0.0
 10
569.8406340308
 20
155.4380185971
 30
0.0
 10
566.2795340569
 20
154.6964682286
 30
0.0
 10
564.4043114969
 20
154.5141964294
 30
0.0
  0
SPLINE
  5
437
100
AcDbEntity
  8
KONSTRUKTIONSELEMENTE
100
AcDbSpline
 62
7
  6
CONTINUOUS
 70
0
 71
3
 72
9
 73
5
 74
0
 42
0.0000001
 43
0.0000001
 44
0.0000000001
 40
0.0
 40
0.0
 40
0.0
 40
0.0
 40
0.5228783463
 40
1.0
 40
1.0
 40
1.0
 40
1.0
 10
559.3999176697
 20
154.5141566549
 30
0.0
 10
557.5242163609
 20
154.6964550204
 30
0.0
 10
553.9622399277
 20
155.4382144856
 30
0.0
 10
550.6692415803
 20
157.0257889121
 30
0.0
 10
549.2562017853
 20
158.0058028586
 30
0.0
  0
SPLINE
  5
438
100
AcDbEntity
  8
0
100
AcDbSpline
 62
7
  6
CONTINUOUS
 70
0
 71
3
 72
11
 73
7
 74
0
 42
0.0000001
 43
0.0000001
 44
0.0000000001
 40
0.0
 40
0.0
 40
0.0
 40
0.0
 40
0.2192989281
 40
0.4548225453
 40
0.7152180566
 40
1.0
 40
1.0
 40
1.0
 40
1.0
 10
573.5754367635
 20
68.3222200046
 30
0.0
 10
573.5754367635
 20
68.5533912884
 30
0.0
 10
573.4714857442
 20
69.0373558988
 30
0.0
 10
573.0377095008
 20
69.6720605778
 30
0.0
 10
572.379076089
 20
70.1829079538
 30
0.0
 10
571.8451627872
 20
70.4116684686
 30
0.0
 10
571.558286553
 20
70.5001088906
 30
0.0
  0
SPLINE
  5
439
100
AcDbEntity
  8
0
100
AcDbSpline
 62
7
  6
CONTINUOUS
 70
0
 71
3
 72
17
 73
13
 74
0
 42
0.0000001
 43
0.0000001
 44
0.0000000001
 40
0.0
 40
0.0
 40
0.0
 40
0.0
 40
0.0517809237
 40
0.1054811646
 40
0.2228479209
 40
0.3562855052
 40
0.5
 40
0.6437144948
 40
0.7771520791
 40
0.8945188354
 40
0.9482190763
 40
1.0
 40
1.0
 40
1.0
 40
1.0
 10
563.1167713495
 20
67.7366424847
 30
0.0
 10
563.1167713495
 20
67.6665752421
 30
0.0
 10
563.1371718087
 20
67.5231240758
 30
0.0
 10
563.2590764773
 20
67.2438954704
 30
0.0
 10
563.5603213368
 20
66.9424616634
 30
0.0
 10
564.0548887857
 20
66.7203293012
 30
0.0
 10
564.6264254938
 20
66.6426202856
 30
0.0
 10
565.1979622019
 20
66.7203293012
 30
0.0
 10
565.6925296507
 20
66.9424616634
 30
0.0
 10
565.9937745102
 20
67.2438954704
 30
0.0
 10
566.1156791788
 20
67.5231240758
 30
0.0
 10
566.136079638
 20
67.6665752421
 30
0.0
 10
566.136079638
 20
67.7366424847
 30
0.0
  0
SPLINE
  5
43A
100
AcDbEntity
  8
0
100
AcDbSpline
 62
7
  6
CONTINUOUS
 70
0
 71
3
 72
12
 73
8
 74
0
 42
0.0000001
 43
0.0000001
 44
0.0000000001
 40
0.0
 40
0.0
 40
0.0
 40
0.0
 40
0.1035930223
 40
0.210949621
 40
0.4457011106
 40
0.7125563401
 40
1.0
 40
1.0
 40
1.0
 40
1.0
 10
561.1913012975
 20
69.4011411452
 30
0.0
 10
561.1912901934
 20
69.4751616358
 30
0.0
 10
561.1697118954
 20
69.6266531866
 30
0.0
 10
561.0408328638
 20
69.9214824802
 30
0.0
 10
560.722644603
 20
70.2397866765
 30
0.0
 10
560.2006988602
 20
70.4743757297
 30
0.0
 10
559.8021589373
 20
70.5283931619
 30
0.0
 10
559.5967713495
 20
70.5283931619
 30
0.0
  0
SPLINE
  5
43B
100
AcDbEntity
  8
0
100
AcDbSpline
 62
7
  6
CONTINUOUS
 70
0
 71
3
 72
9
 73
5
 74
0
 42
0.0000001
 43
0.0000001
 44
0.0000000001
 40
0.0
 40
0.0
 40
0.0
 40
0.0
 40
0.4402133985
 40
1.0
 40
1.0
 40
1.0
 40
1.0
 10
552.4521303083
 20
67.7961325594
 30
0.0
 10
552.4521303083
 20
67.7775891883
 30
0.0
 10
552.4806885398
 20
67.7372087981
 30
0.0
 10
552.5245500841
 20
67.7282503084
 30
0.0
 10
552.5481303083
 20
67.7282503084
 30
0.0
  0
SPLINE
  5
43C
100
AcDbEntity
  8
0
100
AcDbSpline
 62
7
  6
CONTINUOUS
 70
0
 71
3
 72
9
 73
5
 74
0
 42
0.0000001
 43
0.0000001
 44
0.0000000001
 40
0.0
 40
0.0
 40
0.0
 40
0.0
 40
0.4402133985
 40
1.0
 40
1.0
 40
1.0
 40
1.0
 10
553.1121303083
 20
67.8300736849
 30
0.0
 10
553.1121303083
 20
67.8486170559
 30
0.0
 10
553.0835720769
 20
67.8889974462
 30
0.0
 10
553.0397105326
 20
67.8979559359
 30
0.0
 10
553.0161303083
 20
67.8979559359
 30
0.0
  0
SPLINE
  5
43D
100
AcDbEntity
  8
RUNDUNGEN
100
AcDbSpline
 62
7
  6
CONTINUOUS
 70
0
 71
3
 72
10
 73
6
 74
0
 42
0.0000001
 43
0.0000001
 44
0.0000000001
 40
0.0
 40
0.0
 40
0.0
 40
0.0
 40
0.5180750537
 40
0.7617172794
 40
1.0
 40
1.0
 40
1.0
 40
1.0
 10
588.6785526737
 20
38.9865591724
 30
0.0
 10
588.8992472009
 20
38.7636901111
 30
0.0
 10
589.1775066847
 20
38.3789518659
 30
0.0
 10
589.3698482476
 20
37.8012828083
 30
0.0
 10
589.4019444965
 20
37.5085000385
 30
0.0
 10
589.4019444965
 20
37.3642400217
 30
0.0
  0
SPLINE
  5
43E
100
AcDbEntity
  8
0
100
AcDbSpline
 62
7
  6
CONTINUOUS
 70
0
 71
3
 72
9
 73
5
 74
0
 42
0.0000001
 43
0.0000001
 44
0.0000000001
 40
0.0
 40
0.0
 40
0.0
 40
0.0
 40
0.4402133985
 40
1.0
 40
1.0
 40
1.0
 40
1.0
 10
553.1121303083
 20
69.5271299597
 30
0.0
 10
553.1121303083
 20
69.5456733308
 30
0.0
 10
553.0835720769
 20
69.586053721
 30
0.0
 10
553.0397105326
 20
69.5950122107
 30
0.0
 10
553.0161303083
 20
69.5950122107
 30
0.0
  0
SPLINE
  5
43F
100
AcDbEntity
  8
RUNDUNGEN
100
AcDbSpline
 62
7
  6
CONTINUOUS
 70
0
 71
3
 72
11
 73
7
 74
0
 42
0.0000001
 43
0.0000001
 44
0.0000000001
 40
0.0
 40
0.0
 40
0.0
 40
0.0
 40
0.2793755914
 40
0.5367190118
 40
0.774320888
 40
1.0
 40
1.0
 40
1.0
 40
1.0
 10
597.525394752
 20
83.7559689564
 30
0.0
 10
597.6010123785
 20
83.7185290438
 30
0.0
 10
597.7399210044
 20
83.6321613746
 30
0.0
 10
597.9061434802
 20
83.4641137613
 30
0.0
 10
598.012270999
 20
83.2704182655
 30
0.0
 10
598.0370537575
 20
83.1295135847
 30
0.0
 10
598.0370943407
 20
83.0613525954
 30
0.0
  0
SPLINE
  5
440
100
AcDbEntity
  8
RUNDUNGEN
100
AcDbSpline
 62
7
  6
CONTINUOUS
 70
0
 71
3
 72
10
 73
6
 74
0
 42
0.0000001
 43
0.0000001
 44
0.0000000001
 40
0.0
 40
0.0
 40
0.0
 40
0.0
 40
0.4809192537
 40
0.7459271807
 40
1.0
 40
1.0
 40
1.0
 40
1.0
 10
589.9562258564
 20
86.4677656144
 30
0.0
 10
590.1554880007
 20
86.6689911166
 30
0.0
 10
590.6047513602
 20
86.8417256238
 30
0.0
 10
591.1942696885
 20
86.8313436735
 30
0.0
 10
591.4934226975
 20
86.7425279989
 30
0.0
 10
591.6275000331
 20
86.6761434276
 30
0.0
  0
SPLINE
  5
441
100
AcDbEntity
  8
0
100
AcDbSpline
 62
7
  6
CONTINUOUS
 70
0
 71
3
 72
9
 73
5
 74
0
 42
0.0000001
 43
0.0000001
 44
0.0000000001
 40
0.0
 40
0.0
 40
0.0
 40
0.0
 40
0.2423574743
 40
1.0
 40
1.0
 40
1.0
 40
1.0
 10
568.7848617328
 20
82.8401610201
 30
0.0
 10
568.4522845319
 20
83.0048271421
 30
0.0
 10
567.0511226273
 20
83.6251413494
 30
0.0
 10
565.5514503238
 20
84.0152323031
 30
0.0
 10
564.4042688636
 20
84.1881473337
 30
0.0
  0
SPLINE
  5
442
100
AcDbEntity
  8
0
100
AcDbSpline
 62
7
  6
CONTINUOUS
 70
0
 71
3
 72
9
 73
5
 74
0
 42
0.0000001
 43
0.0000001
 44
0.0000000001
 40
0.0
 40
0.0
 40
0.0
 40
0.0
 40
0.2572745118
 40
1.0
 40
1.0
 40
1.0
 40
1.0
 10
559.3996201295
 20
84.1881473337
 30
0.0
 10
559.0101027062
 20
84.1294352472
 30
0.0
 10
557.5051896662
 20
83.8470261227
 30
0.0
 10
556.0381505657
 20
83.3447508782
 30
0.0
 10
555.0190272603
 20
82.8401610201
 30
0.0
  0
SPLINE
  5
443
100
AcDbEntity
  8
RUNDUNGEN
100
AcDbSpline
 62
7
  6
CONTINUOUS
 70
0
 71
3
 72
13
 73
9
 74
0
 42
0.0000001
 43
0.0000001
 44
0.0000000001
 40
0.0
 40
0.0
 40
0.0
 40
0.0
 40
0.2520973212
 40
0.3837531223
 40
0.515691444
 40
0.6454036133
 40
0.770600228
 40
1.0
 40
1.0
 40
1.0
 40
1.0
 10
530.2104240537
 20
85.7027519372
 30
0.0
 10
531.3277224932
 20
86.2559504149
 30
0.0
 10
533.1826665539
 20
86.8103135212
 30
0.0
 10
535.7281837305
 20
87.024699664
 30
0.0
 10
537.6771998755
 20
86.9206721088
 30
0.0
 10
539.5620982913
 20
86.5510358591
 30
0.0
 10
541.8229766311
 20
85.750916411
 30
0.0
 10
543.3394395846
 20
84.772404895
 30
0.0
 10
544.1377088601
 20
83.9662701605
 30
0.0
  0
SPLINE
  5
444
100
AcDbEntity
  8
0
100
AcDbSpline
 62
7
  6
CONTINUOUS
 70
0
 71
3
 72
11
 73
7
 74
0
 42
0.0000001
 43
0.0000001
 44
0.0000000001
 40
0.0
 40
0.0
 40
0.0
 40
0.0
 40
0.2094668498
 40
0.4446559298
 40
0.7120302568
 40
1.0
 40
1.0
 40
1.0
 40
1.0
 10
551.7921303083
 20
68.6616312596
 30
0.0
 10
551.7921303083
 20
68.6391431998
 30
0.0
 10
551.8067346787
 20
68.5908400423
 30
0.0
 10
551.8626600019
 20
68.5355254986
 30
0.0
 10
551.941217994
 20
68.5000084568
 30
0.0
 10
552.0012142908
 20
68.4919256321
 30
0.0
 10
552.0321303083
 20
68.4919256321
 30
0.0
  0
SPLINE
  5
445
100
AcDbEntity
  8
0
100
AcDbSpline
 62
7
  6
CONTINUOUS
 70
0
 71
3
 72
11
 73
7
 74
0
 42
0.0000001
 43
0.0000001
 44
0.0000000001
 40
0.0
 40
0.0
 40
0.0
 40
0.0
 40
0.2094668498
 40
0.4446559298
 40
0.7120302568
 40
1.0
 40
1.0
 40
1.0
 40
1.0
 10
551.7921303083
 20
66.9645749847
 30
0.0
 10
551.7921303083
 20
66.9420869249
 30
0.0
 10
551.8067346787
 20
66.8937837675
 30
0.0
 10
551.8626600019
 20
66.8384692238
 30
0.0
 10
551.941217994
 20
66.802952182
 30
0.0
 10
552.0012142908
 20
66.7948693572
 30
0.0
 10
552.0321303083
 20
66.7948693572
 30
0.0
  0
SPLINE
  5
446
100
AcDbEntity
  8
0
100
AcDbSpline
 62
7
  6
CONTINUOUS
 70
0
 71
3
 72
9
 73
5
 74
0
 42
0.0000001
 43
0.0000001
 44
0.0000000001
 40
0.0
 40
0.0
 40
0.0
 40
0.0
 40
0.2432035461
 40
1.0
 40
1.0
 40
1.0
 40
1.0
 10
555.0321303083
 20
70.1889819069
 30
0.0
 10
555.0321303083
 20
70.2023000002
 30
0.0
 10
555.027576627
 20
70.2570630161
 30
0.0
 10
555.0040436241
 20
70.3094493647
 30
0.0
 10
554.9798142684
 20
70.3430716933
 30
0.0
  0
SPLINE
  5
447
100
AcDbEntity
  8
0
100
AcDbSpline
 62
7
  6
CONTINUOUS
 70
0
 71
3
 72
9
 73
5
 74
0
 42
0.0000001
 43
0.0000001
 44
0.0000000001
 40
0.0
 40
0.0
 40
0.0
 40
0.0
 40
0.2250156934
 40
1.0
 40
1.0
 40
1.0
 40
1.0
 10
554.9798142684
 20
70.3430716933
 30
0.0
 10
554.9589376177
 20
70.3720415767
 30
0.0
 10
554.844352106
 20
70.4850020063
 30
0.0
 10
554.6751147845
 20
70.5283931619
 30
0.0
 10
554.5521303083
 20
70.5283931619
 30
0.0
  0
SPLINE
  5
448
100
AcDbEntity
  8
RUNDUNGEN
100
AcDbSpline
 62
7
  6
CONTINUOUS
 70
0
 71
3
 72
11
 73
7
 74
0
 42
0.0000001
 43
0.0000001
 44
0.0000000001
 40
0.0
 40
0.0
 40
0.0
 40
0.0
 40
0.2256934588
 40
0.4632957354
 40
0.7206235605
 40
1.0
 40
1.0
 40
1.0
 40
1.0
 10
535.0587338302
 20
73.6778751207
 30
0.0
 10
535.058776787
 20
73.7460392368
 30
0.0
 10
535.0835637648
 20
73.88694539
 30
0.0
 10
535.1896962196
 20
74.0806331622
 30
0.0
 10
535.3559130602
 20
74.2486734624
 30
0.0
 10
535.4948159905
 20
74.3350365534
 30
0.0
 10
535.57043251
 20
74.3724759179
 30
0.0
  0
SPLINE
  5
449
100
AcDbEntity
  8
RUNDUNGEN
100
AcDbSpline
 62
7
  6
CONTINUOUS
 70
0
 71
3
 72
9
 73
5
 74
0
 42
0.0000001
 43
0.0000001
 44
0.0000000001
 40
0.0
 40
0.0
 40
0.0
 40
0.0
 40
0.4805181646
 40
1.0
 40
1.0
 40
1.0
 40
1.0
 10
535.0587327962
 20
70.1423074646
 30
0.0
 10
535.0586835832
 20
70.0551982769
 30
0.0
 10
535.100078071
 20
69.8722068718
 30
0.0
 10
535.2094789406
 20
69.7220884452
 30
0.0
 10
535.2757417804
 20
69.6551727083
 30
0.0
  0
SPLINE
  5
44A
100
AcDbEntity
  8
RUNDUNGEN
100
AcDbSpline
 62
7
  6
CONTINUOUS
 70
0
 71
3
 72
11
 73
7
 74
0
 42
0.0000001
 43
0.0000001
 44
0.0000000001
 40
0.0
 40
0.0
 40
0.0
 40
0.0
 40
0.2256919297
 40
0.4632773963
 40
0.7205986282
 40
1.0
 40
1.0
 40
1.0
 40
1.0
 10
526.8664276513
 20
82.5741693647
 30
0.0
 10
526.8663837858
 20
82.8015368452
 30
0.0
 10
526.9486071414
 20
83.2716123671
 30
0.0
 10
527.3022595893
 20
83.9178861189
 30
0.0
 10
527.85654286
 20
84.4785734417
 30
0.0
 10
528.3198701565
 20
84.7666980586
 30
0.0
 10
528.5721199651
 20
84.8915923618
 30
0.0
  0
SPLINE
  5
44B
100
AcDbEntity
  8
RUNDUNGEN
100
AcDbSpline
 62
7
  6
CONTINUOUS
 70
0
 71
3
 72
10
 73
6
 74
0
 42
0.0000001
 43
0.0000001
 44
0.0000000001
 40
0.0
 40
0.0
 40
0.0
 40
0.0
 40
0.2382860828
 40
0.4819052527
 40
1.0
 40
1.0
 40
1.0
 40
1.0
 10
526.8664276513
 20
79.0386354587
 30
0.0
 10
526.8664554757
 20
78.8944138966
 30
0.0
 10
526.898647863
 20
78.6017381089
 30
0.0
 10
527.0909684598
 20
78.0242510893
 30
0.0
 10
527.3691765578
 20
77.6396424258
 30
0.0
 10
527.5898175333
 20
77.4168274439
 30
0.0
  0
SPLINE
  5
44C
100
AcDbEntity
  8
RUNDUNGEN
100
AcDbSpline
 62
7
  6
CONTINUOUS
 70
0
 71
3
 72
11
 73
7
 74
0
 42
0.0000001
 43
0.0000001
 44
0.0000000001
 40
0.0
 40
0.0
 40
0.0
 40
0.0
 40
0.237780559
 40
0.4809056754
 40
0.7339193747
 40
1.0
 40
1.0
 40
1.0
 40
1.0
 10
574.3174362718
 20
52.6290430617
 30
0.0
 10
574.3174362871
 20
53.0618258854
 30
0.0
 10
574.4134440995
 20
53.9399142457
 30
0.0
 10
574.8391398907
 20
55.2156989496
 30
0.0
 10
575.5334968658
 20
56.4261878337
 30
0.0
 10
576.1468487825
 20
57.15187961
 30
0.0
 10
576.4876117403
 20
57.496000153
 30
0.0
  0
SPLINE
  5
44D
100
AcDbEntity
  8
RUNDUNGEN
100
AcDbSpline
 62
7
  6
CONTINUOUS
 70
0
 71
3
 72
9
 73
5
 74
0
 42
0.0000001
 43
0.0000001
 44
0.0000000001
 40
0.0
 40
0.0
 40
0.0
 40
0.0
 40
0.4843491198
 40
1.0
 40
1.0
 40
1.0
 40
1.0
 10
574.5810507904
 20
54.3958517276
 30
0.0
 10
574.7518362643
 20
53.8292939721
 30
0.0
 10
575.2702249994
 20
52.7054146322
 30
0.0
 10
576.0443368843
 20
51.7452616601
 30
0.0
 10
576.4876117403
 20
51.2976191548
 30
0.0
  0
SPLINE
  5
44E
100
AcDbEntity
  8
RUNDUNGEN
100
AcDbSpline
 62
7
  6
CONTINUOUS
 70
0
 71
3
 72
10
 73
6
 74
0
 42
0.0000001
 43
0.0000001
 44
0.0000000001
 40
0.0
 40
0.0
 40
0.0
 40
0.0
 40
0.2382826319
 40
0.4819247904
 40
1.0
 40
1.0
 40
1.0
 40
1.0
 10
534.4019444965
 20
37.3642400217
 30
0.0
 10
534.4019444965
 20
37.5084999846
 30
0.0
 10
534.4340407155
 20
37.8012826597
 30
0.0
 10
534.6263822273
 20
38.3789517319
 30
0.0
 10
534.9046417261
 20
38.7636900443
 30
0.0
 10
535.1253363194
 20
38.9865591724
 30
0.0
  0
SPLINE
  5
44F
100
AcDbEntity
  8
BEZUGSACHSEN
100
AcDbSpline
 62
7
  6
CONTINUOUS
 70
0
 71
3
 72
9
 73
5
 74
0
 42
0.0000001
 43
0.0000001
 44
0.0000000001
 40
0.0
 40
0.0
 40
0.0
 40
0.0
 40
0.2346500853
 40
1.0
 40
1.0
 40
1.0
 40
1.0
 10
557.5731952258
 20
76.5948559063
 30
0.0
 10
557.6845858483
 20
76.4585825662
 30
0.0
 10
558.2031780307
 20
75.9137282584
 30
0.0
 10
558.8681669782
 20
75.52065795
 30
0.0
 10
559.3995525585
 20
75.3034239419
 30
0.0
  0
SPLINE
  5
450
100
AcDbEntity
  8
BEZUGSACHSEN
100
AcDbSpline
 62
7
  6
CONTINUOUS
 70
0
 71
3
 72
9
 73
5
 74
0
 42
0.0000001
 43
0.0000001
 44
0.0000000001
 40
0.0
 40
0.0
 40
0.0
 40
0.0
 40
0.2668229076
 40
1.0
 40
1.0
 40
1.0
 40
1.0
 10
564.4043364345
 20
75.3034239419
 30
0.0
 10
564.5895008867
 20
75.3791204184
 30
0.0
 10
565.2675127072
 20
75.6975705025
 30
0.0
 10
565.8828200831
 20
76.1692733227
 30
0.0
 10
566.2306937673
 20
76.5948559063
 30
0.0
  0
SPLINE
  5
451
100
AcDbEntity
  8
BEZUGSACHSEN
100
AcDbSpline
 62
7
  6
CONTINUOUS
 70
0
 71
3
 72
11
 73
7
 74
0
 42
0.0000001
 43
0.0000001
 44
0.0000000001
 40
0.0
 40
0.0
 40
0.0
 40
0.0
 40
0.2228273727
 40
0.4593732167
 40
0.7180073661
 40
1.0
 40
1.0
 40
1.0
 40
1.0
 10
566.9019444965
 20
74.8287652642
 30
0.0
 10
566.9019444965
 20
75.1388758015
 30
0.0
 10
566.7780731986
 20
75.7834123036
 30
0.0
 10
566.2520933958
 20
76.6528628984
 30
0.0
 10
565.4385069393
 20
77.3846210671
 30
0.0
 10
564.7676046855
 20
77.7411339822
 30
0.0
 10
564.4043364345
 20
77.8896404925
 30
0.0
  0
SPLINE
  5
452
100
AcDbEntity
  8
BEZUGSACHSEN
100
AcDbSpline
 62
7
  6
CONTINUOUS
 70
0
 71
3
 72
11
 73
7
 74
0
 42
0.0000001
 43
0.0000001
 44
0.0000000001
 40
0.0
 40
0.0
 40
0.0
 40
0.0
 40
0.2819926339
 40
0.5406267833
 40
0.7771726273
 40
1.0
 40
1.0
 40
1.0
 40
1.0
 10
559.3995525585
 20
77.8896404925
 30
0.0
 10
559.0362843076
 20
77.7411339822
 30
0.0
 10
558.3653820538
 20
77.3846210671
 30
0.0
 10
557.5517955972
 20
76.6528628984
 30
0.0
 10
557.0258157945
 20
75.7834123036
 30
0.0
 10
556.9019444965
 20
75.1388758015
 30
0.0
 10
556.9019444965
 20
74.8287652642
 30
0.0
  0
SPLINE
  5
453
100
AcDbEntity
  8
RUNDUNGEN
100
AcDbSpline
 62
7
  6
CONTINUOUS
 70
0
 71
3
 72
13
 73
9
 74
0
 42
0.0000001
 43
0.0000001
 44
0.0000000001
 40
0.0
 40
0.0
 40
0.0
 40
0.0
 40
0.1034546555
 40
0.2106690395
 40
0.3244963599
 40
0.4464318111
 40
0.7129511617
 40
1.0
 40
1.0
 40
1.0
 40
1.0
 10
534.4019444965
 20
29.0636515131
 30
0.0
 10
534.4019444965
 20
28.877945308
 30
0.0
 10
534.4558370675
 20
28.4978551713
 30
0.0
 10
534.6916678757
 20
27.9585204931
 30
0.0
 10
535.0699651475
 20
27.4659452708
 30
0.0
 10
535.7614141345
 20
26.8787325765
 30
0.0
 10
536.8879265805
 20
26.3693929511
 30
0.0
 10
537.8866776851
 20
26.2352243884
 30
0.0
 10
538.4019444965
 20
26.2352243884
 30
0.0
  0
SPLINE
  5
454
100
AcDbEntity
  8
RUNDUNGEN
100
AcDbSpline
 62
7
  6
CONTINUOUS
 70
0
 71
3
 72
10
 73
6
 74
0
 42
0.0000001
 43
0.0000001
 44
0.0000000001
 40
0.0
 40
0.0
 40
0.0
 40
0.0
 40
0.4808964563
 40
0.7459158441
 40
1.0
 40
1.0
 40
1.0
 40
1.0
 10
529.4826197733
 20
75.5053751582
 30
0.0
 10
529.6818726097
 20
75.3041590557
 30
0.0
 10
530.1311233791
 20
75.131421249
 30
0.0
 10
530.7206430695
 20
75.1417923979
 30
0.0
 10
531.0198105392
 20
75.2306097657
 30
0.0
 10
531.1538939501
 20
75.296997345
 30
0.0
  0
SPLINE
  5
455
100
AcDbEntity
  8
RUNDUNGEN
100
AcDbSpline
 62
7
  6
CONTINUOUS
 70
0
 71
3
 72
9
 73
5
 74
0
 42
0.0000001
 43
0.0000001
 44
0.0000000001
 40
0.0
 40
0.0
 40
0.0
 40
0.0
 40
0.5194816775
 40
1.0
 40
1.0
 40
1.0
 40
1.0
 10
597.8200854816
 20
79.0386657468
 30
0.0
 10
597.8863539256
 20
79.1055871432
 30
0.0
 10
597.9957629326
 20
79.2557202994
 30
0.0
 10
598.0371502509
 20
79.4387312978
 30
0.0
 10
598.0370933505
 20
79.5258479034
 30
0.0
  0
SPLINE
  5
456
100
AcDbEntity
  8
RUNDUNGEN
100
AcDbSpline
 62
7
  6
CONTINUOUS
 70
0
 71
3
 72
13
 73
9
 74
0
 42
0.0000001
 43
0.0000001
 44
0.0000000001
 40
0.0
 40
0.0
 40
0.0
 40
0.0
 40
0.2870490624
 40
0.5535683755
 40
0.6755038246
 40
0.7893311355
 40
0.8965454157
 40
1.0
 40
1.0
 40
1.0
 40
1.0
 10
585.4019444965
 20
26.2352243884
 30
0.0
 10
585.9172117101
 20
26.2352243884
 30
0.0
 10
586.9159631731
 20
26.3693930789
 30
0.0
 10
588.0424757844
 20
26.8787331484
 30
0.0
 10
588.7339245479
 20
27.4659459802
 30
0.0
 10
589.1122214797
 20
27.958521199
 30
0.0
 10
589.3480520395
 20
28.4978556095
 30
0.0
 10
589.4019444965
 20
28.8779454357
 30
0.0
 10
589.4019444965
 20
29.0636515131
 30
0.0
  0
SPLINE
  5
457
100
AcDbEntity
  8
RUNDUNGEN
100
AcDbSpline
 62
7
  6
CONTINUOUS
 70
0
 71
3
 72
10
 73
6
 74
0
 42
0.0000001
 43
0.0000001
 44
0.0000000001
 40
0.0
 40
0.0
 40
0.0
 40
0.0
 40
0.47201694
 40
0.7322443513
 40
1.0
 40
1.0
 40
1.0
 40
1.0
 10
570.0756261778
 20
34.5124001743
 30
0.0
 10
570.4701714153
 20
34.1139674273
 30
0.0
 10
571.2541553851
 20
33.6600000162
 30
0.0
 10
572.4048162452
 20
33.3594589897
 30
0.0
 10
573.0341572517
 20
33.3062922002
 30
0.0
 10
573.352234355
 20
33.3062922002
 30
0.0
  0
SPLINE
  5
458
100
AcDbEntity
  8
RUNDUNGEN
100
AcDbSpline
 62
7
  6
CONTINUOUS
 70
0
 71
3
 72
10
 73
6
 74
0
 42
0.0000001
 43
0.0000001
 44
0.0000000001
 40
0.0
 40
0.0
 40
0.0
 40
0.0
 40
0.2677558652
 40
0.5279833681
 40
1.0
 40
1.0
 40
1.0
 40
1.0
 10
550.4516546381
 20
33.3062922002
 30
0.0
 10
550.7697320003
 20
33.3062922002
 30
0.0
 10
551.3990733804
 20
33.3594590561
 30
0.0
 10
552.5497341995
 20
33.6600003054
 30
0.0
 10
553.3337178332
 20
34.1139676852
 30
0.0
 10
553.7282628153
 20
34.5124001743
 30
0.0
  0
SPLINE
  5
459
100
AcDbEntity
  8
0
100
AcDbSpline
 62
7
  6
CONTINUOUS
 70
0
 71
3
 72
11
 73
7
 74
0
 42
0.0000001
 43
0.0000001
 44
0.0000000001
 40
0.0
 40
0.0
 40
0.0
 40
0.0
 40
0.2880052506
 40
0.5553344723
 40
0.7905070702
 40
1.0
 40
1.0
 40
1.0
 40
1.0
 10
550.7121303083
 20
70.5283931619
 30
0.0
 10
550.6502910823
 20
70.5283931619
 30
0.0
 10
550.5302943471
 20
70.5122398423
 30
0.0
 10
550.373211833
 20
70.4411638178
 30
0.0
 10
550.2613324887
 20
70.3305789022
 30
0.0
 10
550.2321303083
 20
70.2339633113
 30
0.0
 10
550.2321303083
 20
70.1889819069
 30
0.0
  0
SPLINE
  5
45A
100
AcDbEntity
  8
0
100
AcDbSpline
 62
7
  6
CONTINUOUS
 70
0
 71
3
 72
11
 73
7
 74
0
 42
0.0000001
 43
0.0000001
 44
0.0000000001
 40
0.0
 40
0.0
 40
0.0
 40
0.0
 40
0.2879697432
 40
0.5553440702
 40
0.7905331502
 40
1.0
 40
1.0
 40
1.0
 40
1.0
 10
553.2321303083
 20
68.4919256321
 30
0.0
 10
553.2630463259
 20
68.4919256321
 30
0.0
 10
553.3230426227
 20
68.5000084568
 30
0.0
 10
553.4016006148
 20
68.5355254986
 30
0.0
 10
553.4575259379
 20
68.5908400423
 30
0.0
 10
553.4721303083
 20
68.6391431998
 30
0.0
 10
553.4721303083
 20
68.6616312596
 30
0.0
  0
SPLINE
  5
45B
100
AcDbEntity
  8
0
100
AcDbSpline
 62
7
  6
CONTINUOUS
 70
0
 71
3
 72
11
 73
7
 74
0
 42
0.0000001
 43
0.0000001
 44
0.0000000001
 40
0.0
 40
0.0
 40
0.0
 40
0.0
 40
0.2879697432
 40
0.5553440702
 40
0.7905331502
 40
1.0
 40
1.0
 40
1.0
 40
1.0
 10
553.2321303083
 20
66.7948693572
 30
0.0
 10
553.2630463259
 20
66.7948693572
 30
0.0
 10
553.3230426227
 20
66.802952182
 30
0.0
 10
553.4016006148
 20
66.8384692238
 30
0.0
 10
553.4575259379
 20
66.8937837675
 30
0.0
 10
553.4721303083
 20
66.9420869249
 30
0.0
 10
553.4721303083
 20
66.9645749847
 30
0.0
  0
SPLINE
  5
45C
100
AcDbEntity
  8
0
100
AcDbSpline
 62
7
  6
CONTINUOUS
 70
0
 71
3
 72
9
 73
5
 74
0
 42
0.0000001
 43
0.0000001
 44
0.0000000001
 40
0.0
 40
0.0
 40
0.0
 40
0.0
 40
0.5597866015
 40
1.0
 40
1.0
 40
1.0
 40
1.0
 10
552.2481303083
 20
69.5950122107
 30
0.0
 10
552.2245500841
 20
69.5950122107
 30
0.0
 10
552.1806885398
 20
69.586053721
 30
0.0
 10
552.1521303083
 20
69.5456733308
 30
0.0
 10
552.1521303083
 20
69.5271299597
 30
0.0
  0
SPLINE
  5
45D
100
AcDbEntity
  8
0
100
AcDbSpline
 62
7
  6
CONTINUOUS
 70
0
 71
3
 72
9
 73
5
 74
0
 42
0.0000001
 43
0.0000001
 44
0.0000000001
 40
0.0
 40
0.0
 40
0.0
 40
0.0
 40
0.5597866015
 40
1.0
 40
1.0
 40
1.0
 40
1.0
 10
552.2481303083
 20
67.8979559359
 30
0.0
 10
552.2245500841
 20
67.8979559359
 30
0.0
 10
552.1806885398
 20
67.8889974462
 30
0.0
 10
552.1521303083
 20
67.8486170559
 30
0.0
 10
552.1521303083
 20
67.8300736849
 30
0.0
  0
SPLINE
  5
45E
100
AcDbEntity
  8
0
100
AcDbSpline
 62
7
  6
CONTINUOUS
 70
0
 71
3
 72
9
 73
5
 74
0
 42
0.0000001
 43
0.0000001
 44
0.0000000001
 40
0.0
 40
0.0
 40
0.0
 40
0.0
 40
0.5597866015
 40
1.0
 40
1.0
 40
1.0
 40
1.0
 10
552.7161303083
 20
67.7282503084
 30
0.0
 10
552.7397105326
 20
67.7282503084
 30
0.0
 10
552.7835720769
 20
67.7372087981
 30
0.0
 10
552.8121303083
 20
67.7775891883
 30
0.0
 10
552.8121303083
 20
67.7961325594
 30
0.0
  0
SPLINE
  5
45F
100
AcDbEntity
  8
0
100
AcDbSpline
 62
7
  6
CONTINUOUS
 70
0
 71
3
 72
11
 73
7
 74
0
 42
0.0000001
 43
0.0000001
 44
0.0000000001
 40
0.0
 40
0.0
 40
0.0
 40
0.0
 40
0.2880001164
 40
0.5553425139
 40
0.7905343079
 40
1.0
 40
1.0
 40
1.0
 40
1.0
 10
559.5967713495
 20
68.7881561877
 30
0.0
 10
559.7084062652
 20
68.7881561877
 30
0.0
 10
559.925028039
 20
68.8173362036
 30
0.0
 10
560.2086473895
 20
68.9455962371
 30
0.0
 10
560.4105783208
 20
69.1452870369
 30
0.0
 10
560.463289757
 20
69.319694489
 30
0.0
 10
560.463289757
 20
69.4008878064
 30
0.0
  0
SPLINE
  5
460
100
AcDbEntity
  8
0
100
AcDbSpline
 62
7
  6
CONTINUOUS
 70
0
 71
3
 72
9
 73
5
 74
0
 42
0.0000001
 43
0.0000001
 44
0.0000000001
 40
0.0
 40
0.0
 40
0.0
 40
0.0
 40
0.2457811574
 40
1.0
 40
1.0
 40
1.0
 40
1.0
 10
571.558286553
 20
70.5001088906
 30
0.0
 10
571.54307346
 20
70.5047989005
 30
0.0
 10
571.4804341466
 20
70.5214116718
 30
0.0
 10
571.4153052043
 20
70.5283931619
 30
0.0
 10
571.3664532921
 20
70.5283931619
 30
0.0
  0
SPLINE
  5
461
100
AcDbEntity
  8
0
100
AcDbSpline
 62
7
  6
CONTINUOUS
 70
0
 71
3
 72
11
 73
7
 74
0
 42
0.0000001
 43
0.0000001
 44
0.0000000001
 40
0.0
 40
0.0
 40
0.0
 40
0.0
 40
0.2779817175
 40
0.5346952233
 40
0.772857858
 40
1.0
 40
1.0
 40
1.0
 40
1.0
 10
571.5292017321
 20
66.7167019167
 30
0.0
 10
571.697445665
 20
66.8078061238
 30
0.0
 10
572.0056960133
 20
67.0146488689
 30
0.0
 10
572.3720036963
 20
67.4078050247
 30
0.0
 10
572.6043595956
 20
67.8548142662
 30
0.0
 10
572.6581562475
 20
68.1771982134
 30
0.0
 10
572.6581562475
 20
68.3335337131
 30
0.0
  0
SPLINE
  5
462
100
AcDbEntity
  8
0
100
AcDbSpline
 62
7
  6
CONTINUOUS
 70
0
 71
3
 72
9
 73
5
 74
0
 42
0.0000001
 43
0.0000001
 44
0.0000000001
 40
0.0
 40
0.0
 40
0.0
 40
0.0
 40
0.2591205677
 40
1.0
 40
1.0
 40
1.0
 40
1.0
 10
571.3832824744
 20
66.6817322722
 30
0.0
 10
571.3963142711
 20
66.6817322722
 30
0.0
 10
571.4465171412
 20
66.6846084881
 30
0.0
 10
571.496436501
 20
66.6989595212
 30
0.0
 10
571.5292017321
 20
66.7167019167
 30
0.0
  0
SPLINE
  5
463
100
AcDbEntity
  8
RUNDUNGEN
100
AcDbSpline
 62
7
  6
CONTINUOUS
 70
0
 71
3
 72
13
 73
9
 74
0
 42
0.0000001
 43
0.0000001
 44
0.0000000001
 40
0.0
 40
0.0
 40
0.0
 40
0.0
 40
0.1034546555
 40
0.2106690395
 40
0.3244963599
 40
0.4464318111
 40
0.7129511617
 40
1.0
 40
1.0
 40
1.0
 40
1.0
 10
541.0019444965
 20
30.4778650755
 30
0.0
 10
541.0019444965
 20
30.6635712806
 30
0.0
 10
541.0558370675
 20
31.0436614173
 30
0.0
 10
541.2916678757
 20
31.5829960955
 30
0.0
 10
541.6699651475
 20
32.0755713178
 30
0.0
 10
542.3614141345
 20
32.662784012
 30
0.0
 10
543.4879265805
 20
33.1721236375
 30
0.0
 10
544.4866776851
 20
33.3062922002
 30
0.0
 10
545.0019444965
 20
33.3062922002
 30
0.0
  0
SPLINE
  5
464
100
AcDbEntity
  8
RUNDUNGEN
100
AcDbSpline
 62
7
  6
CONTINUOUS
 70
0
 71
3
 72
13
 73
9
 74
0
 42
0.0000001
 43
0.0000001
 44
0.0000000001
 40
0.0
 40
0.0
 40
0.0
 40
0.0
 40
0.2870490624
 40
0.5535683755
 40
0.6755038246
 40
0.7893311355
 40
0.8965454157
 40
1.0
 40
1.0
 40
1.0
 40
1.0
 10
578.8019444965
 20
33.3062922002
 30
0.0
 10
579.3172117101
 20
33.3062922002
 30
0.0
 10
580.3159631731
 20
33.1721235097
 30
0.0
 10
581.4424757844
 20
32.6627834402
 30
0.0
 10
582.1339245479
 20
32.0755706084
 30
0.0
 10
582.5122214797
 20
31.5829953895
 30
0.0
 10
582.7480520395
 20
31.0436609791
 30
0.0
 10
582.8019444965
 20
30.6635711528
 30
0.0
 10
582.8019444965
 20
30.4778650755
 30
0.0
  0
SPLINE
  5
465
100
AcDbEntity
  8
RUNDUNGEN
100
AcDbSpline
 62
7
  6
CONTINUOUS
 70
0
 71
3
 72
13
 73
9
 74
0
 42
0.0000001
 43
0.0000001
 44
0.0000000001
 40
0.0
 40
0.0
 40
0.0
 40
0.0
 40
0.2360077452
 40
0.3661261418
 40
0.5000000756
 40
0.6338740402
 40
0.7639924068
 40
1.0
 40
1.0
 40
1.0
 40
1.0
 10
557.8061842751
 20
38.6305019656
 30
0.0
 10
558.2993642916
 20
39.1285413539
 30
0.0
 10
559.2791646279
 20
39.6960220853
 30
0.0
 10
560.7180291251
 20
40.0716638628
 30
0.0
 10
561.901945284
 20
40.1718463534
 30
0.0
 10
563.0858613338
 20
40.0716636241
 30
0.0
 10
564.5247253243
 20
39.6960216525
 30
0.0
 10
565.5045250191
 20
39.1285410332
 30
0.0
 10
565.997704718
 20
38.6305019656
 30
0.0
  0
SPLINE
  5
466
100
AcDbEntity
  8
RUNDUNGEN
100
AcDbSpline
 62
7
  6
CONTINUOUS
 70
0
 71
3
 72
9
 73
5
 74
0
 42
0.0000001
 43
0.0000001
 44
0.0000000001
 40
0.0
 40
0.0
 40
0.0
 40
0.0
 40
0.5156509212
 40
1.0
 40
1.0
 40
1.0
 40
1.0
 10
547.3162772528
 20
51.2976191548
 30
0.0
 10
547.7595547852
 20
51.7452643628
 30
0.0
 10
548.5336707974
 20
52.7054236498
 30
0.0
 10
549.0520600225
 20
53.8293111427
 30
0.0
 10
549.2228445662
 20
54.3958728086
 30
0.0
  0
SPLINE
  5
467
100
AcDbEntity
  8
RUNDUNGEN
100
AcDbSpline
 62
7
  6
CONTINUOUS
 70
0
 71
3
 72
11
 73
7
 74
0
 42
0.0000001
 43
0.0000001
 44
0.0000000001
 40
0.0
 40
0.0
 40
0.0
 40
0.0
 40
0.2660806488
 40
0.5190943636
 40
0.7622194616
 40
1.0
 40
1.0
 40
1.0
 40
1.0
 10
547.3162772528
 20
57.496000153
 30
0.0
 10
547.6570402854
 20
57.1518795345
 30
0.0
 10
548.2703923079
 20
56.4261875881
 30
0.0
 10
548.9647493392
 20
55.2156984783
 30
0.0
 10
549.3904450466
 20
53.9399135981
 30
0.0
 10
549.4864527367
 20
53.0618251831
 30
0.0
 10
549.4864527213
 20
52.6290423401
 30
0.0
  0
SPLINE
  5
468
100
AcDbEntity
  8
RUNDUNGEN
100
AcDbSpline
 62
7
  6
CONTINUOUS
 70
0
 71
3
 72
11
 73
7
 74
0
 42
0.0000001
 43
0.0000001
 44
0.0000000001
 40
0.0
 40
0.0
 40
0.0
 40
0.0
 40
0.2524507309
 40
0.5157647478
 40
0.7702968692
 40
1.0
 40
1.0
 40
1.0
 40
1.0
 10
533.8570956962
 20
76.6354106444
 30
0.0
 10
534.0805682266
 20
76.7460566985
 30
0.0
 10
534.5774755253
 20
76.8946568227
 30
0.0
 10
535.3470689042
 20
76.9054233271
 30
0.0
 10
536.070280142
 20
76.7155643371
 30
0.0
 10
536.4829022985
 20
76.4493377054
 30
0.0
 10
536.6425526575
 20
76.288114289
 30
0.0
  0
SPLINE
  5
469
100
AcDbEntity
  8
RUNDUNGEN
100
AcDbSpline
 62
7
  6
CONTINUOUS
 70
0
 71
3
 72
9
 73
5
 74
0
 42
0.0000001
 43
0.0000001
 44
0.0000000001
 40
0.0
 40
0.0
 40
0.0
 40
0.0
 40
0.5194825986
 40
1.0
 40
1.0
 40
1.0
 40
1.0
 10
538.764785472
 20
74.1449708173
 30
0.0
 10
538.8752329693
 20
74.0334350653
 30
0.0
 10
539.0575808573
 20
73.7832132418
 30
0.0
 10
539.12656022
 20
73.4781953761
 30
0.0
 10
539.1264654195
 20
73.3330014504
 30
0.0
  0
SPLINE
  5
46A
100
AcDbEntity
  8
RUNDUNGEN
100
AcDbSpline
 62
7
  6
CONTINUOUS
 70
0
 71
3
 72
11
 73
7
 74
0
 42
0.0000001
 43
0.0000001
 44
0.0000000001
 40
0.0
 40
0.0
 40
0.0
 40
0.0
 40
0.2524375529
 40
0.5157480446
 40
0.7702932073
 40
1.0
 40
1.0
 40
1.0
 40
1.0
 10
577.3040429934
 20
78.6221312283
 30
0.0
 10
577.7509649213
 20
78.4008505736
 30
0.0
 10
578.7447428874
 20
78.1036561278
 30
0.0
 10
580.2839239685
 20
78.082075787
 30
0.0
 10
581.7303725688
 20
78.4618103784
 30
0.0
 10
582.5556509662
 20
78.994271823
 30
0.0
 10
582.8749569159
 20
79.316723939
 30
0.0
  0
SPLINE
  5
46B
100
AcDbEntity
  8
RUNDUNGEN
100
AcDbSpline
 62
7
  6
CONTINUOUS
 70
0
 71
3
 72
11
 73
7
 74
0
 42
0.0000001
 43
0.0000001
 44
0.0000000001
 40
0.0
 40
0.0
 40
0.0
 40
0.0
 40
0.2297109937
 40
0.4842558728
 40
0.7475644511
 40
1.0
 40
1.0
 40
1.0
 40
1.0
 10
546.1715051606
 20
81.9124345801
 30
0.0
 10
546.4908169493
 20
81.5899765676
 30
0.0
 10
547.3161044927
 20
81.0575130844
 30
0.0
 10
548.7625585266
 20
80.6777847334
 30
0.0
 10
550.3017308767
 20
80.6993697088
 30
0.0
 10
551.2955007041
 20
80.9965629718
 30
0.0
 10
551.7424190832
 20
81.2178418694
 30
0.0
  0
SPLINE
  5
46C
100
AcDbEntity
  8
0
100
AcDbSpline
 62
7
  6
CONTINUOUS
 70
0
 71
3
 72
9
 73
5
 74
0
 42
0.0000001
 43
0.0000001
 44
0.0000000001
 40
0.0
 40
0.0
 40
0.0
 40
0.0
 40
0.4402133985
 40
1.0
 40
1.0
 40
1.0
 40
1.0
 10
552.1521303083
 20
67.4001527619
 30
0.0
 10
552.1521303083
 20
67.3816093909
 30
0.0
 10
552.1806885398
 20
67.3412290006
 30
0.0
 10
552.2245500841
 20
67.3322705109
 30
0.0
 10
552.2481303083
 20
67.3322705109
 30
0.0
  0
SPLINE
  5
46D
100
AcDbEntity
  8
RUNDUNGEN
100
AcDbSpline
 62
7
  6
CONTINUOUS
 70
0
 71
3
 72
11
 73
7
 74
0
 42
0.0000001
 43
0.0000001
 44
0.0000000001
 40
0.0
 40
0.0
 40
0.0
 40
0.0
 40
0.237780559
 40
0.4809056754
 40
0.7339193747
 40
1.0
 40
1.0
 40
1.0
 40
1.0
 10
549.4864527213
 20
52.6290423401
 30
0.0
 10
549.486452706
 20
52.1962595164
 30
0.0
 10
549.3904448935
 20
51.3181711561
 30
0.0
 10
548.9647491024
 20
50.0423864523
 30
0.0
 10
548.2703921273
 20
48.8318975681
 30
0.0
 10
547.6570402106
 20
48.1062057919
 30
0.0
 10
547.3162772528
 20
47.7620852489
 30
0.0
  0
SPLINE
  5
46E
100
AcDbEntity
  8
RUNDUNGEN
100
AcDbSpline
 62
7
  6
CONTINUOUS
 70
0
 71
3
 72
10
 73
6
 74
0
 42
0.0000001
 43
0.0000001
 44
0.0000000001
 40
0.0
 40
0.0
 40
0.0
 40
0.0
 40
0.2382827206
 40
0.4819249463
 40
1.0
 40
1.0
 40
1.0
 40
1.0
 10
589.4019444965
 20
33.8287061157
 30
0.0
 10
589.4019444965
 20
33.9729661326
 30
0.0
 10
589.3698482476
 20
34.2657489024
 30
0.0
 10
589.1775066847
 20
34.84341796
 30
0.0
 10
588.8992472009
 20
35.2281562051
 30
0.0
 10
588.6785526737
 20
35.4510252664
 30
0.0
  0
SPLINE
  5
46F
100
AcDbEntity
  8
0
100
AcDbSpline
 62
7
  6
CONTINUOUS
 70
0
 71
3
 72
9
 73
5
 74
0
 42
0.0000001
 43
0.0000001
 44
0.0000000001
 40
0.0
 40
0.0
 40
0.0
 40
0.0
 40
0.4402133985
 40
1.0
 40
1.0
 40
1.0
 40
1.0
 10
552.8121303083
 20
68.8483074498
 30
0.0
 10
552.8121303083
 20
68.8668508209
 30
0.0
 10
552.7835720769
 20
68.9072312111
 30
0.0
 10
552.7397105326
 20
68.9161897008
 30
0.0
 10
552.7161303083
 20
68.9161897008
 30
0.0
  0
SPLINE
  5
470
100
AcDbEntity
  8
0
100
AcDbSpline
 62
7
  6
CONTINUOUS
 70
0
 71
3
 72
11
 73
7
 74
0
 42
0.0000001
 43
0.0000001
 44
0.0000000001
 40
0.0
 40
0.0
 40
0.0
 40
0.0
 40
0.2094668498
 40
0.4446559298
 40
0.7120302568
 40
1.0
 40
1.0
 40
1.0
 40
1.0
 10
553.4721303083
 20
67.9828087496
 30
0.0
 10
553.4721303083
 20
68.0052968094
 30
0.0
 10
553.4575259379
 20
68.0535999669
 30
0.0
 10
553.4016006148
 20
68.1089145106
 30
0.0
 10
553.3230426227
 20
68.1444315523
 30
0.0
 10
553.2630463259
 20
68.1525143771
 30
0.0
 10
553.2321303083
 20
68.1525143771
 30
0.0
  0
SPLINE
  5
471
100
AcDbEntity
  8
RUNDUNGEN
100
AcDbSpline
 62
7
  6
CONTINUOUS
 70
0
 71
3
 72
10
 73
6
 74
0
 42
0.0000001
 43
0.0000001
 44
0.0000000001
 40
0.0
 40
0.0
 40
0.0
 40
0.0
 40
0.5180752096
 40
0.7617173681
 40
1.0
 40
1.0
 40
1.0
 40
1.0
 10
535.1253363194
 20
35.4510252664
 30
0.0
 10
534.9046417261
 20
35.2281561384
 30
0.0
 10
534.6263822273
 20
34.843417826
 30
0.0
 10
534.4340407155
 20
34.2657487538
 30
0.0
 10
534.4019444965
 20
33.9729660787
 30
0.0
 10
534.4019444965
 20
33.8287061157
 30
0.0
  0
SPLINE
  5
472
100
AcDbEntity
  8
RUNDUNGEN
100
AcDbSpline
 62
7
  6
CONTINUOUS
 70
0
 71
3
 72
11
 73
7
 74
0
 42
0.0000001
 43
0.0000001
 44
0.0000000001
 40
0.0
 40
0.0
 40
0.0
 40
0.0
 40
0.2793752682
 40
0.5367194959
 40
0.7743217448
 40
1.0
 40
1.0
 40
1.0
 40
1.0
 10
535.57043251
 20
70.8369420119
 30
0.0
 10
535.4948134684
 20
70.7995013987
 30
0.0
 10
535.3559020786
 20
70.713131641
 30
0.0
 10
535.1896772531
 20
70.5450791483
 30
0.0
 10
535.0835508087
 20
70.3513776881
 30
0.0
 10
535.0587713049
 20
70.2104695508
 30
0.0
 10
535.0587327962
 20
70.1423074646
 30
0.0
  0
SPLINE
  5
473
100
AcDbEntity
  8
RUNDUNGEN
100
AcDbSpline
 62
7
  6
CONTINUOUS
 70
0
 71
3
 72
11
 73
7
 74
0
 42
0.0000001
 43
0.0000001
 44
0.0000000001
 40
0.0
 40
0.0
 40
0.0
 40
0.0
 40
0.2794013718
 40
0.5367226037
 40
0.7743080703
 40
1.0
 40
1.0
 40
1.0
 40
1.0
 10
528.5721199651
 20
81.3560584559
 30
0.0
 10
528.3198701565
 20
81.2311641527
 30
0.0
 10
527.85654286
 20
80.9430395357
 30
0.0
 10
527.3022595893
 20
80.382352213
 30
0.0
 10
526.9486071414
 20
79.7360784611
 30
0.0
 10
526.8663837858
 20
79.2660029393
 30
0.0
 10
526.8664276513
 20
79.0386354587
 30
0.0
  0
SPLINE
  5
474
100
AcDbEntity
  8
RUNDUNGEN
100
AcDbSpline
 62
7
  6
CONTINUOUS
 70
0
 71
3
 72
13
 73
9
 74
0
 42
0.0000001
 43
0.0000001
 44
0.0000000001
 40
0.0
 40
0.0
 40
0.0
 40
0.0
 40
0.2294024287
 40
0.3545996847
 40
0.4843111938
 40
0.616248878
 40
0.747903971
 40
1.0
 40
1.0
 40
1.0
 40
1.0
 10
544.1377088601
 20
80.4307362546
 30
0.0
 10
543.3394303661
 20
81.2368802984
 30
0.0
 10
541.8229493269
 20
82.2153963654
 30
0.0
 10
539.5620565061
 20
83.0155133055
 30
0.0
 10
537.6771601327
 20
83.3851425472
 30
0.0
 10
535.7281538529
 20
83.4891652652
 30
0.0
 10
533.1826501926
 20
83.2747753652
 30
0.0
 10
531.3277167294
 20
82.7204136551
 30
0.0
 10
530.2104240537
 20
82.1672180313
 30
0.0
  0
SPLINE
  5
475
100
AcDbEntity
  8
0
100
AcDbSpline
 62
7
  6
CONTINUOUS
 70
0
 71
3
 72
9
 73
5
 74
0
 42
0.0000001
 43
0.0000001
 44
0.0000000001
 40
0.0
 40
0.0
 40
0.0
 40
0.0
 40
0.2423574743
 40
1.0
 40
1.0
 40
1.0
 40
1.0
 10
568.7848617328
 20
79.3046271141
 30
0.0
 10
568.4522845319
 20
79.4692932362
 30
0.0
 10
567.0511226273
 20
80.0896074435
 30
0.0
 10
565.5514503238
 20
80.4796983971
 30
0.0
 10
564.4042688636
 20
80.6526134278
 30
0.0
  0
SPLINE
  5
476
100
AcDbEntity
  8
0
100
AcDbSpline
 62
7
  6
CONTINUOUS
 70
0
 71
3
 72
9
 73
5
 74
0
 42
0.0000001
 43
0.0000001
 44
0.0000000001
 40
0.0
 40
0.0
 40
0.0
 40
0.0
 40
0.2572745118
 40
1.0
 40
1.0
 40
1.0
 40
1.0
 10
559.3996201295
 20
80.6526134278
 30
0.0
 10
559.0101027062
 20
80.5939013412
 30
0.0
 10
557.5051896662
 20
80.3114922168
 30
0.0
 10
556.0381505657
 20
79.8092169723
 30
0.0
 10
555.0190272603
 20
79.3046271141
 30
0.0
  0
SPLINE
  5
477
100
AcDbEntity
  8
RUNDUNGEN
100
AcDbSpline
 62
7
  6
CONTINUOUS
 70
0
 71
3
 72
10
 73
6
 74
0
 42
0.0000001
 43
0.0000001
 44
0.0000000001
 40
0.0
 40
0.0
 40
0.0
 40
0.0
 40
0.2540841022
 40
0.5191024011
 40
1.0
 40
1.0
 40
1.0
 40
1.0
 10
591.6275000331
 20
83.1406095217
 30
0.0
 10
591.4934166551
 20
83.2069970847
 30
0.0
 10
591.1942498635
 20
83.2958143085
 30
0.0
 10
590.6047302646
 20
83.3061857811
 30
0.0
 10
590.1554791595
 20
83.1334482823
 30
0.0
 10
589.9562258564
 20
82.9322317085
 30
0.0
  0
SPLINE
  5
478
100
AcDbEntity
  8
0
100
AcDbSpline
 62
7
  6
CONTINUOUS
 70
0
 71
3
 72
11
 73
7
 74
0
 42
0.0000001
 43
0.0000001
 44
0.0000000001
 40
0.0
 40
0.0
 40
0.0
 40
0.0
 40
0.2880052506
 40
0.5553344723
 40
0.7905070702
 40
1.0
 40
1.0
 40
1.0
 40
1.0
 10
554.5521303083
 20
66.1160468473
 30
0.0
 10
554.6139695344
 20
66.1160468473
 30
0.0
 10
554.7339662696
 20
66.1322001669
 30
0.0
 10
554.8910487836
 20
66.2032761913
 30
0.0
 10
555.002928128
 20
66.313861107
 30
0.0
 10
555.0321303083
 20
66.4104766979
 30
0.0
 10
555.0321303083
 20
66.4554581023
 30
0.0
  0
SPLINE
  5
479
100
AcDbEntity
  8
0
100
AcDbSpline
 62
7
  6
CONTINUOUS
 70
0
 71
3
 72
19
 73
15
 74
0
 42
0.0000001
 43
0.0000001
 44
0.0000000001
 40
0.0
 40
0.0
 40
0.0
 40
0.0
 40
0.0517234907
 40
0.1053372095
 40
0.1622487312
 40
0.2232163938
 40
0.3564752704
 40
0.5
 40
0.6435247296
 40
0.7767836062
 40
0.8377512688
 40
0.8946627905
 40
0.9482765093
 40
1.0
 40
1.0
 40
1.0
 40
1.0
 10
562.3487713495
 20
67.7366424847
 30
0.0
 10
562.3487713495
 20
67.6309070772
 30
0.0
 10
562.3794785093
 20
67.4144790249
 30
0.0
 10
562.5137299871
 20
67.1073595648
 30
0.0
 10
562.7291845122
 20
66.8268981812
 30
0.0
 10
563.1228322521
 20
66.4925207623
 30
0.0
 10
563.7647085232
 20
66.2025043047
 30
0.0
 10
564.6264254938
 20
66.0864775871
 30
0.0
 10
565.4881424644
 20
66.2025043047
 30
0.0
 10
566.1300187354
 20
66.4925207623
 30
0.0
 10
566.5236664754
 20
66.8268981812
 30
0.0
 10
566.7391210004
 20
67.1073595648
 30
0.0
 10
566.8733724782
 20
67.4144790249
 30
0.0
 10
566.904079638
 20
67.6309070772
 30
0.0
 10
566.904079638
 20
67.7366424847
 30
0.0
  0
SPLINE
  5
47A
100
AcDbEntity
  8
0
100
AcDbSpline
 62
7
  6
CONTINUOUS
 70
0
 71
3
 72
9
 73
5
 74
0
 42
0.0000001
 43
0.0000001
 44
0.0000000001
 40
0.0
 40
0.0
 40
0.0
 40
0.0
 40
0.4402133985
 40
1.0
 40
1.0
 40
1.0
 40
1.0
 10
552.1521303083
 20
68.8143663243
 30
0.0
 10
552.1521303083
 20
68.7958229532
 30
0.0
 10
552.1806885398
 20
68.755442563
 30
0.0
 10
552.2245500841
 20
68.7464840733
 30
0.0
 10
552.2481303083
 20
68.7464840733
 30
0.0
  0
SPLINE
  5
47B
100
AcDbEntity
  8
0
100
AcDbSpline
 62
7
  6
CONTINUOUS
 70
0
 71
3
 72
11
 73
7
 74
0
 42
0.0000001
 43
0.0000001
 44
0.0000000001
 40
0.0
 40
0.0
 40
0.0
 40
0.0
 40
0.2094668498
 40
0.4446559298
 40
0.7120302568
 40
1.0
 40
1.0
 40
1.0
 40
1.0
 10
553.4721303083
 20
69.6798650245
 30
0.0
 10
553.4721303083
 20
69.7023530843
 30
0.0
 10
553.4575259379
 20
69.7506562417
 30
0.0
 10
553.4016006148
 20
69.8059707854
 30
0.0
 10
553.3230426227
 20
69.8414878272
 30
0.0
 10
553.2630463259
 20
69.849570652
 30
0.0
 10
553.2321303083
 20
69.849570652
 30
0.0
  0
SPLINE
  5
47C
100
AcDbEntity
  8
0
100
AcDbSpline
 62
7
  6
CONTINUOUS
 70
0
 71
3
 72
11
 73
7
 74
0
 42
0.0000001
 43
0.0000001
 44
0.0000000001
 40
0.0
 40
0.0
 40
0.0
 40
0.0
 40
0.2879697432
 40
0.5553440702
 40
0.7905331502
 40
1.0
 40
1.0
 40
1.0
 40
1.0
 10
552.0321303083
 20
68.1525143771
 30
0.0
 10
552.0012142908
 20
68.1525143771
 30
0.0
 10
551.941217994
 20
68.1444315523
 30
0.0
 10
551.8626600019
 20
68.1089145106
 30
0.0
 10
551.8067346787
 20
68.0535999669
 30
0.0
 10
551.7921303083
 20
68.0052968094
 30
0.0
 10
551.7921303083
 20
67.9828087496
 30
0.0
  0
SPLINE
  5
47D
100
AcDbEntity
  8
0
100
AcDbSpline
 62
7
  6
CONTINUOUS
 70
0
 71
3
 72
9
 73
5
 74
0
 42
0.0000001
 43
0.0000001
 44
0.0000000001
 40
0.0
 40
0.0
 40
0.0
 40
0.0
 40
0.4402133985
 40
1.0
 40
1.0
 40
1.0
 40
1.0
 10
552.1521303083
 20
69.0972090368
 30
0.0
 10
552.1521303083
 20
69.0786656657
 30
0.0
 10
552.1806885398
 20
69.0382852755
 30
0.0
 10
552.2245500841
 20
69.0293267858
 30
0.0
 10
552.2481303083
 20
69.0293267858
 30
0.0
  0
SPLINE
  5
47E
100
AcDbEntity
  8
0
100
AcDbSpline
 62
7
  6
CONTINUOUS
 70
0
 71
3
 72
17
 73
13
 74
0
 42
0.0000001
 43
0.0000001
 44
0.0000000001
 40
0.0
 40
0.0
 40
0.0
 40
0.0
 40
0.0519082659
 40
0.1062678596
 40
0.2250851405
 40
0.3581749994
 40
0.5
 40
0.6418250006
 40
0.7749148595
 40
0.8937321404
 40
0.9480917341
 40
1.0
 40
1.0
 40
1.0
 40
1.0
 10
562.3656649238
 20
67.8239594114
 30
0.0
 10
562.3825936442
 20
67.7261179662
 30
0.0
 10
562.4433636426
 20
67.5295555574
 30
0.0
 10
562.6655089342
 20
67.156870852
 30
0.0
 10
563.1210220701
 20
66.7645935932
 30
0.0
 10
563.8267969039
 20
66.4752179059
 30
0.0
 10
564.6264254938
 20
66.3747710271
 30
0.0
 10
565.4260540836
 20
66.4752179059
 30
0.0
 10
566.1318289175
 20
66.7645935932
 30
0.0
 10
566.5873420534
 20
67.156870852
 30
0.0
 10
566.8094873449
 20
67.5295555574
 30
0.0
 10
566.8702573433
 20
67.7261179662
 30
0.0
 10
566.8871860637
 20
67.8239594114
 30
0.0
  0
SPLINE
  5
47F
100
AcDbEntity
  8
0
100
AcDbSpline
 62
7
  6
CONTINUOUS
 70
0
 71
3
 72
11
 73
7
 74
0
 42
0.0000001
 43
0.0000001
 44
0.0000000001
 40
0.0
 40
0.0
 40
0.0
 40
0.0
 40
0.2094929298
 40
0.4446655277
 40
0.7119947494
 40
1.0
 40
1.0
 40
1.0
 40
1.0
 10
550.2321303083
 20
66.4554581023
 30
0.0
 10
550.2321303083
 20
66.4104766979
 30
0.0
 10
550.2613324887
 20
66.313861107
 30
0.0
 10
550.373211833
 20
66.2032761913
 30
0.0
 10
550.5302943471
 20
66.1322001669
 30
0.0
 10
550.6502910823
 20
66.1160468473
 30
0.0
 10
550.7121303083
 20
66.1160468473
 30
0.0
  0
SPLINE
  5
480
100
AcDbEntity
  8
0
100
AcDbSpline
 62
7
  6
CONTINUOUS
 70
0
 71
3
 72
11
 73
7
 74
0
 42
0.0000001
 43
0.0000001
 44
0.0000000001
 40
0.0
 40
0.0
 40
0.0
 40
0.0
 40
0.2879697432
 40
0.5553440702
 40
0.7905331502
 40
1.0
 40
1.0
 40
1.0
 40
1.0
 10
552.0321303083
 20
69.849570652
 30
0.0
 10
552.0012142908
 20
69.849570652
 30
0.0
 10
551.941217994
 20
69.8414878272
 30
0.0
 10
551.8626600019
 20
69.8059707854
 30
0.0
 10
551.8067346787
 20
69.7506562417
 30
0.0
 10
551.7921303083
 20
69.7023530843
 30
0.0
 10
551.7921303083
 20
69.6798650245
 30
0.0
  0
SPLINE
  5
481
100
AcDbEntity
  8
0
100
AcDbSpline
 62
7
  6
CONTINUOUS
 70
0
 71
3
 72
9
 73
5
 74
0
 42
0.0000001
 43
0.0000001
 44
0.0000000001
 40
0.0
 40
0.0
 40
0.0
 40
0.0
 40
0.5597866015
 40
1.0
 40
1.0
 40
1.0
 40
1.0
 10
552.5481303083
 20
68.9161897008
 30
0.0
 10
552.5245500841
 20
68.9161897008
 30
0.0
 10
552.4806885398
 20
68.9072312111
 30
0.0
 10
552.4521303083
 20
68.8668508209
 30
0.0
 10
552.4521303083
 20
68.8483074498
 30
0.0
  0
SPLINE
  5
482
100
AcDbEntity
  8
0
100
AcDbSpline
 62
7
  6
CONTINUOUS
 70
0
 71
3
 72
9
 73
5
 74
0
 42
0.0000001
 43
0.0000001
 44
0.0000000001
 40
0.0
 40
0.0
 40
0.0
 40
0.0
 40
0.5597866015
 40
1.0
 40
1.0
 40
1.0
 40
1.0
 10
553.0161303083
 20
68.7464840733
 30
0.0
 10
553.0397105326
 20
68.7464840733
 30
0.0
 10
553.0835720769
 20
68.755442563
 30
0.0
 10
553.1121303083
 20
68.7958229532
 30
0.0
 10
553.1121303083
 20
68.8143663243
 30
0.0
  0
SPLINE
  5
483
100
AcDbEntity
  8
0
100
AcDbSpline
 62
7
  6
CONTINUOUS
 70
0
 71
3
 72
9
 73
5
 74
0
 42
0.0000001
 43
0.0000001
 44
0.0000000001
 40
0.0
 40
0.0
 40
0.0
 40
0.0
 40
0.2445376398
 40
1.0
 40
1.0
 40
1.0
 40
1.0
 10
550.2321303083
 20
66.7383008147
 30
0.0
 10
550.2321303083
 20
66.7272282365
 30
0.0
 10
550.2353105804
 20
66.6819636168
 30
0.0
 10
550.2513978272
 20
66.637941029
 30
0.0
 10
550.2686681327
 20
66.6084137507
 30
0.0
  0
SPLINE
  5
484
100
AcDbEntity
  8
0
100
AcDbSpline
 62
7
  6
CONTINUOUS
 70
0
 71
3
 72
9
 73
5
 74
0
 42
0.0000001
 43
0.0000001
 44
0.0000000001
 40
0.0
 40
0.0
 40
0.0
 40
0.0
 40
0.461013727
 40
1.0
 40
1.0
 40
1.0
 40
1.0
 10
550.2686681327
 20
66.6084137507
 30
0.0
 10
550.3079333222
 20
66.5412815176
 30
0.0
 10
550.4506199835
 20
66.4308093498
 30
0.0
 10
550.6212044526
 20
66.3988895598
 30
0.0
 10
550.7121303083
 20
66.3988895598
 30
0.0
  0
SPLINE
  5
485
100
AcDbEntity
  8
0
100
AcDbSpline
 62
7
  6
CONTINUOUS
 70
0
 71
3
 72
9
 73
5
 74
0
 42
0.0000001
 43
0.0000001
 44
0.0000000001
 40
0.0
 40
0.0
 40
0.0
 40
0.0
 40
0.5597866015
 40
1.0
 40
1.0
 40
1.0
 40
1.0
 10
553.0161303083
 20
67.0494277985
 30
0.0
 10
553.0397105326
 20
67.0494277985
 30
0.0
 10
553.0835720769
 20
67.0583862881
 30
0.0
 10
553.1121303083
 20
67.0987666784
 30
0.0
 10
553.1121303083
 20
67.1173100494
 30
0.0
  0
SPLINE
  5
486
100
AcDbEntity
  8
0
100
AcDbSpline
 62
7
  6
CONTINUOUS
 70
0
 71
3
 72
11
 73
7
 74
0
 42
0.0000001
 43
0.0000001
 44
0.0000000001
 40
0.0
 40
0.0
 40
0.0
 40
0.0
 40
0.2094656921
 40
0.4446574861
 40
0.7119998836
 40
1.0
 40
1.0
 40
1.0
 40
1.0
 10
560.463289757
 20
69.4008878064
 30
0.0
 10
560.463289757
 20
69.4820811238
 30
0.0
 10
560.4105783208
 20
69.6564885759
 30
0.0
 10
560.2086473895
 20
69.8561793757
 30
0.0
 10
559.925028039
 20
69.9844394093
 30
0.0
 10
559.7084062652
 20
70.0136194252
 30
0.0
 10
559.5967713495
 20
70.0136194252
 30
0.0
  0
SPLINE
  5
487
100
AcDbEntity
  8
BEZUGSACHSEN
100
AcDbSpline
 62
7
  6
CONTINUOUS
 70
0
 71
3
 72
19
 73
15
 74
0
 42
0.0000001
 43
0.0000001
 44
0.0000000001
 40
0.0
 40
0.0
 40
0.0
 40
0.0
 40
0.051729057
 40
0.1053341786
 40
0.1622493009
 40
0.2232160554
 40
0.3564757248
 40
0.5
 40
0.6435242752
 40
0.7767839446
 40
0.8377506991
 40
0.8946658214
 40
0.948270943
 40
1.0
 40
1.0
 40
1.0
 40
1.0
 10
556.9019444965
 20
74.8287652642
 30
0.0
 10
556.9019444965
 20
74.5966250253
 30
0.0
 10
556.9693061884
 20
74.1215122517
 30
0.0
 10
557.2641098191
 20
73.4473487913
 30
0.0
 10
557.7369870751
 20
72.8316306284
 30
0.0
 10
558.6012028062
 20
72.0976241238
 30
0.0
 10
560.0102565181
 20
71.4609507746
 30
0.0
 10
561.9019444965
 20
71.2062781484
 30
0.0
 10
563.793632475
 20
71.4609507746
 30
0.0
 10
565.2026861869
 20
72.0976241238
 30
0.0
 10
566.066901918
 20
72.8316306284
 30
0.0
 10
566.539779174
 20
73.4473487913
 30
0.0
 10
566.8345828047
 20
74.1215122517
 30
0.0
 10
566.9019444965
 20
74.5966250253
 30
0.0
 10
566.9019444965
 20
74.8287652642
 30
0.0
  0
SPLINE
  5
488
100
AcDbEntity
  8
0
100
AcDbSpline
 62
7
  6
CONTINUOUS
 70
0
 71
3
 72
11
 73
7
 74
0
 42
0.0000001
 43
0.0000001
 44
0.0000000001
 40
0.0
 40
0.0
 40
0.0
 40
0.0
 40
0.2865059912
 40
0.5484241175
 40
0.7833822346
 40
1.0
 40
1.0
 40
1.0
 40
1.0
 10
560.0944901647
 20
68.3297172705
 30
0.0
 10
560.2474372632
 20
68.3652506641
 30
0.0
 10
560.5341834864
 20
68.4663555461
 30
0.0
 10
560.892793036
 20
68.7129185576
 30
0.0
 10
561.1328849974
 20
69.0323607995
 30
0.0
 10
561.1913191067
 20
69.2824231071
 30
0.0
 10
561.1913012975
 20
69.4011411452
 30
0.0
  0
SPLINE
  5
489
100
AcDbEntity
  8
RUNDUNGEN
100
AcDbSpline
 62
7
  6
CONTINUOUS
 70
0
 71
3
 72
11
 73
7
 74
0
 42
0.0000001
 43
0.0000001
 44
0.0000000001
 40
0.0
 40
0.0
 40
0.0
 40
0.0
 40
0.2256941656
 40
0.4632959394
 40
0.7206237852
 40
1.0
 40
1.0
 40
1.0
 40
1.0
 10
598.0370933505
 20
79.5258479034
 30
0.0
 10
598.0370488295
 20
79.5940112155
 30
0.0
 10
598.012259349
 20
79.7349147053
 30
0.0
 10
597.9061261622
 20
79.9285981971
 30
0.0
 10
597.7399109533
 20
80.0966347168
 30
0.0
 10
597.6010100831
 20
80.1829962744
 30
0.0
 10
597.525394752
 20
80.2204350504
 30
0.0
  0
SPLINE
  5
48A
100
AcDbEntity
  8
0
100
AcDbSpline
 62
7
  6
CONTINUOUS
 70
0
 71
3
 72
11
 73
7
 74
0
 42
0.0000001
 43
0.0000001
 44
0.0000000001
 40
0.0
 40
0.0
 40
0.0
 40
0.0
 40
0.227142142
 40
0.4653047767
 40
0.7220182825
 40
1.0
 40
1.0
 40
1.0
 40
1.0
 10
572.6581562475
 20
68.3335337131
 30
0.0
 10
572.6581562475
 20
68.4898692128
 30
0.0
 10
572.6043595956
 20
68.81225316
 30
0.0
 10
572.3720036963
 20
69.2592624014
 30
0.0
 10
572.0056960133
 20
69.6524185573
 30
0.0
 10
571.697445665
 20
69.8592613024
 30
0.0
 10
571.5292017321
 20
69.9503655095
 30
0.0
  0
SPLINE
  5
48B
100
AcDbEntity
  8
0
100
AcDbSpline
 62
7
  6
CONTINUOUS
 70
0
 71
3
 72
9
 73
5
 74
0
 42
0.0000001
 43
0.0000001
 44
0.0000000001
 40
0.0
 40
0.0
 40
0.0
 40
0.0
 40
0.4402133985
 40
1.0
 40
1.0
 40
1.0
 40
1.0
 10
552.1521303083
 20
67.1173100494
 30
0.0
 10
552.1521303083
 20
67.0987666784
 30
0.0
 10
552.1806885398
 20
67.0583862881
 30
0.0
 10
552.2245500841
 20
67.0494277985
 30
0.0
 10
552.2481303083
 20
67.0494277985
 30
0.0
  0
SPLINE
  5
48C
100
AcDbEntity
  8
0
100
AcDbSpline
 62
7
  6
CONTINUOUS
 70
0
 71
3
 72
9
 73
5
 74
0
 42
0.0000001
 43
0.0000001
 44
0.0000000001
 40
0.0
 40
0.0
 40
0.0
 40
0.0
 40
0.2536121958
 40
1.0
 40
1.0
 40
1.0
 40
1.0
 10
571.3664532921
 20
66.1160468473
 30
0.0
 10
571.3828794258
 20
66.1160468473
 30
0.0
 10
571.4476176925
 20
66.1183935453
 30
0.0
 10
571.5120894756
 20
66.1300891266
 30
0.0
 10
571.558286553
 20
66.1443311185
 30
0.0
  0
SPLINE
  5
48D
100
AcDbEntity
  8
0
100
AcDbSpline
 62
7
  6
CONTINUOUS
 70
0
 71
3
 72
11
 73
7
 74
0
 42
0.0000001
 43
0.0000001
 44
0.0000000001
 40
0.0
 40
0.0
 40
0.0
 40
0.0
 40
0.2847819434
 40
0.5451774547
 40
0.7807010719
 40
1.0
 40
1.0
 40
1.0
 40
1.0
 10
571.558286553
 20
66.1443311185
 30
0.0
 10
571.8451627872
 20
66.2327715406
 30
0.0
 10
572.379076089
 20
66.4615320554
 30
0.0
 10
573.0377095008
 20
66.9723794314
 30
0.0
 10
573.4714857442
 20
67.6070841104
 30
0.0
 10
573.5754367635
 20
68.0910487208
 30
0.0
 10
573.5754367635
 20
68.3222200046
 30
0.0
  0
SPLINE
  5
48E
100
AcDbEntity
  8
0
100
AcDbSpline
 62
7
  6
CONTINUOUS
 70
0
 71
3
 72
9
 73
5
 74
0
 42
0.0000001
 43
0.0000001
 44
0.0000000001
 40
0.0
 40
0.0
 40
0.0
 40
0.0
 40
0.239729366
 40
1.0
 40
1.0
 40
1.0
 40
1.0
 10
571.5292017321
 20
69.9503655095
 30
0.0
 10
571.518596606
 20
69.9561081927
 30
0.0
 10
571.4726511656
 20
69.9768539876
 30
0.0
 10
571.4215296637
 20
69.9853351539
 30
0.0
 10
571.3832824744
 20
69.9853351539
 30
0.0
  0
SPLINE
  5
48F
100
AcDbEntity
  8
0
100
AcDbSpline
 62
7
  6
CONTINUOUS
 70
0
 71
3
 72
9
 73
5
 74
0
 42
0.0000001
 43
0.0000001
 44
0.0000000001
 40
0.0
 40
0.0
 40
0.0
 40
0.0
 40
0.2536121958
 40
1.0
 40
1.0
 40
1.0
 40
1.0
 10
571.3664532921
 20
66.3988895598
 30
0.0
 10
571.3828794258
 20
66.3988895598
 30
0.0
 10
571.4476176925
 20
66.4012362578
 30
0.0
 10
571.5120894756
 20
66.412931839
 30
0.0
 10
571.558286553
 20
66.427173831
 30
0.0
  0
SPLINE
  5
490
100
AcDbEntity
  8
0
100
AcDbSpline
 62
7
  6
CONTINUOUS
 70
0
 71
3
 72
11
 73
7
 74
0
 42
0.0000001
 43
0.0000001
 44
0.0000000001
 40
0.0
 40
0.0
 40
0.0
 40
0.0
 40
0.2816347582
 40
0.5420479832
 40
0.7798483853
 40
1.0
 40
1.0
 40
1.0
 40
1.0
 10
571.558286553
 20
66.427173831
 30
0.0
 10
571.8173866749
 20
66.5070512185
 30
0.0
 10
572.3032158035
 20
66.7094904547
 30
0.0
 10
572.9199532118
 20
67.1504526588
 30
0.0
 10
573.361760318
 20
67.6950828858
 30
0.0
 10
573.5177642617
 20
68.1188526129
 30
0.0
 10
573.5524910001
 20
68.327930991
 30
0.0
  0
SPLINE
  5
491
100
AcDbEntity
  8
0
100
AcDbSpline
 62
7
  6
CONTINUOUS
 70
0
 71
3
 72
9
 73
5
 74
0
 42
0.0000001
 43
0.0000001
 44
0.0000000001
 40
0.0
 40
0.0
 40
0.0
 40
0.0
 40
0.2591205677
 40
1.0
 40
1.0
 40
1.0
 40
1.0
 10
571.3832824744
 20
70.2681778664
 30
0.0
 10
571.3963142711
 20
70.2681778664
 30
0.0
 10
571.4465171412
 20
70.2653016505
 30
0.0
 10
571.496436501
 20
70.2509506175
 30
0.0
 10
571.5292017321
 20
70.233208222
 30
0.0
  0
SPLINE
  5
492
100
AcDbEntity
  8
0
100
AcDbSpline
 62
7
  6
CONTINUOUS
 70
0
 71
3
 72
11
 73
7
 74
0
 42
0.0000001
 43
0.0000001
 44
0.0000000001
 40
0.0
 40
0.0
 40
0.0
 40
0.0
 40
0.2779697373
 40
0.5346991835
 40
0.7728568778
 40
1.0
 40
1.0
 40
1.0
 40
1.0
 10
571.5292017321
 20
70.233208222
 30
0.0
 10
571.697439017
 20
70.1421076148
 30
0.0
 10
572.0056856752
 20
69.9352561082
 30
0.0
 10
572.3720176931
 20
69.5421185913
 30
0.0
 10
572.6043647344
 20
69.0950929736
 30
0.0
 10
572.6581706403
 20
68.77271316
 30
0.0
 10
572.6581706403
 20
68.6163764256
 30
0.0
  0
SPLINE
  5
493
100
AcDbEntity
  8
0
100
AcDbSpline
 62
7
  6
CONTINUOUS
 70
0
 71
3
 72
11
 73
7
 74
0
 42
0.0000001
 43
0.0000001
 44
0.0000000001
 40
0.0
 40
0.0
 40
0.0
 40
0.0
 40
0.2782911642
 40
0.539206302
 40
0.7792454761
 40
1.0
 40
1.0
 40
1.0
 40
1.0
 10
560.0944901647
 20
68.6125599829
 30
0.0
 10
560.2161309722
 20
68.6408201509
 30
0.0
 10
560.4476524445
 20
68.7167847097
 30
0.0
 10
560.753728237
 20
68.8913663905
 30
0.0
 10
560.99259824
 20
69.1149560506
 30
0.0
 10
561.1001817727
 20
69.2960511561
 30
0.0
 10
561.1356631347
 20
69.3885402912
 30
0.0
  0
SPLINE
  5
494
100
AcDbEntity
  8
0
100
AcDbSpline
 62
7
  6
CONTINUOUS
 70
0
 71
3
 72
8
 73
4
 74
0
 42
0.0000001
 43
0.0000001
 44
0.0000000001
 40
0.0
 40
0.0
 40
0.0
 40
0.0
 40
1.0
 40
1.0
 40
1.0
 40
1.0
 10
561.1356631347
 20
69.3885402912
 30
0.0
 10
561.1540199569
 20
69.436390952
 30
0.0
 10
561.1682526602
 20
69.4860678438
 30
0.0
 10
561.1776426175
 20
69.5364512475
 30
0.0
  0
SPLINE
  5
495
100
AcDbEntity
  8
0
100
AcDbSpline
 62
7
  6
CONTINUOUS
 70
0
 71
3
 72
11
 73
7
 74
0
 42
0.0000001
 43
0.0000001
 44
0.0000000001
 40
0.0
 40
0.0
 40
0.0
 40
0.0
 40
0.2880066977
 40
0.5553334191
 40
0.790532629
 40
1.0
 40
1.0
 40
1.0
 40
1.0
 10
559.5967713495
 20
70.2964621377
 30
0.0
 10
559.7084083911
 20
70.2964621377
 30
0.0
 10
559.9250295972
 20
70.2672934977
 30
0.0
 10
560.2086340758
 20
70.1390030912
 30
0.0
 10
560.4105643521
 20
69.9393291704
 30
0.0
 10
560.4633047149
 20
69.7649241779
 30
0.0
 10
560.4633047149
 20
69.6837305189
 30
0.0
  0
SPLINE
  5
496
100
AcDbEntity
  8
0
100
AcDbSpline
 62
7
  6
CONTINUOUS
 70
0
 71
3
 72
9
 73
5
 74
0
 42
0.0000001
 43
0.0000001
 44
0.0000000001
 40
0.0
 40
0.0
 40
0.0
 40
0.0
 40
0.5597866015
 40
1.0
 40
1.0
 40
1.0
 40
1.0
 10
553.0161303083
 20
67.3322705109
 30
0.0
 10
553.0397105326
 20
67.3322705109
 30
0.0
 10
553.0835720769
 20
67.3412290006
 30
0.0
 10
553.1121303083
 20
67.3816093909
 30
0.0
 10
553.1121303083
 20
67.4001527619
 30
0.0
  0
SPLINE
  5
497
100
AcDbEntity
  8
0
100
AcDbSpline
 62
7
  6
CONTINUOUS
 70
0
 71
3
 72
9
 73
5
 74
0
 42
0.0000001
 43
0.0000001
 44
0.0000000001
 40
0.0
 40
0.0
 40
0.0
 40
0.0
 40
0.4402133985
 40
1.0
 40
1.0
 40
1.0
 40
1.0
 10
552.4521303083
 20
69.1311501623
 30
0.0
 10
552.4521303083
 20
69.1496935333
 30
0.0
 10
552.4806885398
 20
69.1900739236
 30
0.0
 10
552.5245500841
 20
69.1990324133
 30
0.0
 10
552.5481303083
 20
69.1990324133
 30
0.0
  0
SPLINE
  5
498
100
AcDbEntity
  8
RUNDUNGEN
100
AcDbSpline
 62
7
  6
CONTINUOUS
 70
0
 71
3
 72
11
 73
7
 74
0
 42
0.0000001
 43
0.0000001
 44
0.0000000001
 40
0.0
 40
0.0
 40
0.0
 40
0.0
 40
0.2256927635
 40
0.4632951072
 40
0.7206222905
 40
1.0
 40
1.0
 40
1.0
 40
1.0
 10
539.1264654195
 20
73.3330014504
 30
0.0
 10
539.1263912442
 20
73.2193965637
 30
0.0
 10
539.0850761194
 20
72.9845576289
 30
0.0
 10
538.9081879364
 20
72.6617520702
 30
0.0
 10
538.6311625551
 20
72.3816899598
 30
0.0
 10
538.3996605623
 20
72.2377536448
 30
0.0
 10
538.2736342561
 20
72.1753553112
 30
0.0
  0
SPLINE
  5
499
100
AcDbEntity
  8
0
100
AcDbSpline
 62
7
  6
CONTINUOUS
 70
0
 71
3
 72
9
 73
5
 74
0
 42
0.0000001
 43
0.0000001
 44
0.0000000001
 40
0.0
 40
0.0
 40
0.0
 40
0.0
 40
0.5597866015
 40
1.0
 40
1.0
 40
1.0
 40
1.0
 10
552.7161303083
 20
69.1990324133
 30
0.0
 10
552.7397105326
 20
69.1990324133
 30
0.0
 10
552.7835720769
 20
69.1900739236
 30
0.0
 10
552.8121303083
 20
69.1496935333
 30
0.0
 10
552.8121303083
 20
69.1311501623
 30
0.0
  0
SPLINE
  5
49A
100
AcDbEntity
  8
0
100
AcDbSpline
 62
7
  6
CONTINUOUS
 70
0
 71
3
 72
9
 73
5
 74
0
 42
0.0000001
 43
0.0000001
 44
0.0000000001
 40
0.0
 40
0.0
 40
0.0
 40
0.0
 40
0.5597866015
 40
1.0
 40
1.0
 40
1.0
 40
1.0
 10
553.0161303083
 20
69.0293267858
 30
0.0
 10
553.0397105326
 20
69.0293267858
 30
0.0
 10
553.0835720769
 20
69.0382852755
 30
0.0
 10
553.1121303083
 20
69.0786656657
 30
0.0
 10
553.1121303083
 20
69.0972090368
 30
0.0
  0
SPLINE
  5
49B
100
AcDbEntity
  8
0
100
AcDbSpline
 62
7
  6
CONTINUOUS
 70
0
 71
3
 72
11
 73
7
 74
0
 42
0.0000001
 43
0.0000001
 44
0.0000000001
 40
0.0
 40
0.0
 40
0.0
 40
0.0
 40
0.2876567391
 40
0.555407049
 40
0.7907201247
 40
1.0
 40
1.0
 40
1.0
 40
1.0
 10
553.2321303083
 20
70.1324133644
 30
0.0
 10
553.2630082485
 20
70.1324133644
 30
0.0
 10
553.3229580175
 20
70.1242079804
 30
0.0
 10
553.4016627677
 20
70.0889173693
 30
0.0
 10
553.4574019176
 20
70.0333986861
 30
0.0
 10
553.4721303083
 20
69.9851724686
 30
0.0
 10
553.4721303083
 20
69.9627077369
 30
0.0
  0
SPLINE
  5
49C
100
AcDbEntity
  8
0
100
AcDbSpline
 62
7
  6
CONTINUOUS
 70
0
 71
3
 72
8
 73
4
 74
0
 42
0.0000001
 43
0.0000001
 44
0.0000000001
 40
0.0
 40
0.0
 40
0.0
 40
0.0
 40
1.0
 40
1.0
 40
1.0
 40
1.0
 10
553.2962259391
 20
68.4291061084
 30
0.0
 10
553.3152902736
 20
68.4253641137
 30
0.0
 10
553.3341310107
 20
68.4199336203
 30
0.0
 10
553.3521303083
 20
68.4126208467
 30
0.0
  0
SPLINE
  5
49D
100
AcDbEntity
  8
0
100
AcDbSpline
 62
7
  6
CONTINUOUS
 70
0
 71
3
 72
9
 73
5
 74
0
 42
0.0000001
 43
0.0000001
 44
0.0000000001
 40
0.0
 40
0.0
 40
0.0
 40
0.0
 40
0.5424756321
 40
1.0
 40
1.0
 40
1.0
 40
1.0
 10
553.3521303083
 20
68.4126208467
 30
0.0
 10
553.3853558369
 20
68.3991219439
 30
0.0
 10
553.4439478655
 20
68.3623746465
 30
0.0
 10
553.4721303083
 20
68.29589836
 30
0.0
 10
553.4721303083
 20
68.2656514621
 30
0.0
  0
SPLINE
  5
49E
100
AcDbEntity
  8
0
100
AcDbSpline
 62
7
  6
CONTINUOUS
 70
0
 71
3
 72
9
 73
5
 74
0
 42
0.0000001
 43
0.0000001
 44
0.0000000001
 40
0.0
 40
0.0
 40
0.0
 40
0.0
 40
0.4575243679
 40
1.0
 40
1.0
 40
1.0
 40
1.0
 10
551.7921303083
 20
68.2656514621
 30
0.0
 10
551.7921303083
 20
68.29589836
 30
0.0
 10
551.8203127512
 20
68.3623746465
 30
0.0
 10
551.8789047798
 20
68.3991219439
 30
0.0
 10
551.9121303083
 20
68.4126208467
 30
0.0
  0
SPLINE
  5
49F
100
AcDbEntity
  8
0
100
AcDbSpline
 62
7
  6
CONTINUOUS
 70
0
 71
3
 72
9
 73
5
 74
0
 42
0.0000001
 43
0.0000001
 44
0.0000000001
 40
0.0
 40
0.0
 40
0.0
 40
0.0
 40
0.2441493338
 40
1.0
 40
1.0
 40
1.0
 40
1.0
 10
551.9121303083
 20
68.4126208467
 30
0.0
 10
551.921370754
 20
68.4163750647
 30
0.0
 10
551.9600436168
 20
68.4296588935
 30
0.0
 10
552.0012523682
 20
68.4353570896
 30
0.0
 10
552.0321303083
 20
68.4353570896
 30
0.0
  0
SPLINE
  5
4A0
100
AcDbEntity
  8
0
100
AcDbSpline
 62
7
  6
CONTINUOUS
 70
0
 71
3
 72
11
 73
7
 74
0
 42
0.0000001
 43
0.0000001
 44
0.0000000001
 40
0.0
 40
0.0
 40
0.0
 40
0.0
 40
0.2092798753
 40
0.444592951
 40
0.7123432609
 40
1.0
 40
1.0
 40
1.0
 40
1.0
 10
551.7921303083
 20
69.9627077369
 30
0.0
 10
551.7921303083
 20
69.9851724686
 30
0.0
 10
551.806858699
 20
70.0333986861
 30
0.0
 10
551.8625978489
 20
70.0889173693
 30
0.0
 10
551.9413025992
 20
70.1242079804
 30
0.0
 10
552.0012523682
 20
70.1324133644
 30
0.0
 10
552.0321303083
 20
70.1324133644
 30
0.0
  0
SPLINE
  5
4A1
100
AcDbEntity
  8
RUNDUNGEN
100
AcDbSpline
 62
7
  6
CONTINUOUS
 70
0
 71
3
 72
11
 73
7
 74
0
 42
0.0000001
 43
0.0000001
 44
0.0000000001
 40
0.0
 40
0.0
 40
0.0
 40
0.0
 40
0.2660806488
 40
0.5190943636
 40
0.7622194616
 40
1.0
 40
1.0
 40
1.0
 40
1.0
 10
576.4876117403
 20
47.7620852489
 30
0.0
 10
576.1468487077
 20
48.1062058674
 30
0.0
 10
575.5334966852
 20
48.8318978138
 30
0.0
 10
574.8391396538
 20
50.0423869236
 30
0.0
 10
574.4134439465
 20
51.3181718038
 30
0.0
 10
574.3174362564
 20
52.1962602187
 30
0.0
 10
574.3174362718
 20
52.6290430617
 30
0.0
  0
SPLINE
  5
4A2
100
AcDbEntity
  8
0
100
AcDbSpline
 62
7
  6
CONTINUOUS
 70
0
 71
3
 72
9
 73
5
 74
0
 42
0.0000001
 43
0.0000001
 44
0.0000000001
 40
0.0
 40
0.0
 40
0.0
 40
0.0
 40
0.538986273
 40
1.0
 40
1.0
 40
1.0
 40
1.0
 10
554.5521303083
 20
66.3988895598
 30
0.0
 10
554.643056164
 20
66.3988895598
 30
0.0
 10
554.8136406332
 20
66.4308093498
 30
0.0
 10
554.9563272944
 20
66.5412815176
 30
0.0
 10
554.9955924839
 20
66.6084137507
 30
0.0
  0
SPLINE
  5
4A3
100
AcDbEntity
  8
0
100
AcDbSpline
 62
7
  6
CONTINUOUS
 70
0
 71
3
 72
9
 73
5
 74
0
 42
0.0000001
 43
0.0000001
 44
0.0000000001
 40
0.0
 40
0.0
 40
0.0
 40
0.0
 40
0.2592261758
 40
1.0
 40
1.0
 40
1.0
 40
1.0
 10
554.9955924839
 20
66.6084137507
 30
0.0
 10
555.0015172067
 20
66.6185433305
 30
0.0
 10
555.0220158753
 20
66.6589263767
 30
0.0
 10
555.0321303083
 20
66.7047664054
 30
0.0
 10
555.0321303083
 20
66.7383008147
 30
0.0
  0
SPLINE
  5
4A4
100
AcDbEntity
  8
RUNDUNGEN
100
AcDbSpline
 62
7
  6
CONTINUOUS
 70
0
 71
3
 72
11
 73
7
 74
0
 42
0.0000001
 43
0.0000001
 44
0.0000000001
 40
0.0
 40
0.0
 40
0.0
 40
0.0
 40
0.2297109937
 40
0.4842558728
 40
0.7475644511
 40
1.0
 40
1.0
 40
1.0
 40
1.0
 10
582.8749569159
 20
75.781190033
 30
0.0
 10
582.5556451272
 20
75.4587320205
 30
0.0
 10
581.7303575839
 20
74.9262685374
 30
0.0
 10
580.2839035499
 20
74.5465401864
 30
0.0
 10
578.7447311998
 20
74.5681251617
 30
0.0
 10
577.7509613725
 20
74.8653184248
 30
0.0
 10
577.3040429934
 20
75.0865973224
 30
0.0
  0
SPLINE
  5
4A5
100
AcDbEntity
  8
RUNDUNGEN
100
AcDbSpline
 62
7
  6
CONTINUOUS
 70
0
 71
3
 72
11
 73
7
 74
0
 42
0.0000001
 43
0.0000001
 44
0.0000000001
 40
0.0
 40
0.0
 40
0.0
 40
0.0
 40
0.2524375529
 40
0.5157480446
 40
0.7702932073
 40
1.0
 40
1.0
 40
1.0
 40
1.0
 10
551.7424190832
 20
77.6823079635
 30
0.0
 10
551.2954971553
 20
77.4610273088
 30
0.0
 10
550.3017191891
 20
77.163832863
 30
0.0
 10
548.762538108
 20
77.1422525222
 30
0.0
 10
547.3160895078
 20
77.5219871136
 30
0.0
 10
546.4908111103
 20
78.0544485581
 30
0.0
 10
546.1715051606
 20
78.3769006741
 30
0.0
  0
SPLINE
  5
4A6
100
AcDbEntity
  8
RUNDUNGEN
100
AcDbSpline
 62
7
  6
CONTINUOUS
 70
0
 71
3
 72
9
 73
5
 74
0
 42
0.0000001
 43
0.0000001
 44
0.0000000001
 40
0.0
 40
0.0
 40
0.0
 40
0.0
 40
0.492156512
 40
1.0
 40
1.0
 40
1.0
 40
1.0
 10
552.4805484036
 20
146.9053179672
 30
0.0
 10
551.7302185065
 20
146.9053179672
 30
0.0
 10
550.2063846954
 20
146.8466926276
 30
0.0
 10
548.6822062326
 20
146.8035317971
 30
0.0
 10
547.907960352
 20
146.8035317971
 30
0.0
  0
SPLINE
  5
4A7
100
AcDbEntity
  8
KONSTRUKTIONSELEMENTE
100
AcDbSpline
 62
7
  6
CONTINUOUS
 70
0
 71
3
 72
9
 73
5
 74
0
 42
0.0000001
 43
0.0000001
 44
0.0000000001
 40
0.0
 40
0.0
 40
0.0
 40
0.0
 40
0.479507891
 40
1.0
 40
1.0
 40
1.0
 40
1.0
 10
577.6256659973
 20
109.6553179672
 30
0.0
 10
577.6378733229
 20
109.6553179672
 30
0.0
 10
577.6638580331
 20
109.6615102865
 30
0.0
 10
577.6831208215
 20
109.6795712428
 30
0.0
 10
577.6913266257
 20
109.689975372
 30
0.0
  0
SPLINE
  5
4A8
100
AcDbEntity
  8
KONSTRUKTIONSELEMENTE
100
AcDbSpline
 62
7
  6
CONTINUOUS
 70
0
 71
3
 72
19
 73
15
 74
0
 42
0.0000001
 43
0.0000001
 44
0.0000000001
 40
0.0
 40
0.0
 40
0.0
 40
0.0
 40
0.0053167983
 40
0.0124273829
 40
0.0327347248
 40
0.0614961942
 40
0.0986322446
 40
0.1438459278
 40
0.1966966806
 40
0.3230809068
 40
0.4726104568
 40
0.6393425026
 40
0.8170924169
 40
1.0
 40
1.0
 40
1.0
 40
1.0
 10
577.6913266257
 20
109.689975372
 30
0.0
 10
577.7041543709
 20
109.7062396543
 30
0.0
 10
577.7253907159
 20
109.7508096777
 30
0.0
 10
577.7545551418
 20
109.8752145458
 30
0.0
 10
577.7633243979
 20
110.0953785774
 30
0.0
 10
577.7449111864
 20
110.430563432
 30
0.0
 10
577.6948426454
 20
110.860897335
 30
0.0
 10
577.6133276774
 20
111.3813244609
 30
0.0
 10
577.4516948616
 20
112.2408404283
 30
0.0
 10
577.1665318722
 20
113.4900308594
 30
0.0
 10
576.7153118415
 20
115.154940892
 30
0.0
 10
576.1351398917
 20
116.9907485299
 30
0.0
 10
575.4254680151
 20
118.9198387531
 30
0.0
 10
574.8681493854
 20
120.2108592192
 30
0.0
 10
574.5640432485
 20
120.8553179672
 30
0.0
  0
SPLINE
  5
4A9
100
AcDbEntity
  8
KONSTRUKTIONSELEMENTE
100
AcDbSpline
 62
7
  6
CONTINUOUS
 70
0
 71
3
 72
9
 73
5
 74
0
 42
0.0000001
 43
0.0000001
 44
0.0000000001
 40
0.0
 40
0.0
 40
0.0
 40
0.0
 40
0.2510778321
 40
1.0
 40
1.0
 40
1.0
 40
1.0
 10
566.9019444965
 20
132.63766941
 30
0.0
 10
567.2428416625
 20
132.5799773515
 30
0.0
 10
568.596354563
 20
132.3261583096
 30
0.0
 10
569.9319995596
 20
131.9751940061
 30
0.0
 10
570.9124341445
 20
131.6553179672
 30
0.0
  0
SPLINE
  5
4AA
100
AcDbEntity
  8
KONSTRUKTIONSELEMENTE
100
AcDbSpline
 62
7
  6
CONTINUOUS
 70
0
 71
3
 72
9
 73
5
 74
0
 42
0.0000001
 43
0.0000001
 44
0.0000000001
 40
0.0
 40
0.0
 40
0.0
 40
0.0
 40
0.248984136
 40
1.0
 40
1.0
 40
1.0
 40
1.0
 10
552.8914548486
 20
131.6553179672
 30
0.0
 10
553.2174116579
 20
131.7616644533
 30
0.0
 10
554.5348143503
 20
132.1631822632
 30
0.0
 10
555.8822488253
 20
132.4651002362
 30
0.0
 10
556.9019444965
 20
132.63766941
 30
0.0
  0
SPLINE
  5
4AB
100
AcDbEntity
  8
KONSTRUKTIONSELEMENTE
100
AcDbSpline
 62
7
  6
CONTINUOUS
 70
0
 71
3
 72
12
 73
8
 74
0
 42
0.0000001
 43
0.0000001
 44
0.0000000001
 40
0.0
 40
0.0
 40
0.0
 40
0.0
 40
0.1250699247
 40
0.2501553866
 40
0.4997777447
 40
0.7498050362
 40
1.0
 40
1.0
 40
1.0
 40
1.0
 10
549.9455624351
 20
127.4957179672
 30
0.0
 10
549.9455624351
 20
127.716778381
 30
0.0
 10
549.9928057107
 20
128.1602430831
 30
0.0
 10
550.2605794034
 20
129.0069946165
 30
0.0
 10
550.8576915238
 20
129.9558531966
 30
0.0
 10
551.8011186004
 20
130.8953911751
 30
0.0
 10
552.5189366061
 20
131.4170174578
 30
0.0
 10
552.8914548486
 20
131.6553179672
 30
0.0
  0
SPLINE
  5
4AC
100
AcDbEntity
  8
KONSTRUKTIONSELEMENTE
100
AcDbSpline
 62
7
  6
CONTINUOUS
 70
0
 71
3
 72
9
 73
5
 74
0
 42
0.0000001
 43
0.0000001
 44
0.0000000001
 40
0.0
 40
0.0
 40
0.0
 40
0.0
 40
0.5002468695
 40
1.0
 40
1.0
 40
1.0
 40
1.0
 10
549.2398457446
 20
120.8553179672
 30
0.0
 10
549.4500857655
 20
121.3008565609
 30
0.0
 10
549.8070464743
 20
122.2250334932
 30
0.0
 10
549.9455624351
 20
123.2131527051
 30
0.0
 10
549.9455624351
 20
123.7053179672
 30
0.0
  0
SPLINE
  5
4AD
100
AcDbEntity
  8
KONSTRUKTIONSELEMENTE
100
AcDbSpline
 62
7
  6
CONTINUOUS
 70
0
 71
3
 72
9
 73
5
 74
0
 42
0.0000001
 43
0.0000001
 44
0.0000000001
 40
0.0
 40
0.0
 40
0.0
 40
0.0
 40
0.4997531305
 40
1.0
 40
1.0
 40
1.0
 40
1.0
 10
573.858326558
 20
123.7053179672
 30
0.0
 10
573.858326558
 20
123.2131527051
 30
0.0
 10
573.9968425188
 20
122.2250334932
 30
0.0
 10
574.3538032276
 20
121.3008565609
 30
0.0
 10
574.5640432485
 20
120.8553179672
 30
0.0
  0
SPLINE
  5
4AE
100
AcDbEntity
  8
KONSTRUKTIONSELEMENTE
100
AcDbSpline
 62
7
  6
CONTINUOUS
 70
0
 71
3
 72
12
 73
8
 74
0
 42
0.0000001
 43
0.0000001
 44
0.0000000001
 40
0.0
 40
0.0
 40
0.0
 40
0.0
 40
0.2501944841
 40
0.5002215546
 40
0.7498441276
 40
0.8749297703
 40
1.0
 40
1.0
 40
1.0
 40
1.0
 10
570.9124341445
 20
131.6553179672
 30
0.0
 10
571.2849516724
 20
131.4170179149
 30
0.0
 10
572.0027687001
 20
130.8953924398
 30
0.0
 10
572.9461956236
 20
129.9558555328
 30
0.0
 10
573.5433083198
 20
129.0069969914
 30
0.0
 10
573.8110831731
 20
128.1602445088
 30
0.0
 10
573.858326558
 20
127.71677892
 30
0.0
 10
573.858326558
 20
127.4957179672
 30
0.0
  0
SPLINE
  5
4AF
100
AcDbEntity
  8
RUNDUNGEN
100
AcDbSpline
 62
7
  6
CONTINUOUS
 70
0
 71
3
 72
16
 73
12
 74
0
 42
0.0000001
 43
0.0000001
 44
0.0000000001
 40
0.0
 40
0.0
 40
0.0
 40
0.0
 40
0.0242874348
 40
0.0512771385
 40
0.082901453
 40
0.1202969766
 40
0.2141635644
 40
0.3338260053
 40
0.4770520394
 40
0.6397399996
 40
1.0
 40
1.0
 40
1.0
 40
1.0
 10
584.9019444965
 20
130.6907008745
 30
0.0
 10
584.9019444965
 20
130.7221738804
 30
0.0
 10
584.8891370864
 20
130.7890418601
 30
0.0
 10
584.8351060627
 20
130.8834795873
 30
0.0
 10
584.7487826398
 20
130.9742497386
 30
0.0
 10
584.5786658257
 20
131.1004112158
 30
0.0
 10
584.2831475341
 20
131.2415993537
 30
0.0
 10
583.8422901752
 20
131.3826363667
 30
0.0
 10
583.302643278
 20
131.49997318
 30
0.0
 10
582.4475579998
 20
131.6216100862
 30
0.0
 10
581.7687893991
 20
131.6553179672
 30
0.0
 10
581.3019444965
 20
131.6553179672
 30
0.0
  0
SPLINE
  5
4B0
100
AcDbEntity
  8
RUNDUNGEN
100
AcDbSpline
 62
7
  6
CONTINUOUS
 70
0
 71
3
 72
16
 73
12
 74
0
 42
0.0000001
 43
0.0000001
 44
0.0000000001
 40
0.0
 40
0.0
 40
0.0
 40
0.0
 40
0.0242874348
 40
0.0512771385
 40
0.082901453
 40
0.1202969766
 40
0.2141635644
 40
0.3338260053
 40
0.4770520394
 40
0.6397399996
 40
1.0
 40
1.0
 40
1.0
 40
1.0
 10
584.9019444965
 20
135.8868532972
 30
0.0
 10
584.9019444965
 20
135.9183263031
 30
0.0
 10
584.8891370864
 20
135.9851942828
 30
0.0
 10
584.8351060627
 20
136.07963201
 30
0.0
 10
584.7487826398
 20
136.1704021613
 30
0.0
 10
584.5786658257
 20
136.2965636385
 30
0.0
 10
584.2831475341
 20
136.4377517764
 30
0.0
 10
583.8422901752
 20
136.5787887894
 30
0.0
 10
583.302643278
 20
136.6961256027
 30
0.0
 10
582.4475579998
 20
136.8177625089
 30
0.0
 10
581.7687893991
 20
136.8514703899
 30
0.0
 10
581.3019444965
 20
136.8514703899
 30
0.0
  0
SPLINE
  5
4B1
100
AcDbEntity
  8
RUNDUNGEN
100
AcDbSpline
 62
7
  6
CONTINUOUS
 70
0
 71
3
 72
9
 73
5
 74
0
 42
0.0000001
 43
0.0000001
 44
0.0000000001
 40
0.0
 40
0.0
 40
0.0
 40
0.0
 40
0.4847438183
 40
1.0
 40
1.0
 40
1.0
 40
1.0
 10
581.3551556098
 20
146.3788747579
 30
0.0
 10
580.9833379964
 20
146.5381035048
 30
0.0
 10
580.1691987735
 20
146.7583426988
 30
0.0
 10
579.3321889979
 20
146.8147332014
 30
0.0
 10
578.9023119972
 20
146.8075159204
 30
0.0
  0
SPLINE
  5
4B2
100
AcDbEntity
  8
KONSTRUKTIONSELEMENTE
100
AcDbSpline
 62
7
  6
CONTINUOUS
 70
0
 71
3
 72
24
 73
20
 74
0
 42
0.0000001
 43
0.0000001
 44
0.0000000001
 40
0.0
 40
0.0
 40
0.0
 40
0.0
 40
0.1909729339
 40
0.3759576434
 40
0.5481483287
 40
0.6272128531
 40
0.7004201448
 40
0.7669407663
 40
0.826019102
 40
0.8769804545
 40
0.9192652313
 40
0.9370206439
 40
0.9524656022
 40
0.9655802585
 40
0.9763779349
 40
0.984911026
 40
0.9913275359
 40
0.9960309304
 40
1.0
 40
1.0
 40
1.0
 40
1.0
 10
549.2398457446
 20
120.8553179672
 30
0.0
 10
548.9202577815
 20
120.1780502848
 30
0.0
 10
548.3377309456
 20
118.8223986058
 30
0.0
 10
547.6031762496
 20
116.8013732077
 30
0.0
 10
547.0963921025
 20
115.1667979008
 30
0.0
 10
546.7603791211
 20
113.9395348694
 30
0.0
 10
546.5517308365
 20
113.1072408034
 30
0.0
 10
546.3790128567
 20
112.3469444548
 30
0.0
 10
546.242068653
 20
111.6681693407
 30
0.0
 10
546.1407449215
 20
111.0794167548
 30
0.0
 10
546.0825066789
 20
110.647870975
 30
0.0
 10
546.0555121681
 20
110.3530474378
 30
0.0
 10
546.045374918
 20
110.1716656027
 30
0.0
 10
546.0440333985
 20
110.0172443639
 30
0.0
 10
546.0513714331
 20
109.8901315093
 30
0.0
 10
546.0673564752
 20
109.7900713132
 30
0.0
 10
546.0918990524
 20
109.7167180068
 30
0.0
 10
546.1277933364
 20
109.6668693796
 30
0.0
 10
546.1626586193
 20
109.6553179672
 30
0.0
 10
546.1782229958
 20
109.6553179672
 30
0.0
  0
SPLINE
  5
4B3
100
AcDbEntity
  8
RUNDUNGEN
100
AcDbSpline
 62
7
  6
CONTINUOUS
 70
0
 71
3
 72
9
 73
5
 74
0
 42
0.0000001
 43
0.0000001
 44
0.0000000001
 40
0.0
 40
0.0
 40
0.0
 40
0.0
 40
0.5078433254
 40
1.0
 40
1.0
 40
1.0
 40
1.0
 10
575.8959286411
 20
146.8035317971
 30
0.0
 10
575.1216808219
 20
146.8035317971
 30
0.0
 10
573.5974980635
 20
146.8466931317
 30
0.0
 10
572.0736599332
 20
146.9053179672
 30
0.0
 10
571.3233276694
 20
146.9053179672
 30
0.0
  0
SPLINE
  5
4B4
100
AcDbEntity
  8
RUNDUNGEN
100
AcDbSpline
 62
7
  6
CONTINUOUS
 70
0
 71
3
 72
16
 73
12
 74
0
 42
0.0000001
 43
0.0000001
 44
0.0000000001
 40
0.0
 40
0.0
 40
0.0
 40
0.0
 40
0.0242874348
 40
0.0512771385
 40
0.082901453
 40
0.1202969766
 40
0.2141635644
 40
0.3338260053
 40
0.4770520394
 40
0.6397399996
 40
1.0
 40
1.0
 40
1.0
 40
1.0
 10
538.9019444965
 20
135.8868532972
 30
0.0
 10
538.9019444965
 20
135.9183263031
 30
0.0
 10
538.9147519067
 20
135.9851942828
 30
0.0
 10
538.9687829304
 20
136.07963201
 30
0.0
 10
539.0551063533
 20
136.1704021613
 30
0.0
 10
539.2252231674
 20
136.2965636385
 30
0.0
 10
539.520741459
 20
136.4377517764
 30
0.0
 10
539.9615988179
 20
136.5787887894
 30
0.0
 10
540.5012457151
 20
136.6961256027
 30
0.0
 10
541.3563309933
 20
136.8177625089
 30
0.0
 10
542.035099594
 20
136.8514703899
 30
0.0
 10
542.5019444965
 20
136.8514703899
 30
0.0
  0
SPLINE
  5
4B5
100
AcDbEntity
  8
RUNDUNGEN
100
AcDbSpline
 62
7
  6
CONTINUOUS
 70
0
 71
3
 72
9
 73
5
 74
0
 42
0.0000001
 43
0.0000001
 44
0.0000000001
 40
0.0
 40
0.0
 40
0.0
 40
0.0
 40
0.5152567055
 40
1.0
 40
1.0
 40
1.0
 40
1.0
 10
544.9019444965
 20
146.8075097299
 30
0.0
 10
544.4720045973
 20
146.8147492803
 30
0.0
 10
543.6348694516
 20
146.758382749
 30
0.0
 10
542.8206049286
 20
146.5381266009
 30
0.0
 10
542.4487333833
 20
146.3788747579
 30
0.0
  0
SPLINE
  5
4B6
100
AcDbEntity
  8
RUNDUNGEN
100
AcDbSpline
 62
7
  6
CONTINUOUS
 70
0
 71
3
 72
16
 73
12
 74
0
 42
0.0000001
 43
0.0000001
 44
0.0000000001
 40
0.0
 40
0.0
 40
0.0
 40
0.0
 40
0.3602600004
 40
0.5229479606
 40
0.6661739947
 40
0.7858364356
 40
0.8797030234
 40
0.917098547
 40
0.9487228615
 40
0.9757125652
 40
1.0
 40
1.0
 40
1.0
 40
1.0
 10
542.5019444965
 20
131.6553179672
 30
0.0
 10
542.035099594
 20
131.6553179672
 30
0.0
 10
541.3563309933
 20
131.6216100862
 30
0.0
 10
540.5012457151
 20
131.49997318
 30
0.0
 10
539.9615988179
 20
131.3826363667
 30
0.0
 10
539.520741459
 20
131.2415993537
 30
0.0
 10
539.2252231674
 20
131.1004112158
 30
0.0
 10
539.0551063533
 20
130.9742497386
 30
0.0
 10
538.9687829304
 20
130.8834795873
 30
0.0
 10
538.9147519067
 20
130.7890418601
 30
0.0
 10
538.9019444965
 20
130.7221738804
 30
0.0
 10
538.9019444965
 20
130.6907008745
 30
0.0
  0
LINE
  5
4B7
100
AcDbEntity
  8
0
100
AcDbLine
 62
7
  6
CONTINUOUS
 10
248.3240224633
 20
130.6907008745
 11
251.9240224633
 21
131.6553179672
  0
LINE
  5
4B8
100
AcDbEntity
  8
0
100
AcDbLine
 62
7
  6
CONTINUOUS
 10
245.3240224633
 20
135.8868532972
 11
248.9240224633
 21
136.8514703899
  0
SPLINE
  5
4B9
100
AcDbEntity
  8
0
100
AcDbSpline
 62
7
  6
CONTINUOUS
 70
0
 71
3
 72
13
 73
9
 74
0
 42
0.0000001
 43
0.0000001
 44
0.0000000001
 40
0.0
 40
0.0
 40
0.0
 40
0.0
 40
0.4034581053
 40
0.7048799357
 40
0.8164661575
 40
0.9021406781
 40
0.9625842093
 40
1.0
 40
1.0
 40
1.0
 40
1.0
 10
245.4387283456
 20
146.3788747579
 30
0.0
 10
245.5294578454
 20
146.4469159414
 30
0.0
 10
245.6903803569
 20
146.5625540652
 30
0.0
 10
245.883234559
 20
146.6874623047
 30
0.0
 10
246.0053765996
 20
146.7560861658
 30
0.0
 10
246.0708240321
 20
146.7878325595
 30
0.0
 10
246.1188865153
 20
146.8054617887
 30
0.0
 10
246.1472212934
 20
146.8099422367
 30
0.0
 10
246.1574548221
 20
146.8075159204
 30
0.0
  0
SPLINE
  5
4BA
100
AcDbEntity
  8
0
100
AcDbSpline
 62
7
  6
CONTINUOUS
 70
0
 71
3
 72
9
 73
5
 74
0
 42
0.0000001
 43
0.0000001
 44
0.0000000001
 40
0.0
 40
0.0
 40
0.0
 40
0.0
 40
0.7498709243
 40
1.0
 40
1.0
 40
1.0
 40
1.0
 10
237.4096453675
 20
153.4541388292
 30
0.0
 10
237.4396193122
 20
155.0096380162
 30
0.0
 10
237.5810129584
 20
157.0837294872
 30
0.0
 10
237.8455980471
 20
159.1415841901
 30
0.0
 10
237.9190138074
 20
159.6553179672
 30
0.0
  0
SPLINE
  5
4BB
100
AcDbEntity
  8
0
100
AcDbSpline
 62
7
  6
CONTINUOUS
 70
0
 71
3
 72
11
 73
7
 74
0
 42
0.0000001
 43
0.0000001
 44
0.0000000001
 40
0.0
 40
0.0
 40
0.0
 40
0.0
 40
0.2577328834
 40
0.5000000007
 40
0.7422671179
 40
1.0
 40
1.0
 40
1.0
 40
1.0
 10
237.9190138074
 20
184.3559722254
 30
0.0
 10
237.7577030875
 20
184.6584298253
 30
0.0
 10
237.4969855236
 20
185.2771344979
 30
0.0
 10
237.3540302309
 20
186.2665744843
 30
0.0
 10
237.4969855224
 20
187.2560144696
 30
0.0
 10
237.7577030883
 20
187.8747191391
 30
0.0
 10
237.9190138074
 20
188.1771767375
 30
0.0
  0
SPLINE
  5
4BC
100
AcDbEntity
  8
0
100
AcDbSpline
 62
7
  6
CONTINUOUS
 70
0
 71
3
 72
11
 73
7
 74
0
 42
0.0000001
 43
0.0000001
 44
0.0000000001
 40
0.0
 40
0.0
 40
0.0
 40
0.0
 40
0.2506004323
 40
0.5000000008
 40
0.7493995691
 40
1.0
 40
1.0
 40
1.0
 40
1.0
 10
237.9190138074
 20
173.9162473524
 30
0.0
 10
237.7509093038
 20
174.7773786866
 30
0.0
 10
237.4902587226
 20
176.5114111212
 30
0.0
 10
237.3560118948
 20
179.1361097969
 30
0.0
 10
237.4902587212
 20
181.7608084678
 30
0.0
 10
237.7509093048
 20
183.4948408961
 30
0.0
 10
237.9190138074
 20
184.3559722254
 30
0.0
  0
SPLINE
  5
4BD
100
AcDbEntity
  8
0
100
AcDbSpline
 62
7
  6
CONTINUOUS
 70
0
 71
3
 72
11
 73
7
 74
0
 42
0.0000001
 43
0.0000001
 44
0.0000000001
 40
0.0
 40
0.0
 40
0.0
 40
0.0
 40
0.2500457849
 40
0.5000000008
 40
0.7499542166
 40
1.0
 40
1.0
 40
1.0
 40
1.0
 10
237.9190138074
 20
159.6553179672
 30
0.0
 10
237.7503088061
 20
160.835847286
 30
0.0
 10
237.4897823571
 20
163.2083892637
 30
0.0
 10
237.3561506748
 20
166.7857826707
 30
0.0
 10
237.4897823557
 20
170.363176071
 30
0.0
 10
237.750308807
 20
172.7357180404
 30
0.0
 10
237.9190138074
 20
173.9162473524
 30
0.0
  0
SPLINE
  5
4BE
100
AcDbEntity
  8
0
100
AcDbSpline
 62
7
  6
CONTINUOUS
 70
0
 71
3
 72
11
 73
7
 74
0
 42
0.0000001
 43
0.0000001
 44
0.0000000001
 40
0.0
 40
0.0
 40
0.0
 40
0.0
 40
0.2577328834
 40
0.5000000007
 40
0.7422671179
 40
1.0
 40
1.0
 40
1.0
 40
1.0
 10
241.9290311191
 20
184.3559722254
 30
0.0
 10
242.0903418391
 20
184.6584298253
 30
0.0
 10
242.351059403
 20
185.2771344979
 30
0.0
 10
242.4940146957
 20
186.2665744843
 30
0.0
 10
242.3510594042
 20
187.2560144696
 30
0.0
 10
242.0903418383
 20
187.8747191391
 30
0.0
 10
241.9290311191
 20
188.1771767375
 30
0.0
  0
SPLINE
  5
4BF
100
AcDbEntity
  8
0
100
AcDbSpline
 62
7
  6
CONTINUOUS
 70
0
 71
3
 72
11
 73
7
 74
0
 42
0.0000001
 43
0.0000001
 44
0.0000000001
 40
0.0
 40
0.0
 40
0.0
 40
0.0
 40
0.2506004323
 40
0.5000000008
 40
0.7493995691
 40
1.0
 40
1.0
 40
1.0
 40
1.0
 10
241.9290311191
 20
173.9162473524
 30
0.0
 10
242.0971356228
 20
174.7773786866
 30
0.0
 10
242.357786204
 20
176.5114111212
 30
0.0
 10
242.4920330318
 20
179.1361097969
 30
0.0
 10
242.3577862054
 20
181.7608084678
 30
0.0
 10
242.0971356218
 20
183.4948408961
 30
0.0
 10
241.9290311191
 20
184.3559722254
 30
0.0
  0
SPLINE
  5
4C0
100
AcDbEntity
  8
0
100
AcDbSpline
 62
7
  6
CONTINUOUS
 70
0
 71
3
 72
11
 73
7
 74
0
 42
0.0000001
 43
0.0000001
 44
0.0000000001
 40
0.0
 40
0.0
 40
0.0
 40
0.0
 40
0.2500457849
 40
0.5000000008
 40
0.7499542166
 40
1.0
 40
1.0
 40
1.0
 40
1.0
 10
241.9290311191
 20
159.6553179672
 30
0.0
 10
242.0977361205
 20
160.835847286
 30
0.0
 10
242.3582625695
 20
163.2083892637
 30
0.0
 10
242.4918942517
 20
166.7857826707
 30
0.0
 10
242.3582625708
 20
170.363176071
 30
0.0
 10
242.0977361195
 20
172.7357180404
 30
0.0
 10
241.9290311191
 20
173.9162473524
 30
0.0
  0
SPLINE
  5
4C1
100
AcDbEntity
  8
0
100
AcDbSpline
 62
7
  6
CONTINUOUS
 70
0
 71
3
 72
9
 73
5
 74
0
 42
0.0000001
 43
0.0000001
 44
0.0000000001
 40
0.0
 40
0.0
 40
0.0
 40
0.0
 40
0.7498709243
 40
1.0
 40
1.0
 40
1.0
 40
1.0
 10
242.4383995591
 20
153.4541388292
 30
0.0
 10
242.4084256143
 20
155.0096380162
 30
0.0
 10
242.2670319682
 20
157.0837294872
 30
0.0
 10
242.0024468795
 20
159.1415841901
 30
0.0
 10
241.9290311191
 20
159.6553179672
 30
0.0
  0
LINE
  5
4C2
100
AcDbEntity
  8
RUNDUNGEN
100
AcDbLine
 62
7
  6
CONTINUOUS
 10
231.5240224633
 20
130.6907008745
 11
227.9240224633
 21
131.6553179672
  0
LINE
  5
4C3
100
AcDbEntity
  8
RUNDUNGEN
100
AcDbLine
 62
7
  6
CONTINUOUS
 10
234.5240224633
 20
135.8868532972
 11
230.9240224633
 21
136.8514703899
  0
SPLINE
  5
4C4
100
AcDbEntity
  8
RUNDUNGEN
100
AcDbSpline
 62
7
  6
CONTINUOUS
 70
0
 71
3
 72
13
 73
9
 74
0
 42
0.0000001
 43
0.0000001
 44
0.0000000001
 40
0.0
 40
0.0
 40
0.0
 40
0.0
 40
0.4034581053
 40
0.7048799357
 40
0.8164661575
 40
0.9021406781
 40
0.9625842093
 40
1.0
 40
1.0
 40
1.0
 40
1.0
 10
234.4093165809
 20
146.3788747579
 30
0.0
 10
234.3185870811
 20
146.4469159414
 30
0.0
 10
234.1576645696
 20
146.5625540652
 30
0.0
 10
233.9648103675
 20
146.6874623047
 30
0.0
 10
233.842668327
 20
146.7560861658
 30
0.0
 10
233.7772208945
 20
146.7878325595
 30
0.0
 10
233.7291584113
 20
146.8054617887
 30
0.0
 10
233.7008236332
 20
146.8099422367
 30
0.0
 10
233.6905901044
 20
146.8075159204
 30
0.0
  0
SPLINE
  5
4C5
100
AcDbEntity
  8
RUNDUNGEN
100
AcDbSpline
 62
7
  6
CONTINUOUS
 70
0
 71
3
 72
20
 73
16
 74
0
 42
0.0000001
 43
0.0000001
 44
0.0000000001
 40
0.0
 40
0.0
 40
0.0
 40
0.0
 40
0.066762716
 40
0.1315383532
 40
0.1625733031
 40
0.1925166262
 40
0.2500609887
 40
0.3071162558
 40
0.3649615807
 40
0.4240212923
 40
0.4843631524
 40
0.608397553
 40
0.736386747
 40
0.8672438518
 40
1.0
 40
1.0
 40
1.0
 40
1.0
 10
233.5831491783
 20
115.6535179672
 30
0.0
 10
233.3534087856
 20
115.6535179672
 30
0.0
 10
232.8987360256
 20
115.6182187764
 30
0.0
 10
232.3642525251
 20
115.4059992041
 30
0.0
 10
232.0366991624
 20
115.1169906181
 30
0.0
 10
231.8009135076
 20
114.779779686
 30
0.0
 10
231.6647768236
 20
114.2856196292
 30
0.0
 10
231.7133335472
 20
113.6862203411
 30
0.0
 10
231.9080614539
 20
113.1153161917
 30
0.0
 10
232.2120462788
 20
112.5831880522
 30
0.0
 10
232.7344895665
 20
111.9252069467
 30
0.0
 10
233.5573163056
 20
111.2184884937
 30
0.0
 10
234.7060111465
 20
110.5612815996
 30
0.0
 10
235.9701979524
 20
110.0811756
 30
0.0
 10
236.8572721215
 20
109.8775887031
 30
0.0
 10
237.3080608007
 20
109.8035179672
 30
0.0
  0
SPLINE
  5
4C6
100
AcDbEntity
  8
0
100
AcDbSpline
 62
7
  6
CONTINUOUS
 70
0
 71
3
 72
20
 73
16
 74
0
 42
0.0000001
 43
0.0000001
 44
0.0000000001
 40
0.0
 40
0.0
 40
0.0
 40
0.0
 40
0.066762716
 40
0.1315383532
 40
0.1625733031
 40
0.1925166262
 40
0.2500609887
 40
0.3071162558
 40
0.3649615807
 40
0.4240212923
 40
0.4843631524
 40
0.608397553
 40
0.736386747
 40
0.8672438518
 40
1.0
 40
1.0
 40
1.0
 40
1.0
 10
246.2648957482
 20
115.6535179672
 30
0.0
 10
246.494636141
 20
115.6535179672
 30
0.0
 10
246.949308901
 20
115.6182187764
 30
0.0
 10
247.4837924015
 20
115.4059992041
 30
0.0
 10
247.8113457641
 20
115.1169906181
 30
0.0
 10
248.047131419
 20
114.779779686
 30
0.0
 10
248.183268103
 20
114.2856196292
 30
0.0
 10
248.1347113794
 20
113.6862203411
 30
0.0
 10
247.9399834727
 20
113.1153161917
 30
0.0
 10
247.6359986477
 20
112.5831880522
 30
0.0
 10
247.1135553601
 20
111.9252069467
 30
0.0
 10
246.290728621
 20
111.2184884937
 30
0.0
 10
245.1420337801
 20
110.5612815996
 30
0.0
 10
243.8778469742
 20
110.0811756
 30
0.0
 10
242.990772805
 20
109.8775887031
 30
0.0
 10
242.5399841259
 20
109.8035179672
 30
0.0
  0
ELLIPSE
  5
4C7
100
AcDbEntity
  8
0
100
AcDbEllipse
 62
7
  6
CONTINUOUS
 10
246.0568899991
 20
140.9053179672
 30
0.0
 11
0.9758284841
 21
5.9793501608
 31
0.0
 40
0.5096845585
 41
0.5409540901
 42
1.6537856735
  0
ELLIPSE
  5
4C8
100
AcDbEntity
  8
RUNDUNGEN
100
AcDbEllipse
 62
7
  6
CONTINUOUS
 10
233.7911549274
 20
140.9053179672
 30
0.0
 11
-0.9758284841
 21
5.9793501608
 31
0.0
 40
0.5096845585
 41
-1.6537856735
 42
-0.5409540901
  0
ENDSEC
  0
SECTION
  2
OBJECTS
  0
DICTIONARY
  5
C
100
AcDbDictionary
280
0
281
1
  3
ACAD_GROUP
350
D
  3
ACAD_MLINESTYLE
350
17
  3
ACAD_LAYOUT
350
1A
  3
ACAD_PLOTSETTINGS
350
19
  3
ACAD_PLOTSTYLENAME
350
E
  0
DICTIONARY
  5
D
102
{ACAD_REACTORS
330
C
102
}
100
AcDbDictionary
280
0
281
1
  0
ACDBDICTIONARYWDFLT
  5
E
102
{ACAD_REACTORS
330
C
102
}
100
AcDbDictionary
281
1
  3
Normal
350
F
100
AcDbDictionaryWithDefault
340
F
  0
DICTIONARY
  5
17
102
{ACAD_REACTORS
330
C
102
}
100
AcDbDictionary
280
0
281
1
  3
Standard
350
18
  0
DICTIONARY
  5
19
102
{ACAD_REACTORS
330
C
102
}
100
AcDbDictionary
281
1
  0
DICTIONARY
  5
1A
102
{ACAD_REACTORS
330
C
102
}
100
AcDbDictionary
281
1
  3
Model
350
4C9
  3
Layout1
350
4CA
  0
ACDBPLACEHOLDER
  5
F
102
{ACAD_REACTORS
330
E
102
}
  0
MLINESTYLE
  5
18
102
{ACAD_REACTORS
330
17
102
}
100
AcDbMlineStyle
  2
STANDARD
 70
0
  3

 62
256
 51
90.0
 52
90.0
 71
2
 49
0.5
 62
256
  6
BYLAYER
 49
-0.5
 62
256
  6
BYLAYER
  0
LAYOUT
  5
4C9
102
{ACAD_REACTORS
330
1A
102
}
100
AcDbPlotSettings
  1

  2
none_device
  4
ISO_A1_(594.00_x_841.00_MM)
  6

 40
0.0
 41
0.0
 42
0.0
 43
0.0
 44
841.0
 45
594.0
 46
0.0
 47
0.0
 48
0.0
 49
0.0
140
0.0
141
0.0
142
1.0
143
1.0
 70
1024
 72
1
 73
0
 74
0
  7

 75
0
147
1.0
148
0.0
149
0.0
100
AcDbLayout
  1
Model
 70
0
 71
0
 10
0.0
 20
0.0
 11
841.0
 21
594.0
 12
0.0
 22
0.0
 32
0.0
 14
0.0
 24
0.0
 34
0.0
 15
0.0
 25
0.0
 35
0.0
146
0.0
 13
0.0
 23
0.0
 33
0.0
 16
1.0
 26
0.0
 36
0.0
 17
0.0
 27
1.0
 37
0.0
 76
0
330
20A
345
0
346
0
  0
LAYOUT
  5
4CA
102
{ACAD_REACTORS
330
1A
102
}
100
AcDbPlotSettings
  1

  2
none_device
  4
ISO_A1_(594.00_x_841.00_MM)
  6

 40
0.0
 41
0.0
 42
0.0
 43
0.0
 44
841.0
 45
594.0
 46
0.0
 47
0.0
 48
0.0
 49
0.0
140
0.0
141
0.0
142
1.0
143
1.0
 70
0
 72
1
 73
0
 74
0
  7

 75
0
147
1.0
148
0.0
149
0.0
100
AcDbLayout
  1
Layout1
 70
0
 71
1
 10
0.0
 20
0.0
 11
841.0
 21
594.0
 12
0.0
 22
0.0
 32
0.0
 14
0.0
 24
0.0
 34
0.0
 15
0.0
 25
0.0
 35
0.0
146
0.0
 13
0.0
 23
0.0
 33
0.0
 16
1.0
 26
0.0
 36
0.0
 17
0.0
 27
1.0
 37
0.0
 76
0
330
20B
345
0
346
0
  0
ENDSEC
  0
EOF
