999
DXF file: ISAK-RG-1-6_190_7903186_M34585-P-5.dxf
999
Pro/ENGINEER 2010140 by Parametric Technology Corporation
  0
SECTION
  2
HEADER
  9
$ACADVER
  1
AC1015
  9
$DWGCODEPAGE
  3
ANSI_1252
  9
$EXTMAX
 10
1189.0
 20
841.0
 30
0.0
  9
$EXTMIN
 10
0.0
 20
0.0
 30
0.0
  9
$LIMMIN
 10
0.0
 20
0.0
  9
$LIMMAX
 10
1189.0
 20
841.0
  9
$VIEWCTR
 10
594.5
 20
420.5
  9
$VIEWSIZE
 40
841.0
  9
$CLAYER
  8
0
  9
$LTSCALE
 40
65.395
  9
$CELTYPE
  6
BYLAYER
  9
$DIMSCALE
 40
1.0
  9
$DIMASZ
 40
3.5
  9
$DIMEXO
 40
7.43125
  9
$DIMDLI
 40
45.182
  9
$DIMEXE
 40
21.402
  9
$DIMCEN
 40
10.701
  9
$DIMLFAC
 40
1.0
  9
$DIMBLK
  1
_FILLED
  9
$DIMTXT
 40
3.5
  9
$DIMTOL
 70
1
  9
$DIMLIM
 70
0
  9
$DIMTFAC
 40
1.0
  9
$DIMTP
 40
0.005
  9
$DIMTM
 40
0.005
  9
$PDMODE
 70
3
  9
$PDSIZE
 40
0.3125
  9
$HANDSEED
  5
4D7
  9
$TILEMODE
 70
1
  9
$MEASUREMENT
 70
1
  9
$INSUNITS
 70
4
  0
ENDSEC
  0
SECTION
  2
CLASSES
  0
CLASS
  1
ACDBDICTIONARYWDFLT
  2
AcDbDictionaryWithDefault
  3
AutoCAD 2000
 90
0
280
0
281
0
  0
CLASS
  1
ACDBPLACEHOLDER
  2
AcDbPlaceHolder
  3
AutoCAD 2000
 90
0
280
0
281
0
  0
CLASS
  1
LAYOUT
  2
AcDbLayout
  3
AutoCAD 2000
 90
0
280
0
281
0
  0
ENDSEC
  0
SECTION
  2
TABLES
  0
TABLE
  2
VPORT
  5
8
100
AcDbSymbolTable
 70
2
  0
VPORT
  5
1F4
100
AcDbSymbolTableRecord
100
AcDbViewportTableRecord
  2
*ACTIVE
 70
0
 10
0.0
 20
0.0
 11
1.0
 21
1.0
 12
594.5
 22
420.5
 13
0.0
 23
0.0
 14
1.0
 24
1.0
 15
0.0
 25
0.0
 16
0.0
 26
0.0
 36
1.0
 17
0.0
 27
0.0
 37
0.0
 40
841.0
 41
1.4137931034
 42
50.0
 43
0.0
 44
0.0
 50
0.0
 51
0.0
 71
0
 72
100
 73
1
 74
1
 75
0
 76
0
 77
0
 78
0
  0
ENDTAB
  0
TABLE
  2
LTYPE
  5
5
100
AcDbSymbolTable
 70
6
  0
LTYPE
  5
14
100
AcDbSymbolTableRecord
100
AcDbLinetypeTableRecord
  2
BYBLOCK
 70
0
  3

 72
65
 73
0
 40
0.0
  0
LTYPE
  5
15
100
AcDbSymbolTableRecord
100
AcDbLinetypeTableRecord
  2
BYLAYER
 70
0
  3

 72
65
 73
0
 40
0.0
  0
LTYPE
  5
16
100
AcDbSymbolTableRecord
100
AcDbLinetypeTableRecord
  2
CONTINUOUS
 70
64
  3
Solid line
 72
65
 73
0
 40
0.0
  0
LTYPE
  5
1F5
100
AcDbSymbolTableRecord
100
AcDbLinetypeTableRecord
  2
CENTER
 70
64
  3
____ _ ____ _ ____ _ ____ _ ____ _ ____ _ ____
 72
65
 73
4
 40
0.6
 49
0.375
 74
0
 49
-0.075
 74
0
 49
0.075
 74
0
 49
-0.075
 74
0
  0
LTYPE
  5
1F6
100
AcDbSymbolTableRecord
100
AcDbLinetypeTableRecord
  2
HIDDEN
 70
64
  3
- - - - - - - - - - - - - - - - - - - -
 72
65
 73
2
 40
0.2
 49
0.1
 74
0
 49
-0.1
 74
0
  0
LTYPE
  5
1F7
100
AcDbSymbolTableRecord
100
AcDbLinetypeTableRecord
  2
PHANTOM
 70
64
  3
_____ _ _ _____ _ _ _____ _ _ _____
 72
65
 73
6
 40
0.8
 49
0.45
 74
0
 49
-0.05
 74
0
 49
0.1
 74
0
 49
-0.05
 74
0
 49
0.1
 74
0
 49
-0.05
 74
0
  0
LTYPE
  5
1F8
100
AcDbSymbolTableRecord
100
AcDbLinetypeTableRecord
  2
DOT
 70
64
  3
. . . . . . . . . . . . . . . . . . . .
 72
65
 73
2
 40
0.2
 49
0.1
 74
0
 49
-0.1
 74
0
  0
LTYPE
  5
1F9
100
AcDbSymbolTableRecord
100
AcDbLinetypeTableRecord
  2
DASHED
 70
64
  3
- - - - - - - - - - - - - - - - - - - -
 72
65
 73
2
 40
0.2
 49
0.1
 74
0
 49
-0.1
 74
0
  0
ENDTAB
  0
TABLE
  2
LAYER
  5
2
100
AcDbSymbolTable
 70
36
  0
LAYER
  5
10
100
AcDbSymbolTableRecord
100
AcDbLayerTableRecord
  2
0
 70
0
 62
7
  6
CONTINUOUS
370
-3
390
F
  0
LAYER
  5
1FA
100
AcDbSymbolTableRecord
100
AcDbLayerTableRecord
  2
DEFAULT_1
 70
0
 62
7
  6
CENTER
370
-3
390
F
  0
LAYER
  5
1FB
100
AcDbSymbolTableRecord
100
AcDbLayerTableRecord
  2
DEFAULT_2
 70
0
 62
8
  6
HIDDEN
370
-3
390
F
  0
LAYER
  5
1FC
100
AcDbSymbolTableRecord
100
AcDbLayerTableRecord
  2
DEFAULT_3
 70
0
 62
7
  6
PHANTOM
370
-3
390
F
  0
LAYER
  5
1FD
100
AcDbSymbolTableRecord
100
AcDbLayerTableRecord
  2
BEZUGSACHSEN
 70
0
 62
7
  6
CONTINUOUS
370
-3
390
F
  0
LAYER
  5
1FE
100
AcDbSymbolTableRecord
100
AcDbLayerTableRecord
  2
BEZUGSEBENEN
 70
0
 62
7
  6
CONTINUOUS
370
-3
390
F
  0
LAYER
  5
1FF
100
AcDbSymbolTableRecord
100
AcDbLayerTableRecord
  2
BG_STARTBEZUEGE
 70
0
 62
7
  6
CONTINUOUS
370
-3
390
F
  0
LAYER
  5
200
100
AcDbSymbolTableRecord
100
AcDbLayerTableRecord
  2
FASEN
 70
0
 62
7
  6
CONTINUOUS
370
-3
390
F
  0
LAYER
  5
201
100
AcDbSymbolTableRecord
100
AcDbLayerTableRecord
  2
HILFEN
 70
0
 62
7
  6
CONTINUOUS
370
-3
390
F
  0
LAYER
  5
202
100
AcDbSymbolTableRecord
100
AcDbLayerTableRecord
  2
KONSTRUKTIONSELEMENTE
 70
0
 62
7
  6
CONTINUOUS
370
-3
390
F
  0
LAYER
  5
203
100
AcDbSymbolTableRecord
100
AcDbLayerTableRecord
  2
NORM
 70
0
 62
7
  6
CONTINUOUS
370
-3
390
F
  0
LAYER
  5
204
100
AcDbSymbolTableRecord
100
AcDbLayerTableRecord
  2
PLATZIERUNG
 70
0
 62
7
  6
CONTINUOUS
370
-3
390
F
  0
LAYER
  5
205
100
AcDbSymbolTableRecord
100
AcDbLayerTableRecord
  2
RUNDUNGEN
 70
0
 62
7
  6
CONTINUOUS
370
-3
390
F
  0
LAYER
  5
206
100
AcDbSymbolTableRecord
100
AcDbLayerTableRecord
  2
TEIL_STARTBEZUEGE
 70
0
 62
7
  6
CONTINUOUS
370
-3
390
F
  0
LAYER
  5
207
100
AcDbSymbolTableRecord
100
AcDbLayerTableRecord
  2
T_STARTBEZUEGE
 70
0
 62
7
  6
CONTINUOUS
370
-3
390
F
  0
ENDTAB
  0
TABLE
  2
STYLE
  5
3
100
AcDbSymbolTable
 70
1
  0
STYLE
  5
11
100
AcDbSymbolTableRecord
100
AcDbTextStyleTableRecord
  2
STANDARD
 70
0
 40
0.0
 41
0.7
 50
0.0
 71
0
 42
0.2
  3
txt
  4

  0
STYLE
  5
208
100
AcDbSymbolTableRecord
100
AcDbTextStyleTableRecord
  2
TEXTSTYLE_1
 70
0
 40
0.0
 41
0.8
 50
0.0
 71
0
 42
0.2
  3
gdt
  4

  0
ENDTAB
  0
TABLE
  2
VIEW
  5
6
100
AcDbSymbolTable
 70
0
  0
ENDTAB
  0
TABLE
  2
UCS
  5
7
100
AcDbSymbolTable
 70
0
  0
ENDTAB
  0
TABLE
  2
APPID
  5
9
100
AcDbSymbolTable
 70
1
  0
APPID
  5
209
100
AcDbSymbolTableRecord
100
AcDbRegAppTableRecord
  2
ACAD
 70
0
  0
ENDTAB
  0
TABLE
  2
BLOCK_RECORD
  5
1
100
AcDbSymbolTable
 70
0
  0
BLOCK_RECORD
  5
20A
100
AcDbSymbolTableRecord
100
AcDbBlockTableRecord
  2
*Model_Space
  0
BLOCK_RECORD
  5
20B
100
AcDbSymbolTableRecord
100
AcDbBlockTableRecord
  2
*Paper_Space
  0
ENDTAB
  0
TABLE
  2
DIMSTYLE
  5
A
100
AcDbSymbolTable
 70
1
100
AcDbDimStyleTable
 71
0
  0
DIMSTYLE
105
20C
100
AcDbSymbolTableRecord
100
AcDbDimStyleTableRecord
  2
STANDARD
 70
0
  3

  4

 40
1.0
 41
3.5
 42
0.0625
 43
0.38
 44
0.18
 45
0.0
 46
0.0
 47
0.005
 48
0.005
140
3.5
141
0.09
142
0.0
143
25.4
144
1.0
145
0.0
146
1.0
147
0.09
 71
1.0
 72
0.0
 73
0
 74
0
 75
0
 76
0
 77
1
 78
8
170
0
171
2
172
0
173
0
174
0
175
0
176
0
177
0
178
5
270
2
271
3
272
3
273
2
274
2
275
0
280
0
281
0
282
0
283
1
284
8
285
0
286
0
287
3
288
0
340
11
  0
ENDTAB
  0
ENDSEC
  0
SECTION
  2
BLOCKS
  0
BLOCK
  5
20
100
AcDbEntity
  8
0
100
AcDbBlockBegin
  2
*Model_Space
 70
0
 10
0.0
 20
0.0
 30
0.0
  3
*Model_Space
  1

  0
ENDBLK
  5
21
100
AcDbEntity
  8
0
100
AcDbBlockEnd
  0
BLOCK
  5
1C
100
AcDbEntity
  8
0
100
AcDbBlockBegin
  2
*Paper_Space
 70
0
 10
0.0
 20
0.0
 30
0.0
  3
*Paper_Space
  1

  0
ENDBLK
  5
1D
100
AcDbEntity
  8
0
100
AcDbBlockEnd
  0
ENDSEC
  0
SECTION
  2
ENTITIES
  0
MTEXT
  5
20D
100
AcDbEntity
  8
0
100
AcDbMText
 62
5
  6
CONTINUOUS
  7
STANDARD
 71
1
 72
1
 10
604.0192440685
 20
486.6825605822
 30
0.0
 11
0.0
 21
1.0
 31
0.0
 44
0.9
  1
RUD
 40
11.0
 41
29.3333333333
  0
MTEXT
  5
20E
100
AcDbEntity
  8
0
100
AcDbMText
 62
5
  6
CONTINUOUS
  7
STANDARD
 71
1
 72
1
 10
816.6109076335
 20
448.0299685747
 30
0.0
 11
0.0
 21
1.0
 31
0.0
 44
0.9
  1
ISAK-RG 1-6/190
 40
11.0
 41
124.4047619048
  0
MTEXT
  5
20F
100
AcDbEntity
  8
0
100
AcDbMText
 62
5
  6
CONTINUOUS
  7
STANDARD
 71
1
 72
1
 10
360.4397995984
 20
423.5010683584
 30
0.0
 11
0.0
 21
1.0
 31
0.0
 44
0.9
  1
RUD ISAK-RG 1-6/190
 40
11.0
 41
160.2857142857
  0
LINE
  5
210
100
AcDbEntity
  8
0
100
AcDbLine
 62
7
  6
CONTINUOUS
 10
0.0
 20
0.0
 11
0.0
 21
841.0
  0
LINE
  5
211
100
AcDbEntity
  8
0
100
AcDbLine
 62
7
  6
CONTINUOUS
 10
0.0
 20
0.0
 11
1189.0
 21
0.0
  0
LINE
  5
212
100
AcDbEntity
  8
0
100
AcDbLine
 62
7
  6
CONTINUOUS
 10
0.0
 20
841.0
 11
1189.0
 21
841.0
  0
LINE
  5
213
100
AcDbEntity
  8
0
100
AcDbLine
 62
7
  6
CONTINUOUS
 10
1189.0
 20
0.0
 11
1189.0
 21
841.0
  0
LINE
  5
214
100
AcDbEntity
  8
RUNDUNGEN
100
AcDbLine
 62
7
  6
CONTINUOUS
 10
698.2953975088
 20
127.0708788081
 11
699.4953975088
 21
127.0708788081
  0
LINE
  5
215
100
AcDbEntity
  8
RUNDUNGEN
100
AcDbLine
 62
7
  6
CONTINUOUS
 10
731.8953975088
 20
127.0708788081
 11
733.0953975088
 21
127.0708788081
  0
LINE
  5
216
100
AcDbEntity
  8
RUNDUNGEN
100
AcDbLine
 62
7
  6
CONTINUOUS
 10
702.7953975088
 20
132.1620476326
 11
707.1226178535
 21
132.1620476326
  0
LINE
  5
217
100
AcDbEntity
  8
RUNDUNGEN
100
AcDbLine
 62
7
  6
CONTINUOUS
 10
724.2681771641
 20
132.1620476326
 11
728.5953975088
 21
132.1620476326
  0
LINE
  5
218
100
AcDbEntity
  8
0
100
AcDbLine
 62
7
  6
CONTINUOUS
 10
707.3030368676
 20
156.7693636179
 11
710.1830368676
 21
156.7693636179
  0
LINE
  5
219
100
AcDbEntity
  8
0
100
AcDbLine
 62
7
  6
CONTINUOUS
 10
711.7105176485
 20
156.7693636179
 11
712.2865176485
 21
156.7693636179
  0
LINE
  5
21A
100
AcDbEntity
  8
0
100
AcDbLine
 62
7
  6
CONTINUOUS
 10
715.0302899987
 20
156.7693636179
 11
715.6953975088
 21
156.7693636179
  0
LINE
  5
21B
100
AcDbEntity
  8
0
100
AcDbLine
 62
7
  6
CONTINUOUS
 10
720.7069988649
 20
156.7693636179
 11
722.7937791054
 21
156.7693636179
  0
LINE
  5
21C
100
AcDbEntity
  8
0
100
AcDbLine
 62
7
  6
CONTINUOUS
 10
707.3030368676
 20
156.9814956523
 11
710.1830368676
 21
156.9814956523
  0
LINE
  5
21D
100
AcDbEntity
  8
0
100
AcDbLine
 62
7
  6
CONTINUOUS
 10
711.7105176485
 20
156.9814956523
 11
712.2865176485
 21
156.9814956523
  0
LINE
  5
21E
100
AcDbEntity
  8
0
100
AcDbLine
 62
7
  6
CONTINUOUS
 10
715.0302899987
 20
156.9814956523
 11
715.522192428
 21
156.9814956523
  0
LINE
  5
21F
100
AcDbEntity
  8
0
100
AcDbLine
 62
7
  6
CONTINUOUS
 10
720.7069988649
 20
156.9814956523
 11
722.7937791054
 21
156.9814956523
  0
LINE
  5
220
100
AcDbEntity
  8
0
100
AcDbLine
 62
7
  6
CONTINUOUS
 10
722.8064009922
 20
157.1936276866
 11
721.2829988649
 21
157.1936276866
  0
LINE
  5
221
100
AcDbEntity
  8
0
100
AcDbLine
 62
7
  6
CONTINUOUS
 10
709.1930368676
 20
157.2784805004
 11
708.2930368676
 21
157.2784805004
  0
LINE
  5
222
100
AcDbEntity
  8
0
100
AcDbLine
 62
7
  6
CONTINUOUS
 10
708.4550368676
 20
157.4693993313
 11
709.0310368676
 21
157.4693993313
  0
LINE
  5
223
100
AcDbEntity
  8
0
100
AcDbLine
 62
7
  6
CONTINUOUS
 10
708.4550368676
 20
157.6815313656
 11
709.0310368676
 21
157.6815313656
  0
LINE
  5
224
100
AcDbEntity
  8
0
100
AcDbLine
 62
7
  6
CONTINUOUS
 10
708.8060368676
 20
157.9785162137
 11
708.6800368676
 21
157.9785162137
  0
LINE
  5
225
100
AcDbEntity
  8
0
100
AcDbLine
 62
7
  6
CONTINUOUS
 10
709.0310368676
 20
158.1057954343
 11
708.8780368676
 21
158.1057954343
  0
LINE
  5
226
100
AcDbEntity
  8
0
100
AcDbLine
 62
7
  6
CONTINUOUS
 10
708.6080368676
 20
158.1057954343
 11
708.4550368676
 21
158.1057954343
  0
LINE
  5
227
100
AcDbEntity
  8
0
100
AcDbLine
 62
7
  6
CONTINUOUS
 10
708.2930368676
 20
158.2967142653
 11
708.6080368676
 21
158.2967142653
  0
LINE
  5
228
100
AcDbEntity
  8
0
100
AcDbLine
 62
7
  6
CONTINUOUS
 10
708.8780368676
 20
158.2967142653
 11
709.1930368676
 21
158.2967142653
  0
LINE
  5
229
100
AcDbEntity
  8
0
100
AcDbLine
 62
7
  6
CONTINUOUS
 10
712.2865176485
 20
158.3661521172
 11
713.7265176485
 21
158.3661521172
  0
LINE
  5
22A
100
AcDbEntity
  8
0
100
AcDbLine
 62
7
  6
CONTINUOUS
 10
708.2930368676
 20
158.5088462996
 11
708.6080368676
 21
158.5088462996
  0
LINE
  5
22B
100
AcDbEntity
  8
0
100
AcDbLine
 62
7
  6
CONTINUOUS
 10
708.8780368676
 20
158.5088462996
 11
709.1930368676
 21
158.5088462996
  0
LINE
  5
22C
100
AcDbEntity
  8
0
100
AcDbLine
 62
7
  6
CONTINUOUS
 10
709.1930368676
 20
158.5512727065
 11
708.8780368676
 21
158.5512727065
  0
LINE
  5
22D
100
AcDbEntity
  8
0
100
AcDbLine
 62
7
  6
CONTINUOUS
 10
708.6080368676
 20
158.5512727065
 11
708.2930368676
 21
158.5512727065
  0
LINE
  5
22E
100
AcDbEntity
  8
0
100
AcDbLine
 62
7
  6
CONTINUOUS
 10
712.2865176485
 20
158.5782841516
 11
713.7265176485
 21
158.5782841516
  0
LINE
  5
22F
100
AcDbEntity
  8
0
100
AcDbLine
 62
7
  6
CONTINUOUS
 10
708.4550368676
 20
158.7421915374
 11
708.6080368676
 21
158.7421915374
  0
LINE
  5
230
100
AcDbEntity
  8
0
100
AcDbLine
 62
7
  6
CONTINUOUS
 10
708.8780368676
 20
158.7421915374
 11
709.0310368676
 21
158.7421915374
  0
LINE
  5
231
100
AcDbEntity
  8
0
100
AcDbLine
 62
7
  6
CONTINUOUS
 10
713.9665176485
 20
158.7734456232
 11
712.2865176485
 21
158.7734456232
  0
LINE
  5
232
100
AcDbEntity
  8
0
100
AcDbLine
 62
7
  6
CONTINUOUS
 10
708.6800368676
 20
158.869470758
 11
708.8060368676
 21
158.869470758
  0
LINE
  5
233
100
AcDbEntity
  8
0
100
AcDbLine
 62
7
  6
CONTINUOUS
 10
708.4550368676
 20
158.9543235718
 11
708.6080368676
 21
158.9543235718
  0
LINE
  5
234
100
AcDbEntity
  8
0
100
AcDbLine
 62
7
  6
CONTINUOUS
 10
708.8780368676
 20
158.9543235718
 11
709.0310368676
 21
158.9543235718
  0
LINE
  5
235
100
AcDbEntity
  8
0
100
AcDbLine
 62
7
  6
CONTINUOUS
 10
708.6800368676
 20
159.0816027924
 11
708.8060368676
 21
159.0816027924
  0
LINE
  5
236
100
AcDbEntity
  8
0
100
AcDbLine
 62
7
  6
CONTINUOUS
 10
721.2829988649
 20
159.3149480302
 11
720.7069988649
 21
159.3149480302
  0
LINE
  5
237
100
AcDbEntity
  8
0
100
AcDbLine
 62
7
  6
CONTINUOUS
 10
712.2865176485
 20
159.3361612336
 11
711.7105176485
 21
159.3361612336
  0
LINE
  5
238
100
AcDbEntity
  8
0
100
AcDbLine
 62
7
  6
CONTINUOUS
 10
709.0310368676
 20
159.3785876405
 11
708.4550368676
 21
159.3785876405
  0
LINE
  5
239
100
AcDbEntity
  8
0
100
AcDbLine
 62
7
  6
CONTINUOUS
 10
708.2930368676
 20
159.5695064714
 11
709.1930368676
 21
159.5695064714
  0
LINE
  5
23A
100
AcDbEntity
  8
0
100
AcDbLine
 62
7
  6
CONTINUOUS
 10
720.7069988649
 20
159.6713298479
 11
722.8064009922
 21
159.6713298479
  0
LINE
  5
23B
100
AcDbEntity
  8
0
100
AcDbLine
 62
7
  6
CONTINUOUS
 10
711.7105176485
 20
159.6925430513
 11
713.9665176485
 21
159.6925430513
  0
LINE
  5
23C
100
AcDbEntity
  8
0
100
AcDbLine
 62
7
  6
CONTINUOUS
 10
708.2930368676
 20
159.7816385058
 11
709.1930368676
 21
159.7816385058
  0
LINE
  5
23D
100
AcDbEntity
  8
0
100
AcDbLine
 62
7
  6
CONTINUOUS
 10
720.7069988649
 20
159.8834618822
 11
722.8064009922
 21
159.8834618822
  0
LINE
  5
23E
100
AcDbEntity
  8
0
100
AcDbLine
 62
7
  6
CONTINUOUS
 10
711.7105176485
 20
159.9046750857
 11
713.9665176485
 21
159.9046750857
  0
LINE
  5
23F
100
AcDbEntity
  8
0
100
AcDbLine
 62
7
  6
CONTINUOUS
 10
722.7937791054
 20
160.0786233539
 11
720.7069988649
 21
160.0786233539
  0
LINE
  5
240
100
AcDbEntity
  8
0
100
AcDbLine
 62
7
  6
CONTINUOUS
 10
719.4469988649
 20
160.0786233539
 11
718.8709988649
 21
160.0786233539
  0
LINE
  5
241
100
AcDbEntity
  8
0
100
AcDbLine
 62
7
  6
CONTINUOUS
 10
716.6065176485
 20
160.0786233539
 11
716.0305176485
 21
160.0786233539
  0
LINE
  5
242
100
AcDbEntity
  8
0
100
AcDbLine
 62
7
  6
CONTINUOUS
 10
713.9665176485
 20
160.0786233539
 11
711.7105176485
 21
160.0786233539
  0
LINE
  5
243
100
AcDbEntity
  8
0
100
AcDbLine
 62
7
  6
CONTINUOUS
 10
710.1830368676
 20
160.0786233539
 11
707.3030368676
 21
160.0786233539
  0
LINE
  5
244
100
AcDbEntity
  8
RUNDUNGEN
100
AcDbLine
 62
7
  6
CONTINUOUS
 10
727.0012257681
 20
163.6038654883
 11
720.8575854359
 21
166.6457138959
  0
LINE
  5
245
100
AcDbEntity
  8
RUNDUNGEN
100
AcDbLine
 62
7
  6
CONTINUOUS
 10
720.8575854359
 20
170.1812478018
 11
727.0012257681
 21
167.1393993943
  0
LINE
  5
246
100
AcDbEntity
  8
RUNDUNGEN
100
AcDbLine
 62
7
  6
CONTINUOUS
 10
741.8060699959
 20
166.8429549283
 11
737.3007337524
 21
169.0736437605
  0
LINE
  5
247
100
AcDbEntity
  8
RUNDUNGEN
100
AcDbLine
 62
7
  6
CONTINUOUS
 10
741.8060699959
 20
170.3784888342
 11
737.3007337524
 21
172.6091776664
  0
LINE
  5
248
100
AcDbEntity
  8
RUNDUNGEN
100
AcDbLine
 62
7
  6
CONTINUOUS
 10
730.182786431
 20
211.5425583369
 11
729.9453975088
 21
211.5331513382
  0
LINE
  5
249
100
AcDbEntity
  8
RUNDUNGEN
100
AcDbLine
 62
7
  6
CONTINUOUS
 10
729.9453975088
 20
211.5331513382
 11
726.5868436475
 21
211.5331513382
  0
LINE
  5
24A
100
AcDbEntity
  8
0
100
AcDbLine
 62
7
  6
CONTINUOUS
 10
726.5868436475
 20
211.5331513382
 11
726.4885491658
 21
211.5331513382
  0
LINE
  5
24B
100
AcDbEntity
  8
0
100
AcDbLine
 62
7
  6
CONTINUOUS
 10
704.9022458518
 20
211.5331513382
 11
704.80395137
 21
211.5331513382
  0
LINE
  5
24C
100
AcDbEntity
  8
RUNDUNGEN
100
AcDbLine
 62
7
  6
CONTINUOUS
 10
704.80395137
 20
211.5331513382
 11
701.4453975088
 21
211.5331513382
  0
LINE
  5
24D
100
AcDbEntity
  8
BEZUGSACHSEN
100
AcDbLine
 62
7
  6
CONTINUOUS
 10
711.9953975088
 20
217.6956513382
 11
719.3953975088
 21
217.6956513382
  0
LINE
  5
24E
100
AcDbEntity
  8
BEZUGSACHSEN
100
AcDbLine
 62
7
  6
CONTINUOUS
 10
711.9953975088
 20
219.9598530207
 11
719.3953975088
 21
219.9598530207
  0
LINE
  5
24F
100
AcDbEntity
  8
BEZUGSACHSEN
100
AcDbLine
 62
7
  6
CONTINUOUS
 10
711.9953975088
 20
223.9064496558
 11
719.3953975088
 21
223.9064496558
  0
LINE
  5
250
100
AcDbEntity
  8
BEZUGSACHSEN
100
AcDbLine
 62
7
  6
CONTINUOUS
 10
711.9953975088
 20
226.1706513382
 11
719.3953975088
 21
226.1706513382
  0
LINE
  5
251
100
AcDbEntity
  8
RUNDUNGEN
100
AcDbLine
 62
7
  6
CONTINUOUS
 10
701.4453975088
 20
227.5331513382
 11
711.9953975088
 21
227.5331513382
  0
LINE
  5
252
100
AcDbEntity
  8
RUNDUNGEN
100
AcDbLine
 62
7
  6
CONTINUOUS
 10
719.3953975088
 20
227.5331513382
 11
729.9453975088
 21
227.5331513382
  0
LINE
  5
253
100
AcDbEntity
  8
RUNDUNGEN
100
AcDbLine
 62
7
  6
CONTINUOUS
 10
701.4453975088
 20
211.5331513382
 11
701.2080085865
 21
211.5425583369
  0
LINE
  5
254
100
AcDbEntity
  8
RUNDUNGEN
100
AcDbLine
 62
7
  6
CONTINUOUS
 10
690.4863022864
 20
164.6996912446
 11
692.0349586645
 21
163.1357757382
  0
LINE
  5
255
100
AcDbEntity
  8
RUNDUNGEN
100
AcDbLine
 62
7
  6
CONTINUOUS
 10
696.508854868
 20
158.6177976085
 11
704.7561470759
 21
150.289243675
  0
LINE
  5
256
100
AcDbEntity
  8
RUNDUNGEN
100
AcDbLine
 62
7
  6
CONTINUOUS
 10
718.6443448682
 20
136.2642035241
 11
721.8107210312
 21
133.0666286132
  0
LINE
  5
257
100
AcDbEntity
  8
RUNDUNGEN
100
AcDbLine
 62
7
  6
CONTINUOUS
 10
699.0642012334
 20
161.9547277062
 11
697.3434719243
 21
163.6924116022
  0
LINE
  5
258
100
AcDbEntity
  8
0
100
AcDbLine
 62
7
  6
CONTINUOUS
 10
710.0041221287
 20
234.3764741898
 11
709.7657323561
 21
234.3156086651
  0
LINE
  5
259
100
AcDbEntity
  8
0
100
AcDbLine
 62
7
  6
CONTINUOUS
 10
707.1434424698
 20
234.3764741898
 11
706.9050523561
 21
234.3156086651
  0
LINE
  5
25A
100
AcDbEntity
  8
0
100
AcDbLine
 62
7
  6
CONTINUOUS
 10
728.411538156
 20
233.9504154745
 11
728.6710740227
 21
234.0112810045
  0
LINE
  5
25B
100
AcDbEntity
  8
0
100
AcDbLine
 62
7
  6
CONTINUOUS
 10
723.6879780747
 20
233.9504154745
 11
723.9475142385
 21
234.0112810045
  0
LINE
  5
25C
100
AcDbEntity
  8
0
100
AcDbLine
 62
7
  6
CONTINUOUS
 10
728.1520016952
 20
235.7763813848
 11
727.8924652345
 21
235.7155158601
  0
LINE
  5
25D
100
AcDbEntity
  8
0
100
AcDbLine
 62
7
  6
CONTINUOUS
 10
728.1520016952
 20
236.8110954745
 11
727.8924652345
 21
236.7502299499
  0
LINE
  5
25E
100
AcDbEntity
  8
0
100
AcDbLine
 62
7
  6
CONTINUOUS
 10
723.2208128018
 20
236.8110954745
 11
722.961276341
 21
236.7502299499
  0
LINE
  5
25F
100
AcDbEntity
  8
0
100
AcDbLine
 62
7
  6
CONTINUOUS
 10
709.7657323561
 20
233.9504154745
 11
710.0637200834
 21
234.0112810045
  0
LINE
  5
260
100
AcDbEntity
  8
0
100
AcDbLine
 62
7
  6
CONTINUOUS
 10
706.9050523561
 20
233.9504154745
 11
707.2030397424
 21
234.0112810045
  0
LINE
  5
261
100
AcDbEntity
  8
RUNDUNGEN
100
AcDbLine
 62
7
  6
CONTINUOUS
 10
729.9453975088
 20
231.8632783571
 11
719.2491051958
 21
231.8632783571
  0
LINE
  5
262
100
AcDbEntity
  8
RUNDUNGEN
100
AcDbLine
 62
7
  6
CONTINUOUS
 10
712.1416898217
 20
231.8632783571
 11
701.4453975088
 21
231.8632783571
  0
LINE
  5
263
100
AcDbEntity
  8
0
100
AcDbLine
 62
7
  6
CONTINUOUS
 10
702.9716173561
 20
233.9504154745
 11
703.3292023561
 21
233.9504154745
  0
LINE
  5
264
100
AcDbEntity
  8
0
100
AcDbLine
 62
7
  6
CONTINUOUS
 10
704.8191397993
 20
233.9504154745
 11
705.2363224129
 21
233.9504154745
  0
LINE
  5
265
100
AcDbEntity
  8
0
100
AcDbLine
 62
7
  6
CONTINUOUS
 10
706.6666622424
 20
233.9504154745
 11
706.9050523561
 21
233.9504154745
  0
LINE
  5
266
100
AcDbEntity
  8
0
100
AcDbLine
 62
7
  6
CONTINUOUS
 10
708.3353923561
 20
233.9504154745
 11
709.7657323561
 21
233.9504154745
  0
LINE
  5
267
100
AcDbEntity
  8
0
100
AcDbLine
 62
7
  6
CONTINUOUS
 10
719.2758615088
 20
233.9504154745
 11
719.5873050241
 21
233.9504154745
  0
LINE
  5
268
100
AcDbEntity
  8
0
100
AcDbLine
 62
7
  6
CONTINUOUS
 10
720.0025630198
 20
233.9504154745
 11
720.3140065351
 21
233.9504154745
  0
LINE
  5
269
100
AcDbEntity
  8
0
100
AcDbLine
 62
7
  6
CONTINUOUS
 10
721.6116878736
 20
233.9504154745
 11
721.9750387405
 21
233.9504154745
  0
LINE
  5
26A
100
AcDbEntity
  8
0
100
AcDbLine
 62
7
  6
CONTINUOUS
 10
723.2208128018
 20
233.9504154745
 11
723.6879780747
 21
233.9504154745
  0
LINE
  5
26B
100
AcDbEntity
  8
0
100
AcDbLine
 62
7
  6
CONTINUOUS
 10
728.1520016952
 20
233.9504154745
 11
728.411538156
 21
233.9504154745
  0
LINE
  5
26C
100
AcDbEntity
  8
0
100
AcDbLine
 62
7
  6
CONTINUOUS
 10
728.4634452105
 20
234.2547431404
 11
728.1000946407
 21
234.2547431404
  0
LINE
  5
26D
100
AcDbEntity
  8
0
100
AcDbLine
 62
7
  6
CONTINUOUS
 10
723.6879780747
 20
234.3156086651
 11
723.2208128018
 21
234.3156086651
  0
LINE
  5
26E
100
AcDbEntity
  8
0
100
AcDbLine
 62
7
  6
CONTINUOUS
 10
709.7657323561
 20
234.3156086651
 11
708.6929773561
 21
234.3156086651
  0
LINE
  5
26F
100
AcDbEntity
  8
0
100
AcDbLine
 62
7
  6
CONTINUOUS
 10
706.9050523561
 20
234.3156086651
 11
706.6666622424
 21
234.3156086651
  0
LINE
  5
270
100
AcDbEntity
  8
0
100
AcDbLine
 62
7
  6
CONTINUOUS
 10
723.6360707232
 20
235.1677261382
 11
724.1032359961
 21
235.1677261382
  0
LINE
  5
271
100
AcDbEntity
  8
0
100
AcDbLine
 62
7
  6
CONTINUOUS
 10
703.3292023561
 20
235.2285916629
 11
704.3423598277
 21
235.2285916629
  0
LINE
  5
272
100
AcDbEntity
  8
0
100
AcDbLine
 62
7
  6
CONTINUOUS
 10
720.3140065351
 20
235.2285916629
 11
721.1964298037
 21
235.2285916629
  0
LINE
  5
273
100
AcDbEntity
  8
0
100
AcDbLine
 62
7
  6
CONTINUOUS
 10
728.1000946407
 20
235.4720537615
 11
728.4634452105
 21
235.4720537615
  0
LINE
  5
274
100
AcDbEntity
  8
0
100
AcDbLine
 62
7
  6
CONTINUOUS
 10
724.4146795115
 20
235.5329192862
 11
723.6360707232
 21
235.5329192862
  0
LINE
  5
275
100
AcDbEntity
  8
0
100
AcDbLine
 62
7
  6
CONTINUOUS
 10
721.3002443583
 20
235.5937848108
 11
720.3140065351
 21
235.5937848108
  0
LINE
  5
276
100
AcDbEntity
  8
0
100
AcDbLine
 62
7
  6
CONTINUOUS
 10
704.4615547993
 20
235.5937848108
 11
703.3292023561
 21
235.5937848108
  0
LINE
  5
277
100
AcDbEntity
  8
0
100
AcDbLine
 62
7
  6
CONTINUOUS
 10
728.411538156
 20
235.7763813848
 11
728.1520016952
 21
235.7763813848
  0
LINE
  5
278
100
AcDbEntity
  8
0
100
AcDbLine
 62
7
  6
CONTINUOUS
 10
724.1032359961
 20
236.0807090081
 11
724.4146795115
 21
236.0807090081
  0
LINE
  5
279
100
AcDbEntity
  8
0
100
AcDbLine
 62
7
  6
CONTINUOUS
 10
728.8267957804
 20
236.1415747033
 11
729.0863322412
 21
236.1415747033
  0
LINE
  5
27A
100
AcDbEntity
  8
0
100
AcDbLine
 62
7
  6
CONTINUOUS
 10
708.6929773561
 20
236.4459023266
 11
709.7657323561
 21
236.4459023266
  0
LINE
  5
27B
100
AcDbEntity
  8
0
100
AcDbLine
 62
7
  6
CONTINUOUS
 10
723.2208128018
 20
236.4459023266
 11
723.6879780747
 21
236.4459023266
  0
LINE
  5
27C
100
AcDbEntity
  8
0
100
AcDbLine
 62
7
  6
CONTINUOUS
 10
703.3292023561
 20
236.5067678512
 11
704.4615547993
 21
236.5067678512
  0
LINE
  5
27D
100
AcDbEntity
  8
0
100
AcDbLine
 62
7
  6
CONTINUOUS
 10
720.3140065351
 20
236.5067678512
 11
721.3002443583
 21
236.5067678512
  0
LINE
  5
27E
100
AcDbEntity
  8
0
100
AcDbLine
 62
7
  6
CONTINUOUS
 10
728.1000946407
 20
236.5067678512
 11
728.411538156
 21
236.5067678512
  0
LINE
  5
27F
100
AcDbEntity
  8
0
100
AcDbLine
 62
7
  6
CONTINUOUS
 10
728.3596305074
 20
236.8110954745
 11
728.1520016952
 21
236.8110954745
  0
LINE
  5
280
100
AcDbEntity
  8
0
100
AcDbLine
 62
7
  6
CONTINUOUS
 10
723.6879780747
 20
236.8110954745
 11
723.2208128018
 21
236.8110954745
  0
LINE
  5
281
100
AcDbEntity
  8
0
100
AcDbLine
 62
7
  6
CONTINUOUS
 10
721.2483371553
 20
236.8110954745
 11
720.0025630198
 21
236.8110954745
  0
LINE
  5
282
100
AcDbEntity
  8
0
100
AcDbLine
 62
7
  6
CONTINUOUS
 10
719.5873050241
 20
236.8110954745
 11
719.2758615088
 21
236.8110954745
  0
LINE
  5
283
100
AcDbEntity
  8
0
100
AcDbLine
 62
7
  6
CONTINUOUS
 10
707.8586124698
 20
236.8110954745
 11
707.5010274698
 21
236.8110954745
  0
LINE
  5
284
100
AcDbEntity
  8
0
100
AcDbLine
 62
7
  6
CONTINUOUS
 10
709.7657323561
 20
236.8110954745
 11
708.3353923561
 21
236.8110954745
  0
LINE
  5
285
100
AcDbEntity
  8
0
100
AcDbLine
 62
7
  6
CONTINUOUS
 10
706.0706874698
 20
236.8110954745
 11
705.7131022993
 21
236.8110954745
  0
LINE
  5
286
100
AcDbEntity
  8
0
100
AcDbLine
 62
7
  6
CONTINUOUS
 10
704.4019573561
 20
236.8110954745
 11
702.9716173561
 21
236.8110954745
  0
LINE
  5
287
100
AcDbEntity
  8
RUNDUNGEN
100
AcDbLine
 62
7
  6
CONTINUOUS
 10
704.4540660766
 20
240.361578463
 11
703.4453975088
 21
240.361578463
  0
LINE
  5
288
100
AcDbEntity
  8
RUNDUNGEN
100
AcDbLine
 62
7
  6
CONTINUOUS
 10
726.9367289409
 20
240.361578463
 11
727.9457271811
 21
240.361578463
  0
LINE
  5
289
100
AcDbEntity
  8
RUNDUNGEN
100
AcDbLine
 62
7
  6
CONTINUOUS
 10
708.9130675256
 20
240.5331513382
 11
722.4777274919
 21
240.5331513382
  0
LINE
  5
28A
100
AcDbEntity
  8
0
100
AcDbLine
 62
7
  6
CONTINUOUS
 10
706.3686748561
 20
234.0112810045
 11
706.6666622424
 21
233.9504154745
  0
LINE
  5
28B
100
AcDbEntity
  8
0
100
AcDbLine
 62
7
  6
CONTINUOUS
 10
704.6999449129
 20
236.7502299499
 11
704.4019573561
 21
236.8110954745
  0
LINE
  5
28C
100
AcDbEntity
  8
0
100
AcDbLine
 62
7
  6
CONTINUOUS
 10
710.0637200834
 20
236.7502299499
 11
709.7657323561
 21
236.8110954745
  0
LINE
  5
28D
100
AcDbEntity
  8
0
100
AcDbLine
 62
7
  6
CONTINUOUS
 10
722.961276341
 20
234.0112810045
 11
723.2208128018
 21
233.9504154745
  0
LINE
  5
28E
100
AcDbEntity
  8
0
100
AcDbLine
 62
7
  6
CONTINUOUS
 10
727.8924652345
 20
234.0112810045
 11
728.1520016952
 21
233.9504154745
  0
LINE
  5
28F
100
AcDbEntity
  8
0
100
AcDbLine
 62
7
  6
CONTINUOUS
 10
721.507873319
 20
236.7502299499
 11
721.2483371553
 21
236.8110954745
  0
LINE
  5
290
100
AcDbEntity
  8
0
100
AcDbLine
 62
7
  6
CONTINUOUS
 10
723.9475142385
 20
236.7502299499
 11
723.6879780747
 21
236.8110954745
  0
LINE
  5
291
100
AcDbEntity
  8
0
100
AcDbLine
 62
7
  6
CONTINUOUS
 10
728.6710740227
 20
235.7155158601
 11
728.411538156
 21
235.7763813848
  0
LINE
  5
292
100
AcDbEntity
  8
0
100
AcDbLine
 62
7
  6
CONTINUOUS
 10
728.6191669682
 20
236.7502299499
 11
728.3596305074
 21
236.8110954745
  0
LINE
  5
293
100
AcDbEntity
  8
0
100
AcDbLine
 62
7
  6
CONTINUOUS
 10
706.6666622424
 20
234.3156086651
 11
706.4282724698
 21
234.3764741898
  0
LINE
  5
294
100
AcDbEntity
  8
0
100
AcDbLine
 62
7
  6
CONTINUOUS
 10
709.7657323561
 20
236.4459023266
 11
710.0041221287
 21
236.3850368019
  0
LINE
  5
295
100
AcDbEntity
  8
0
100
AcDbLine
 62
7
  6
CONTINUOUS
 10
723.2208128018
 20
234.3156086651
 11
723.0131836925
 21
234.3764741898
  0
LINE
  5
296
100
AcDbEntity
  8
0
100
AcDbLine
 62
7
  6
CONTINUOUS
 10
723.6879780747
 20
236.4459023266
 11
723.8956068869
 21
236.3850368019
  0
LINE
  5
297
100
AcDbEntity
  8
0
100
AcDbLine
 62
7
  6
CONTINUOUS
 10
704.4615547993
 20
236.5067678512
 11
704.6403472993
 21
236.4459023266
  0
LINE
  5
298
100
AcDbEntity
  8
0
100
AcDbLine
 62
7
  6
CONTINUOUS
 10
721.3002443583
 20
236.5067678512
 11
721.455966116
 21
236.4459023266
  0
LINE
  5
299
100
AcDbEntity
  8
0
100
AcDbLine
 62
7
  6
CONTINUOUS
 10
728.1000946407
 20
234.2547431404
 11
727.944372883
 21
234.3156086651
  0
LINE
  5
29A
100
AcDbEntity
  8
0
100
AcDbLine
 62
7
  6
CONTINUOUS
 10
706.1302847424
 20
234.1330120698
 11
706.3686748561
 21
234.0112810045
  0
LINE
  5
29B
100
AcDbEntity
  8
RUNDUNGEN
100
AcDbLine
 62
7
  6
CONTINUOUS
 10
735.5528536416
 20
133.9827294666
 11
726.6346479416
 21
142.9888074969
  0
LINE
  5
29C
100
AcDbEntity
  8
RUNDUNGEN
100
AcDbLine
 62
7
  6
CONTINUOUS
 10
703.8975680068
 20
165.9499190659
 11
703.1840089996
 21
166.67050887
  0
LINE
  5
29D
100
AcDbEntity
  8
RUNDUNGEN
100
AcDbLine
 62
7
  6
CONTINUOUS
 10
735.5528536416
 20
137.5182633725
 11
726.6346479416
 21
146.5243414028
  0
LINE
  5
29E
100
AcDbEntity
  8
RUNDUNGEN
100
AcDbLine
 62
7
  6
CONTINUOUS
 10
703.8975680068
 20
169.4854529718
 11
703.1840089996
 21
170.2060427759
  0
LINE
  5
29F
100
AcDbEntity
  8
0
100
AcDbLine
 62
7
  6
CONTINUOUS
 10
713.7265176485
 20
158.3661521172
 11
715.0302899987
 21
156.7693636179
  0
LINE
  5
2A0
100
AcDbEntity
  8
0
100
AcDbLine
 62
7
  6
CONTINUOUS
 10
713.7265176485
 20
158.5782841516
 11
715.0302899987
 21
156.9814956523
  0
LINE
  5
2A1
100
AcDbEntity
  8
0
100
AcDbLine
 62
7
  6
CONTINUOUS
 10
715.6953975088
 20
156.7693636179
 11
714.3398067599
 21
158.4296164353
  0
LINE
  5
2A2
100
AcDbEntity
  8
0
100
AcDbLine
 62
7
  6
CONTINUOUS
 10
728.4634452105
 20
235.4720537615
 11
728.6191669682
 21
235.4111882368
  0
LINE
  5
2A3
100
AcDbEntity
  8
0
100
AcDbLine
 62
7
  6
CONTINUOUS
 10
728.411538156
 20
236.5067678512
 11
728.5672599137
 21
236.4459023266
  0
LINE
  5
2A4
100
AcDbEntity
  8
0
100
AcDbLine
 62
7
  6
CONTINUOUS
 10
710.3021098561
 20
236.6284989005
 11
710.0637200834
 21
236.7502299499
  0
LINE
  5
2A5
100
AcDbEntity
  8
0
100
AcDbLine
 62
7
  6
CONTINUOUS
 10
722.7536475288
 20
234.1330120698
 11
722.961276341
 21
234.0112810045
  0
LINE
  5
2A6
100
AcDbEntity
  8
0
100
AcDbLine
 62
7
  6
CONTINUOUS
 10
724.1551433477
 20
236.6284989005
 11
723.9475142385
 21
236.7502299499
  0
LINE
  5
2A7
100
AcDbEntity
  8
0
100
AcDbLine
 62
7
  6
CONTINUOUS
 10
706.4282724698
 20
234.3764741898
 11
706.2494799698
 21
234.4982052817
  0
LINE
  5
2A8
100
AcDbEntity
  8
0
100
AcDbLine
 62
7
  6
CONTINUOUS
 10
710.0041221287
 20
236.3850368019
 11
710.1829146287
 21
236.2633057526
  0
LINE
  5
2A9
100
AcDbEntity
  8
0
100
AcDbLine
 62
7
  6
CONTINUOUS
 10
704.9383348561
 20
236.5676333759
 11
704.6999449129
 21
236.7502299499
  0
LINE
  5
2AA
100
AcDbEntity
  8
0
100
AcDbLine
 62
7
  6
CONTINUOUS
 10
709.1953975088
 20
272.0675575564
 11
704.3073595243
 21
270.7578117259
  0
LINE
  5
2AB
100
AcDbEntity
  8
0
100
AcDbLine
 62
7
  6
CONTINUOUS
 10
727.0834354933
 20
270.7578117259
 11
722.1953975088
 21
272.0675575564
  0
LINE
  5
2AC
100
AcDbEntity
  8
0
100
AcDbLine
 62
7
  6
CONTINUOUS
 10
727.6329293677
 20
234.1938775945
 11
727.8924652345
 21
234.0112810045
  0
LINE
  5
2AD
100
AcDbEntity
  8
0
100
AcDbLine
 62
7
  6
CONTINUOUS
 10
728.9306104835
 20
235.5329192862
 11
728.6710740227
 21
235.7155158601
  0
LINE
  5
2AE
100
AcDbEntity
  8
0
100
AcDbLine
 62
7
  6
CONTINUOUS
 10
728.878703429
 20
236.5676333759
 11
728.6191669682
 21
236.7502299499
  0
LINE
  5
2AF
100
AcDbEntity
  8
0
100
AcDbLine
 62
7
  6
CONTINUOUS
 10
723.0131836925
 20
234.3764741898
 11
722.8574619349
 21
234.4982052817
  0
LINE
  5
2B0
100
AcDbEntity
  8
0
100
AcDbLine
 62
7
  6
CONTINUOUS
 10
723.8956068869
 20
236.3850368019
 11
724.0513286446
 21
236.2633057526
  0
LINE
  5
2B1
100
AcDbEntity
  8
0
100
AcDbLine
 62
7
  6
CONTINUOUS
 10
727.944372883
 20
234.3156086651
 11
727.7886511254
 21
234.4373397144
  0
LINE
  5
2B2
100
AcDbEntity
  8
0
100
AcDbLine
 62
7
  6
CONTINUOUS
 10
728.6191669682
 20
235.4111882368
 11
728.7748887259
 21
235.2894571875
  0
LINE
  5
2B3
100
AcDbEntity
  8
0
100
AcDbLine
 62
7
  6
CONTINUOUS
 10
728.5672599137
 20
236.4459023266
 11
728.7229816713
 21
236.3241712772
  0
LINE
  5
2B4
100
AcDbEntity
  8
0
100
AcDbLine
 62
7
  6
CONTINUOUS
 10
721.7155024282
 20
236.5676333759
 11
721.507873319
 21
236.7502299499
  0
LINE
  5
2B5
100
AcDbEntity
  8
0
100
AcDbLine
 62
7
  6
CONTINUOUS
 10
705.8918949698
 20
234.3764741898
 11
706.1302847424
 21
234.1330120698
  0
LINE
  5
2B6
100
AcDbEntity
  8
0
100
AcDbLine
 62
7
  6
CONTINUOUS
 10
704.6403472993
 20
236.4459023266
 11
704.7595423561
 21
236.3241712772
  0
LINE
  5
2B7
100
AcDbEntity
  8
0
100
AcDbLine
 62
7
  6
CONTINUOUS
 10
710.5404996287
 20
236.3850368019
 11
710.3021098561
 21
236.6284989005
  0
LINE
  5
2B8
100
AcDbEntity
  8
0
100
AcDbLine
 62
7
  6
CONTINUOUS
 10
598.6953975088
 20
586.5331513382
 11
598.6953975088
 21
426.5331513382
  0
LINE
  5
2B9
100
AcDbEntity
  8
0
100
AcDbLine
 62
7
  6
CONTINUOUS
 10
722.5460184196
 20
234.3764741898
 11
722.7536475288
 21
234.1330120698
  0
LINE
  5
2BA
100
AcDbEntity
  8
0
100
AcDbLine
 62
7
  6
CONTINUOUS
 10
721.455966116
 20
236.4459023266
 11
721.5597806706
 21
236.3241712772
  0
LINE
  5
2BB
100
AcDbEntity
  8
0
100
AcDbLine
 62
7
  6
CONTINUOUS
 10
724.3627724569
 20
236.3850368019
 11
724.1551433477
 21
236.6284989005
  0
LINE
  5
2BC
100
AcDbEntity
  8
0
100
AcDbLine
 62
7
  6
CONTINUOUS
 10
728.7748887259
 20
235.2894571875
 11
728.878703429
 21
235.1677261382
  0
LINE
  5
2BD
100
AcDbEntity
  8
0
100
AcDbLine
 62
7
  6
CONTINUOUS
 10
729.0863322412
 20
235.3503227122
 11
728.9306104835
 21
235.5329192862
  0
LINE
  5
2BE
100
AcDbEntity
  8
0
100
AcDbLine
 62
7
  6
CONTINUOUS
 10
705.1171273561
 20
236.3241712772
 11
704.9383348561
 21
236.5676333759
  0
LINE
  5
2BF
100
AcDbEntity
  8
0
100
AcDbLine
 62
7
  6
CONTINUOUS
 10
706.2494799698
 20
234.4982052817
 11
706.1302847424
 21
234.6808018557
  0
LINE
  5
2C0
100
AcDbEntity
  8
0
100
AcDbLine
 62
7
  6
CONTINUOUS
 10
710.1829146287
 20
236.2633057526
 11
710.3021098561
 21
236.0807090081
  0
LINE
  5
2C1
100
AcDbEntity
  8
RUNDUNGEN
100
AcDbLine
 62
7
  6
CONTINUOUS
 10
701.2080085865
 20
211.5425583369
 11
698.4453975088
 21
216.0318013382
  0
LINE
  5
2C2
100
AcDbEntity
  8
0
100
AcDbLine
 62
7
  6
CONTINUOUS
 10
620.6953975088
 20
586.5331513382
 11
620.6953975088
 21
426.5331513382
  0
LINE
  5
2C3
100
AcDbEntity
  8
0
100
AcDbLine
 62
7
  6
CONTINUOUS
 10
735.4200578965
 20
262.4211893227
 11
727.0834354933
 21
270.7578117259
  0
LINE
  5
2C4
100
AcDbEntity
  8
0
100
AcDbLine
 62
7
  6
CONTINUOUS
 10
721.8712240374
 20
236.3241712772
 11
721.7155024282
 21
236.5676333759
  0
LINE
  5
2C5
100
AcDbEntity
  8
0
100
AcDbLine
 62
7
  6
CONTINUOUS
 10
727.4772076101
 20
234.4373397144
 11
727.6329293677
 21
234.1938775945
  0
LINE
  5
2C6
100
AcDbEntity
  8
0
100
AcDbLine
 62
7
  6
CONTINUOUS
 10
729.0344251866
 20
236.3241712772
 11
728.878703429
 21
236.5676333759
  0
LINE
  5
2C7
100
AcDbEntity
  8
0
100
AcDbLine
 62
7
  6
CONTINUOUS
 10
722.8574619349
 20
234.4982052817
 11
722.7536475288
 21
234.6808018557
  0
LINE
  5
2C8
100
AcDbEntity
  8
0
100
AcDbLine
 62
7
  6
CONTINUOUS
 10
705.7726999129
 20
234.619936331
 11
705.8918949698
 21
234.3764741898
  0
LINE
  5
2C9
100
AcDbEntity
  8
0
100
AcDbLine
 62
7
  6
CONTINUOUS
 10
710.6596948561
 20
236.1415747033
 11
710.5404996287
 21
236.3850368019
  0
LINE
  5
2CA
100
AcDbEntity
  8
0
100
AcDbLine
 62
7
  6
CONTINUOUS
 10
727.7886511254
 20
234.4373397144
 11
727.6848364223
 21
234.619936331
  0
LINE
  5
2CB
100
AcDbEntity
  8
0
100
AcDbLine
 62
7
  6
CONTINUOUS
 10
728.7229816713
 20
236.3241712772
 11
728.8267957804
 21
236.1415747033
  0
LINE
  5
2CC
100
AcDbEntity
  8
0
100
AcDbLine
 62
7
  6
CONTINUOUS
 10
722.4422040135
 20
234.619936331
 11
722.5460184196
 21
234.3764741898
  0
LINE
  5
2CD
100
AcDbEntity
  8
0
100
AcDbLine
 62
7
  6
CONTINUOUS
 10
705.2363224129
 20
233.9504154745
 11
704.6999449129
 21
235.3503227122
  0
LINE
  5
2CE
100
AcDbEntity
  8
0
100
AcDbLine
 62
7
  6
CONTINUOUS
 10
704.3423598277
 20
235.2285916629
 11
704.8191397993
 21
233.9504154745
  0
LINE
  5
2CF
100
AcDbEntity
  8
0
100
AcDbLine
 62
7
  6
CONTINUOUS
 10
704.7595423561
 20
236.3241712772
 11
704.8191397993
 21
236.1415747033
  0
LINE
  5
2D0
100
AcDbEntity
  8
0
100
AcDbLine
 62
7
  6
CONTINUOUS
 10
705.1767247993
 20
236.1415747033
 11
705.1171273561
 21
236.3241712772
  0
LINE
  5
2D1
100
AcDbEntity
  8
0
100
AcDbLine
 62
7
  6
CONTINUOUS
 10
695.9707371211
 20
235.17247335
 11
698.4453975088
 21
227.078223941
  0
LINE
  5
2D2
100
AcDbEntity
  8
0
100
AcDbLine
 62
7
  6
CONTINUOUS
 10
692.9193215397
 20
251.0331513382
 11
695.9707371211
 21
239.6451133537
  0
LINE
  5
2D3
100
AcDbEntity
  8
0
100
AcDbLine
 62
7
  6
CONTINUOUS
 10
727.3733929069
 20
234.7416673803
 11
727.4772076101
 21
234.4373397144
  0
LINE
  5
2D4
100
AcDbEntity
  8
0
100
AcDbLine
 62
7
  6
CONTINUOUS
 10
729.1901469443
 20
235.0459950889
 11
729.0863322412
 21
235.3503227122
  0
LINE
  5
2D5
100
AcDbEntity
  8
0
100
AcDbLine
 62
7
  6
CONTINUOUS
 10
721.9750387405
 20
233.9504154745
 11
721.507873319
 21
235.3503227122
  0
LINE
  5
2D6
100
AcDbEntity
  8
0
100
AcDbLine
 62
7
  6
CONTINUOUS
 10
721.1964298037
 20
235.2285916629
 11
721.6116878736
 21
233.9504154745
  0
LINE
  5
2D7
100
AcDbEntity
  8
0
100
AcDbLine
 62
7
  6
CONTINUOUS
 10
721.5597806706
 20
236.3241712772
 11
721.6116878736
 21
236.1415747033
  0
LINE
  5
2D8
100
AcDbEntity
  8
0
100
AcDbLine
 62
7
  6
CONTINUOUS
 10
721.9231313889
 20
236.1415747033
 11
721.8712240374
 21
236.3241712772
  0
LINE
  5
2D9
100
AcDbEntity
  8
0
100
AcDbLine
 62
7
  6
CONTINUOUS
 10
724.0513286446
 20
236.2633057526
 11
724.1032359961
 21
236.0807090081
  0
LINE
  5
2DA
100
AcDbEntity
  8
0
100
AcDbLine
 62
7
  6
CONTINUOUS
 10
706.1302847424
 20
234.6808018557
 11
706.0706874698
 21
234.9242639543
  0
LINE
  5
2DB
100
AcDbEntity
  8
0
100
AcDbLine
 62
7
  6
CONTINUOUS
 10
710.3021098561
 20
236.0807090081
 11
710.3617071287
 21
235.8372469095
  0
LINE
  5
2DC
100
AcDbEntity
  8
0
100
AcDbLine
 62
7
  6
CONTINUOUS
 10
705.7131022993
 20
234.9242639543
 11
705.7726999129
 21
234.619936331
  0
LINE
  5
2DD
100
AcDbEntity
  8
0
100
AcDbLine
 62
7
  6
CONTINUOUS
 10
710.7192921287
 20
235.8372469095
 11
710.6596948561
 21
236.1415747033
  0
LINE
  5
2DE
100
AcDbEntity
  8
RUNDUNGEN
100
AcDbLine
 62
7
  6
CONTINUOUS
 10
689.9437584192
 20
165.9164306076
 11
689.9437584192
 21
169.4519645136
  0
LINE
  5
2DF
100
AcDbEntity
  8
RUNDUNGEN
100
AcDbLine
 62
7
  6
CONTINUOUS
 10
695.2953975088
 20
129.1921991516
 11
695.2953975088
 21
136.3015240095
  0
LINE
  5
2E0
100
AcDbEntity
  8
0
100
AcDbLine
 62
7
  6
CONTINUOUS
 10
695.9707371211
 20
235.17247335
 11
695.9707371211
 21
239.6451133537
  0
LINE
  5
2E1
100
AcDbEntity
  8
RUNDUNGEN
100
AcDbLine
 62
7
  6
CONTINUOUS
 10
696.3460917079
 20
158.9828194174
 11
696.3460917079
 21
162.5183533234
  0
LINE
  5
2E2
100
AcDbEntity
  8
0
100
AcDbLine
 62
7
  6
CONTINUOUS
 10
727.6848364223
 20
234.619936331
 11
727.6329293677
 21
234.802532905
  0
LINE
  5
2E3
100
AcDbEntity
  8
0
100
AcDbLine
 62
7
  6
CONTINUOUS
 10
728.878703429
 20
235.1677261382
 11
728.9306104835
 21
234.985129479
  0
LINE
  5
2E4
100
AcDbEntity
  8
0
100
AcDbLine
 62
7
  6
CONTINUOUS
 10
729.0863322412
 20
236.1415747033
 11
729.0344251866
 21
236.3241712772
  0
LINE
  5
2E5
100
AcDbEntity
  8
0
100
AcDbLine
 62
7
  6
CONTINUOUS
 10
738.4714734778
 20
251.0331513382
 11
735.4200578965
 21
262.4211893227
  0
LINE
  5
2E6
100
AcDbEntity
  8
0
100
AcDbLine
 62
7
  6
CONTINUOUS
 10
722.7536475288
 20
234.6808018557
 11
722.7017401772
 21
234.9242639543
  0
LINE
  5
2E7
100
AcDbEntity
  8
0
100
AcDbLine
 62
7
  6
CONTINUOUS
 10
722.3902966619
 20
234.9242639543
 11
722.4422040135
 21
234.619936331
  0
LINE
  5
2E8
100
AcDbEntity
  8
0
100
AcDbLine
 62
7
  6
CONTINUOUS
 10
724.4146795115
 20
236.0807090081
 11
724.3627724569
 21
236.3850368019
  0
LINE
  5
2E9
100
AcDbEntity
  8
RUNDUNGEN
100
AcDbLine
 62
7
  6
CONTINUOUS
 10
698.4453975088
 20
216.0318013382
 11
698.4453975088
 21
235.5331513382
  0
LINE
  5
2EA
100
AcDbEntity
  8
RUNDUNGEN
100
AcDbLine
 62
7
  6
CONTINUOUS
 10
699.7953975088
 20
127.2830108424
 11
699.7953975088
 21
130.0407272891
  0
LINE
  5
2EB
100
AcDbEntity
  8
0
100
AcDbLine
 62
7
  6
CONTINUOUS
 10
702.9716173561
 20
236.8110954745
 11
702.9716173561
 21
233.9504154745
  0
LINE
  5
2EC
100
AcDbEntity
  8
0
100
AcDbLine
 62
7
  6
CONTINUOUS
 10
703.3292023561
 20
233.9504154745
 11
703.3292023561
 21
235.2285916629
  0
LINE
  5
2ED
100
AcDbEntity
  8
0
100
AcDbLine
 62
7
  6
CONTINUOUS
 10
703.3292023561
 20
235.5937848108
 11
703.3292023561
 21
236.5067678512
  0
LINE
  5
2EE
100
AcDbEntity
  8
0
100
AcDbLine
 62
7
  6
CONTINUOUS
 10
704.8191397993
 20
236.1415747033
 11
704.8191397993
 21
235.9589779588
  0
LINE
  5
2EF
100
AcDbEntity
  8
0
100
AcDbLine
 62
7
  6
CONTINUOUS
 10
705.1767247993
 20
235.8981124341
 11
705.1767247993
 21
236.1415747033
  0
LINE
  5
2F0
100
AcDbEntity
  8
0
100
AcDbLine
 62
7
  6
CONTINUOUS
 10
705.7131022993
 20
236.8110954745
 11
705.7131022993
 21
234.9242639543
  0
LINE
  5
2F1
100
AcDbEntity
  8
0
100
AcDbLine
 62
7
  6
CONTINUOUS
 10
706.0706874698
 20
234.9242639543
 11
706.0706874698
 21
236.8110954745
  0
LINE
  5
2F2
100
AcDbEntity
  8
0
100
AcDbLine
 62
7
  6
CONTINUOUS
 10
706.9430368676
 20
159.8240649126
 11
706.9430368676
 21
157.0239220591
  0
LINE
  5
2F3
100
AcDbEntity
  8
KONSTRUKTIONSELEMENTE
100
AcDbLine
 62
7
  6
CONTINUOUS
 10
707.064252046
 20
222.1241513382
 11
707.064252046
 21
223.4831513382
  0
LINE
  5
2F4
100
AcDbEntity
  8
0
100
AcDbLine
 62
7
  6
CONTINUOUS
 10
707.5010274698
 20
236.8110954745
 11
707.5010274698
 21
234.9242639543
  0
LINE
  5
2F5
100
AcDbEntity
  8
KONSTRUKTIONSELEMENTE
100
AcDbLine
 62
7
  6
CONTINUOUS
 10
707.6953975088
 20
183.4272892686
 11
707.6953975088
 21
194.0338909864
  0
LINE
  5
2F6
100
AcDbEntity
  8
0
100
AcDbLine
 62
7
  6
CONTINUOUS
 10
707.8586124698
 20
234.9242639543
 11
707.8586124698
 21
236.8110954745
  0
LINE
  5
2F7
100
AcDbEntity
  8
0
100
AcDbLine
 62
7
  6
CONTINUOUS
 10
708.1130368676
 20
157.405759721
 11
708.1130368676
 21
158.381567079
  0
LINE
  5
2F8
100
AcDbEntity
  8
0
100
AcDbLine
 62
7
  6
CONTINUOUS
 10
708.1130368676
 20
158.6785519271
 11
708.1130368676
 21
159.6543592851
  0
LINE
  5
2F9
100
AcDbEntity
  8
0
100
AcDbLine
 62
7
  6
CONTINUOUS
 10
708.3353923561
 20
236.8110954745
 11
708.3353923561
 21
233.9504154745
  0
LINE
  5
2FA
100
AcDbEntity
  8
0
100
AcDbLine
 62
7
  6
CONTINUOUS
 10
708.3830368676
 20
159.3276759522
 11
708.3830368676
 21
158.7931032257
  0
LINE
  5
2FB
100
AcDbEntity
  8
0
100
AcDbLine
 62
7
  6
CONTINUOUS
 10
708.3830368676
 20
158.0548837461
 11
708.3830368676
 21
157.5203110195
  0
LINE
  5
2FC
100
AcDbEntity
  8
0
100
AcDbLine
 62
7
  6
CONTINUOUS
 10
708.6080368676
 20
158.2967142653
 11
708.6080368676
 21
158.5512727065
  0
LINE
  5
2FD
100
AcDbEntity
  8
0
100
AcDbLine
 62
7
  6
CONTINUOUS
 10
708.6080368676
 20
158.7421915374
 11
708.6080368676
 21
159.0306911041
  0
LINE
  5
2FE
100
AcDbEntity
  8
0
100
AcDbLine
 62
7
  6
CONTINUOUS
 10
708.6080368676
 20
158.029427902
 11
708.6080368676
 21
158.1057954343
  0
LINE
  5
2FF
100
AcDbEntity
  8
0
100
AcDbLine
 62
7
  6
CONTINUOUS
 10
708.6929773561
 20
234.3156086651
 11
708.6929773561
 21
236.4459023266
  0
LINE
  5
300
100
AcDbEntity
  8
0
100
AcDbLine
 62
7
  6
CONTINUOUS
 10
708.8780368676
 20
158.5512727065
 11
708.8780368676
 21
158.2967142653
  0
LINE
  5
301
100
AcDbEntity
  8
0
100
AcDbLine
 62
7
  6
CONTINUOUS
 10
708.8780368676
 20
159.0306911041
 11
708.8780368676
 21
158.7421915374
  0
LINE
  5
302
100
AcDbEntity
  8
0
100
AcDbLine
 62
7
  6
CONTINUOUS
 10
708.8780368676
 20
158.1057954343
 11
708.8780368676
 21
158.029427902
  0
LINE
  5
303
100
AcDbEntity
  8
0
100
AcDbLine
 62
7
  6
CONTINUOUS
 10
709.1030368676
 20
157.5203110195
 11
709.1030368676
 21
158.0548837461
  0
LINE
  5
304
100
AcDbEntity
  8
0
100
AcDbLine
 62
7
  6
CONTINUOUS
 10
709.1030368676
 20
158.7931032257
 11
709.1030368676
 21
159.3276759522
  0
LINE
  5
305
100
AcDbEntity
  8
0
100
AcDbLine
 62
7
  6
CONTINUOUS
 10
709.1953975088
 20
337.9783674142
 11
709.1953975088
 21
255.0879352622
  0
LINE
  5
306
100
AcDbEntity
  8
0
100
AcDbLine
 62
7
  6
CONTINUOUS
 10
709.3730368676
 20
159.6543592851
 11
709.3730368676
 21
158.6785519271
  0
LINE
  5
307
100
AcDbEntity
  8
0
100
AcDbLine
 62
7
  6
CONTINUOUS
 10
709.3730368676
 20
158.381567079
 11
709.3730368676
 21
157.405759721
  0
LINE
  5
308
100
AcDbEntity
  8
0
100
AcDbLine
 62
7
  6
CONTINUOUS
 10
710.3617071287
 20
235.8372469095
 11
710.3617071287
 21
234.9242639543
  0
LINE
  5
309
100
AcDbEntity
  8
0
100
AcDbLine
 62
7
  6
CONTINUOUS
 10
710.5430368676
 20
157.0239220591
 11
710.5430368676
 21
159.8240649126
  0
LINE
  5
30A
100
AcDbEntity
  8
0
100
AcDbLine
 62
7
  6
CONTINUOUS
 10
710.7192921287
 20
234.9242639543
 11
710.7192921287
 21
235.8372469095
  0
LINE
  5
30B
100
AcDbEntity
  8
0
100
AcDbLine
 62
7
  6
CONTINUOUS
 10
711.7105176485
 20
159.3361612336
 11
711.7105176485
 21
156.7693636179
  0
LINE
  5
30C
100
AcDbEntity
  8
0
100
AcDbLine
 62
7
  6
CONTINUOUS
 10
711.7105176485
 20
160.0786233539
 11
711.7105176485
 21
159.6925430513
  0
LINE
  5
30D
100
AcDbEntity
  8
0
100
AcDbLine
 62
7
  6
CONTINUOUS
 10
711.9953975088
 20
222.1241513382
 11
711.9953975088
 21
214.1047965625
  0
LINE
  5
30E
100
AcDbEntity
  8
KONSTRUKTIONSELEMENTE
100
AcDbLine
 62
7
  6
CONTINUOUS
 10
711.9953975088
 20
222.1241513382
 11
711.9953975088
 21
230.8331513382
  0
LINE
  5
30F
100
AcDbEntity
  8
KONSTRUKTIONSELEMENTE
100
AcDbLine
 62
7
  6
CONTINUOUS
 10
712.1953975088
 20
183.4272892686
 11
712.1953975088
 21
194.0338909864
  0
LINE
  5
310
100
AcDbEntity
  8
KONSTRUKTIONSELEMENTE
100
AcDbLine
 62
7
  6
CONTINUOUS
 10
712.1953975088
 20
214.5399876408
 11
712.1953975088
 21
217.6956513382
  0
LINE
  5
311
100
AcDbEntity
  8
0
100
AcDbLine
 62
7
  6
CONTINUOUS
 10
712.2865176485
 20
156.7693636179
 11
712.2865176485
 21
158.5782841516
  0
LINE
  5
312
100
AcDbEntity
  8
0
100
AcDbLine
 62
7
  6
CONTINUOUS
 10
712.2865176485
 20
158.7734456232
 11
712.2865176485
 21
159.3361612336
  0
LINE
  5
313
100
AcDbEntity
  8
KONSTRUKTIONSELEMENTE
100
AcDbLine
 62
7
  6
CONTINUOUS
 10
713.1953975088
 20
162.6240623746
 11
713.1953975088
 21
185.0783193434
  0
LINE
  5
314
100
AcDbEntity
  8
KONSTRUKTIONSELEMENTE
100
AcDbLine
 62
7
  6
CONTINUOUS
 10
713.1953975088
 20
226.1706513382
 11
713.1953975088
 21
233.5595099185
  0
LINE
  5
315
100
AcDbEntity
  8
KONSTRUKTIONSELEMENTE
100
AcDbLine
 62
7
  6
CONTINUOUS
 10
713.1953975088
 20
240.8402260436
 11
713.1953975088
 21
246.243055916
  0
LINE
  5
316
100
AcDbEntity
  8
KONSTRUKTIONSELEMENTE
100
AcDbLine
 62
7
  6
CONTINUOUS
 10
713.4453975088
 20
193.2828305018
 11
713.4453975088
 21
215.2910481254
  0
LINE
  5
317
100
AcDbEntity
  8
0
100
AcDbLine
 62
7
  6
CONTINUOUS
 10
713.7265176485
 20
158.3661521172
 11
713.7265176485
 21
158.5782841516
  0
LINE
  5
318
100
AcDbEntity
  8
0
100
AcDbLine
 62
7
  6
CONTINUOUS
 10
714.3398067599
 20
158.4296164353
 11
714.3398067599
 21
158.6417484696
  0
LINE
  5
319
100
AcDbEntity
  8
0
100
AcDbLine
 62
7
  6
CONTINUOUS
 10
714.6164176725
 20
159.4451263716
 11
714.6164176725
 21
159.2329943373
  0
LINE
  5
31A
100
AcDbEntity
  8
0
100
AcDbLine
 62
7
  6
CONTINUOUS
 10
715.0302899987
 20
156.7693636179
 11
715.0302899987
 21
156.9814956523
  0
LINE
  5
31B
100
AcDbEntity
  8
0
100
AcDbLine
 62
7
  6
CONTINUOUS
 10
716.0305176485
 20
160.0786233539
 11
716.0305176485
 21
157.984810346
  0
LINE
  5
31C
100
AcDbEntity
  8
0
100
AcDbLine
 62
7
  6
CONTINUOUS
 10
716.6065176485
 20
157.984810346
 11
716.6065176485
 21
160.0786233539
  0
LINE
  5
31D
100
AcDbEntity
  8
KONSTRUKTIONSELEMENTE
100
AcDbLine
 62
7
  6
CONTINUOUS
 10
717.9453975088
 20
193.2828305018
 11
717.9453975088
 21
215.2910481254
  0
LINE
  5
31E
100
AcDbEntity
  8
KONSTRUKTIONSELEMENTE
100
AcDbLine
 62
7
  6
CONTINUOUS
 10
718.1953975088
 20
162.6240623746
 11
718.1953975088
 21
185.0783193434
  0
LINE
  5
31F
100
AcDbEntity
  8
KONSTRUKTIONSELEMENTE
100
AcDbLine
 62
7
  6
CONTINUOUS
 10
718.1953975088
 20
226.1706513382
 11
718.1953975088
 21
233.5595099185
  0
LINE
  5
320
100
AcDbEntity
  8
KONSTRUKTIONSELEMENTE
100
AcDbLine
 62
7
  6
CONTINUOUS
 10
718.1953975088
 20
240.8402260436
 11
718.1953975088
 21
246.243055916
  0
LINE
  5
321
100
AcDbEntity
  8
0
100
AcDbLine
 62
7
  6
CONTINUOUS
 10
727.3214858524
 20
235.1677261382
 11
727.3733929069
 21
234.7416673803
  0
LINE
  5
322
100
AcDbEntity
  8
0
100
AcDbLine
 62
7
  6
CONTINUOUS
 10
718.8709988649
 20
160.0786233539
 11
718.8709988649
 21
157.984810346
  0
LINE
  5
323
100
AcDbEntity
  8
KONSTRUKTIONSELEMENTE
100
AcDbLine
 62
7
  6
CONTINUOUS
 10
719.1953975088
 20
217.6956513382
 11
719.1953975088
 21
214.5399876408
  0
LINE
  5
324
100
AcDbEntity
  8
KONSTRUKTIONSELEMENTE
100
AcDbLine
 62
7
  6
CONTINUOUS
 10
719.1953975088
 20
194.0338909864
 11
719.1953975088
 21
183.4272892686
  0
LINE
  5
325
100
AcDbEntity
  8
0
100
AcDbLine
 62
7
  6
CONTINUOUS
 10
719.2758615088
 20
236.8110954745
 11
719.2758615088
 21
233.9504154745
  0
LINE
  5
326
100
AcDbEntity
  8
0
100
AcDbLine
 62
7
  6
CONTINUOUS
 10
719.3953975088
 20
214.1047965625
 11
719.3953975088
 21
222.1241513382
  0
LINE
  5
327
100
AcDbEntity
  8
KONSTRUKTIONSELEMENTE
100
AcDbLine
 62
7
  6
CONTINUOUS
 10
719.3953975088
 20
222.1241513382
 11
719.3953975088
 21
230.8331513382
  0
LINE
  5
328
100
AcDbEntity
  8
0
100
AcDbLine
 62
7
  6
CONTINUOUS
 10
719.4469988649
 20
157.984810346
 11
719.4469988649
 21
160.0786233539
  0
LINE
  5
329
100
AcDbEntity
  8
0
100
AcDbLine
 62
7
  6
CONTINUOUS
 10
719.5873050241
 20
233.9504154745
 11
719.5873050241
 21
236.8110954745
  0
LINE
  5
32A
100
AcDbEntity
  8
0
100
AcDbLine
 62
7
  6
CONTINUOUS
 10
720.0025630198
 20
236.8110954745
 11
720.0025630198
 21
233.9504154745
  0
LINE
  5
32B
100
AcDbEntity
  8
0
100
AcDbLine
 62
7
  6
CONTINUOUS
 10
720.3140065351
 20
233.9504154745
 11
720.3140065351
 21
235.2285916629
  0
LINE
  5
32C
100
AcDbEntity
  8
0
100
AcDbLine
 62
7
  6
CONTINUOUS
 10
720.3140065351
 20
235.5937848108
 11
720.3140065351
 21
236.5067678512
  0
LINE
  5
32D
100
AcDbEntity
  8
0
100
AcDbLine
 62
7
  6
CONTINUOUS
 10
720.7069988649
 20
160.0786233539
 11
720.7069988649
 21
159.6713298479
  0
LINE
  5
32E
100
AcDbEntity
  8
0
100
AcDbLine
 62
7
  6
CONTINUOUS
 10
720.7069988649
 20
159.3149480302
 11
720.7069988649
 21
156.7693636179
  0
LINE
  5
32F
100
AcDbEntity
  8
0
100
AcDbLine
 62
7
  6
CONTINUOUS
 10
721.2829988649
 20
157.1936276866
 11
721.2829988649
 21
159.3149480302
  0
LINE
  5
330
100
AcDbEntity
  8
0
100
AcDbLine
 62
7
  6
CONTINUOUS
 10
721.6116878736
 20
236.1415747033
 11
721.6116878736
 21
235.9589779588
  0
LINE
  5
331
100
AcDbEntity
  8
0
100
AcDbLine
 62
7
  6
CONTINUOUS
 10
721.9231313889
 20
235.8981124341
 11
721.9231313889
 21
236.1415747033
  0
LINE
  5
332
100
AcDbEntity
  8
0
100
AcDbLine
 62
7
  6
CONTINUOUS
 10
722.1953975088
 20
337.9783674142
 11
722.1953975088
 21
255.0879352622
  0
LINE
  5
333
100
AcDbEntity
  8
0
100
AcDbLine
 62
7
  6
CONTINUOUS
 10
722.3902966619
 20
235.8372469095
 11
722.3902966619
 21
234.9242639543
  0
LINE
  5
334
100
AcDbEntity
  8
0
100
AcDbLine
 62
7
  6
CONTINUOUS
 10
722.7017401772
 20
234.9242639543
 11
722.7017401772
 21
235.8372469095
  0
LINE
  5
335
100
AcDbEntity
  8
0
100
AcDbLine
 62
7
  6
CONTINUOUS
 10
723.6360707232
 20
235.5329192862
 11
723.6360707232
 21
235.1677261382
  0
LINE
  5
336
100
AcDbEntity
  8
KONSTRUKTIONSELEMENTE
100
AcDbLine
 62
7
  6
CONTINUOUS
 10
723.6953975088
 20
194.0338909864
 11
723.6953975088
 21
183.4272892686
  0
LINE
  5
337
100
AcDbEntity
  8
0
100
AcDbLine
 62
7
  6
CONTINUOUS
 10
723.7625671166
 20
158.6446108016
 11
723.7625671166
 21
158.4324787673
  0
LINE
  5
338
100
AcDbEntity
  8
0
100
AcDbLine
 62
7
  6
CONTINUOUS
 10
724.1032359961
 20
235.1677261382
 11
724.1032359961
 21
234.6808018557
  0
LINE
  5
339
100
AcDbEntity
  8
KONSTRUKTIONSELEMENTE
100
AcDbLine
 62
7
  6
CONTINUOUS
 10
724.3265429716
 20
222.1241513382
 11
724.3265429716
 21
223.4831513382
  0
LINE
  5
33A
100
AcDbEntity
  8
0
100
AcDbLine
 62
7
  6
CONTINUOUS
 10
724.4146795115
 20
234.619936331
 11
724.4146795115
 21
235.5329192862
  0
LINE
  5
33B
100
AcDbEntity
  8
0
100
AcDbLine
 62
7
  6
CONTINUOUS
 10
727.3214858524
 20
235.5937848108
 11
727.3214858524
 21
235.1677261382
  0
LINE
  5
33C
100
AcDbEntity
  8
0
100
AcDbLine
 62
7
  6
CONTINUOUS
 10
727.5810217191
 20
235.4720537615
 11
727.5810217191
 21
235.5937848108
  0
LINE
  5
33D
100
AcDbEntity
  8
0
100
AcDbLine
 62
7
  6
CONTINUOUS
 10
727.6329293677
 20
234.802532905
 11
727.6329293677
 21
234.985129479
  0
LINE
  5
33E
100
AcDbEntity
  8
0
100
AcDbLine
 62
7
  6
CONTINUOUS
 10
728.9306104835
 20
234.985129479
 11
728.9306104835
 21
234.802532905
  0
LINE
  5
33F
100
AcDbEntity
  8
0
100
AcDbLine
 62
7
  6
CONTINUOUS
 10
729.1901469443
 20
234.7416673803
 11
729.1901469443
 21
235.0459950889
  0
LINE
  5
340
100
AcDbEntity
  8
RUNDUNGEN
100
AcDbLine
 62
7
  6
CONTINUOUS
 10
731.5953975088
 20
130.0407272891
 11
731.5953975088
 21
127.2830108424
  0
LINE
  5
341
100
AcDbEntity
  8
RUNDUNGEN
100
AcDbLine
 62
7
  6
CONTINUOUS
 10
732.9453975088
 20
216.0318013382
 11
732.9453975088
 21
235.5331513382
  0
LINE
  5
342
100
AcDbEntity
  8
0
100
AcDbLine
 62
7
  6
CONTINUOUS
 10
735.4200578965
 20
235.17247335
 11
735.4200578965
 21
239.6451133537
  0
LINE
  5
343
100
AcDbEntity
  8
RUNDUNGEN
100
AcDbLine
 62
7
  6
CONTINUOUS
 10
736.0953975088
 20
129.1921991516
 11
736.0953975088
 21
136.3015240095
  0
LINE
  5
344
100
AcDbEntity
  8
0
100
AcDbLine
 62
7
  6
CONTINUOUS
 10
695.9707371211
 20
262.4211893227
 11
692.9193215397
 21
251.0331513382
  0
LINE
  5
345
100
AcDbEntity
  8
RUNDUNGEN
100
AcDbLine
 62
7
  6
CONTINUOUS
 10
742.2324935596
 20
166.263726963
 11
742.2324935596
 21
169.7992608689
  0
LINE
  5
346
100
AcDbEntity
  8
0
100
AcDbLine
 62
7
  6
CONTINUOUS
 10
727.3733929069
 20
236.0198434834
 11
727.3214858524
 21
235.5937848108
  0
LINE
  5
347
100
AcDbEntity
  8
0
100
AcDbLine
 62
7
  6
CONTINUOUS
 10
727.5810217191
 20
235.5937848108
 11
727.6329293677
 21
235.9589779588
  0
LINE
  5
348
100
AcDbEntity
  8
0
100
AcDbLine
 62
7
  6
CONTINUOUS
 10
722.4422040135
 20
236.1415747033
 11
722.3902966619
 21
235.8372469095
  0
LINE
  5
349
100
AcDbEntity
  8
0
100
AcDbLine
 62
7
  6
CONTINUOUS
 10
707.7990148561
 20
234.619936331
 11
707.8586124698
 21
234.9242639543
  0
LINE
  5
34A
100
AcDbEntity
  8
0
100
AcDbLine
 62
7
  6
CONTINUOUS
 10
710.6596948561
 20
234.619936331
 11
710.7192921287
 21
234.9242639543
  0
LINE
  5
34B
100
AcDbEntity
  8
0
100
AcDbLine
 62
7
  6
CONTINUOUS
 10
707.5010274698
 20
234.9242639543
 11
707.4414298561
 21
234.6808018557
  0
LINE
  5
34C
100
AcDbEntity
  8
0
100
AcDbLine
 62
7
  6
CONTINUOUS
 10
710.3617071287
 20
234.9242639543
 11
710.3021098561
 21
234.6808018557
  0
LINE
  5
34D
100
AcDbEntity
  8
0
100
AcDbLine
 62
7
  6
CONTINUOUS
 10
722.7017401772
 20
235.8372469095
 11
722.7536475288
 21
236.0807090081
  0
LINE
  5
34E
100
AcDbEntity
  8
0
100
AcDbLine
 62
7
  6
CONTINUOUS
 10
724.3627724569
 20
234.3764741898
 11
724.4146795115
 21
234.619936331
  0
LINE
  5
34F
100
AcDbEntity
  8
0
100
AcDbLine
 62
7
  6
CONTINUOUS
 10
735.4200578965
 20
239.6451133537
 11
738.4714734778
 21
251.0331513382
  0
LINE
  5
350
100
AcDbEntity
  8
0
100
AcDbLine
 62
7
  6
CONTINUOUS
 10
721.6116878736
 20
235.9589779588
 11
721.5597806706
 21
235.7763813848
  0
LINE
  5
351
100
AcDbEntity
  8
0
100
AcDbLine
 62
7
  6
CONTINUOUS
 10
721.8712240374
 20
235.7155158601
 11
721.9231313889
 21
235.8981124341
  0
LINE
  5
352
100
AcDbEntity
  8
0
100
AcDbLine
 62
7
  6
CONTINUOUS
 10
724.1032359961
 20
234.6808018557
 11
724.0513286446
 21
234.4982052817
  0
LINE
  5
353
100
AcDbEntity
  8
0
100
AcDbLine
 62
7
  6
CONTINUOUS
 10
727.6329293677
 20
235.9589779588
 11
727.6848364223
 21
236.1415747033
  0
LINE
  5
354
100
AcDbEntity
  8
0
100
AcDbLine
 62
7
  6
CONTINUOUS
 10
727.6329293677
 20
234.985129479
 11
727.6848364223
 21
235.1677261382
  0
LINE
  5
355
100
AcDbEntity
  8
0
100
AcDbLine
 62
7
  6
CONTINUOUS
 10
728.9306104835
 20
234.802532905
 11
728.878703429
 21
234.619936331
  0
LINE
  5
356
100
AcDbEntity
  8
0
100
AcDbLine
 62
7
  6
CONTINUOUS
 10
704.8191397993
 20
235.9589779588
 11
704.7595423561
 21
235.7763813848
  0
LINE
  5
357
100
AcDbEntity
  8
0
100
AcDbLine
 62
7
  6
CONTINUOUS
 10
705.1171273561
 20
235.7155158601
 11
705.1767247993
 21
235.8981124341
  0
LINE
  5
358
100
AcDbEntity
  8
0
100
AcDbLine
 62
7
  6
CONTINUOUS
 10
735.4200578965
 20
235.17247335
 11
732.9453975088
 21
227.078223941
  0
LINE
  5
359
100
AcDbEntity
  8
0
100
AcDbLine
 62
7
  6
CONTINUOUS
 10
727.4772076101
 20
236.3241712772
 11
727.3733929069
 21
236.0198434834
  0
LINE
  5
35A
100
AcDbEntity
  8
0
100
AcDbLine
 62
7
  6
CONTINUOUS
 10
729.0863322412
 20
234.4373397144
 11
729.1901469443
 21
234.7416673803
  0
LINE
  5
35B
100
AcDbEntity
  8
0
100
AcDbLine
 62
7
  6
CONTINUOUS
 10
722.5460184196
 20
236.3850368019
 11
722.4422040135
 21
236.1415747033
  0
LINE
  5
35C
100
AcDbEntity
  8
0
100
AcDbLine
 62
7
  6
CONTINUOUS
 10
707.6798199698
 20
234.3764741898
 11
707.7990148561
 21
234.619936331
  0
LINE
  5
35D
100
AcDbEntity
  8
0
100
AcDbLine
 62
7
  6
CONTINUOUS
 10
710.5404996287
 20
234.3764741898
 11
710.6596948561
 21
234.619936331
  0
LINE
  5
35E
100
AcDbEntity
  8
0
100
AcDbLine
 62
7
  6
CONTINUOUS
 10
810.6953975088
 20
426.5331513382
 11
810.6953975088
 21
586.5331513382
  0
LINE
  5
35F
100
AcDbEntity
  8
0
100
AcDbLine
 62
7
  6
CONTINUOUS
 10
722.7536475288
 20
236.0807090081
 11
722.8574619349
 21
236.2633057526
  0
LINE
  5
360
100
AcDbEntity
  8
0
100
AcDbLine
 62
7
  6
CONTINUOUS
 10
727.6848364223
 20
236.1415747033
 11
727.7886511254
 21
236.3241712772
  0
LINE
  5
361
100
AcDbEntity
  8
0
100
AcDbLine
 62
7
  6
CONTINUOUS
 10
728.878703429
 20
234.619936331
 11
728.7748887259
 21
234.4373397144
  0
LINE
  5
362
100
AcDbEntity
  8
0
100
AcDbLine
 62
7
  6
CONTINUOUS
 10
721.7155024282
 20
235.4720537615
 11
721.8712240374
 21
235.7155158601
  0
LINE
  5
363
100
AcDbEntity
  8
0
100
AcDbLine
 62
7
  6
CONTINUOUS
 10
727.6329293677
 20
236.5676333759
 11
727.4772076101
 21
236.3241712772
  0
LINE
  5
364
100
AcDbEntity
  8
0
100
AcDbLine
 62
7
  6
CONTINUOUS
 10
707.4414298561
 20
234.6808018557
 11
707.3222349698
 21
234.4982052817
  0
LINE
  5
365
100
AcDbEntity
  8
0
100
AcDbLine
 62
7
  6
CONTINUOUS
 10
710.3021098561
 20
234.6808018557
 11
710.1829146287
 21
234.4982052817
  0
LINE
  5
366
100
AcDbEntity
  8
0
100
AcDbLine
 62
7
  6
CONTINUOUS
 10
704.9383348561
 20
235.4720537615
 11
705.1171273561
 21
235.7155158601
  0
LINE
  5
367
100
AcDbEntity
  8
0
100
AcDbLine
 62
7
  6
CONTINUOUS
 10
704.3073595243
 20
270.7578117259
 11
695.9707371211
 21
262.4211893227
  0
LINE
  5
368
100
AcDbEntity
  8
0
100
AcDbLine
 62
7
  6
CONTINUOUS
 10
832.6953975088
 20
426.5331513382
 11
832.6953975088
 21
586.5331513382
  0
LINE
  5
369
100
AcDbEntity
  8
RUNDUNGEN
100
AcDbLine
 62
7
  6
CONTINUOUS
 10
732.9453975088
 20
216.0318013382
 11
730.182786431
 21
211.5425583369
  0
LINE
  5
36A
100
AcDbEntity
  8
0
100
AcDbLine
 62
7
  6
CONTINUOUS
 10
728.9306104835
 20
234.1938775945
 11
729.0863322412
 21
234.4373397144
  0
LINE
  5
36B
100
AcDbEntity
  8
0
100
AcDbLine
 62
7
  6
CONTINUOUS
 10
721.5597806706
 20
235.7763813848
 11
721.455966116
 21
235.6546503355
  0
LINE
  5
36C
100
AcDbEntity
  8
0
100
AcDbLine
 62
7
  6
CONTINUOUS
 10
722.7536475288
 20
236.6284989005
 11
722.5460184196
 21
236.3850368019
  0
LINE
  5
36D
100
AcDbEntity
  8
0
100
AcDbLine
 62
7
  6
CONTINUOUS
 10
724.1551433477
 20
234.1330120698
 11
724.3627724569
 21
234.3764741898
  0
LINE
  5
36E
100
AcDbEntity
  8
0
100
AcDbLine
 62
7
  6
CONTINUOUS
 10
727.6848364223
 20
235.1677261382
 11
727.7886511254
 21
235.2894571875
  0
LINE
  5
36F
100
AcDbEntity
  8
0
100
AcDbLine
 62
7
  6
CONTINUOUS
 10
704.7595423561
 20
235.7763813848
 11
704.6403472993
 21
235.6546503355
  0
LINE
  5
370
100
AcDbEntity
  8
0
100
AcDbLine
 62
7
  6
CONTINUOUS
 10
707.4414298561
 20
234.1330120698
 11
707.6798199698
 21
234.3764741898
  0
LINE
  5
371
100
AcDbEntity
  8
0
100
AcDbLine
 62
7
  6
CONTINUOUS
 10
710.3021098561
 20
234.1330120698
 11
710.5404996287
 21
234.3764741898
  0
LINE
  5
372
100
AcDbEntity
  8
0
100
AcDbLine
 62
7
  6
CONTINUOUS
 10
722.8574619349
 20
236.2633057526
 11
723.0131836925
 21
236.3850368019
  0
LINE
  5
373
100
AcDbEntity
  8
0
100
AcDbLine
 62
7
  6
CONTINUOUS
 10
724.0513286446
 20
234.4982052817
 11
723.8956068869
 21
234.3764741898
  0
LINE
  5
374
100
AcDbEntity
  8
0
100
AcDbLine
 62
7
  6
CONTINUOUS
 10
707.3222349698
 20
234.4982052817
 11
707.1434424698
 21
234.3764741898
  0
LINE
  5
375
100
AcDbEntity
  8
0
100
AcDbLine
 62
7
  6
CONTINUOUS
 10
710.1829146287
 20
234.4982052817
 11
710.0041221287
 21
234.3764741898
  0
LINE
  5
376
100
AcDbEntity
  8
0
100
AcDbLine
 62
7
  6
CONTINUOUS
 10
727.7886511254
 20
236.3241712772
 11
727.944372883
 21
236.4459023266
  0
LINE
  5
377
100
AcDbEntity
  8
0
100
AcDbLine
 62
7
  6
CONTINUOUS
 10
727.8924652345
 20
235.7155158601
 11
727.5810217191
 21
235.4720537615
  0
LINE
  5
378
100
AcDbEntity
  8
0
100
AcDbLine
 62
7
  6
CONTINUOUS
 10
727.7886511254
 20
235.2894571875
 11
727.944372883
 21
235.4111882368
  0
LINE
  5
379
100
AcDbEntity
  8
0
100
AcDbLine
 62
7
  6
CONTINUOUS
 10
728.7748887259
 20
234.4373397144
 11
728.6191669682
 21
234.3156086651
  0
LINE
  5
37A
100
AcDbEntity
  8
0
100
AcDbLine
 62
7
  6
CONTINUOUS
 10
727.8924652345
 20
236.7502299499
 11
727.6329293677
 21
236.5676333759
  0
LINE
  5
37B
100
AcDbEntity
  8
0
100
AcDbLine
 62
7
  6
CONTINUOUS
 10
728.6710740227
 20
234.0112810045
 11
728.9306104835
 21
234.1938775945
  0
LINE
  5
37C
100
AcDbEntity
  8
0
100
AcDbLine
 62
7
  6
CONTINUOUS
 10
722.961276341
 20
236.7502299499
 11
722.7536475288
 21
236.6284989005
  0
LINE
  5
37D
100
AcDbEntity
  8
0
100
AcDbLine
 62
7
  6
CONTINUOUS
 10
721.507873319
 20
235.3503227122
 11
721.7155024282
 21
235.4720537615
  0
LINE
  5
37E
100
AcDbEntity
  8
0
100
AcDbLine
 62
7
  6
CONTINUOUS
 10
723.9475142385
 20
234.0112810045
 11
724.1551433477
 21
234.1330120698
  0
LINE
  5
37F
100
AcDbEntity
  8
0
100
AcDbLine
 62
7
  6
CONTINUOUS
 10
704.6999449129
 20
235.3503227122
 11
704.9383348561
 21
235.4720537615
  0
LINE
  5
380
100
AcDbEntity
  8
0
100
AcDbLine
 62
7
  6
CONTINUOUS
 10
707.2030397424
 20
234.0112810045
 11
707.4414298561
 21
234.1330120698
  0
LINE
  5
381
100
AcDbEntity
  8
0
100
AcDbLine
 62
7
  6
CONTINUOUS
 10
710.0637200834
 20
234.0112810045
 11
710.3021098561
 21
234.1330120698
  0
LINE
  5
382
100
AcDbEntity
  8
0
100
AcDbLine
 62
7
  6
CONTINUOUS
 10
704.6403472993
 20
235.6546503355
 11
704.4615547993
 21
235.5937848108
  0
LINE
  5
383
100
AcDbEntity
  8
RUNDUNGEN
100
AcDbLine
 62
7
  6
CONTINUOUS
 10
704.7561470759
 20
146.5243414028
 11
695.8379413759
 21
137.5182633725
  0
LINE
  5
384
100
AcDbEntity
  8
RUNDUNGEN
100
AcDbLine
 62
7
  6
CONTINUOUS
 10
704.7561470759
 20
142.9888074969
 11
695.8379413759
 21
133.9827294666
  0
LINE
  5
385
100
AcDbEntity
  8
RUNDUNGEN
100
AcDbLine
 62
7
  6
CONTINUOUS
 10
731.17941121
 20
167.6603439273
 11
735.9080052717
 21
172.4355294888
  0
LINE
  5
386
100
AcDbEntity
  8
RUNDUNGEN
100
AcDbLine
 62
7
  6
CONTINUOUS
 10
731.17941121
 20
164.1248100213
 11
735.9080052717
 21
168.8999955828
  0
LINE
  5
387
100
AcDbEntity
  8
0
100
AcDbLine
 62
7
  6
CONTINUOUS
 10
721.455966116
 20
235.6546503355
 11
721.3002443583
 21
235.5937848108
  0
LINE
  5
388
100
AcDbEntity
  8
0
100
AcDbLine
 62
7
  6
CONTINUOUS
 10
727.944372883
 20
236.4459023266
 11
728.1000946407
 21
236.5067678512
  0
LINE
  5
389
100
AcDbEntity
  8
0
100
AcDbLine
 62
7
  6
CONTINUOUS
 10
727.944372883
 20
235.4111882368
 11
728.1000946407
 21
235.4720537615
  0
LINE
  5
38A
100
AcDbEntity
  8
0
100
AcDbLine
 62
7
  6
CONTINUOUS
 10
728.6191669682
 20
234.3156086651
 11
728.4634452105
 21
234.2547431404
  0
LINE
  5
38B
100
AcDbEntity
  8
0
100
AcDbLine
 62
7
  6
CONTINUOUS
 10
723.0131836925
 20
236.3850368019
 11
723.2208128018
 21
236.4459023266
  0
LINE
  5
38C
100
AcDbEntity
  8
0
100
AcDbLine
 62
7
  6
CONTINUOUS
 10
723.8956068869
 20
234.3764741898
 11
723.6879780747
 21
234.3156086651
  0
LINE
  5
38D
100
AcDbEntity
  8
RUNDUNGEN
100
AcDbLine
 62
7
  6
CONTINUOUS
 10
709.5800739863
 20
133.0666286132
 11
712.7464501493
 21
136.2642035241
  0
LINE
  5
38E
100
AcDbEntity
  8
RUNDUNGEN
100
AcDbLine
 62
7
  6
CONTINUOUS
 10
726.6346479416
 20
150.289243675
 11
742.0516456039
 21
165.8581471753
  0
LINE
  5
38F
100
AcDbEntity
  8
RUNDUNGEN
100
AcDbLine
 62
7
  6
CONTINUOUS
 10
692.0421811545
 20
171.5952281973
 11
691.2230291102
 21
171.1896484096
  0
LINE
  5
390
100
AcDbEntity
  8
RUNDUNGEN
100
AcDbLine
 62
7
  6
CONTINUOUS
 10
692.0421811545
 20
168.0596942913
 11
691.2230291102
 21
167.6541145036
  0
LINE
  5
391
100
AcDbEntity
  8
RUNDUNGEN
100
AcDbLine
 62
7
  6
CONTINUOUS
 10
695.2543792034
 20
163.9528838687
 11
693.2884142971
 21
162.9794923783
  0
LINE
  5
392
100
AcDbEntity
  8
RUNDUNGEN
100
AcDbLine
 62
7
  6
CONTINUOUS
 10
710.5332095816
 20
170.1812478018
 11
708.0757534487
 21
168.9645084388
  0
LINE
  5
393
100
AcDbEntity
  8
RUNDUNGEN
100
AcDbLine
 62
7
  6
CONTINUOUS
 10
696.7298729152
 20
163.0396584922
 11
697.5753343359
 21
163.4582646178
  0
LINE
  5
394
100
AcDbEntity
  8
RUNDUNGEN
100
AcDbLine
 62
7
  6
CONTINUOUS
 10
710.5332095816
 20
166.6457138959
 11
708.0757534487
 21
165.4289745329
  0
LINE
  5
395
100
AcDbEntity
  8
RUNDUNGEN
100
AcDbLine
 62
7
  6
CONTINUOUS
 10
696.7298729152
 20
159.5041245863
 11
698.6958378215
 21
160.4775160767
  0
LINE
  5
396
100
AcDbEntity
  8
0
100
AcDbLine
 62
7
  6
CONTINUOUS
 10
367.1885866866
 20
211.5331513382
 11
364.9885866866
 21
211.5331513382
  0
LINE
  5
397
100
AcDbEntity
  8
0
100
AcDbLine
 62
7
  6
CONTINUOUS
 10
364.9885866866
 20
211.5425583369
 11
367.1885866866
 21
211.5425583369
  0
LINE
  5
398
100
AcDbEntity
  8
0
100
AcDbLine
 62
7
  6
CONTINUOUS
 10
361.2550269673
 20
216.0318013382
 11
370.9221464059
 21
216.0318013382
  0
LINE
  5
399
100
AcDbEntity
  8
0
100
AcDbLine
 62
7
  6
CONTINUOUS
 10
364.7760866866
 20
227.078223941
 11
367.4010866866
 21
227.078223941
  0
LINE
  5
39A
100
AcDbEntity
  8
0
100
AcDbLine
 62
7
  6
CONTINUOUS
 10
367.4010866866
 20
235.17247335
 11
364.7760866866
 21
235.17247335
  0
LINE
  5
39B
100
AcDbEntity
  8
0
100
AcDbLine
 62
7
  6
CONTINUOUS
 10
368.11887038
 20
239.6451133537
 11
364.0583029932
 21
239.6451133537
  0
LINE
  5
39C
100
AcDbEntity
  8
0
100
AcDbLine
 62
7
  6
CONTINUOUS
 10
367.7984495692
 20
251.0331513382
 11
364.378723804
 21
251.0331513382
  0
LINE
  5
39D
100
AcDbEntity
  8
0
100
AcDbLine
 62
7
  6
CONTINUOUS
 10
367.7984495692
 20
262.4211893227
 11
364.378723804
 21
262.4211893227
  0
LINE
  5
39E
100
AcDbEntity
  8
0
100
AcDbLine
 62
7
  6
CONTINUOUS
 10
367.7984495692
 20
270.7578117259
 11
364.378723804
 21
270.7578117259
  0
LINE
  5
39F
100
AcDbEntity
  8
0
100
AcDbLine
 62
7
  6
CONTINUOUS
 10
364.378723804
 20
273.8092273072
 11
367.7984495692
 21
273.8092273072
  0
LINE
  5
3A0
100
AcDbEntity
  8
KONSTRUKTIONSELEMENTE
100
AcDbLine
 62
7
  6
CONTINUOUS
 10
468.1948058899
 20
162.9211926142
 11
459.7802351938
 21
171.3357633103
  0
LINE
  5
3A1
100
AcDbEntity
  8
KONSTRUKTIONSELEMENTE
100
AcDbLine
 62
7
  6
CONTINUOUS
 10
407.0300693173
 20
224.0859291869
 11
398.6154986212
 21
232.500499883
  0
LINE
  5
3A2
100
AcDbEntity
  8
KONSTRUKTIONSELEMENTE
100
AcDbLine
 62
7
  6
CONTINUOUS
 10
439.9812453206
 20
193.3267842052
 11
429.3746436028
 21
203.933385923
  0
LINE
  5
3A3
100
AcDbEntity
  8
KONSTRUKTIONSELEMENTE
100
AcDbLine
 62
7
  6
CONTINUOUS
 10
471.7303397959
 20
166.4567265202
 11
463.3157690998
 21
174.8712972163
  0
LINE
  5
3A4
100
AcDbEntity
  8
KONSTRUKTIONSELEMENTE
100
AcDbLine
 62
7
  6
CONTINUOUS
 10
410.5656032232
 20
227.6214630928
 11
402.1510325271
 21
236.0360337889
  0
LINE
  5
3A5
100
AcDbEntity
  8
KONSTRUKTIONSELEMENTE
100
AcDbLine
 62
7
  6
CONTINUOUS
 10
443.1632258359
 20
196.5087647206
 11
432.5566241181
 21
207.1153664384
  0
LINE
  5
3A6
100
AcDbEntity
  8
KONSTRUKTIONSELEMENTE
100
AcDbLine
 62
7
  6
CONTINUOUS
 10
373.8667612797
 20
266.5123360581
 11
402.8581393083
 21
237.5209580294
  0
LINE
  5
3A7
100
AcDbEntity
  8
RUNDUNGEN
100
AcDbLine
 62
7
  6
CONTINUOUS
 10
514.0153253108
 20
127.0708788081
 11
471.8847816305
 21
169.2014224883
  0
LINE
  5
3A8
100
AcDbEntity
  8
KONSTRUKTIONSELEMENTE
100
AcDbLine
 62
7
  6
CONTINUOUS
 10
413.8182944167
 20
227.6214630928
 11
432.5269793919
 21
208.9127781176
  0
LINE
  5
3A9
100
AcDbEntity
  8
KONSTRUKTIONSELEMENTE
100
AcDbLine
 62
7
  6
CONTINUOUS
 10
444.9309927889
 20
196.5087647206
 11
463.6396777641
 21
177.8000797454
  0
LINE
  5
3AA
100
AcDbEntity
  8
KONSTRUKTIONSELEMENTE
100
AcDbLine
 62
7
  6
CONTINUOUS
 10
417.000274932
 20
230.8034436081
 11
435.7089599072
 21
212.094758633
  0
LINE
  5
3AB
100
AcDbEntity
  8
KONSTRUKTIONSELEMENTE
100
AcDbLine
 62
7
  6
CONTINUOUS
 10
448.1129733042
 20
199.6907452359
 11
466.8216582794
 21
180.9820602607
  0
LINE
  5
3AC
100
AcDbEntity
  8
RUNDUNGEN
100
AcDbLine
 62
7
  6
CONTINUOUS
 10
475.420303292
 20
172.7369686387
 11
517.5508592168
 21
130.606412714
  0
LINE
  5
3AD
100
AcDbEntity
  8
KONSTRUKTIONSELEMENTE
100
AcDbLine
 62
7
  6
CONTINUOUS
 10
378.1094019668
 20
270.7549767452
 11
407.0512698682
 21
241.8131088437
  0
LINE
  5
3AE
100
AcDbEntity
  8
KONSTRUKTIONSELEMENTE
100
AcDbLine
 62
7
  6
CONTINUOUS
 10
437.5063715864
 20
212.0651139067
 11
448.1129733042
 21
201.4585121889
  0
LINE
  5
3AF
100
AcDbEntity
  8
KONSTRUKTIONSELEMENTE
100
AcDbLine
 62
7
  6
CONTINUOUS
 10
408.5857042359
 20
242.4707054977
 11
412.6162128887
 21
238.4401968449
  0
LINE
  5
3B0
100
AcDbEntity
  8
KONSTRUKTIONSELEMENTE
100
AcDbLine
 62
7
  6
CONTINUOUS
 10
412.9697662793
 20
238.0866434544
 11
417.000274932
 21
234.0561348016
  0
LINE
  5
3B1
100
AcDbEntity
  8
KONSTRUKTIONSELEMENTE
100
AcDbLine
 62
7
  6
CONTINUOUS
 10
469.7504408085
 20
181.3059689251
 11
473.7809494613
 21
177.2754602723
  0
LINE
  5
3B2
100
AcDbEntity
  8
KONSTRUKTIONSELEMENTE
100
AcDbLine
 62
7
  6
CONTINUOUS
 10
474.1345028519
 20
176.9219068817
 11
478.1650115047
 21
172.891398229
  0
LINE
  5
3B3
100
AcDbEntity
  8
KONSTRUKTIONSELEMENTE
100
AcDbLine
 62
7
  6
CONTINUOUS
 10
440.6883521018
 20
215.247094422
 11
451.2949538196
 21
204.6404927042
  0
LINE
  5
3B4
100
AcDbEntity
  8
KONSTRUKTIONSELEMENTE
100
AcDbLine
 62
7
  6
CONTINUOUS
 10
412.1212381418
 20
246.0062394036
 11
416.1517467946
 21
241.9757307509
  0
LINE
  5
3B5
100
AcDbEntity
  8
KONSTRUKTIONSELEMENTE
100
AcDbLine
 62
7
  6
CONTINUOUS
 10
416.5053001852
 20
241.6221773603
 11
420.535808838
 21
237.5916687075
  0
LINE
  5
3B6
100
AcDbEntity
  8
KONSTRUKTIONSELEMENTE
100
AcDbLine
 62
7
  6
CONTINUOUS
 10
473.2859747145
 20
184.841502831
 11
477.3164833672
 21
180.8109941782
  0
LINE
  5
3B7
100
AcDbEntity
  8
KONSTRUKTIONSELEMENTE
100
AcDbLine
 62
7
  6
CONTINUOUS
 10
477.6700367578
 20
180.4574407877
 11
481.7005454106
 21
176.4269321349
  0
LINE
  5
3B8
100
AcDbEntity
  8
0
100
AcDbLine
 62
7
  6
CONTINUOUS
 10
373.0885866866
 20
231.8632783571
 11
375.5885866866
 21
227.5331513382
  0
LINE
  5
3B9
100
AcDbEntity
  8
0
100
AcDbLine
 62
7
  6
CONTINUOUS
 10
370.4716980769
 20
268.9390471258
 11
367.7984495692
 21
273.8092273072
  0
LINE
  5
3BA
100
AcDbEntity
  8
0
100
AcDbLine
 62
7
  6
CONTINUOUS
 10
336.0885866866
 20
314.5331513382
 11
336.0885866866
 21
278.5331513382
  0
LINE
  5
3BB
100
AcDbEntity
  8
RUNDUNGEN
100
AcDbLine
 62
7
  6
CONTINUOUS
 10
364.7760866866
 20
227.078223941
 11
363.4192126682
 21
235.5331513382
  0
LINE
  5
3BC
100
AcDbEntity
  8
0
100
AcDbLine
 62
7
  6
CONTINUOUS
 10
364.7760866866
 20
235.17247335
 11
364.0583029932
 21
239.6451133537
  0
LINE
  5
3BD
100
AcDbEntity
  8
0
100
AcDbLine
 62
7
  6
CONTINUOUS
 10
363.9600954052
 20
244.5970531372
 11
364.0583029932
 21
239.6451133537
  0
LINE
  5
3BE
100
AcDbEntity
  8
0
100
AcDbLine
 62
7
  6
CONTINUOUS
 10
349.0885866866
 20
314.5331513382
 11
349.0885866866
 21
278.5331513382
  0
LINE
  5
3BF
100
AcDbEntity
  8
0
100
AcDbLine
 62
7
  6
CONTINUOUS
 10
355.0885866866
 20
320.5331513382
 11
355.0885866866
 21
692.5331513382
  0
LINE
  5
3C0
100
AcDbEntity
  8
RUNDUNGEN
100
AcDbLine
 62
7
  6
CONTINUOUS
 10
356.5885866866
 20
219.9331513382
 11
356.5885866866
 21
227.5331513382
  0
LINE
  5
3C1
100
AcDbEntity
  8
RUNDUNGEN
100
AcDbLine
 62
7
  6
CONTINUOUS
 10
359.0885866866
 20
231.8632783571
 11
359.0885866866
 21
237.5331513336
  0
LINE
  5
3C2
100
AcDbEntity
  8
BEZUGSACHSEN
100
AcDbLine
 62
7
  6
CONTINUOUS
 10
361.0885866866
 20
266.5331513382
 11
361.0885866866
 21
246.501389915
  0
LINE
  5
3C3
100
AcDbEntity
  8
RUNDUNGEN
100
AcDbLine
 62
7
  6
CONTINUOUS
 10
361.0885866866
 20
246.5011726231
 11
361.0885866866
 21
240.3133352108
  0
LINE
  5
3C4
100
AcDbEntity
  8
KONSTRUKTIONSELEMENTE
100
AcDbLine
 62
7
  6
CONTINUOUS
 10
361.0885866866
 20
240.3133352108
 11
361.0885866866
 21
246.501389915
  0
LINE
  5
3C5
100
AcDbEntity
  8
0
100
AcDbLine
 62
7
  6
CONTINUOUS
 10
364.7760866866
 20
235.17247335
 11
364.7760866866
 21
227.078223941
  0
LINE
  5
3C6
100
AcDbEntity
  8
0
100
AcDbLine
 62
7
  6
CONTINUOUS
 10
367.4010866866
 20
235.17247335
 11
367.4010866866
 21
227.078223941
  0
LINE
  5
3C7
100
AcDbEntity
  8
BEZUGSACHSEN
100
AcDbLine
 62
7
  6
CONTINUOUS
 10
371.0885866866
 20
266.5331513382
 11
371.0885866866
 21
246.501389915
  0
LINE
  5
3C8
100
AcDbEntity
  8
0
100
AcDbLine
 62
7
  6
CONTINUOUS
 10
371.0885866866
 20
246.501389915
 11
371.0885866866
 21
240.3133352108
  0
LINE
  5
3C9
100
AcDbEntity
  8
0
100
AcDbLine
 62
7
  6
CONTINUOUS
 10
373.0885866866
 20
237.5331513336
 11
373.0885866866
 21
231.8632783571
  0
LINE
  5
3CA
100
AcDbEntity
  8
0
100
AcDbLine
 62
7
  6
CONTINUOUS
 10
375.5885866866
 20
227.5331513382
 11
375.5885866866
 21
219.9331513382
  0
LINE
  5
3CB
100
AcDbEntity
  8
0
100
AcDbLine
 62
7
  6
CONTINUOUS
 10
377.0885866866
 20
320.5331513382
 11
377.0885866866
 21
692.5331513382
  0
LINE
  5
3CC
100
AcDbEntity
  8
0
100
AcDbLine
 62
7
  6
CONTINUOUS
 10
383.0885866866
 20
278.5331513382
 11
383.0885866866
 21
314.5331513382
  0
LINE
  5
3CD
100
AcDbEntity
  8
0
100
AcDbLine
 62
7
  6
CONTINUOUS
 10
368.217077968
 20
244.5970531372
 11
368.11887038
 21
239.6451133537
  0
LINE
  5
3CE
100
AcDbEntity
  8
0
100
AcDbLine
 62
7
  6
CONTINUOUS
 10
396.0885866866
 20
278.5331513382
 11
396.0885866866
 21
314.5331513382
  0
LINE
  5
3CF
100
AcDbEntity
  8
0
100
AcDbLine
 62
7
  6
CONTINUOUS
 10
367.4010866866
 20
235.17247335
 11
368.11887038
 21
239.6451133537
  0
LINE
  5
3D0
100
AcDbEntity
  8
0
100
AcDbLine
 62
7
  6
CONTINUOUS
 10
367.4010866866
 20
227.078223941
 11
368.757960705
 21
235.5331513382
  0
LINE
  5
3D1
100
AcDbEntity
  8
KONSTRUKTIONSELEMENTE
100
AcDbLine
 62
7
  6
CONTINUOUS
 10
364.378723804
 20
273.8092273072
 11
361.7054752963
 21
268.9390471258
  0
LINE
  5
3D2
100
AcDbEntity
  8
RUNDUNGEN
100
AcDbLine
 62
7
  6
CONTINUOUS
 10
359.0885866866
 20
231.8632783571
 11
356.5885866866
 21
227.5331513382
  0
LINE
  5
3D3
100
AcDbEntity
  8
KONSTRUKTIONSELEMENTE
100
AcDbLine
 62
7
  6
CONTINUOUS
 10
416.1517467946
 20
241.9757307509
 11
412.6162128887
 21
238.4401968449
  0
LINE
  5
3D4
100
AcDbEntity
  8
KONSTRUKTIONSELEMENTE
100
AcDbLine
 62
7
  6
CONTINUOUS
 10
416.5053001852
 20
241.6221773603
 11
412.9697662793
 21
238.0866434544
  0
LINE
  5
3D5
100
AcDbEntity
  8
KONSTRUKTIONSELEMENTE
100
AcDbLine
 62
7
  6
CONTINUOUS
 10
477.3164833672
 20
180.8109941782
 11
473.7809494613
 21
177.2754602723
  0
LINE
  5
3D6
100
AcDbEntity
  8
KONSTRUKTIONSELEMENTE
100
AcDbLine
 62
7
  6
CONTINUOUS
 10
477.6700367578
 20
180.4574407877
 11
474.1345028519
 21
176.9219068817
  0
LINE
  5
3D7
100
AcDbEntity
  8
RUNDUNGEN
100
AcDbLine
 62
7
  6
CONTINUOUS
 10
475.4202154485
 20
172.7370564823
 11
471.8846815425
 21
169.2015225763
  0
LINE
  5
3D8
100
AcDbEntity
  8
RUNDUNGEN
100
AcDbLine
 62
7
  6
CONTINUOUS
 10
514.0153253108
 20
127.0708788081
 11
517.5508592168
 21
130.606412714
  0
ARC
  5
3D9
100
AcDbEntity
  8
KONSTRUKTIONSELEMENTE
100
AcDbCircle
 62
7
  6
CONTINUOUS
 10
715.4702493634
 20
222.1582839054
 40
9.278155833
100
AcDbArc
 50
104.2144987627
 51
111.6730141175
  0
ARC
  5
3DA
100
AcDbEntity
  8
KONSTRUKTIONSELEMENTE
100
AcDbCircle
 62
7
  6
CONTINUOUS
 10
715.3498949301
 20
222.4715575248
 40
8.9425813635
100
AcDbArc
 50
111.8381223949
 51
112.0409123263
  0
ARC
  5
3DB
100
AcDbEntity
  8
RUNDUNGEN
100
AcDbCircle
 62
7
  6
CONTINUOUS
 10
703.4453975088
 20
235.5331513382
 40
5.0
100
AcDbArc
 50
135.1299088003
 51
180.0
  0
ARC
  5
3DC
100
AcDbEntity
  8
RUNDUNGEN
100
AcDbCircle
 62
7
  6
CONTINUOUS
 10
703.4453975088
 20
235.5331513382
 40
4.8284271247
100
AcDbArc
 50
90.0
 51
98.1061684603
  0
ARC
  5
3DD
100
AcDbEntity
  8
BEZUGSACHSEN
100
AcDbCircle
 62
7
  6
CONTINUOUS
 10
715.1940279302
 20
168.1287660808
 40
4.0565540436
100
AcDbArc
 50
239.8204512705
 51
240.4446380908
  0
ARC
  5
3DE
100
AcDbEntity
  8
RUNDUNGEN
100
AcDbCircle
 62
7
  6
CONTINUOUS
 10
701.4453975088
 20
214.5331513382
 40
3.0
100
AcDbArc
 50
265.4614607767
 51
270.0
  0
CIRCLE
  5
3DF
100
AcDbEntity
  8
BEZUGSACHSEN
100
AcDbCircle
 62
7
  6
CONTINUOUS
 10
704.6953975088
 20
221.9331513382
 40
1.5
  0
ARC
  5
3E0
100
AcDbEntity
  8
0
100
AcDbCircle
 62
7
  6
CONTINUOUS
 10
709.1929027299
 20
158.258670473
 40
0.2501758626
100
AcDbArc
 50
78.8903114983
 51
89.9692795104
  0
ARC
  5
3E1
100
AcDbEntity
  8
KONSTRUKTIONSELEMENTE
100
AcDbCircle
 62
7
  6
CONTINUOUS
 10
715.6953975088
 20
192.8306313382
 40
21.59352
100
AcDbArc
 50
59.9775906644
 51
80.1338135404
  0
ARC
  5
3E2
100
AcDbEntity
  8
KONSTRUKTIONSELEMENTE
100
AcDbCircle
 62
7
  6
CONTINUOUS
 10
715.6953975088
 20
192.8306313382
 40
21.59352
100
AcDbArc
 50
99.8661864596
 51
120.0224093356
  0
ARC
  5
3E3
100
AcDbEntity
  8
BEZUGSACHSEN
100
AcDbCircle
 62
7
  6
CONTINUOUS
 10
715.6953975088
 20
251.0331513382
 40
10.5
100
AcDbArc
 50
128.2550249251
 51
51.7449750749
  0
ARC
  5
3E4
100
AcDbEntity
  8
KONSTRUKTIONSELEMENTE
100
AcDbCircle
 62
7
  6
CONTINUOUS
 10
715.8870099622
 20
222.0550117549
 40
9.3864866155
100
AcDbArc
 50
68.194728592
 51
75.7361395262
  0
ARC
  5
3E5
100
AcDbEntity
  8
KONSTRUKTIONSELEMENTE
100
AcDbCircle
 62
7
  6
CONTINUOUS
 10
716.0432469844
 20
222.4778956089
 40
8.9358327386
100
AcDbArc
 50
67.9362825261
 51
68.1176377363
  0
ARC
  5
3E6
100
AcDbEntity
  8
0
100
AcDbCircle
 62
7
  6
CONTINUOUS
 10
715.6953975088
 20
338.0331513382
 40
6.5
100
AcDbArc
 50
0.0
 51
180.0
  0
ARC
  5
3E7
100
AcDbEntity
  8
0
100
AcDbCircle
 62
7
  6
CONTINUOUS
 10
715.6953975088
 20
255.0331513382
 40
6.5
100
AcDbArc
 50
180.0
 51
360.0
  0
ARC
  5
3E8
100
AcDbEntity
  8
RUNDUNGEN
100
AcDbCircle
 62
7
  6
CONTINUOUS
 10
727.9453975088
 20
235.5331513382
 40
5.0
100
AcDbArc
 50
0.0
 51
44.8700911997
  0
ARC
  5
3E9
100
AcDbEntity
  8
RUNDUNGEN
100
AcDbCircle
 62
7
  6
CONTINUOUS
 10
727.9453975088
 20
235.5331513382
 40
4.8284271247
100
AcDbArc
 50
81.8938367256
 51
89.996087995
  0
ARC
  5
3EA
100
AcDbEntity
  8
BEZUGSACHSEN
100
AcDbCircle
 62
7
  6
CONTINUOUS
 10
716.1967670878
 20
168.1287660799
 40
4.0565540426
100
AcDbArc
 50
299.555361909
 51
300.1795487294
  0
ARC
  5
3EB
100
AcDbEntity
  8
KONSTRUKTIONSELEMENTE
100
AcDbCircle
 62
7
  6
CONTINUOUS
 10
715.6953975088
 20
230.8331513382
 40
3.7
100
AcDbArc
 50
0.0
 51
180.0
  0
ARC
  5
3EC
100
AcDbEntity
  8
RUNDUNGEN
100
AcDbCircle
 62
7
  6
CONTINUOUS
 10
729.9453975088
 20
214.5331513382
 40
3.0
100
AcDbArc
 50
270.0
 51
274.5385392233
  0
ARC
  5
3ED
100
AcDbEntity
  8
KONSTRUKTIONSELEMENTE
100
AcDbCircle
 62
7
  6
CONTINUOUS
 10
715.6953975088
 20
162.6240623746
 40
2.5
100
AcDbArc
 50
180.0
 51
360.0
  0
ARC
  5
3EE
100
AcDbEntity
  8
KONSTRUKTIONSELEMENTE
100
AcDbCircle
 62
7
  6
CONTINUOUS
 10
715.6953975088
 20
185.1386330707
 40
2.5
100
AcDbArc
 50
0.0
 51
180.0
  0
ARC
  5
3EF
100
AcDbEntity
  8
KONSTRUKTIONSELEMENTE
100
AcDbCircle
 62
7
  6
CONTINUOUS
 10
715.6953975088
 20
246.3033696433
 40
2.5
100
AcDbArc
 50
0.0
 51
67.7415658431
  0
ARC
  5
3F0
100
AcDbEntity
  8
KONSTRUKTIONSELEMENTE
100
AcDbCircle
 62
7
  6
CONTINUOUS
 10
715.6953975088
 20
246.3033696433
 40
2.5
100
AcDbArc
 50
112.2584341569
 51
180.0
  0
ARC
  5
3F1
100
AcDbEntity
  8
KONSTRUKTIONSELEMENTE
100
AcDbCircle
 62
7
  6
CONTINUOUS
 10
715.6953975088
 20
193.2336384547
 40
2.25
100
AcDbArc
 50
180.0
 51
360.0
  0
ARC
  5
3F2
100
AcDbEntity
  8
KONSTRUKTIONSELEMENTE
100
AcDbCircle
 62
7
  6
CONTINUOUS
 10
715.6953975088
 20
215.3402401725
 40
2.25
100
AcDbArc
 50
0.0
 51
180.0
  0
ARC
  5
3F3
100
AcDbEntity
  8
0
100
AcDbCircle
 62
7
  6
CONTINUOUS
 10
723.1730671831
 20
158.6377288163
 40
1.2775271224
100
AcDbArc
 50
350.5636876715
 51
355.3957076164
  0
ARC
  5
3F4
100
AcDbEntity
  8
0
100
AcDbCircle
 62
7
  6
CONTINUOUS
 10
715.6953975088
 20
426.5331513382
 40
117.0
100
AcDbArc
 50
180.0
 51
266.8147356986
  0
ARC
  5
3F5
100
AcDbEntity
  8
0
100
AcDbCircle
 62
7
  6
CONTINUOUS
 10
715.6953975088
 20
426.5331513382
 40
117.0
100
AcDbArc
 50
273.1852643014
 51
360.0
  0
ARC
  5
3F6
100
AcDbEntity
  8
0
100
AcDbCircle
 62
7
  6
CONTINUOUS
 10
715.6953975088
 20
586.5331513382
 40
117.0
100
AcDbArc
 50
0.0
 51
180.0
  0
ARC
  5
3F7
100
AcDbEntity
  8
0
100
AcDbCircle
 62
7
  6
CONTINUOUS
 10
715.6953975088
 20
426.5331513382
 40
95.0
100
AcDbArc
 50
180.0
 51
266.0764479435
  0
ARC
  5
3F8
100
AcDbEntity
  8
0
100
AcDbCircle
 62
7
  6
CONTINUOUS
 10
715.6953975088
 20
426.5331513382
 40
95.0
100
AcDbArc
 50
273.9235520565
 51
360.0
  0
ARC
  5
3F9
100
AcDbEntity
  8
0
100
AcDbCircle
 62
7
  6
CONTINUOUS
 10
715.6953975088
 20
586.5331513382
 40
95.0
100
AcDbArc
 50
0.0
 51
180.0
  0
ARC
  5
3FA
100
AcDbEntity
  8
0
100
AcDbCircle
 62
7
  6
CONTINUOUS
 10
367.1885866866
 20
219.9331513382
 40
8.4
100
AcDbArc
 50
270.0
 51
360.0
  0
ARC
  5
3FB
100
AcDbEntity
  8
RUNDUNGEN
100
AcDbCircle
 62
7
  6
CONTINUOUS
 10
364.9885866866
 20
219.9331513382
 40
8.4
100
AcDbArc
 50
180.0
 51
270.0
  0
ARC
  5
3FC
100
AcDbEntity
  8
BEZUGSACHSEN
100
AcDbCircle
 62
7
  6
CONTINUOUS
 10
366.0885866866
 20
266.5331513382
 40
5.0
100
AcDbArc
 50
151.2375569983
 51
180.0
  0
ARC
  5
3FD
100
AcDbEntity
  8
BEZUGSACHSEN
100
AcDbCircle
 62
7
  6
CONTINUOUS
 10
366.0885866866
 20
266.5331513382
 40
5.0
100
AcDbArc
 50
0.0
 51
28.7624430017
  0
CIRCLE
  5
3FE
100
AcDbEntity
  8
BEZUGSACHSEN
100
AcDbCircle
 62
7
  6
CONTINUOUS
 10
366.0885866866
 20
221.9331513382
 40
4.26795
  0
ARC
  5
3FF
100
AcDbEntity
  8
0
100
AcDbCircle
 62
7
  6
CONTINUOUS
 10
370.0885866866
 20
237.5331513382
 40
3.0
100
AcDbArc
 50
0.0000023923
 51
70.5287793655
  0
ARC
  5
400
100
AcDbEntity
  8
RUNDUNGEN
100
AcDbCircle
 62
7
  6
CONTINUOUS
 10
362.0885866866
 20
237.5331513382
 40
3.0
100
AcDbArc
 50
109.4712206345
 51
179.9999976077
  0
ARC
  5
401
100
AcDbEntity
  8
KONSTRUKTIONSELEMENTE
100
AcDbCircle
 62
7
  6
CONTINUOUS
 10
375.9880816232
 20
268.6336564016
 40
3.0
100
AcDbArc
 50
45.0
 51
225.0
  0
ARC
  5
402
100
AcDbEntity
  8
0
100
AcDbCircle
 62
7
  6
CONTINUOUS
 10
366.0885866866
 20
278.5331513382
 40
30.0
100
AcDbArc
 50
180.0
 51
260.4020988194
  0
ARC
  5
403
100
AcDbEntity
  8
0
100
AcDbCircle
 62
7
  6
CONTINUOUS
 10
366.0885866866
 20
278.5331513382
 40
30.0
100
AcDbArc
 50
279.5979011806
 51
309.2568629674
  0
ARC
  5
404
100
AcDbEntity
  8
0
100
AcDbCircle
 62
7
  6
CONTINUOUS
 10
366.0885866866
 20
278.5331513382
 40
30.0
100
AcDbArc
 50
320.7431370326
 51
360.0
  0
ARC
  5
405
100
AcDbEntity
  8
0
100
AcDbCircle
 62
7
  6
CONTINUOUS
 10
366.0885866866
 20
314.5331513382
 40
30.0
100
AcDbArc
 50
0.0
 51
68.4784027518
  0
ARC
  5
406
100
AcDbEntity
  8
0
100
AcDbCircle
 62
7
  6
CONTINUOUS
 10
366.0885866866
 20
314.5331513382
 40
30.0
100
AcDbArc
 50
111.5215972482
 51
180.0
  0
ARC
  5
407
100
AcDbEntity
  8
0
100
AcDbCircle
 62
7
  6
CONTINUOUS
 10
366.0885866866
 20
278.5331513382
 40
17.0
100
AcDbArc
 50
180.0
 51
252.8871988399
  0
ARC
  5
408
100
AcDbEntity
  8
0
100
AcDbCircle
 62
7
  6
CONTINUOUS
 10
366.0885866866
 20
278.5331513382
 40
17.0
100
AcDbArc
 50
287.1128011601
 51
304.8292234506
  0
ARC
  5
409
100
AcDbEntity
  8
0
100
AcDbCircle
 62
7
  6
CONTINUOUS
 10
366.0885866866
 20
278.5331513382
 40
17.0
100
AcDbArc
 50
325.1707765494
 51
360.0
  0
ARC
  5
40A
100
AcDbEntity
  8
0
100
AcDbCircle
 62
7
  6
CONTINUOUS
 10
366.0885866866
 20
314.5331513382
 40
17.0
100
AcDbArc
 50
0.0
 51
49.6743597808
  0
ARC
  5
40B
100
AcDbEntity
  8
0
100
AcDbCircle
 62
7
  6
CONTINUOUS
 10
366.0885866866
 20
314.5331513382
 40
17.0
100
AcDbArc
 50
130.3256402192
 51
180.0
  0
ARC
  5
40C
100
AcDbEntity
  8
0
100
AcDbCircle
 62
7
  6
CONTINUOUS
 10
366.0885866866
 20
320.5331513382
 40
11.0
100
AcDbArc
 50
180.0
 51
360.0
  0
ARC
  5
40D
100
AcDbEntity
  8
KONSTRUKTIONSELEMENTE
100
AcDbCircle
 62
7
  6
CONTINUOUS
 10
413.7829390776
 20
230.8387989472
 40
9.55
100
AcDbArc
 50
328.6297070454
 51
45.0
  0
ARC
  5
40E
100
AcDbEntity
  8
KONSTRUKTIONSELEMENTE
100
AcDbCircle
 62
7
  6
CONTINUOUS
 10
413.7829390776
 20
230.8387989472
 40
9.55
100
AcDbArc
 50
225.0
 51
301.3702929546
  0
ARC
  5
40F
100
AcDbEntity
  8
KONSTRUKTIONSELEMENTE
100
AcDbCircle
 62
7
  6
CONTINUOUS
 10
405.3683683815
 20
239.2533696433
 40
9.55
100
AcDbArc
 50
153.3390960058
 51
225.0
  0
ARC
  5
410
100
AcDbEntity
  8
KONSTRUKTIONSELEMENTE
100
AcDbCircle
 62
7
  6
CONTINUOUS
 10
405.3683683815
 20
239.2533696433
 40
9.55
100
AcDbArc
 50
45.0
 51
116.6609039942
  0
ARC
  5
411
100
AcDbEntity
  8
KONSTRUKTIONSELEMENTE
100
AcDbCircle
 62
7
  6
CONTINUOUS
 10
413.7829390776
 20
230.8387989472
 40
4.55
100
AcDbArc
 50
344.6522021471
 51
45.0
  0
ARC
  5
412
100
AcDbEntity
  8
KONSTRUKTIONSELEMENTE
100
AcDbCircle
 62
7
  6
CONTINUOUS
 10
413.7829390776
 20
230.8387989472
 40
4.55
100
AcDbArc
 50
225.0
 51
285.3477978529
  0
ARC
  5
413
100
AcDbEntity
  8
KONSTRUKTIONSELEMENTE
100
AcDbCircle
 62
7
  6
CONTINUOUS
 10
405.3683683815
 20
239.2533696433
 40
4.55
100
AcDbArc
 50
176.2724010126
 51
225.0
  0
ARC
  5
414
100
AcDbEntity
  8
KONSTRUKTIONSELEMENTE
100
AcDbCircle
 62
7
  6
CONTINUOUS
 10
405.3683683815
 20
239.2533696433
 40
4.55
100
AcDbArc
 50
45.0
 51
93.7275989874
  0
ARC
  5
415
100
AcDbEntity
  8
KONSTRUKTIONSELEMENTE
100
AcDbCircle
 62
7
  6
CONTINUOUS
 10
404.9794596519
 20
239.642278373
 40
3.0
100
AcDbArc
 50
225.0
 51
45.0
  0
ARC
  5
416
100
AcDbEntity
  8
KONSTRUKTIONSELEMENTE
100
AcDbCircle
 62
7
  6
CONTINUOUS
 10
415.4092846744
 20
229.2124533505
 40
2.25
100
AcDbArc
 50
45.0
 51
225.0
  0
ARC
  5
417
100
AcDbEntity
  8
0
100
AcDbCircle
 62
7
  6
CONTINUOUS
 10
366.0885866866
 20
692.5331513382
 40
11.0
100
AcDbArc
 50
0.0
 51
180.0
  0
ARC
  5
418
100
AcDbEntity
  8
KONSTRUKTIONSELEMENTE
100
AcDbCircle
 62
7
  6
CONTINUOUS
 10
474.9476756503
 20
169.6740623746
 40
9.55
100
AcDbArc
 50
330.1951355235
 51
45.0
  0
ARC
  5
419
100
AcDbEntity
  8
KONSTRUKTIONSELEMENTE
100
AcDbCircle
 62
7
  6
CONTINUOUS
 10
474.9476756503
 20
169.6740623746
 40
9.55
100
AcDbArc
 50
225.0
 51
299.8048644765
  0
ARC
  5
41A
100
AcDbEntity
  8
KONSTRUKTIONSELEMENTE
100
AcDbCircle
 62
7
  6
CONTINUOUS
 10
466.5331049542
 20
178.0886330707
 40
9.55
100
AcDbArc
 50
148.6297070454
 51
225.0
  0
ARC
  5
41B
100
AcDbEntity
  8
KONSTRUKTIONSELEMENTE
100
AcDbCircle
 62
7
  6
CONTINUOUS
 10
466.5331049542
 20
178.0886330707
 40
9.55
100
AcDbArc
 50
45.0
 51
121.3702929546
  0
ARC
  5
41C
100
AcDbEntity
  8
KONSTRUKTIONSELEMENTE
100
AcDbCircle
 62
7
  6
CONTINUOUS
 10
445.6380995701
 20
198.9836384547
 40
8.0
100
AcDbArc
 50
331.3642958278
 51
45.0
  0
ARC
  5
41D
100
AcDbEntity
  8
KONSTRUKTIONSELEMENTE
100
AcDbCircle
 62
7
  6
CONTINUOUS
 10
445.6380995701
 20
198.9836384547
 40
8.0
100
AcDbArc
 50
225.0
 51
298.6357041722
  0
ARC
  5
41E
100
AcDbEntity
  8
KONSTRUKTIONSELEMENTE
100
AcDbCircle
 62
7
  6
CONTINUOUS
 10
435.0314978523
 20
209.5902401725
 40
8.0
100
AcDbArc
 50
151.3642958278
 51
225.0
  0
ARC
  5
41F
100
AcDbEntity
  8
KONSTRUKTIONSELEMENTE
100
AcDbCircle
 62
7
  6
CONTINUOUS
 10
435.0314978523
 20
209.5902401725
 40
8.0
100
AcDbArc
 50
45.0
 51
118.6357041722
  0
ARC
  5
420
100
AcDbEntity
  8
KONSTRUKTIONSELEMENTE
100
AcDbCircle
 62
7
  6
CONTINUOUS
 10
474.9476756503
 20
169.6740623746
 40
4.55
100
AcDbArc
 50
348.3583327703
 51
45.0
  0
ARC
  5
421
100
AcDbEntity
  8
KONSTRUKTIONSELEMENTE
100
AcDbCircle
 62
7
  6
CONTINUOUS
 10
474.9476756503
 20
169.6740623746
 40
4.55
100
AcDbArc
 50
225.0
 51
281.6416672297
  0
ARC
  5
422
100
AcDbEntity
  8
KONSTRUKTIONSELEMENTE
100
AcDbCircle
 62
7
  6
CONTINUOUS
 10
466.5331049542
 20
178.0886330707
 40
4.55
100
AcDbArc
 50
164.6522021471
 51
225.0
  0
ARC
  5
423
100
AcDbEntity
  8
KONSTRUKTIONSELEMENTE
100
AcDbCircle
 62
7
  6
CONTINUOUS
 10
466.5331049542
 20
178.0886330707
 40
4.55
100
AcDbArc
 50
45.0
 51
105.3477978529
  0
ARC
  5
424
100
AcDbEntity
  8
KONSTRUKTIONSELEMENTE
100
AcDbCircle
 62
7
  6
CONTINUOUS
 10
445.6380995701
 20
198.9836384547
 40
3.5
100
AcDbArc
 50
355.1538775079
 51
45.0
  0
ARC
  5
425
100
AcDbEntity
  8
KONSTRUKTIONSELEMENTE
100
AcDbCircle
 62
7
  6
CONTINUOUS
 10
445.6380995701
 20
198.9836384547
 40
3.5
100
AcDbArc
 50
225.0
 51
274.8461224921
  0
ARC
  5
426
100
AcDbEntity
  8
KONSTRUKTIONSELEMENTE
100
AcDbCircle
 62
7
  6
CONTINUOUS
 10
435.0314978523
 20
209.5902401725
 40
3.5
100
AcDbArc
 50
175.1538775079
 51
225.0
  0
ARC
  5
427
100
AcDbEntity
  8
KONSTRUKTIONSELEMENTE
100
AcDbCircle
 62
7
  6
CONTINUOUS
 10
435.0314978523
 20
209.5902401725
 40
3.5
100
AcDbArc
 50
45.0
 51
94.8461224921
  0
ARC
  5
428
100
AcDbEntity
  8
KONSTRUKTIONSELEMENTE
100
AcDbCircle
 62
7
  6
CONTINUOUS
 10
434.1476143758
 20
210.474123649
 40
2.25
100
AcDbArc
 50
225.0
 51
45.0
  0
ARC
  5
429
100
AcDbEntity
  8
KONSTRUKTIONSELEMENTE
100
AcDbCircle
 62
7
  6
CONTINUOUS
 10
446.5219830466
 20
198.0997549783
 40
2.25
100
AcDbArc
 50
45.0
 51
225.0
  0
ARC
  5
42A
100
AcDbEntity
  8
KONSTRUKTIONSELEMENTE
100
AcDbCircle
 62
7
  6
CONTINUOUS
 10
465.260312748
 20
179.3614252768
 40
2.25
100
AcDbArc
 50
225.0
 51
45.0
  0
SPLINE
  5
42B
100
AcDbEntity
  8
KONSTRUKTIONSELEMENTE
100
AcDbSpline
 62
7
  6
CONTINUOUS
 70
0
 71
3
 72
13
 73
9
 74
0
 42
0.0000001
 43
0.0000001
 44
0.0000000001
 40
0.0
 40
0.0
 40
0.0
 40
0.0
 40
0.1194785188
 40
0.2392741704
 40
0.3602835725
 40
0.4830059608
 40
0.7355440041
 40
1.0
 40
1.0
 40
1.0
 40
1.0
 10
707.6953975088
 20
194.0338909864
 30
0.0
 10
707.6953975088
 20
194.3925305977
 30
0.0
 10
707.7714929919
 20
195.1130372267
 30
0.0
 10
708.1070692196
 20
196.1485329824
 30
0.0
 10
708.6430536848
 20
197.1068526615
 30
0.0
 10
709.6007492505
 20
198.2572324224
 30
0.0
 10
711.1870678933
 20
199.3965749417
 30
0.0
 10
712.6671213357
 20
199.924100962
 30
0.0
 10
713.4412851883
 20
200.0996571071
 30
0.0
  0
SPLINE
  5
42C
100
AcDbEntity
  8
KONSTRUKTIONSELEMENTE
100
AcDbSpline
 62
7
  6
CONTINUOUS
 70
0
 71
3
 72
13
 73
9
 74
0
 42
0.0000001
 43
0.0000001
 44
0.0000000001
 40
0.0
 40
0.0
 40
0.0
 40
0.0
 40
0.2644681654
 40
0.5169944072
 40
0.6397129492
 40
0.760706397
 40
0.8805228501
 40
1.0
 40
1.0
 40
1.0
 40
1.0
 10
717.9475682876
 20
200.1000883194
 30
0.0
 10
718.7219656141
 20
199.9246082152
 30
0.0
 10
720.2024564617
 20
199.3972874865
 30
0.0
 10
721.7893068687
 20
198.2579350231
 30
0.0
 10
722.7472788281
 20
197.1074924742
 30
0.0
 10
723.2835955858
 20
196.1490706877
 30
0.0
 10
723.6192099224
 20
195.1133172752
 30
0.0
 10
723.6953975088
 20
194.3926052567
 30
0.0
 10
723.6953975088
 20
194.0338909864
 30
0.0
  0
SPLINE
  5
42D
100
AcDbEntity
  8
KONSTRUKTIONSELEMENTE
100
AcDbSpline
 62
7
  6
CONTINUOUS
 70
0
 71
3
 72
10
 73
6
 74
0
 42
0.0000001
 43
0.0000001
 44
0.0000000001
 40
0.0
 40
0.0
 40
0.0
 40
0.0
 40
0.3116645009
 40
0.6060899939
 40
1.0
 40
1.0
 40
1.0
 40
1.0
 10
712.1953975088
 20
194.0338909864
 30
0.0
 10
712.1953975088
 20
194.2310458329
 30
0.0
 10
712.3829260653
 20
194.6023720276
 30
0.0
 10
712.8402453349
 20
195.0362451173
 30
0.0
 10
713.2186466472
 20
195.2636551508
 30
0.0
 10
713.4434056205
 20
195.3712432818
 30
0.0
  0
SPLINE
  5
42E
100
AcDbEntity
  8
KONSTRUKTIONSELEMENTE
100
AcDbSpline
 62
7
  6
CONTINUOUS
 70
0
 71
3
 72
10
 73
6
 74
0
 42
0.0000001
 43
0.0000001
 44
0.0000000001
 40
0.0
 40
0.0
 40
0.0
 40
0.0
 40
0.3939255147
 40
0.6883533687
 40
1.0
 40
1.0
 40
1.0
 40
1.0
 10
717.9471467443
 20
195.3713552098
 30
0.0
 10
718.1719546502
 20
195.2637653092
 30
0.0
 10
718.5504171719
 20
195.0363197409
 30
0.0
 10
719.0078586896
 20
194.6024419975
 30
0.0
 10
719.1953975088
 20
194.2310622903
 30
0.0
 10
719.1953975088
 20
194.0338909864
 30
0.0
  0
SPLINE
  5
42F
100
AcDbEntity
  8
KONSTRUKTIONSELEMENTE
100
AcDbSpline
 62
7
  6
CONTINUOUS
 70
0
 71
3
 72
10
 73
6
 74
0
 42
0.0000001
 43
0.0000001
 44
0.0000000001
 40
0.0
 40
0.0
 40
0.0
 40
0.0
 40
0.3192646009
 40
0.6086079864
 40
1.0
 40
1.0
 40
1.0
 40
1.0
 10
719.1953975088
 20
183.4272892686
 30
0.0
 10
719.1953975088
 20
183.2555494934
 30
0.0
 10
719.0533817222
 20
182.9346982785
 30
0.0
 10
718.6875757075
 20
182.5413459391
 30
0.0
 10
718.3842878748
 20
182.3283060258
 30
0.0
 10
718.2017515738
 20
182.2233914294
 30
0.0
  0
SPLINE
  5
430
100
AcDbEntity
  8
KONSTRUKTIONSELEMENTE
100
AcDbSpline
 62
7
  6
CONTINUOUS
 70
0
 71
3
 72
10
 73
6
 74
0
 42
0.0000001
 43
0.0000001
 44
0.0000000001
 40
0.0
 40
0.0
 40
0.0
 40
0.0
 40
0.3914026107
 40
0.6807340322
 40
1.0
 40
1.0
 40
1.0
 40
1.0
 10
713.1889519077
 20
182.2234439005
 30
0.0
 10
713.0064246642
 20
182.32835931
 30
0.0
 10
712.7031850835
 20
182.5414183815
 30
0.0
 10
712.3373643789
 20
182.9347167421
 30
0.0
 10
712.1953975088
 20
183.255559483
 30
0.0
 10
712.1953975088
 20
183.4272892686
 30
0.0
  0
SPLINE
  5
431
100
AcDbEntity
  8
KONSTRUKTIONSELEMENTE
100
AcDbSpline
 62
7
  6
CONTINUOUS
 70
0
 71
3
 72
13
 73
9
 74
0
 42
0.0000001
 43
0.0000001
 44
0.0000000001
 40
0.0
 40
0.0
 40
0.0
 40
0.0
 40
0.1197290731
 40
0.2397365246
 40
0.3609040964
 40
0.4836831257
 40
0.7359942557
 40
1.0
 40
1.0
 40
1.0
 40
1.0
 10
723.6953975088
 20
183.4272892686
 30
0.0
 10
723.6953975088
 20
183.0780755665
 30
0.0
 10
723.623293887
 20
182.3767345305
 30
0.0
 10
723.3050085522
 20
181.3665162824
 30
0.0
 10
722.7956250106
 20
180.4279380637
 30
0.0
 10
721.883824482
 20
179.295163557
 30
0.0
 10
720.3679332164
 20
178.1580201409
 30
0.0
 10
718.9450463663
 20
177.611474417
 30
0.0
 10
718.1988218447
 20
177.4215059264
 30
0.0
  0
SPLINE
  5
432
100
AcDbEntity
  8
KONSTRUKTIONSELEMENTE
100
AcDbSpline
 62
7
  6
CONTINUOUS
 70
0
 71
3
 72
13
 73
9
 74
0
 42
0.0000001
 43
0.0000001
 44
0.0000000001
 40
0.0
 40
0.0
 40
0.0
 40
0.0
 40
0.2640112835
 40
0.5163080567
 40
0.6390830379
 40
0.7602378991
 40
0.8802701562
 40
1.0
 40
1.0
 40
1.0
 40
1.0
 10
713.1910697063
 20
177.421753116
 30
0.0
 10
712.4449298839
 20
177.6117877173
 30
0.0
 10
711.0222534426
 20
178.1583543484
 30
0.0
 10
709.5066633754
 20
179.2954996894
 30
0.0
 10
708.595073098
 20
180.428115198
 30
0.0
 10
708.0856821822
 20
181.3665924845
 30
0.0
 10
707.7675454631
 20
182.3767805877
 30
0.0
 10
707.6953975088
 20
183.0781104712
 30
0.0
 10
707.6953975088
 20
183.4272892686
 30
0.0
  0
LINE
  5
433
100
AcDbEntity
  8
KONSTRUKTIONSELEMENTE
100
AcDbLine
 62
7
  6
CONTINUOUS
 10
712.0233840455
 20
230.7724060825
 11
712.0437419663
 21
230.7805355092
  0
SPLINE
  5
434
100
AcDbEntity
  8
KONSTRUKTIONSELEMENTE
100
AcDbSpline
 62
7
  6
CONTINUOUS
 70
0
 71
3
 72
9
 73
5
 74
0
 42
0.0000001
 43
0.0000001
 44
0.0000000001
 40
0.0
 40
0.0
 40
0.0
 40
0.0
 40
0.2401783802
 40
1.0
 40
1.0
 40
1.0
 40
1.0
 10
712.910573659
 20
226.1713673256
 30
0.0
 10
712.9320869399
 20
226.1868656639
 30
0.0
 10
713.0225060158
 20
226.2502136124
 30
0.0
 10
713.1163192929
 20
226.3086882522
 30
0.0
 10
713.1890434438
 20
226.3504871979
 30
0.0
  0
SPLINE
  5
435
100
AcDbEntity
  8
KONSTRUKTIONSELEMENTE
100
AcDbSpline
 62
7
  6
CONTINUOUS
 70
0
 71
3
 72
9
 73
5
 74
0
 42
0.0000001
 43
0.0000001
 44
0.0000000001
 40
0.0
 40
0.0
 40
0.0
 40
0.0
 40
0.2597110025
 40
1.0
 40
1.0
 40
1.0
 40
1.0
 10
718.2018431099
 20
226.3504347268
 30
0.0
 10
718.226691312
 20
226.3361521503
 30
0.0
 10
718.3217002139
 20
226.2800081085
 30
0.0
 10
718.4139225793
 20
226.2191242478
 30
0.0
 10
718.4802068393
 20
226.1713701543
 30
0.0
  0
SPLINE
  5
436
100
AcDbEntity
  8
KONSTRUKTIONSELEMENTE
100
AcDbSpline
 62
7
  6
CONTINUOUS
 70
0
 71
3
 72
10
 73
6
 74
0
 42
0.0000001
 43
0.0000001
 44
0.0000000001
 40
0.0
 40
0.0
 40
0.0
 40
0.0
 40
0.3116645009
 40
0.6060899939
 40
1.0
 40
1.0
 40
1.0
 40
1.0
 10
719.1953975088
 20
214.5399876408
 30
0.0
 10
719.1953975088
 20
214.3428327944
 30
0.0
 10
719.0078689522
 20
213.9715065997
 30
0.0
 10
718.5505496826
 20
213.53763351
 30
0.0
 10
718.1721483704
 20
213.3102234765
 30
0.0
 10
717.9473893971
 20
213.2026353455
 30
0.0
  0
SPLINE
  5
437
100
AcDbEntity
  8
KONSTRUKTIONSELEMENTE
100
AcDbSpline
 62
7
  6
CONTINUOUS
 70
0
 71
3
 72
10
 73
6
 74
0
 42
0.0000001
 43
0.0000001
 44
0.0000000001
 40
0.0
 40
0.0
 40
0.0
 40
0.0
 40
0.3939255147
 40
0.6883533687
 40
1.0
 40
1.0
 40
1.0
 40
1.0
 10
713.4436482733
 20
213.2025234175
 30
0.0
 10
713.2188403673
 20
213.3101133181
 30
0.0
 10
712.8403778456
 20
213.5375588864
 30
0.0
 10
712.382936328
 20
213.9714366298
 30
0.0
 10
712.1953975088
 20
214.342816337
 30
0.0
 10
712.1953975088
 20
214.5399876408
 30
0.0
  0
SPLINE
  5
438
100
AcDbEntity
  8
KONSTRUKTIONSELEMENTE
100
AcDbSpline
 62
7
  6
CONTINUOUS
 70
0
 71
3
 72
11
 73
7
 74
0
 42
0.0000001
 43
0.0000001
 44
0.0000000001
 40
0.0
 40
0.0
 40
0.0
 40
0.0
 40
0.2385338003
 40
0.4831075981
 40
0.7368032203
 40
1.0
 40
1.0
 40
1.0
 40
1.0
 10
723.4541952178
 20
212.9810137046
 30
0.0
 10
723.2768046446
 20
212.4181000594
 30
0.0
 10
722.7224562711
 20
211.3321579132
 30
0.0
 10
721.4354517743
 20
210.0098857003
 30
0.0
 10
719.8083249041
 20
209.0261324765
 30
0.0
 10
718.5846109182
 20
208.6182425805
 30
0.0
 10
717.9495098293
 20
208.4742215202
 30
0.0
  0
SPLINE
  5
439
100
AcDbEntity
  8
KONSTRUKTIONSELEMENTE
100
AcDbSpline
 62
7
  6
CONTINUOUS
 70
0
 71
3
 72
11
 73
7
 74
0
 42
0.0000001
 43
0.0000001
 44
0.0000000001
 40
0.0
 40
0.0
 40
0.0
 40
0.0
 40
0.2632172474
 40
0.5169134065
 40
0.7614766644
 40
1.0
 40
1.0
 40
1.0
 40
1.0
 10
713.44322673
 20
208.4737903079
 30
0.0
 10
712.8078781074
 20
208.6177616759
 30
0.0
 10
711.5836911547
 20
209.0255209311
 30
0.0
 10
709.9559461271
 20
210.0093528114
 30
0.0
 10
708.6685450826
 20
211.3318694197
 30
0.0
 10
708.1139657471
 20
212.4180325327
 30
0.0
 10
707.9365738067
 20
212.981089409
 30
0.0
  0
SPLINE
  5
43A
100
AcDbEntity
  8
0
100
AcDbSpline
 62
7
  6
CONTINUOUS
 70
0
 71
3
 72
11
 73
7
 74
0
 42
0.0000001
 43
0.0000001
 44
0.0000000001
 40
0.0
 40
0.0
 40
0.0
 40
0.0
 40
0.2192989281
 40
0.4548225453
 40
0.7152180566
 40
1.0
 40
1.0
 40
1.0
 40
1.0
 10
724.450516709
 20
158.4239934859
 30
0.0
 10
724.450516709
 20
158.5973719487
 30
0.0
 10
724.3725534445
 20
158.9603454065
 30
0.0
 10
724.0472212619
 20
159.4363739158
 30
0.0
 10
723.5532462031
 20
159.8195094478
 30
0.0
 10
723.1528112268
 20
159.9910798339
 30
0.0
 10
722.9376540511
 20
160.0574101504
 30
0.0
  0
SPLINE
  5
43B
100
AcDbEntity
  8
0
100
AcDbSpline
 62
7
  6
CONTINUOUS
 70
0
 71
3
 72
15
 73
11
 74
0
 42
0.0000001
 43
0.0000001
 44
0.0000000001
 40
0.0
 40
0.0
 40
0.0
 40
0.0
 40
0.1047415988
 40
0.222328371
 40
0.3560160977
 40
0.5
 40
0.6439839023
 40
0.777671629
 40
0.8952584012
 40
1.0
 40
1.0
 40
1.0
 40
1.0
 10
716.6065176485
 20
157.984810346
 30
0.0
 10
716.6065176485
 20
157.8787110926
 30
0.0
 10
716.6754355227
 20
157.6508340581
 30
0.0
 10
716.939207535
 20
157.389877512
 30
0.0
 10
717.3100978665
 20
157.2223463032
 30
0.0
 10
717.7387582567
 20
157.1644125227
 30
0.0
 10
718.1674186469
 20
157.2223463032
 30
0.0
 10
718.5383089784
 20
157.389877512
 30
0.0
 10
718.8020809906
 20
157.6508340581
 30
0.0
 10
718.8709988649
 20
157.8787110926
 30
0.0
 10
718.8709988649
 20
157.984810346
 30
0.0
  0
SPLINE
  5
43C
100
AcDbEntity
  8
0
100
AcDbSpline
 62
7
  6
CONTINUOUS
 70
0
 71
3
 72
11
 73
7
 74
0
 42
0.0000001
 43
0.0000001
 44
0.0000000001
 40
0.0
 40
0.0
 40
0.0
 40
0.0
 40
0.2094689415
 40
0.4446609502
 40
0.7120169424
 40
1.0
 40
1.0
 40
1.0
 40
1.0
 10
715.1624151095
 20
159.2331843413
 30
0.0
 10
715.1623983014
 20
159.3452282246
 30
0.0
 10
715.0895225913
 20
159.5858601644
 30
0.0
 10
714.8108912214
 20
159.861423281
 30
0.0
 10
714.4194735102
 20
160.038353287
 30
0.0
 10
714.1205583393
 20
160.0786233539
 30
0.0
 10
713.9665176485
 20
160.0786233539
 30
0.0
  0
SPLINE
  5
43D
100
AcDbEntity
  8
0
100
AcDbSpline
 62
7
  6
CONTINUOUS
 70
0
 71
3
 72
9
 73
5
 74
0
 42
0.0000001
 43
0.0000001
 44
0.0000000001
 40
0.0
 40
0.0
 40
0.0
 40
0.0
 40
0.4402133985
 40
1.0
 40
1.0
 40
1.0
 40
1.0
 10
708.6080368676
 20
158.029427902
 30
0.0
 10
708.6080368676
 20
158.0155203737
 30
0.0
 10
708.6294555412
 20
157.985235081
 30
0.0
 10
708.6623516994
 20
157.9785162137
 30
0.0
 10
708.6800368676
 20
157.9785162137
 30
0.0
  0
SPLINE
  5
43E
100
AcDbEntity
  8
0
100
AcDbSpline
 62
7
  6
CONTINUOUS
 70
0
 71
3
 72
9
 73
5
 74
0
 42
0.0000001
 43
0.0000001
 44
0.0000000001
 40
0.0
 40
0.0
 40
0.0
 40
0.0
 40
0.4402133985
 40
1.0
 40
1.0
 40
1.0
 40
1.0
 10
709.1030368676
 20
158.0548837461
 30
0.0
 10
709.1030368676
 20
158.0687912744
 30
0.0
 10
709.081618194
 20
158.0990765671
 30
0.0
 10
709.0487220358
 20
158.1057954343
 30
0.0
 10
709.0310368676
 20
158.1057954343
 30
0.0
  0
SPLINE
  5
43F
100
AcDbEntity
  8
0
100
AcDbSpline
 62
7
  6
CONTINUOUS
 70
0
 71
3
 72
9
 73
5
 74
0
 42
0.0000001
 43
0.0000001
 44
0.0000000001
 40
0.0
 40
0.0
 40
0.0
 40
0.0
 40
0.4402133985
 40
1.0
 40
1.0
 40
1.0
 40
1.0
 10
709.1030368676
 20
159.3276759522
 30
0.0
 10
709.1030368676
 20
159.3415834805
 30
0.0
 10
709.081618194
 20
159.3718687732
 30
0.0
 10
709.0487220358
 20
159.3785876405
 30
0.0
 10
709.0310368676
 20
159.3785876405
 30
0.0
  0
SPLINE
  5
440
100
AcDbEntity
  8
0
100
AcDbSpline
 62
7
  6
CONTINUOUS
 70
0
 71
3
 72
11
 73
7
 74
0
 42
0.0000001
 43
0.0000001
 44
0.0000000001
 40
0.0
 40
0.0
 40
0.0
 40
0.0
 40
0.2094668498
 40
0.4446559298
 40
0.7120302568
 40
1.0
 40
1.0
 40
1.0
 40
1.0
 10
708.1130368676
 20
158.6785519271
 30
0.0
 10
708.1130368676
 20
158.6616858823
 30
0.0
 10
708.1239901454
 20
158.6254585142
 30
0.0
 10
708.1659341378
 20
158.5839726064
 30
0.0
 10
708.2248526319
 20
158.5573348251
 30
0.0
 10
708.2698498544
 20
158.5512727065
 30
0.0
 10
708.2930368676
 20
158.5512727065
 30
0.0
  0
SPLINE
  5
441
100
AcDbEntity
  8
0
100
AcDbSpline
 62
7
  6
CONTINUOUS
 70
0
 71
3
 72
11
 73
7
 74
0
 42
0.0000001
 43
0.0000001
 44
0.0000000001
 40
0.0
 40
0.0
 40
0.0
 40
0.0
 40
0.2094668498
 40
0.4446559298
 40
0.7120302568
 40
1.0
 40
1.0
 40
1.0
 40
1.0
 10
708.1130368676
 20
157.405759721
 30
0.0
 10
708.1130368676
 20
157.3888936761
 30
0.0
 10
708.1239901454
 20
157.352666308
 30
0.0
 10
708.1659341378
 20
157.3111804003
 30
0.0
 10
708.2248526319
 20
157.2845426189
 30
0.0
 10
708.2698498544
 20
157.2784805004
 30
0.0
 10
708.2930368676
 20
157.2784805004
 30
0.0
  0
SPLINE
  5
442
100
AcDbEntity
  8
0
100
AcDbSpline
 62
7
  6
CONTINUOUS
 70
0
 71
3
 72
9
 73
5
 74
0
 42
0.0000001
 43
0.0000001
 44
0.0000000001
 40
0.0
 40
0.0
 40
0.0
 40
0.0
 40
0.2432035461
 40
1.0
 40
1.0
 40
1.0
 40
1.0
 10
710.5430368676
 20
159.8240649126
 30
0.0
 10
710.5430368676
 20
159.8340534826
 30
0.0
 10
710.5396216066
 20
159.8751257445
 30
0.0
 10
710.5219718545
 20
159.914415506
 30
0.0
 10
710.5037998376
 20
159.9396322524
 30
0.0
  0
SPLINE
  5
443
100
AcDbEntity
  8
0
100
AcDbSpline
 62
7
  6
CONTINUOUS
 70
0
 71
3
 72
9
 73
5
 74
0
 42
0.0000001
 43
0.0000001
 44
0.0000000001
 40
0.0
 40
0.0
 40
0.0
 40
0.0
 40
0.2250156934
 40
1.0
 40
1.0
 40
1.0
 40
1.0
 10
710.5037998376
 20
159.9396322524
 30
0.0
 10
710.4881423496
 20
159.961359665
 30
0.0
 10
710.4022032159
 20
160.0460799871
 30
0.0
 10
710.2752752247
 20
160.0786233539
 30
0.0
 10
710.1830368676
 20
160.0786233539
 30
0.0
  0
SPLINE
  5
444
100
AcDbEntity
  8
RUNDUNGEN
100
AcDbSpline
 62
7
  6
CONTINUOUS
 70
0
 71
3
 72
10
 73
6
 74
0
 42
0.0000001
 43
0.0000001
 44
0.0000000001
 40
0.0
 40
0.0
 40
0.0
 40
0.0
 40
0.2265435863
 40
0.4650408478
 40
1.0
 40
1.0
 40
1.0
 40
1.0
 10
696.3460989054
 20
162.5187078943
 30
0.0
 10
696.346131123
 20
162.5698309814
 30
0.0
 10
696.3647631989
 20
162.6755460004
 30
0.0
 10
696.4745282434
 20
162.8761366237
 30
0.0
 10
696.6216856877
 20
162.98609267
 30
0.0
 10
696.7298729152
 20
163.0396584922
 30
0.0
  0
SPLINE
  5
445
100
AcDbEntity
  8
RUNDUNGEN
100
AcDbSpline
 62
7
  6
CONTINUOUS
 70
0
 71
3
 72
9
 73
5
 74
0
 42
0.0000001
 43
0.0000001
 44
0.0000000001
 40
0.0
 40
0.0
 40
0.0
 40
0.0
 40
0.4805181646
 40
1.0
 40
1.0
 40
1.0
 40
1.0
 10
696.3460981299
 20
158.9831486758
 30
0.0
 10
696.3460612201
 20
158.917816785
 30
0.0
 10
696.377107086
 20
158.7805732311
 30
0.0
 10
696.4591577382
 20
158.6679844112
 30
0.0
 10
696.508854868
 20
158.6177976085
 30
0.0
  0
SPLINE
  5
446
100
AcDbEntity
  8
RUNDUNGEN
100
AcDbSpline
 62
7
  6
CONTINUOUS
 70
0
 71
3
 72
11
 73
7
 74
0
 42
0.0000001
 43
0.0000001
 44
0.0000000001
 40
0.0
 40
0.0
 40
0.0
 40
0.0
 40
0.2256919297
 40
0.4632773963
 40
0.7205986282
 40
1.0
 40
1.0
 40
1.0
 40
1.0
 10
689.9437598748
 20
169.4515811617
 30
0.0
 10
689.9437269757
 20
169.6221067721
 30
0.0
 10
690.0053944924
 20
169.9746634135
 30
0.0
 10
690.2706338283
 20
170.4593687274
 30
0.0
 10
690.6863462814
 20
170.8798842194
 30
0.0
 10
691.0338417537
 20
171.0959776822
 30
0.0
 10
691.2230291102
 20
171.1896484096
 30
0.0
  0
SPLINE
  5
447
100
AcDbEntity
  8
RUNDUNGEN
100
AcDbSpline
 62
7
  6
CONTINUOUS
 70
0
 71
3
 72
9
 73
5
 74
0
 42
0.0000001
 43
0.0000001
 44
0.0000000001
 40
0.0
 40
0.0
 40
0.0
 40
0.0
 40
0.4805188659
 40
1.0
 40
1.0
 40
1.0
 40
1.0
 10
689.9437598748
 20
165.9160472558
 30
0.0
 10
689.9438018447
 20
165.698505498
 30
0.0
 10
690.0476092033
 20
165.241636448
 30
0.0
 10
690.3208215547
 20
164.8668024811
 30
0.0
 10
690.4863022864
 20
164.6996912446
 30
0.0
  0
SPLINE
  5
448
100
AcDbEntity
  8
RUNDUNGEN
100
AcDbSpline
 62
7
  6
CONTINUOUS
 70
0
 71
3
 72
11
 73
7
 74
0
 42
0.0000001
 43
0.0000001
 44
0.0000000001
 40
0.0
 40
0.0
 40
0.0
 40
0.0
 40
0.237780559
 40
0.4809056754
 40
0.7339193747
 40
1.0
 40
1.0
 40
1.0
 40
1.0
 10
725.0070163402
 20
146.6390258566
 30
0.0
 10
725.0070163517
 20
146.9636129743
 30
0.0
 10
725.079022211
 20
147.6221792446
 30
0.0
 10
725.3982940544
 20
148.5790177725
 30
0.0
 10
725.9190617857
 20
149.4868844356
 30
0.0
 10
726.3790757232
 20
150.0311532678
 30
0.0
 10
726.6346479416
 20
150.289243675
 30
0.0
  0
SPLINE
  5
449
100
AcDbEntity
  8
RUNDUNGEN
100
AcDbSpline
 62
7
  6
CONTINUOUS
 70
0
 71
3
 72
9
 73
5
 74
0
 42
0.0000001
 43
0.0000001
 44
0.0000000001
 40
0.0
 40
0.0
 40
0.0
 40
0.0
 40
0.4865850801
 40
1.0
 40
1.0
 40
1.0
 40
1.0
 10
725.3616621355
 20
148.4056995096
 30
0.0
 10
725.5018541188
 20
148.0630549222
 30
0.0
 10
725.8689597793
 20
147.389468396
 30
0.0
 10
726.3597894886
 20
146.8019080746
 30
0.0
 10
726.6346479416
 20
146.5243414028
 30
0.0
  0
SPLINE
  5
44A
100
AcDbEntity
  8
RUNDUNGEN
100
AcDbSpline
 62
7
  6
CONTINUOUS
 70
0
 71
3
 72
9
 73
5
 74
0
 42
0.0000001
 43
0.0000001
 44
0.0000000001
 40
0.0
 40
0.0
 40
0.0
 40
0.0
 40
0.4805364547
 40
1.0
 40
1.0
 40
1.0
 40
1.0
 10
695.2953975088
 20
136.3015240095
 30
0.0
 10
695.2953975088
 20
136.5191339686
 30
0.0
 10
695.3991321973
 20
136.9761603858
 30
0.0
 10
695.6724204309
 20
137.3511115265
 30
0.0
 10
695.8379413759
 20
137.5182633725
 30
0.0
  0
SPLINE
  5
44B
100
AcDbEntity
  8
BEZUGSACHSEN
100
AcDbSpline
 62
7
  6
CONTINUOUS
 70
0
 71
3
 72
9
 73
5
 74
0
 42
0.0000001
 43
0.0000001
 44
0.0000000001
 40
0.0
 40
0.0
 40
0.0
 40
0.0
 40
0.243640565
 40
1.0
 40
1.0
 40
1.0
 40
1.0
 10
712.5747885256
 20
165.0372484412
 30
0.0
 10
712.6182739548
 20
164.9988998146
 30
0.0
 10
712.8009042703
 20
164.8462348319
 30
0.0
 10
712.9991584715
 20
164.7125457196
 30
0.0
 10
713.1547518923
 20
164.6220605115
 30
0.0
  0
SPLINE
  5
44C
100
AcDbEntity
  8
BEZUGSACHSEN
100
AcDbSpline
 62
7
  6
CONTINUOUS
 70
0
 71
3
 72
9
 73
5
 74
0
 42
0.0000001
 43
0.0000001
 44
0.0000000001
 40
0.0
 40
0.0
 40
0.0
 40
0.0
 40
0.2565853179
 40
1.0
 40
1.0
 40
1.0
 40
1.0
 10
718.2360431253
 20
164.6220605115
 30
0.0
 10
718.2888244949
 20
164.6527554676
 30
0.0
 10
718.4917761642
 20
164.7770158903
 30
0.0
 10
718.6833247542
 20
164.9202399969
 30
0.0
 10
718.816006492
 20
165.0372484412
 30
0.0
  0
SPLINE
  5
44D
100
AcDbEntity
  8
BEZUGSACHSEN
100
AcDbSpline
 62
7
  6
CONTINUOUS
 70
0
 71
3
 72
11
 73
7
 74
0
 42
0.0000001
 43
0.0000001
 44
0.0000000001
 40
0.0
 40
0.0
 40
0.0
 40
0.0
 40
0.2279232111
 40
0.4663851525
 40
0.7228056147
 40
1.0
 40
1.0
 40
1.0
 40
1.0
 10
719.6953975088
 20
163.2711398389
 30
0.0
 10
719.6953975088
 20
163.4829513131
 30
0.0
 10
719.6244826521
 20
163.9191332407
 30
0.0
 10
719.3173986162
 20
164.5265216068
 30
0.0
 10
718.8318479567
 20
165.0643880654
 30
0.0
 10
718.421799896
 20
165.3506937675
 30
0.0
 10
718.1977204154
 20
165.4777606519
 30
0.0
  0
SPLINE
  5
44E
100
AcDbEntity
  8
BEZUGSACHSEN
100
AcDbSpline
 62
7
  6
CONTINUOUS
 70
0
 71
3
 72
11
 73
7
 74
0
 42
0.0000001
 43
0.0000001
 44
0.0000000001
 40
0.0
 40
0.0
 40
0.0
 40
0.0
 40
0.2771943853
 40
0.5336148475
 40
0.7720767889
 40
1.0
 40
1.0
 40
1.0
 40
1.0
 10
713.1930746022
 20
165.4777606519
 30
0.0
 10
712.9689951215
 20
165.3506937675
 30
0.0
 10
712.5589470609
 20
165.0643880654
 30
0.0
 10
712.0733964014
 20
164.5265216068
 30
0.0
 10
711.7663123654
 20
163.9191332407
 30
0.0
 10
711.6953975088
 20
163.4829513131
 30
0.0
 10
711.6953975088
 20
163.2711398389
 30
0.0
  0
SPLINE
  5
44F
100
AcDbEntity
  8
RUNDUNGEN
100
AcDbSpline
 62
7
  6
CONTINUOUS
 70
0
 71
3
 72
9
 73
5
 74
0
 42
0.0000001
 43
0.0000001
 44
0.0000000001
 40
0.0
 40
0.0
 40
0.0
 40
0.0
 40
0.5194633901
 40
1.0
 40
1.0
 40
1.0
 40
1.0
 10
735.5528536416
 20
137.5182633725
 30
0.0
 10
735.718374537
 20
137.3511115766
 30
0.0
 10
735.9916627829
 20
136.9761604585
 30
0.0
 10
736.0953975088
 20
136.5191340388
 30
0.0
 10
736.0953975088
 20
136.3015240095
 30
0.0
  0
SPLINE
  5
450
100
AcDbEntity
  8
RUNDUNGEN
100
AcDbSpline
 62
7
  6
CONTINUOUS
 70
0
 71
3
 72
10
 73
6
 74
0
 42
0.0000001
 43
0.0000001
 44
0.0000000001
 40
0.0
 40
0.0
 40
0.0
 40
0.0
 40
0.5349739654
 40
0.7734708859
 40
1.0
 40
1.0
 40
1.0
 40
1.0
 10
741.8060699959
 20
170.3784888342
 30
0.0
 10
741.9262832356
 20
170.3189686749
 30
0.0
 10
742.0897978157
 20
170.1967897489
 30
0.0
 10
742.211753394
 20
169.9739034711
 30
0.0
 10
742.2324523523
 20
169.8564438419
 30
0.0
 10
742.2324863356
 20
169.7996431508
 30
0.0
  0
SPLINE
  5
451
100
AcDbEntity
  8
RUNDUNGEN
100
AcDbSpline
 62
7
  6
CONTINUOUS
 70
0
 71
3
 72
10
 73
6
 74
0
 42
0.0000001
 43
0.0000001
 44
0.0000000001
 40
0.0
 40
0.0
 40
0.0
 40
0.0
 40
0.4809191867
 40
0.7459271427
 40
1.0
 40
1.0
 40
1.0
 40
1.0
 10
735.9080052717
 20
172.4355294888
 30
0.0
 10
736.0740570351
 20
172.6032173834
 30
0.0
 10
736.448443137
 20
172.7471628202
 30
0.0
 10
736.9397084065
 20
172.7385111876
 30
0.0
 10
737.189002623
 20
172.6644981506
 30
0.0
 10
737.3007337524
 20
172.6091776664
 30
0.0
  0
SPLINE
  5
452
100
AcDbEntity
  8
0
100
AcDbSpline
 62
7
  6
CONTINUOUS
 70
0
 71
3
 72
9
 73
5
 74
0
 42
0.0000001
 43
0.0000001
 44
0.0000000001
 40
0.0
 40
0.0
 40
0.0
 40
0.0
 40
0.2432212797
 40
1.0
 40
1.0
 40
1.0
 40
1.0
 10
720.8575854359
 20
170.1812478018
 30
0.0
 10
720.6531997407
 20
170.2824435535
 30
0.0
 10
719.7983327619
 20
170.6688095781
 30
0.0
 10
718.8923054419
 20
170.9391112123
 30
0.0
 10
718.1970861844
 20
171.0813623491
 30
0.0
  0
SPLINE
  5
453
100
AcDbEntity
  8
0
100
AcDbSpline
 62
7
  6
CONTINUOUS
 70
0
 71
3
 72
9
 73
5
 74
0
 42
0.0000001
 43
0.0000001
 44
0.0000000001
 40
0.0
 40
0.0
 40
0.0
 40
0.0
 40
0.2565045474
 40
1.0
 40
1.0
 40
1.0
 40
1.0
 10
713.1937088332
 20
171.0813623491
 30
0.0
 10
712.9580818413
 20
171.0331499225
 30
0.0
 10
712.0454793573
 20
170.8176960473
 30
0.0
 10
711.1579568014
 20
170.4905735814
 30
0.0
 10
710.5332095816
 20
170.1812478018
 30
0.0
  0
SPLINE
  5
454
100
AcDbEntity
  8
RUNDUNGEN
100
AcDbSpline
 62
7
  6
CONTINUOUS
 70
0
 71
3
 72
12
 73
8
 74
0
 42
0.0000001
 43
0.0000001
 44
0.0000000001
 40
0.0
 40
0.0
 40
0.0
 40
0.0
 40
0.2522580976
 40
0.5153826131
 40
0.6451774871
 40
0.7704539351
 40
1.0
 40
1.0
 40
1.0
 40
1.0
 10
692.0421811545
 20
171.5952281973
 30
0.0
 10
692.9360199678
 20
172.0377870099
 30
0.0
 10
694.9229830958
 20
172.6318591315
 30
0.0
 10
697.5054411508
 20
172.6691934117
 30
0.0
 10
699.5234240434
 20
172.2739477205
 30
0.0
 10
701.3322751291
 20
171.6337100402
 30
0.0
 10
702.5453935572
 20
170.8509505857
 30
0.0
 10
703.1840089996
 20
170.2060427759
 30
0.0
  0
SPLINE
  5
455
100
AcDbEntity
  8
0
100
AcDbSpline
 62
7
  6
CONTINUOUS
 70
0
 71
3
 72
11
 73
7
 74
0
 42
0.0000001
 43
0.0000001
 44
0.0000000001
 40
0.0
 40
0.0
 40
0.0
 40
0.0
 40
0.2880052506
 40
0.5553344723
 40
0.7905070702
 40
1.0
 40
1.0
 40
1.0
 40
1.0
 10
707.3030368676
 20
160.0786233539
 30
0.0
 10
707.2566574481
 20
160.0786233539
 30
0.0
 10
707.1666598967
 20
160.0665083642
 30
0.0
 10
707.0488480111
 20
160.0132013458
 30
0.0
 10
706.9649385029
 20
159.9302626591
 30
0.0
 10
706.9430368676
 20
159.8578009659
 30
0.0
 10
706.9430368676
 20
159.8240649126
 30
0.0
  0
SPLINE
  5
456
100
AcDbEntity
  8
0
100
AcDbSpline
 62
7
  6
CONTINUOUS
 70
0
 71
3
 72
11
 73
7
 74
0
 42
0.0000001
 43
0.0000001
 44
0.0000000001
 40
0.0
 40
0.0
 40
0.0
 40
0.0
 40
0.2879697432
 40
0.5553440702
 40
0.7905331502
 40
1.0
 40
1.0
 40
1.0
 40
1.0
 10
709.1930368676
 20
158.5512727065
 30
0.0
 10
709.2162238808
 20
158.5512727065
 30
0.0
 10
709.2612211034
 20
158.5573348251
 30
0.0
 10
709.3201395975
 20
158.5839726064
 30
0.0
 10
709.3620835898
 20
158.6254585142
 30
0.0
 10
709.3730368676
 20
158.6616858823
 30
0.0
 10
709.3730368676
 20
158.6785519271
 30
0.0
  0
SPLINE
  5
457
100
AcDbEntity
  8
0
100
AcDbSpline
 62
7
  6
CONTINUOUS
 70
0
 71
3
 72
11
 73
7
 74
0
 42
0.0000001
 43
0.0000001
 44
0.0000000001
 40
0.0
 40
0.0
 40
0.0
 40
0.0
 40
0.2879697432
 40
0.5553440702
 40
0.7905331502
 40
1.0
 40
1.0
 40
1.0
 40
1.0
 10
709.1930368676
 20
157.2784805004
 30
0.0
 10
709.2162238808
 20
157.2784805004
 30
0.0
 10
709.2612211034
 20
157.2845426189
 30
0.0
 10
709.3201395975
 20
157.3111804003
 30
0.0
 10
709.3620835898
 20
157.352666308
 30
0.0
 10
709.3730368676
 20
157.3888936761
 30
0.0
 10
709.3730368676
 20
157.405759721
 30
0.0
  0
SPLINE
  5
458
100
AcDbEntity
  8
0
100
AcDbSpline
 62
7
  6
CONTINUOUS
 70
0
 71
3
 72
9
 73
5
 74
0
 42
0.0000001
 43
0.0000001
 44
0.0000000001
 40
0.0
 40
0.0
 40
0.0
 40
0.0
 40
0.5597866015
 40
1.0
 40
1.0
 40
1.0
 40
1.0
 10
708.4550368676
 20
159.3785876405
 30
0.0
 10
708.4373516994
 20
159.3785876405
 30
0.0
 10
708.4044555412
 20
159.3718687732
 30
0.0
 10
708.3830368676
 20
159.3415834805
 30
0.0
 10
708.3830368676
 20
159.3276759522
 30
0.0
  0
SPLINE
  5
459
100
AcDbEntity
  8
0
100
AcDbSpline
 62
7
  6
CONTINUOUS
 70
0
 71
3
 72
9
 73
5
 74
0
 42
0.0000001
 43
0.0000001
 44
0.0000000001
 40
0.0
 40
0.0
 40
0.0
 40
0.0
 40
0.5597866015
 40
1.0
 40
1.0
 40
1.0
 40
1.0
 10
708.4550368676
 20
158.1057954343
 30
0.0
 10
708.4373516994
 20
158.1057954343
 30
0.0
 10
708.4044555412
 20
158.0990765671
 30
0.0
 10
708.3830368676
 20
158.0687912744
 30
0.0
 10
708.3830368676
 20
158.0548837461
 30
0.0
  0
SPLINE
  5
45A
100
AcDbEntity
  8
0
100
AcDbSpline
 62
7
  6
CONTINUOUS
 70
0
 71
3
 72
9
 73
5
 74
0
 42
0.0000001
 43
0.0000001
 44
0.0000000001
 40
0.0
 40
0.0
 40
0.0
 40
0.0
 40
0.5597866015
 40
1.0
 40
1.0
 40
1.0
 40
1.0
 10
708.8060368676
 20
157.9785162137
 30
0.0
 10
708.8237220358
 20
157.9785162137
 30
0.0
 10
708.856618194
 20
157.985235081
 30
0.0
 10
708.8780368676
 20
158.0155203737
 30
0.0
 10
708.8780368676
 20
158.029427902
 30
0.0
  0
SPLINE
  5
45B
100
AcDbEntity
  8
0
100
AcDbSpline
 62
7
  6
CONTINUOUS
 70
0
 71
3
 72
11
 73
7
 74
0
 42
0.0000001
 43
0.0000001
 44
0.0000000001
 40
0.0
 40
0.0
 40
0.0
 40
0.0
 40
0.2880001164
 40
0.5553425139
 40
0.7905343079
 40
1.0
 40
1.0
 40
1.0
 40
1.0
 10
713.9665176485
 20
158.7734456232
 30
0.0
 10
714.0502438352
 20
158.7734456232
 30
0.0
 10
714.2127101656
 20
158.7953306351
 30
0.0
 10
714.4254246784
 20
158.8915256603
 30
0.0
 10
714.5768728769
 20
159.0412937601
 30
0.0
 10
714.6164064541
 20
159.1720993492
 30
0.0
 10
714.6164064541
 20
159.2329943373
 30
0.0
  0
SPLINE
  5
45C
100
AcDbEntity
  8
0
100
AcDbSpline
 62
7
  6
CONTINUOUS
 70
0
 71
3
 72
8
 73
4
 74
0
 42
0.0000001
 43
0.0000001
 44
0.0000000001
 40
0.0
 40
0.0
 40
0.0
 40
0.0
 40
1.0
 40
1.0
 40
1.0
 40
1.0
 10
722.9376540511
 20
160.0574101504
 30
0.0
 10
722.8913287045
 20
160.0716916862
 30
0.0
 10
722.842255904
 20
160.0786233539
 30
0.0
 10
722.7937791054
 20
160.0786233539
 30
0.0
  0
SPLINE
  5
45D
100
AcDbEntity
  8
0
100
AcDbSpline
 62
7
  6
CONTINUOUS
 70
0
 71
3
 72
11
 73
7
 74
0
 42
0.0000001
 43
0.0000001
 44
0.0000000001
 40
0.0
 40
0.0
 40
0.0
 40
0.0
 40
0.2779817175
 40
0.5346952233
 40
0.772857858
 40
1.0
 40
1.0
 40
1.0
 40
1.0
 10
722.9158404354
 20
157.21985492
 30
0.0
 10
723.0420233851
 20
157.2881830753
 30
0.0
 10
723.2732111463
 20
157.4433151341
 30
0.0
 10
723.5479419086
 20
157.738182251
 30
0.0
 10
723.7222088331
 20
158.0734391821
 30
0.0
 10
723.762556322
 20
158.3152271425
 30
0.0
 10
723.762556322
 20
158.4324787673
 30
0.0
  0
SPLINE
  5
45E
100
AcDbEntity
  8
0
100
AcDbSpline
 62
7
  6
CONTINUOUS
 70
0
 71
3
 72
9
 73
5
 74
0
 42
0.0000001
 43
0.0000001
 44
0.0000000001
 40
0.0
 40
0.0
 40
0.0
 40
0.0
 40
0.2591205677
 40
1.0
 40
1.0
 40
1.0
 40
1.0
 10
722.8064009922
 20
157.1936276866
 30
0.0
 10
722.8161748397
 20
157.1936276866
 30
0.0
 10
722.8538269923
 20
157.1957848485
 30
0.0
 10
722.8912665121
 20
157.2065481233
 30
0.0
 10
722.9158404354
 20
157.21985492
 30
0.0
  0
SPLINE
  5
45F
100
AcDbEntity
  8
RUNDUNGEN
100
AcDbSpline
 62
7
  6
CONTINUOUS
 70
0
 71
3
 72
11
 73
7
 74
0
 42
0.0000001
 43
0.0000001
 44
0.0000000001
 40
0.0
 40
0.0
 40
0.0
 40
0.0
 40
0.2880068215
 40
0.5553366529
 40
0.7905059061
 40
1.0
 40
1.0
 40
1.0
 40
1.0
 10
699.4953975088
 20
127.0708788081
 30
0.0
 10
699.534047241
 20
127.0708788081
 30
0.0
 10
699.6090454005
 20
127.0809750172
 30
0.0
 10
699.7072221355
 20
127.1253970415
 30
0.0
 10
699.7771460151
 20
127.1945129366
 30
0.0
 10
699.7953975088
 20
127.2548973048
 30
0.0
 10
699.7953975088
 20
127.2830108424
 30
0.0
  0
SPLINE
  5
460
100
AcDbEntity
  8
RUNDUNGEN
100
AcDbSpline
 62
7
  6
CONTINUOUS
 70
0
 71
3
 72
13
 73
9
 74
0
 42
0.0000001
 43
0.0000001
 44
0.0000000001
 40
0.0
 40
0.0
 40
0.0
 40
0.0
 40
0.1034546555
 40
0.2106690395
 40
0.3244963599
 40
0.4464318111
 40
0.7129511617
 40
1.0
 40
1.0
 40
1.0
 40
1.0
 10
695.2953975088
 20
129.1921991516
 30
0.0
 10
695.2953975088
 20
129.0529194978
 30
0.0
 10
695.335816937
 20
128.7678518953
 30
0.0
 10
695.5126900431
 20
128.3633508866
 30
0.0
 10
695.796412997
 20
127.9939194699
 30
0.0
 10
696.3149997373
 20
127.5535099492
 30
0.0
 10
697.1598840717
 20
127.1715052301
 30
0.0
 10
697.9089474002
 20
127.0708788081
 30
0.0
 10
698.2953975088
 20
127.0708788081
 30
0.0
  0
SPLINE
  5
461
100
AcDbEntity
  8
RUNDUNGEN
100
AcDbSpline
 62
7
  6
CONTINUOUS
 70
0
 71
3
 72
10
 73
6
 74
0
 42
0.0000001
 43
0.0000001
 44
0.0000000001
 40
0.0
 40
0.0
 40
0.0
 40
0.0
 40
0.4808964563
 40
0.7459158441
 40
1.0
 40
1.0
 40
1.0
 40
1.0
 10
692.0349586645
 20
163.1357757382
 30
0.0
 10
692.1843982918
 20
162.9848636613
 30
0.0
 10
692.5213363688
 20
162.8553103063
 30
0.0
 10
692.9634761367
 20
162.8630886679
 30
0.0
 10
693.187851739
 20
162.9297016938
 30
0.0
 10
693.2884142971
 20
162.9794923783
 30
0.0
  0
SPLINE
  5
462
100
AcDbEntity
  8
RUNDUNGEN
100
AcDbSpline
 62
7
  6
CONTINUOUS
 70
0
 71
3
 72
9
 73
5
 74
0
 42
0.0000001
 43
0.0000001
 44
0.0000000001
 40
0.0
 40
0.0
 40
0.0
 40
0.0
 40
0.5194815986
 40
1.0
 40
1.0
 40
1.0
 40
1.0
 10
742.0516456039
 20
165.8581471753
 30
0.0
 10
742.106869518
 20
165.9139152183
 30
0.0
 10
742.1980439478
 20
166.0390267809
 30
0.0
 10
742.2325332085
 20
166.1915366786
 30
0.0
 10
742.2324855058
 20
166.2641341496
 30
0.0
  0
SPLINE
  5
463
100
AcDbEntity
  8
RUNDUNGEN
100
AcDbSpline
 62
7
  6
CONTINUOUS
 70
0
 71
3
 72
13
 73
9
 74
0
 42
0.0000001
 43
0.0000001
 44
0.0000000001
 40
0.0
 40
0.0
 40
0.0
 40
0.0
 40
0.2870490624
 40
0.5535683755
 40
0.6755038246
 40
0.7893311355
 40
0.8965454157
 40
1.0
 40
1.0
 40
1.0
 40
1.0
 10
733.0953975088
 20
127.0708788081
 30
0.0
 10
733.4818479189
 20
127.0708788081
 30
0.0
 10
734.2309115162
 20
127.171505326
 30
0.0
 10
735.0757959747
 20
127.5535103781
 30
0.0
 10
735.5943825473
 20
127.9939200019
 30
0.0
 10
735.8781052462
 20
128.3633514161
 30
0.0
 10
736.054978166
 20
128.7678522239
 30
0.0
 10
736.0953975088
 20
129.0529195936
 30
0.0
 10
736.0953975088
 20
129.1921991516
 30
0.0
  0
SPLINE
  5
464
100
AcDbEntity
  8
RUNDUNGEN
100
AcDbSpline
 62
7
  6
CONTINUOUS
 70
0
 71
3
 72
11
 73
7
 74
0
 42
0.0000001
 43
0.0000001
 44
0.0000000001
 40
0.0
 40
0.0
 40
0.0
 40
0.0
 40
0.2094942263
 40
0.444667264
 40
0.7119932261
 40
1.0
 40
1.0
 40
1.0
 40
1.0
 10
731.5953975088
 20
127.2830108424
 30
0.0
 10
731.5953975088
 20
127.2548972893
 30
0.0
 10
731.6136493531
 20
127.1945124575
 30
0.0
 10
731.6835734182
 20
127.1253966994
 30
0.0
 10
731.7817501321
 20
127.0809748102
 30
0.0
 10
731.8567477862
 20
127.0708788081
 30
0.0
 10
731.8953975088
 20
127.0708788081
 30
0.0
  0
SPLINE
  5
465
100
AcDbEntity
  8
RUNDUNGEN
100
AcDbSpline
 62
7
  6
CONTINUOUS
 70
0
 71
3
 72
9
 73
5
 74
0
 42
0.0000001
 43
0.0000001
 44
0.0000000001
 40
0.0
 40
0.0
 40
0.0
 40
0.0
 40
0.4729729907
 40
1.0
 40
1.0
 40
1.0
 40
1.0
 10
721.8107210312
 20
133.0666286132
 30
0.0
 10
722.1066299593
 20
132.7678040529
 30
0.0
 10
722.9041479872
 20
132.3053551881
 30
0.0
 10
723.79956976
 20
132.1620476326
 30
0.0
 10
724.2681771641
 20
132.1620476326
 30
0.0
  0
SPLINE
  5
466
100
AcDbEntity
  8
RUNDUNGEN
100
AcDbSpline
 62
7
  6
CONTINUOUS
 70
0
 71
3
 72
9
 73
5
 74
0
 42
0.0000001
 43
0.0000001
 44
0.0000000001
 40
0.0
 40
0.0
 40
0.0
 40
0.0
 40
0.5270273161
 40
1.0
 40
1.0
 40
1.0
 40
1.0
 10
707.1226178535
 20
132.1620476326
 30
0.0
 10
707.5912255309
 20
132.1620476326
 30
0.0
 10
708.4866473319
 20
132.3053552747
 30
0.0
 10
709.2841652498
 20
132.7678042464
 30
0.0
 10
709.5800739863
 20
133.0666286132
 30
0.0
  0
SPLINE
  5
467
100
AcDbEntity
  8
RUNDUNGEN
100
AcDbSpline
 62
7
  6
CONTINUOUS
 70
0
 71
3
 72
13
 73
9
 74
0
 42
0.0000001
 43
0.0000001
 44
0.0000000001
 40
0.0
 40
0.0
 40
0.0
 40
0.0
 40
0.1034546555
 40
0.2106690395
 40
0.3244963599
 40
0.4464318111
 40
0.7129511617
 40
1.0
 40
1.0
 40
1.0
 40
1.0
 10
699.7953975088
 20
130.0407272891
 30
0.0
 10
699.7953975088
 20
130.1800069429
 30
0.0
 10
699.835816937
 20
130.4650745454
 30
0.0
 10
700.0126900431
 20
130.8695755541
 30
0.0
 10
700.296412997
 20
131.2390069708
 30
0.0
 10
700.8149997373
 20
131.6794164915
 30
0.0
 10
701.6598840717
 20
132.0614212105
 30
0.0
 10
702.4089474002
 20
132.1620476326
 30
0.0
 10
702.7953975088
 20
132.1620476326
 30
0.0
  0
SPLINE
  5
468
100
AcDbEntity
  8
RUNDUNGEN
100
AcDbSpline
 62
7
  6
CONTINUOUS
 70
0
 71
3
 72
13
 73
9
 74
0
 42
0.0000001
 43
0.0000001
 44
0.0000000001
 40
0.0
 40
0.0
 40
0.0
 40
0.0
 40
0.2870490624
 40
0.5535683755
 40
0.6755038246
 40
0.7893311355
 40
0.8965454157
 40
1.0
 40
1.0
 40
1.0
 40
1.0
 10
728.5953975088
 20
132.1620476326
 30
0.0
 10
728.9818479189
 20
132.1620476326
 30
0.0
 10
729.7309115162
 20
132.0614211147
 30
0.0
 10
730.5757959747
 20
131.6794160626
 30
0.0
 10
731.0943825473
 20
131.2390064388
 30
0.0
 10
731.3781052462
 20
130.8695750246
 30
0.0
 10
731.554978166
 20
130.4650742168
 30
0.0
 10
731.5953975088
 20
130.1800068471
 30
0.0
 10
731.5953975088
 20
130.0407272891
 30
0.0
  0
SPLINE
  5
469
100
AcDbEntity
  8
RUNDUNGEN
100
AcDbSpline
 62
7
  6
CONTINUOUS
 70
0
 71
3
 72
13
 73
9
 74
0
 42
0.0000001
 43
0.0000001
 44
0.0000000001
 40
0.0
 40
0.0
 40
0.0
 40
0.0
 40
0.2360077172
 40
0.3661261163
 40
0.500000078
 40
0.6338740716
 40
0.7639924399
 40
1.0
 40
1.0
 40
1.0
 40
1.0
 10
712.7464501493
 20
136.2642035241
 30
0.0
 10
713.1015397196
 20
136.6227918417
 30
0.0
 10
713.8069958942
 20
137.0313779599
 30
0.0
 10
714.8429783303
 20
137.301840079
 30
0.0
 10
715.695398094
 20
137.3739714928
 30
0.0
 10
716.547817777
 20
137.3018399012
 30
0.0
 10
717.5837998368
 20
137.0313776383
 30
0.0
 10
718.2892555343
 20
136.622791603
 30
0.0
 10
718.6443448682
 20
136.2642035241
 30
0.0
  0
SPLINE
  5
46A
100
AcDbEntity
  8
RUNDUNGEN
100
AcDbSpline
 62
7
  6
CONTINUOUS
 70
0
 71
3
 72
9
 73
5
 74
0
 42
0.0000001
 43
0.0000001
 44
0.0000000001
 40
0.0
 40
0.0
 40
0.0
 40
0.0
 40
0.5134149467
 40
1.0
 40
1.0
 40
1.0
 40
1.0
 10
704.7561470759
 20
146.5243414028
 30
0.0
 10
705.0310064771
 20
146.8019090322
 30
0.0
 10
705.5218377118
 20
147.389471516
 30
0.0
 10
705.8889439074
 20
148.0630607789
 30
0.0
 10
706.0291358284
 20
148.4057067288
 30
0.0
  0
SPLINE
  5
46B
100
AcDbEntity
  8
RUNDUNGEN
100
AcDbSpline
 62
7
  6
CONTINUOUS
 70
0
 71
3
 72
11
 73
7
 74
0
 42
0.0000001
 43
0.0000001
 44
0.0000000001
 40
0.0
 40
0.0
 40
0.0
 40
0.0
 40
0.2660806488
 40
0.5190943636
 40
0.7622194616
 40
1.0
 40
1.0
 40
1.0
 40
1.0
 10
704.7561470759
 20
150.289243675
 30
0.0
 10
705.0117193504
 20
150.0311532111
 30
0.0
 10
705.4717333673
 20
149.4868842513
 30
0.0
 10
705.9925011408
 20
148.579017419
 30
0.0
 10
706.3117729213
 20
147.6221787588
 30
0.0
 10
706.3837786888
 20
146.9636124476
 30
0.0
 10
706.3837786773
 20
146.6390253154
 30
0.0
  0
SPLINE
  5
46C
100
AcDbEntity
  8
RUNDUNGEN
100
AcDbSpline
 62
7
  6
CONTINUOUS
 70
0
 71
3
 72
10
 73
6
 74
0
 42
0.0000001
 43
0.0000001
 44
0.0000000001
 40
0.0
 40
0.0
 40
0.0
 40
0.0
 40
0.2540843695
 40
0.5191023225
 40
1.0
 40
1.0
 40
1.0
 40
1.0
 10
695.2543792034
 20
163.9528838687
 30
0.0
 10
695.4219836012
 20
164.0358684093
 30
0.0
 10
695.7959421011
 20
164.1468897149
 30
0.0
 10
696.5328415546
 20
164.1598542702
 30
0.0
 10
697.0944052561
 20
163.9439323592
 30
0.0
 10
697.3434719243
 20
163.6924116022
 30
0.0
  0
SPLINE
  5
46D
100
AcDbEntity
  8
RUNDUNGEN
100
AcDbSpline
 62
7
  6
CONTINUOUS
 70
0
 71
3
 72
9
 73
5
 74
0
 42
0.0000001
 43
0.0000001
 44
0.0000000001
 40
0.0
 40
0.0
 40
0.0
 40
0.0
 40
0.5194825986
 40
1.0
 40
1.0
 40
1.0
 40
1.0
 10
699.0642012334
 20
161.9547277062
 30
0.0
 10
699.1470368563
 20
161.8710758922
 30
0.0
 10
699.2837977724
 20
161.6834095246
 30
0.0
 10
699.3355322944
 20
161.4546461253
 30
0.0
 10
699.335461194
 20
161.345750681
 30
0.0
  0
SPLINE
  5
46E
100
AcDbEntity
  8
RUNDUNGEN
100
AcDbSpline
 62
7
  6
CONTINUOUS
 70
0
 71
3
 72
11
 73
7
 74
0
 42
0.0000001
 43
0.0000001
 44
0.0000000001
 40
0.0
 40
0.0
 40
0.0
 40
0.0
 40
0.2524375529
 40
0.5157480446
 40
0.7702932073
 40
1.0
 40
1.0
 40
1.0
 40
1.0
 10
727.0012257681
 20
167.1393993943
 30
0.0
 10
727.336417214
 20
166.9734389033
 30
0.0
 10
728.0817506887
 20
166.7505430689
 30
0.0
 10
729.2361364995
 20
166.7343578133
 30
0.0
 10
730.3209729496
 20
167.0191587569
 30
0.0
 10
730.9399317477
 20
167.4185048403
 30
0.0
 10
731.17941121
 20
167.6603439273
 30
0.0
  0
SPLINE
  5
46F
100
AcDbEntity
  8
RUNDUNGEN
100
AcDbSpline
 62
7
  6
CONTINUOUS
 70
0
 71
3
 72
11
 73
7
 74
0
 42
0.0000001
 43
0.0000001
 44
0.0000000001
 40
0.0
 40
0.0
 40
0.0
 40
0.0
 40
0.2297109937
 40
0.4842558728
 40
0.7475644511
 40
1.0
 40
1.0
 40
1.0
 40
1.0
 10
703.8975680068
 20
169.4854529718
 30
0.0
 10
704.1370518483
 20
169.2436094624
 30
0.0
 10
704.7560175058
 20
168.8442618501
 30
0.0
 10
705.8408580313
 20
168.5594655868
 30
0.0
 10
706.9952372939
 20
168.5756543183
 30
0.0
 10
707.7405646644
 20
168.7985492656
 30
0.0
 10
708.0757534487
 20
168.9645084388
 30
0.0
  0
SPLINE
  5
470
100
AcDbEntity
  8
0
100
AcDbSpline
 62
7
  6
CONTINUOUS
 70
0
 71
3
 72
9
 73
5
 74
0
 42
0.0000001
 43
0.0000001
 44
0.0000000001
 40
0.0
 40
0.0
 40
0.0
 40
0.0
 40
0.4402133985
 40
1.0
 40
1.0
 40
1.0
 40
1.0
 10
708.3830368676
 20
157.7324430539
 30
0.0
 10
708.3830368676
 20
157.7185355256
 30
0.0
 10
708.4044555412
 20
157.6882502329
 30
0.0
 10
708.4373516994
 20
157.6815313656
 30
0.0
 10
708.4550368676
 20
157.6815313656
 30
0.0
  0
SPLINE
  5
471
100
AcDbEntity
  8
0
100
AcDbSpline
 62
7
  6
CONTINUOUS
 70
0
 71
3
 72
9
 73
5
 74
0
 42
0.0000001
 43
0.0000001
 44
0.0000000001
 40
0.0
 40
0.0
 40
0.0
 40
0.0
 40
0.5
 40
1.0
 40
1.0
 40
1.0
 40
1.0
 10
716.0431878292
 20
158.050298041
 30
0.0
 10
716.1568643698
 20
157.3932916781
 30
0.0
 10
717.7387582567
 20
156.5847979832
 30
0.0
 10
719.3206521435
 20
157.3932916781
 30
0.0
 10
719.4343286842
 20
158.050298041
 30
0.0
  0
SPLINE
  5
472
100
AcDbEntity
  8
RUNDUNGEN
100
AcDbSpline
 62
7
  6
CONTINUOUS
 70
0
 71
3
 72
11
 73
7
 74
0
 42
0.0000001
 43
0.0000001
 44
0.0000000001
 40
0.0
 40
0.0
 40
0.0
 40
0.0
 40
0.2256927635
 40
0.4632951072
 40
0.7206222905
 40
1.0
 40
1.0
 40
1.0
 40
1.0
 10
699.335461194
 20
161.345750681
 30
0.0
 10
699.3354055625
 20
161.260547016
 30
0.0
 10
699.304419219
 20
161.0844178149
 30
0.0
 10
699.1717530817
 20
160.8423136459
 30
0.0
 10
698.9639840457
 20
160.6322670631
 30
0.0
 10
698.7903575511
 20
160.5243148269
 30
0.0
 10
698.6958378215
 20
160.4775160767
 30
0.0
  0
SPLINE
  5
473
100
AcDbEntity
  8
0
100
AcDbSpline
 62
7
  6
CONTINUOUS
 70
0
 71
3
 72
9
 73
5
 74
0
 42
0.0000001
 43
0.0000001
 44
0.0000000001
 40
0.0
 40
0.0
 40
0.0
 40
0.0
 40
0.4402133985
 40
1.0
 40
1.0
 40
1.0
 40
1.0
 10
708.8780368676
 20
158.8185590698
 30
0.0
 10
708.8780368676
 20
158.8324665981
 30
0.0
 10
708.856618194
 20
158.8627518908
 30
0.0
 10
708.8237220358
 20
158.869470758
 30
0.0
 10
708.8060368676
 20
158.869470758
 30
0.0
  0
SPLINE
  5
474
100
AcDbEntity
  8
0
100
AcDbSpline
 62
7
  6
CONTINUOUS
 70
0
 71
3
 72
11
 73
7
 74
0
 42
0.0000001
 43
0.0000001
 44
0.0000000001
 40
0.0
 40
0.0
 40
0.0
 40
0.0
 40
0.2094656921
 40
0.4446574861
 40
0.7119998836
 40
1.0
 40
1.0
 40
1.0
 40
1.0
 10
714.6164064541
 20
159.2329943373
 30
0.0
 10
714.6164064541
 20
159.2938893253
 30
0.0
 10
714.5768728769
 20
159.4246949144
 30
0.0
 10
714.4254246784
 20
159.5744630142
 30
0.0
 10
714.2127101656
 20
159.6706580394
 30
0.0
 10
714.0502438352
 20
159.6925430513
 30
0.0
 10
713.9665176485
 20
159.6925430513
 30
0.0
  0
SPLINE
  5
475
100
AcDbEntity
  8
0
100
AcDbSpline
 62
7
  6
CONTINUOUS
 70
0
 71
3
 72
9
 73
5
 74
0
 42
0.0000001
 43
0.0000001
 44
0.0000000001
 40
0.0
 40
0.0
 40
0.0
 40
0.0
 40
0.4402133985
 40
1.0
 40
1.0
 40
1.0
 40
1.0
 10
708.3830368676
 20
158.7931032257
 30
0.0
 10
708.3830368676
 20
158.7791956974
 30
0.0
 10
708.4044555412
 20
158.7489104047
 30
0.0
 10
708.4373516994
 20
158.7421915374
 30
0.0
 10
708.4550368676
 20
158.7421915374
 30
0.0
  0
SPLINE
  5
476
100
AcDbEntity
  8
0
100
AcDbSpline
 62
7
  6
CONTINUOUS
 70
0
 71
3
 72
11
 73
7
 74
0
 42
0.0000001
 43
0.0000001
 44
0.0000000001
 40
0.0
 40
0.0
 40
0.0
 40
0.0
 40
0.2094929298
 40
0.4446655277
 40
0.7119947494
 40
1.0
 40
1.0
 40
1.0
 40
1.0
 10
706.9430368676
 20
157.0239220591
 30
0.0
 10
706.9430368676
 20
156.9901860059
 30
0.0
 10
706.9649385029
 20
156.9177243127
 30
0.0
 10
707.0488480111
 20
156.8347856259
 30
0.0
 10
707.1666598967
 20
156.7814786076
 30
0.0
 10
707.2566574481
 20
156.7693636179
 30
0.0
 10
707.3030368676
 20
156.7693636179
 30
0.0
  0
SPLINE
  5
477
100
AcDbEntity
  8
0
100
AcDbSpline
 62
7
  6
CONTINUOUS
 70
0
 71
3
 72
11
 73
7
 74
0
 42
0.0000001
 43
0.0000001
 44
0.0000000001
 40
0.0
 40
0.0
 40
0.0
 40
0.0
 40
0.2880052506
 40
0.5553344723
 40
0.7905070702
 40
1.0
 40
1.0
 40
1.0
 40
1.0
 10
710.1830368676
 20
156.7693636179
 30
0.0
 10
710.2294162871
 20
156.7693636179
 30
0.0
 10
710.3194138385
 20
156.7814786076
 30
0.0
 10
710.4372257241
 20
156.8347856259
 30
0.0
 10
710.5211352323
 20
156.9177243127
 30
0.0
 10
710.5430368676
 20
156.9901860059
 30
0.0
 10
710.5430368676
 20
157.0239220591
 30
0.0
  0
SPLINE
  5
478
100
AcDbEntity
  8
0
100
AcDbSpline
 62
7
  6
CONTINUOUS
 70
0
 71
3
 72
11
 73
7
 74
0
 42
0.0000001
 43
0.0000001
 44
0.0000000001
 40
0.0
 40
0.0
 40
0.0
 40
0.0
 40
0.2094668498
 40
0.4446559298
 40
0.7120302568
 40
1.0
 40
1.0
 40
1.0
 40
1.0
 10
709.3730368676
 20
158.1694350447
 30
0.0
 10
709.3730368676
 20
158.1863010895
 30
0.0
 10
709.3620835898
 20
158.2225284576
 30
0.0
 10
709.3201395975
 20
158.2640143654
 30
0.0
 10
709.2612211034
 20
158.2906521467
 30
0.0
 10
709.2162238808
 20
158.2967142653
 30
0.0
 10
709.1930368676
 20
158.2967142653
 30
0.0
  0
SPLINE
  5
479
100
AcDbEntity
  8
0
100
AcDbSpline
 62
7
  6
CONTINUOUS
 70
0
 71
3
 72
9
 73
5
 74
0
 42
0.0000001
 43
0.0000001
 44
0.0000000001
 40
0.0
 40
0.0
 40
0.0
 40
0.0
 40
0.7407738242
 40
1.0
 40
1.0
 40
1.0
 40
1.0
 10
706.9430368676
 20
157.2360540935
 30
0.0
 10
706.9430368676
 20
157.2109032865
 30
0.0
 10
706.9506226924
 20
157.176523265
 30
0.0
 10
706.9659966938
 20
157.1462359803
 30
0.0
 10
706.9704402359
 20
157.1386387955
 30
0.0
  0
SPLINE
  5
47A
100
AcDbEntity
  8
0
100
AcDbSpline
 62
7
  6
CONTINUOUS
 70
0
 71
3
 72
9
 73
5
 74
0
 42
0.0000001
 43
0.0000001
 44
0.0000000001
 40
0.0
 40
0.0
 40
0.0
 40
0.0
 40
0.461013727
 40
1.0
 40
1.0
 40
1.0
 40
1.0
 10
706.9704402359
 20
157.1386387955
 30
0.0
 10
706.999889128
 20
157.0882896206
 30
0.0
 10
707.106904124
 20
157.0054354948
 30
0.0
 10
707.2348424758
 20
156.9814956523
 30
0.0
 10
707.3030368676
 20
156.9814956523
 30
0.0
  0
SPLINE
  5
47B
100
AcDbEntity
  8
0
100
AcDbSpline
 62
7
  6
CONTINUOUS
 70
0
 71
3
 72
11
 73
7
 74
0
 42
0.0000001
 43
0.0000001
 44
0.0000000001
 40
0.0
 40
0.0
 40
0.0
 40
0.0
 40
0.2879697432
 40
0.5553440702
 40
0.7905331502
 40
1.0
 40
1.0
 40
1.0
 40
1.0
 10
708.2930368676
 20
158.2967142653
 30
0.0
 10
708.2698498544
 20
158.2967142653
 30
0.0
 10
708.2248526319
 20
158.2906521467
 30
0.0
 10
708.1659341378
 20
158.2640143654
 30
0.0
 10
708.1239901454
 20
158.2225284576
 30
0.0
 10
708.1130368676
 20
158.1863010895
 30
0.0
 10
708.1130368676
 20
158.1694350447
 30
0.0
  0
SPLINE
  5
47C
100
AcDbEntity
  8
0
100
AcDbSpline
 62
7
  6
CONTINUOUS
 70
0
 71
3
 72
11
 73
7
 74
0
 42
0.0000001
 43
0.0000001
 44
0.0000000001
 40
0.0
 40
0.0
 40
0.0
 40
0.0
 40
0.2879697432
 40
0.5553440702
 40
0.7905331502
 40
1.0
 40
1.0
 40
1.0
 40
1.0
 10
708.2930368676
 20
159.5695064714
 30
0.0
 10
708.2698498544
 20
159.5695064714
 30
0.0
 10
708.2248526319
 20
159.5634443528
 30
0.0
 10
708.1659341378
 20
159.5368065715
 30
0.0
 10
708.1239901454
 20
159.4953206637
 30
0.0
 10
708.1130368676
 20
159.4590932956
 30
0.0
 10
708.1130368676
 20
159.4422272508
 30
0.0
  0
SPLINE
  5
47D
100
AcDbEntity
  8
0
100
AcDbSpline
 62
7
  6
CONTINUOUS
 70
0
 71
3
 72
9
 73
5
 74
0
 42
0.0000001
 43
0.0000001
 44
0.0000000001
 40
0.0
 40
0.0
 40
0.0
 40
0.0
 40
0.5597866015
 40
1.0
 40
1.0
 40
1.0
 40
1.0
 10
708.6800368676
 20
158.869470758
 30
0.0
 10
708.6623516994
 20
158.869470758
 30
0.0
 10
708.6294555412
 20
158.8627518908
 30
0.0
 10
708.6080368676
 20
158.8324665981
 30
0.0
 10
708.6080368676
 20
158.8185590698
 30
0.0
  0
SPLINE
  5
47E
100
AcDbEntity
  8
0
100
AcDbSpline
 62
7
  6
CONTINUOUS
 70
0
 71
3
 72
9
 73
5
 74
0
 42
0.0000001
 43
0.0000001
 44
0.0000000001
 40
0.0
 40
0.0
 40
0.0
 40
0.0
 40
0.5597866015
 40
1.0
 40
1.0
 40
1.0
 40
1.0
 10
709.0310368676
 20
158.7421915374
 30
0.0
 10
709.0487220358
 20
158.7421915374
 30
0.0
 10
709.081618194
 20
158.7489104047
 30
0.0
 10
709.1030368676
 20
158.7791956974
 30
0.0
 10
709.1030368676
 20
158.7931032257
 30
0.0
  0
SPLINE
  5
47F
100
AcDbEntity
  8
0
100
AcDbSpline
 62
7
  6
CONTINUOUS
 70
0
 71
3
 72
9
 73
5
 74
0
 42
0.0000001
 43
0.0000001
 44
0.0000000001
 40
0.0
 40
0.0
 40
0.0
 40
0.0
 40
0.5597866015
 40
1.0
 40
1.0
 40
1.0
 40
1.0
 10
709.0310368676
 20
157.4693993313
 30
0.0
 10
709.0487220358
 20
157.4693993313
 30
0.0
 10
709.081618194
 20
157.4761181985
 30
0.0
 10
709.1030368676
 20
157.5064034912
 30
0.0
 10
709.1030368676
 20
157.5203110195
 30
0.0
  0
SPLINE
  5
480
100
AcDbEntity
  8
RUNDUNGEN
100
AcDbSpline
 62
7
  6
CONTINUOUS
 70
0
 71
3
 72
11
 73
7
 74
0
 42
0.0000001
 43
0.0000001
 44
0.0000000001
 40
0.0
 40
0.0
 40
0.0
 40
0.0
 40
0.237780559
 40
0.4809056754
 40
0.7339193747
 40
1.0
 40
1.0
 40
1.0
 40
1.0
 10
706.3837786773
 20
146.6390253154
 30
0.0
 10
706.3837786658
 20
146.3144381976
 30
0.0
 10
706.3117728065
 20
145.6558719274
 30
0.0
 10
705.9925009631
 20
144.6990333995
 30
0.0
 10
705.4717332318
 20
143.7911667364
 30
0.0
 10
705.0117192943
 20
143.2468979042
 30
0.0
 10
704.7561470759
 20
142.9888074969
 30
0.0
  0
SPLINE
  5
481
100
AcDbEntity
  8
RUNDUNGEN
100
AcDbSpline
 62
7
  6
CONTINUOUS
 70
0
 71
3
 72
9
 73
5
 74
0
 42
0.0000001
 43
0.0000001
 44
0.0000000001
 40
0.0
 40
0.0
 40
0.0
 40
0.0
 40
0.4805366099
 40
1.0
 40
1.0
 40
1.0
 40
1.0
 10
736.0953975088
 20
132.7659901036
 30
0.0
 10
736.0953975088
 20
132.9836001329
 30
0.0
 10
735.9916627829
 20
133.4406265526
 30
0.0
 10
735.718374537
 20
133.8155776706
 30
0.0
 10
735.5528536416
 20
133.9827294666
 30
0.0
  0
SPLINE
  5
482
100
AcDbEntity
  8
RUNDUNGEN
100
AcDbSpline
 62
7
  6
CONTINUOUS
 70
0
 71
3
 72
10
 73
6
 74
0
 42
0.0000001
 43
0.0000001
 44
0.0000000001
 40
0.0
 40
0.0
 40
0.0
 40
0.0
 40
0.2265440382
 40
0.465040914
 40
1.0
 40
1.0
 40
1.0
 40
1.0
 10
742.2324855058
 20
166.2641341496
 30
0.0
 10
742.2324481818
 20
166.3209367181
 30
0.0
 10
742.2117435134
 20
166.4383952504
 30
0.0
 10
742.0897813544
 20
166.6612679631
 30
0.0
 10
741.9262759506
 20
166.7834383759
 30
0.0
 10
741.8060699959
 20
166.8429549283
 30
0.0
  0
SPLINE
  5
483
100
AcDbEntity
  8
0
100
AcDbSpline
 62
7
  6
CONTINUOUS
 70
0
 71
3
 72
11
 73
7
 74
0
 42
0.0000001
 43
0.0000001
 44
0.0000000001
 40
0.0
 40
0.0
 40
0.0
 40
0.0
 40
0.2865059912
 40
0.5484241175
 40
0.7833822346
 40
1.0
 40
1.0
 40
1.0
 40
1.0
 10
714.3398067599
 20
158.4296164353
 30
0.0
 10
714.4545170838
 20
158.4562664805
 30
0.0
 10
714.6695767512
 20
158.532095142
 30
0.0
 10
714.9385339134
 20
158.7170174006
 30
0.0
 10
715.1186028844
 20
158.956599082
 30
0.0
 10
715.1624284664
 20
159.1441458128
 30
0.0
 10
715.1624151095
 20
159.2331843413
 30
0.0
  0
SPLINE
  5
484
100
AcDbEntity
  8
0
100
AcDbSpline
 62
7
  6
CONTINUOUS
 70
0
 71
3
 72
9
 73
5
 74
0
 42
0.0000001
 43
0.0000001
 44
0.0000000001
 40
0.0
 40
0.0
 40
0.0
 40
0.0
 40
0.4402133985
 40
1.0
 40
1.0
 40
1.0
 40
1.0
 10
708.3830368676
 20
159.00523526
 30
0.0
 10
708.3830368676
 20
158.9913277317
 30
0.0
 10
708.4044555412
 20
158.961042439
 30
0.0
 10
708.4373516994
 20
158.9543235718
 30
0.0
 10
708.4550368676
 20
158.9543235718
 30
0.0
  0
SPLINE
  5
485
100
AcDbEntity
  8
0
100
AcDbSpline
 62
7
  6
CONTINUOUS
 70
0
 71
3
 72
8
 73
4
 74
0
 42
0.0000001
 43
0.0000001
 44
0.0000000001
 40
0.0
 40
0.0
 40
0.0
 40
0.0
 40
1.0
 40
1.0
 40
1.0
 40
1.0
 10
722.7937791054
 20
156.7693636179
 30
0.0
 10
722.842255904
 20
156.7693636179
 30
0.0
 10
722.8913287045
 20
156.7762952856
 30
0.0
 10
722.9376540511
 20
156.7905768213
 30
0.0
  0
SPLINE
  5
486
100
AcDbEntity
  8
0
100
AcDbSpline
 62
7
  6
CONTINUOUS
 70
0
 71
3
 72
11
 73
7
 74
0
 42
0.0000001
 43
0.0000001
 44
0.0000000001
 40
0.0
 40
0.0
 40
0.0
 40
0.0
 40
0.2847819434
 40
0.5451774547
 40
0.7807010719
 40
1.0
 40
1.0
 40
1.0
 40
1.0
 10
722.9376540511
 20
156.7905768213
 30
0.0
 10
723.1528112268
 20
156.8569071379
 30
0.0
 10
723.5532462031
 20
157.028477524
 30
0.0
 10
724.0472212619
 20
157.411613056
 30
0.0
 10
724.3725534445
 20
157.8876415652
 30
0.0
 10
724.450516709
 20
158.2506150231
 30
0.0
 10
724.450516709
 20
158.4239934859
 30
0.0
  0
SPLINE
  5
487
100
AcDbEntity
  8
0
100
AcDbSpline
 62
7
  6
CONTINUOUS
 70
0
 71
3
 72
9
 73
5
 74
0
 42
0.0000001
 43
0.0000001
 44
0.0000000001
 40
0.0
 40
0.0
 40
0.0
 40
0.0
 40
0.239729366
 40
1.0
 40
1.0
 40
1.0
 40
1.0
 10
722.9158404354
 20
159.6451026146
 30
0.0
 10
722.9078865908
 20
159.6494096269
 30
0.0
 10
722.8734275106
 20
159.6649689731
 30
0.0
 10
722.8350863842
 20
159.6713298479
 30
0.0
 10
722.8064009922
 20
159.6713298479
 30
0.0
  0
SPLINE
  5
488
100
AcDbEntity
  8
0
100
AcDbSpline
 62
7
  6
CONTINUOUS
 70
0
 71
3
 72
11
 73
7
 74
0
 42
0.0000001
 43
0.0000001
 44
0.0000000001
 40
0.0
 40
0.0
 40
0.0
 40
0.0
 40
0.2094668498
 40
0.4446559298
 40
0.7120302568
 40
1.0
 40
1.0
 40
1.0
 40
1.0
 10
709.3730368676
 20
159.4422272508
 30
0.0
 10
709.3730368676
 20
159.4590932956
 30
0.0
 10
709.3620835898
 20
159.4953206637
 30
0.0
 10
709.3201395975
 20
159.5368065715
 30
0.0
 10
709.2612211034
 20
159.5634443528
 30
0.0
 10
709.2162238808
 20
159.5695064714
 30
0.0
 10
709.1930368676
 20
159.5695064714
 30
0.0
  0
SPLINE
  5
489
100
AcDbEntity
  8
RUNDUNGEN
100
AcDbSpline
 62
7
  6
CONTINUOUS
 70
0
 71
3
 72
9
 73
5
 74
0
 42
0.0000001
 43
0.0000001
 44
0.0000000001
 40
0.0
 40
0.0
 40
0.0
 40
0.0
 40
0.5194635453
 40
1.0
 40
1.0
 40
1.0
 40
1.0
 10
695.8379413759
 20
133.9827294666
 30
0.0
 10
695.6724204309
 20
133.8155776206
 30
0.0
 10
695.3991321973
 20
133.4406264798
 30
0.0
 10
695.2953975088
 20
132.9836000627
 30
0.0
 10
695.2953975088
 20
132.7659901036
 30
0.0
  0
SPLINE
  5
48A
100
AcDbEntity
  8
RUNDUNGEN
100
AcDbSpline
 62
7
  6
CONTINUOUS
 70
0
 71
3
 72
10
 73
6
 74
0
 42
0.0000001
 43
0.0000001
 44
0.0000000001
 40
0.0
 40
0.0
 40
0.0
 40
0.0
 40
0.5349741761
 40
0.7734715455
 40
1.0
 40
1.0
 40
1.0
 40
1.0
 10
696.7298729152
 20
159.5041245863
 30
0.0
 10
696.6216786487
 20
159.4505552789
 30
0.0
 10
696.4745122632
 20
159.3405909196
 30
0.0
 10
696.3647534409
 20
159.13998678
 30
0.0
 10
696.3461270114
 20
159.0342702404
 30
0.0
 10
696.3460981299
 20
158.9831486758
 30
0.0
  0
SPLINE
  5
48B
100
AcDbEntity
  8
RUNDUNGEN
100
AcDbSpline
 62
7
  6
CONTINUOUS
 70
0
 71
3
 72
11
 73
7
 74
0
 42
0.0000001
 43
0.0000001
 44
0.0000000001
 40
0.0
 40
0.0
 40
0.0
 40
0.0
 40
0.2794013718
 40
0.5367226037
 40
0.7743080703
 40
1.0
 40
1.0
 40
1.0
 40
1.0
 10
691.2230291102
 20
167.6541145036
 30
0.0
 10
691.0338417537
 20
167.5604437762
 30
0.0
 10
690.6863462814
 20
167.3443503135
 30
0.0
 10
690.2706338283
 20
166.9238348214
 30
0.0
 10
690.0053944924
 20
166.4391295076
 30
0.0
 10
689.9437269757
 20
166.0865728662
 30
0.0
 10
689.9437598748
 20
165.9160472558
 30
0.0
  0
SPLINE
  5
48C
100
AcDbEntity
  8
RUNDUNGEN
100
AcDbSpline
 62
7
  6
CONTINUOUS
 70
0
 71
3
 72
12
 73
8
 74
0
 42
0.0000001
 43
0.0000001
 44
0.0000000001
 40
0.0
 40
0.0
 40
0.0
 40
0.0
 40
0.2295487253
 40
0.3548258153
 40
0.484620027
 40
0.7477431997
 40
1.0
 40
1.0
 40
1.0
 40
1.0
 10
703.1840089996
 20
166.67050887
 30
0.0
 10
702.5453861719
 20
167.3154241378
 30
0.0
 10
701.3322532568
 20
168.098187251
 30
0.0
 10
699.5233905595
 20
168.7384228926
 30
0.0
 10
697.5054117349
 20
169.133660821
 30
0.0
 10
694.9229673871
 20
169.096321694
 30
0.0
 10
692.9360153485
 20
168.5022508169
 30
0.0
 10
692.0421811545
 20
168.0596942913
 30
0.0
  0
SPLINE
  5
48D
100
AcDbEntity
  8
0
100
AcDbSpline
 62
7
  6
CONTINUOUS
 70
0
 71
3
 72
9
 73
5
 74
0
 42
0.0000001
 43
0.0000001
 44
0.0000000001
 40
0.0
 40
0.0
 40
0.0
 40
0.0
 40
0.2432212797
 40
1.0
 40
1.0
 40
1.0
 40
1.0
 10
720.8575854359
 20
166.6457138959
 30
0.0
 10
720.6531997407
 20
166.7469096476
 30
0.0
 10
719.7983327619
 20
167.1332756722
 30
0.0
 10
718.8923054419
 20
167.4035773064
 30
0.0
 10
718.1970861844
 20
167.5458284431
 30
0.0
  0
SPLINE
  5
48E
100
AcDbEntity
  8
0
100
AcDbSpline
 62
7
  6
CONTINUOUS
 70
0
 71
3
 72
9
 73
5
 74
0
 42
0.0000001
 43
0.0000001
 44
0.0000000001
 40
0.0
 40
0.0
 40
0.0
 40
0.0
 40
0.2565045474
 40
1.0
 40
1.0
 40
1.0
 40
1.0
 10
713.1937088332
 20
167.5458284431
 30
0.0
 10
712.9580818413
 20
167.4976160165
 30
0.0
 10
712.0454793573
 20
167.2821621413
 30
0.0
 10
711.1579568014
 20
166.9550396755
 30
0.0
 10
710.5332095816
 20
166.6457138959
 30
0.0
  0
SPLINE
  5
48F
100
AcDbEntity
  8
RUNDUNGEN
100
AcDbSpline
 62
7
  6
CONTINUOUS
 70
0
 71
3
 72
10
 73
6
 74
0
 42
0.0000001
 43
0.0000001
 44
0.0000000001
 40
0.0
 40
0.0
 40
0.0
 40
0.0
 40
0.2540840948
 40
0.5191023773
 40
1.0
 40
1.0
 40
1.0
 40
1.0
 10
737.3007337524
 20
169.0736437605
 30
0.0
 10
737.1889976076
 20
169.1289667279
 30
0.0
 10
736.9396919528
 20
169.2029810458
 30
0.0
 10
736.4484256267
 20
169.2116240068
 30
0.0
 10
736.0740496988
 20
169.0676760689
 30
0.0
 10
735.9080052717
 20
168.8999955828
 30
0.0
  0
SPLINE
  5
490
100
AcDbEntity
  8
BEZUGSACHSEN
100
AcDbSpline
 62
7
  6
CONTINUOUS
 70
0
 71
3
 72
11
 73
7
 74
0
 42
0.0000001
 43
0.0000001
 44
0.0000000001
 40
0.0
 40
0.0
 40
0.0
 40
0.0
 40
0.2188700834
 40
0.4542782218
 40
0.7149300925
 40
1.0
 40
1.0
 40
1.0
 40
1.0
 10
711.6953975088
 20
163.2711398389
 30
0.0
 10
711.6953975088
 20
162.9923864673
 30
0.0
 10
711.8226375175
 20
162.4082836966
 30
0.0
 10
712.3521271824
 20
161.6452257559
 30
0.0
 10
713.1541146129
 20
161.0349966993
 30
0.0
 10
713.8027796175
 20
160.7651017417
 30
0.0
 10
714.1509187494
 20
160.6620688646
 30
0.0
  0
SPLINE
  5
491
100
AcDbEntity
  8
BEZUGSACHSEN
100
AcDbSpline
 62
7
  6
CONTINUOUS
 70
0
 71
3
 72
11
 73
7
 74
0
 42
0.0000001
 43
0.0000001
 44
0.0000000001
 40
0.0
 40
0.0
 40
0.0
 40
0.0
 40
0.2850699075
 40
0.5457217782
 40
0.7811299166
 40
1.0
 40
1.0
 40
1.0
 40
1.0
 10
717.2398762682
 20
160.6620688646
 30
0.0
 10
717.5880154
 20
160.7651017417
 30
0.0
 10
718.2366804046
 20
161.0349966993
 30
0.0
 10
719.0386678352
 20
161.6452257559
 30
0.0
 10
719.5681575
 20
162.4082836966
 30
0.0
 10
719.6953975088
 20
162.9923864673
 30
0.0
 10
719.6953975088
 20
163.2711398389
 30
0.0
  0
SPLINE
  5
492
100
AcDbEntity
  8
0
100
AcDbSpline
 62
7
  6
CONTINUOUS
 70
0
 71
3
 72
11
 73
7
 74
0
 42
0.0000001
 43
0.0000001
 44
0.0000000001
 40
0.0
 40
0.0
 40
0.0
 40
0.0
 40
0.227142142
 40
0.4653047767
 40
0.7220182825
 40
1.0
 40
1.0
 40
1.0
 40
1.0
 10
723.762556322
 20
158.4324787673
 30
0.0
 10
723.762556322
 20
158.549730392
 30
0.0
 10
723.7222088331
 20
158.7915183524
 30
0.0
 10
723.5479419086
 20
159.1267752835
 30
0.0
 10
723.2732111463
 20
159.4216424004
 30
0.0
 10
723.0420233851
 20
159.5767744592
 30
0.0
 10
722.9158404354
 20
159.6451026146
 30
0.0
  0
SPLINE
  5
493
100
AcDbEntity
  8
0
100
AcDbSpline
 62
7
  6
CONTINUOUS
 70
0
 71
3
 72
17
 73
13
 74
0
 42
0.0000001
 43
0.0000001
 44
0.0000000001
 40
0.0
 40
0.0
 40
0.0
 40
0.0
 40
0.0517921087
 40
0.1054769531
 40
0.2228492041
 40
0.356284866
 40
0.5
 40
0.643715134
 40
0.7771507959
 40
0.8945230469
 40
0.9482078913
 40
1.0
 40
1.0
 40
1.0
 40
1.0
 10
716.0305176485
 20
157.984810346
 30
0.0
 10
716.0305176485
 20
157.9055087903
 30
0.0
 10
716.0535644441
 20
157.7431854662
 30
0.0
 10
716.1915707292
 20
157.4272472091
 30
0.0
 10
716.532408272
 20
157.0861747258
 30
0.0
 10
717.0920349195
 20
156.8347834674
 30
0.0
 10
717.7387582567
 20
156.7468875987
 30
0.0
 10
718.3854815938
 20
156.8347834674
 30
0.0
 10
718.9451082414
 20
157.0861747258
 30
0.0
 10
719.2859457842
 20
157.4272472091
 30
0.0
 10
719.4239520692
 20
157.7431854662
 30
0.0
 10
719.4469988649
 20
157.9055087903
 30
0.0
 10
719.4469988649
 20
157.984810346
 30
0.0
  0
SPLINE
  5
494
100
AcDbEntity
  8
0
100
AcDbSpline
 62
7
  6
CONTINUOUS
 70
0
 71
3
 72
9
 73
5
 74
0
 42
0.0000001
 43
0.0000001
 44
0.0000000001
 40
0.0
 40
0.0
 40
0.0
 40
0.0
 40
0.4402133985
 40
1.0
 40
1.0
 40
1.0
 40
1.0
 10
708.3830368676
 20
157.5203110195
 30
0.0
 10
708.3830368676
 20
157.5064034912
 30
0.0
 10
708.4044555412
 20
157.4761181985
 30
0.0
 10
708.4373516994
 20
157.4693993313
 30
0.0
 10
708.4550368676
 20
157.4693993313
 30
0.0
  0
SPLINE
  5
495
100
AcDbEntity
  8
0
100
AcDbSpline
 62
7
  6
CONTINUOUS
 70
0
 71
3
 72
8
 73
4
 74
0
 42
0.0000001
 43
0.0000001
 44
0.0000000001
 40
0.0
 40
0.0
 40
0.0
 40
0.0
 40
1.0
 40
1.0
 40
1.0
 40
1.0
 10
722.7937791054
 20
156.9814956523
 30
0.0
 10
722.842255904
 20
156.9814956523
 30
0.0
 10
722.8913287045
 20
156.9884273199
 30
0.0
 10
722.9376540511
 20
157.0027088557
 30
0.0
  0
SPLINE
  5
496
100
AcDbEntity
  8
0
100
AcDbSpline
 62
7
  6
CONTINUOUS
 70
0
 71
3
 72
11
 73
7
 74
0
 42
0.0000001
 43
0.0000001
 44
0.0000000001
 40
0.0
 40
0.0
 40
0.0
 40
0.0
 40
0.2816347582
 40
0.5420479832
 40
0.7798483853
 40
1.0
 40
1.0
 40
1.0
 40
1.0
 10
722.9376540511
 20
157.0027088557
 30
0.0
 10
723.1319791426
 20
157.0626168963
 30
0.0
 10
723.496350989
 20
157.2144463235
 30
0.0
 10
723.9589040452
 20
157.5451679765
 30
0.0
 10
724.2902593749
 20
157.9536406468
 30
0.0
 10
724.4072623327
 20
158.2714679421
 30
0.0
 10
724.4333073864
 20
158.4282767257
 30
0.0
  0
SPLINE
  5
497
100
AcDbEntity
  8
0
100
AcDbSpline
 62
7
  6
CONTINUOUS
 70
0
 71
3
 72
9
 73
5
 74
0
 42
0.0000001
 43
0.0000001
 44
0.0000000001
 40
0.0
 40
0.0
 40
0.0
 40
0.0
 40
0.2591205677
 40
1.0
 40
1.0
 40
1.0
 40
1.0
 10
722.8064009922
 20
159.8834618822
 30
0.0
 10
722.8161748397
 20
159.8834618822
 30
0.0
 10
722.8538269923
 20
159.8813047203
 30
0.0
 10
722.8912665121
 20
159.8705414455
 30
0.0
 10
722.9158404354
 20
159.8572346489
 30
0.0
  0
SPLINE
  5
498
100
AcDbEntity
  8
0
100
AcDbSpline
 62
7
  6
CONTINUOUS
 70
0
 71
3
 72
11
 73
7
 74
0
 42
0.0000001
 43
0.0000001
 44
0.0000000001
 40
0.0
 40
0.0
 40
0.0
 40
0.0
 40
0.2779697373
 40
0.5346991835
 40
0.7728568778
 40
1.0
 40
1.0
 40
1.0
 40
1.0
 10
722.9158404354
 20
159.8572346489
 30
0.0
 10
723.0420183991
 20
159.7889091935
 30
0.0
 10
723.2732033928
 20
159.6337705636
 30
0.0
 10
723.5479524062
 20
159.3389174259
 30
0.0
 10
723.7222126872
 20
159.0036482126
 30
0.0
 10
723.7625671166
 20
158.7618633525
 30
0.0
 10
723.7625671166
 20
158.6446108016
 30
0.0
  0
SPLINE
  5
499
100
AcDbEntity
  8
0
100
AcDbSpline
 62
7
  6
CONTINUOUS
 70
0
 71
3
 72
9
 73
5
 74
0
 42
0.0000001
 43
0.0000001
 44
0.0000000001
 40
0.0
 40
0.0
 40
0.0
 40
0.0
 40
0.5403772208
 40
1.0
 40
1.0
 40
1.0
 40
1.0
 10
714.3398067599
 20
158.6417484696
 30
0.0
 10
714.5156503631
 20
158.6826012876
 30
0.0
 10
714.8333621683
 20
158.8121440888
 30
0.0
 10
715.0656891229
 20
159.0803722739
 30
0.0
 10
715.1206864874
 20
159.2237337009
 30
0.0
  0
SPLINE
  5
49A
100
AcDbEntity
  8
0
100
AcDbSpline
 62
7
  6
CONTINUOUS
 70
0
 71
3
 72
8
 73
4
 74
0
 42
0.0000001
 43
0.0000001
 44
0.0000000001
 40
0.0
 40
0.0
 40
0.0
 40
0.0
 40
1.0
 40
1.0
 40
1.0
 40
1.0
 10
715.1206864874
 20
159.2237337009
 30
0.0
 10
715.134454104
 20
159.2596216965
 30
0.0
 10
715.1451286315
 20
159.2968793653
 30
0.0
 10
715.1521710995
 20
159.334666918
 30
0.0
  0
SPLINE
  5
49B
100
AcDbEntity
  8
0
100
AcDbSpline
 62
7
  6
CONTINUOUS
 70
0
 71
3
 72
11
 73
7
 74
0
 42
0.0000001
 43
0.0000001
 44
0.0000000001
 40
0.0
 40
0.0
 40
0.0
 40
0.0
 40
0.2880066977
 40
0.5553334191
 40
0.790532629
 40
1.0
 40
1.0
 40
1.0
 40
1.0
 10
713.9665176485
 20
159.9046750857
 30
0.0
 10
714.0502454296
 20
159.9046750857
 30
0.0
 10
714.2127113343
 20
159.8827986057
 30
0.0
 10
714.4254146932
 20
159.7865808008
 30
0.0
 10
714.5768624004
 20
159.6368253602
 30
0.0
 10
714.6164176725
 20
159.5060216158
 30
0.0
 10
714.6164176725
 20
159.4451263716
 30
0.0
  0
SPLINE
  5
49C
100
AcDbEntity
  8
0
100
AcDbSpline
 62
7
  6
CONTINUOUS
 70
0
 71
3
 72
9
 73
5
 74
0
 42
0.0000001
 43
0.0000001
 44
0.0000000001
 40
0.0
 40
0.0
 40
0.0
 40
0.0
 40
0.5597866015
 40
1.0
 40
1.0
 40
1.0
 40
1.0
 10
709.0310368676
 20
157.6815313656
 30
0.0
 10
709.0487220358
 20
157.6815313656
 30
0.0
 10
709.081618194
 20
157.6882502329
 30
0.0
 10
709.1030368676
 20
157.7185355256
 30
0.0
 10
709.1030368676
 20
157.7324430539
 30
0.0
  0
SPLINE
  5
49D
100
AcDbEntity
  8
0
100
AcDbSpline
 62
7
  6
CONTINUOUS
 70
0
 71
3
 72
9
 73
5
 74
0
 42
0.0000001
 43
0.0000001
 44
0.0000000001
 40
0.0
 40
0.0
 40
0.0
 40
0.0
 40
0.4402133985
 40
1.0
 40
1.0
 40
1.0
 40
1.0
 10
708.6080368676
 20
159.0306911041
 30
0.0
 10
708.6080368676
 20
159.0445986324
 30
0.0
 10
708.6294555412
 20
159.0748839251
 30
0.0
 10
708.6623516994
 20
159.0816027924
 30
0.0
 10
708.6800368676
 20
159.0816027924
 30
0.0
  0
SPLINE
  5
49E
100
AcDbEntity
  8
0
100
AcDbSpline
 62
7
  6
CONTINUOUS
 70
0
 71
3
 72
9
 73
5
 74
0
 42
0.0000001
 43
0.0000001
 44
0.0000000001
 40
0.0
 40
0.0
 40
0.0
 40
0.0
 40
0.5597866015
 40
1.0
 40
1.0
 40
1.0
 40
1.0
 10
708.8060368676
 20
159.0816027924
 30
0.0
 10
708.8237220358
 20
159.0816027924
 30
0.0
 10
708.856618194
 20
159.0748839251
 30
0.0
 10
708.8780368676
 20
159.0445986324
 30
0.0
 10
708.8780368676
 20
159.0306911041
 30
0.0
  0
SPLINE
  5
49F
100
AcDbEntity
  8
0
100
AcDbSpline
 62
7
  6
CONTINUOUS
 70
0
 71
3
 72
9
 73
5
 74
0
 42
0.0000001
 43
0.0000001
 44
0.0000000001
 40
0.0
 40
0.0
 40
0.0
 40
0.0
 40
0.5597866015
 40
1.0
 40
1.0
 40
1.0
 40
1.0
 10
709.0310368676
 20
158.9543235718
 30
0.0
 10
709.0487220358
 20
158.9543235718
 30
0.0
 10
709.081618194
 20
158.961042439
 30
0.0
 10
709.1030368676
 20
158.9913277317
 30
0.0
 10
709.1030368676
 20
159.00523526
 30
0.0
  0
SPLINE
  5
4A0
100
AcDbEntity
  8
0
100
AcDbSpline
 62
7
  6
CONTINUOUS
 70
0
 71
3
 72
11
 73
7
 74
0
 42
0.0000001
 43
0.0000001
 44
0.0000000001
 40
0.0
 40
0.0
 40
0.0
 40
0.0
 40
0.2876567391
 40
0.555407049
 40
0.7907201247
 40
1.0
 40
1.0
 40
1.0
 40
1.0
 10
709.1930368676
 20
159.7816385058
 30
0.0
 10
709.2161953227
 20
159.7816385058
 30
0.0
 10
709.2611576495
 20
159.7754844677
 30
0.0
 10
709.3201862122
 20
159.7490165094
 30
0.0
 10
709.3619905746
 20
159.707377497
 30
0.0
 10
709.3730368676
 20
159.6712078339
 30
0.0
 10
709.3730368676
 20
159.6543592851
 30
0.0
  0
SPLINE
  5
4A1
100
AcDbEntity
  8
RUNDUNGEN
100
AcDbSpline
 62
7
  6
CONTINUOUS
 70
0
 71
3
 72
11
 73
7
 74
0
 42
0.0000001
 43
0.0000001
 44
0.0000000001
 40
0.0
 40
0.0
 40
0.0
 40
0.0
 40
0.2660806488
 40
0.5190943636
 40
0.7622194616
 40
1.0
 40
1.0
 40
1.0
 40
1.0
 10
726.6346479416
 20
142.9888074969
 30
0.0
 10
726.3790756671
 20
143.2468979608
 30
0.0
 10
725.9190616503
 20
143.7911669206
 30
0.0
 10
725.3982938767
 20
144.6990337529
 30
0.0
 10
725.0790220962
 20
145.6558724131
 30
0.0
 10
725.0070163287
 20
146.3144387243
 30
0.0
 10
725.0070163402
 20
146.6390258566
 30
0.0
  0
SPLINE
  5
4A2
100
AcDbEntity
  8
0
100
AcDbSpline
 62
7
  6
CONTINUOUS
 70
0
 71
3
 72
8
 73
4
 74
0
 42
0.0000001
 43
0.0000001
 44
0.0000000001
 40
0.0
 40
0.0
 40
0.0
 40
0.0
 40
1.0
 40
1.0
 40
1.0
 40
1.0
 10
709.2411085907
 20
158.5041580637
 30
0.0
 10
709.2554068415
 20
158.5013515677
 30
0.0
 10
709.2695373944
 20
158.4972786976
 30
0.0
 10
709.2830368676
 20
158.4917941174
 30
0.0
  0
SPLINE
  5
4A3
100
AcDbEntity
  8
0
100
AcDbSpline
 62
7
  6
CONTINUOUS
 70
0
 71
3
 72
9
 73
5
 74
0
 42
0.0000001
 43
0.0000001
 44
0.0000000001
 40
0.0
 40
0.0
 40
0.0
 40
0.0
 40
0.5424756321
 40
1.0
 40
1.0
 40
1.0
 40
1.0
 10
709.2830368676
 20
158.4917941174
 30
0.0
 10
709.307956014
 20
158.4816699404
 30
0.0
 10
709.3519000355
 20
158.4541094673
 30
0.0
 10
709.3730368676
 20
158.4042522524
 30
0.0
 10
709.3730368676
 20
158.381567079
 30
0.0
  0
SPLINE
  5
4A4
100
AcDbEntity
  8
RUNDUNGEN
100
AcDbSpline
 62
7
  6
CONTINUOUS
 70
0
 71
3
 72
11
 73
7
 74
0
 42
0.0000001
 43
0.0000001
 44
0.0000000001
 40
0.0
 40
0.0
 40
0.0
 40
0.0
 40
0.2297109937
 40
0.4842558728
 40
0.7475644511
 40
1.0
 40
1.0
 40
1.0
 40
1.0
 10
731.17941121
 20
164.1248100213
 30
0.0
 10
730.9399273685
 20
163.882966512
 30
0.0
 10
730.320961711
 20
163.4836188996
 30
0.0
 10
729.2361211855
 20
163.1988226363
 30
0.0
 10
728.0817419229
 20
163.2150113679
 30
0.0
 10
727.3364145524
 20
163.4379063152
 30
0.0
 10
727.0012257681
 20
163.6038654883
 30
0.0
  0
SPLINE
  5
4A5
100
AcDbEntity
  8
RUNDUNGEN
100
AcDbSpline
 62
7
  6
CONTINUOUS
 70
0
 71
3
 72
11
 73
7
 74
0
 42
0.0000001
 43
0.0000001
 44
0.0000000001
 40
0.0
 40
0.0
 40
0.0
 40
0.0
 40
0.2524375529
 40
0.5157480446
 40
0.7702932073
 40
1.0
 40
1.0
 40
1.0
 40
1.0
 10
708.0757534487
 20
165.4289745329
 30
0.0
 10
707.7405620028
 20
165.2630140419
 30
0.0
 10
706.9952285282
 20
165.0401182075
 30
0.0
 10
705.8408427174
 20
165.0239329519
 30
0.0
 10
704.7560062672
 20
165.3087338955
 30
0.0
 10
704.1370474691
 20
165.7080799789
 30
0.0
 10
703.8975680068
 20
165.9499190659
 30
0.0
  0
SPLINE
  5
4A6
100
AcDbEntity
  8
0
100
AcDbSpline
 62
7
  6
CONTINUOUS
 70
0
 71
3
 72
9
 73
5
 74
0
 42
0.0000001
 43
0.0000001
 44
0.0000000001
 40
0.0
 40
0.0
 40
0.0
 40
0.0
 40
0.4575243679
 40
1.0
 40
1.0
 40
1.0
 40
1.0
 10
708.1130368676
 20
158.381567079
 30
0.0
 10
708.1130368676
 20
158.4042522524
 30
0.0
 10
708.1341736997
 20
158.4541094673
 30
0.0
 10
708.1781177212
 20
158.4816699404
 30
0.0
 10
708.2030368676
 20
158.4917941174
 30
0.0
  0
SPLINE
  5
4A7
100
AcDbEntity
  8
0
100
AcDbSpline
 62
7
  6
CONTINUOUS
 70
0
 71
3
 72
8
 73
4
 74
0
 42
0.0000001
 43
0.0000001
 44
0.0000000001
 40
0.0
 40
0.0
 40
0.0
 40
0.0
 40
1.0
 40
1.0
 40
1.0
 40
1.0
 10
708.2030368676
 20
158.4917941174
 30
0.0
 10
708.2313250398
 20
158.5032870658
 30
0.0
 10
708.2625031396
 20
158.5088462996
 30
0.0
 10
708.2930368676
 20
158.5088462996
 30
0.0
  0
SPLINE
  5
4A8
100
AcDbEntity
  8
0
100
AcDbSpline
 62
7
  6
CONTINUOUS
 70
0
 71
3
 72
11
 73
7
 74
0
 42
0.0000001
 43
0.0000001
 44
0.0000000001
 40
0.0
 40
0.0
 40
0.0
 40
0.0
 40
0.2092798753
 40
0.444592951
 40
0.7123432609
 40
1.0
 40
1.0
 40
1.0
 40
1.0
 10
708.1130368676
 20
159.6543592851
 30
0.0
 10
708.1130368676
 20
159.6712078339
 30
0.0
 10
708.1240831606
 20
159.707377497
 30
0.0
 10
708.1658875231
 20
159.7490165094
 30
0.0
 10
708.2249160858
 20
159.7754844677
 30
0.0
 10
708.2698784125
 20
159.7816385058
 30
0.0
 10
708.2930368676
 20
159.7816385058
 30
0.0
  0
SPLINE
  5
4A9
100
AcDbEntity
  8
0
100
AcDbSpline
 62
7
  6
CONTINUOUS
 70
0
 71
3
 72
9
 73
5
 74
0
 42
0.0000001
 43
0.0000001
 44
0.0000000001
 40
0.0
 40
0.0
 40
0.0
 40
0.0
 40
0.538986273
 40
1.0
 40
1.0
 40
1.0
 40
1.0
 10
710.1830368676
 20
156.9814956523
 30
0.0
 10
710.2512312594
 20
156.9814956523
 30
0.0
 10
710.3791696113
 20
157.0054354948
 30
0.0
 10
710.4861846072
 20
157.0882896206
 30
0.0
 10
710.5156334993
 20
157.1386387955
 30
0.0
  0
SPLINE
  5
4AA
100
AcDbEntity
  8
0
100
AcDbSpline
 62
7
  6
CONTINUOUS
 70
0
 71
3
 72
9
 73
5
 74
0
 42
0.0000001
 43
0.0000001
 44
0.0000000001
 40
0.0
 40
0.0
 40
0.0
 40
0.0
 40
0.2592261758
 40
1.0
 40
1.0
 40
1.0
 40
1.0
 10
710.5156334993
 20
157.1386387955
 30
0.0
 10
710.5200770414
 20
157.1462359803
 30
0.0
 10
710.5354510428
 20
157.176523265
 30
0.0
 10
710.5430368676
 20
157.2109032865
 30
0.0
 10
710.5430368676
 20
157.2360540935
 30
0.0
  0
SPLINE
  5
4AB
100
AcDbEntity
  8
KONSTRUKTIONSELEMENTE
100
AcDbSpline
 62
7
  6
CONTINUOUS
 70
0
 71
3
 72
9
 73
5
 74
0
 42
0.0000001
 43
0.0000001
 44
0.0000000001
 40
0.0
 40
0.0
 40
0.0
 40
0.0
 40
0.4962403058
 40
1.0
 40
1.0
 40
1.0
 40
1.0
 10
739.1953975088
 20
254.1379673873
 30
0.0
 10
739.1953975088
 20
253.0518496852
 30
0.0
 10
738.922269551
 20
250.8550025748
 30
0.0
 10
738.1323060036
 20
248.7902718097
 30
0.0
 10
737.6278604343
 20
247.8098601424
 30
0.0
  0
SPLINE
  5
4AC
100
AcDbEntity
  8
KONSTRUKTIONSELEMENTE
100
AcDbSpline
 62
7
  6
CONTINUOUS
 70
0
 71
3
 72
9
 73
5
 74
0
 42
0.0000001
 43
0.0000001
 44
0.0000000001
 40
0.0
 40
0.0
 40
0.0
 40
0.0
 40
0.5037576341
 40
1.0
 40
1.0
 40
1.0
 40
1.0
 10
693.7642929297
 20
247.8072257204
 30
0.0
 10
693.2594304489
 20
248.7879737729
 30
0.0
 10
692.4687718593
 20
250.8535179267
 30
0.0
 10
692.1953975088
 20
253.0513581637
 30
0.0
 10
692.1953975088
 20
254.1379673873
 30
0.0
  0
SPLINE
  5
4AD
100
AcDbEntity
  8
KONSTRUKTIONSELEMENTE
100
AcDbSpline
 62
7
  6
CONTINUOUS
 70
0
 71
3
 72
13
 73
9
 74
0
 42
0.0000001
 43
0.0000001
 44
0.0000000001
 40
0.0
 40
0.0
 40
0.0
 40
0.0
 40
0.1179851403
 40
0.2366821749
 40
0.3569019105
 40
0.4793020309
 40
0.7325115522
 40
1.0
 40
1.0
 40
1.0
 40
1.0
 10
692.1953975088
 20
254.1379673873
 30
0.0
 10
692.1953975088
 20
254.8442025767
 30
0.0
 10
692.3094191825
 20
256.2635166871
 30
0.0
 10
692.8170062452
 20
258.3471676567
 30
0.0
 10
693.6463944672
 20
260.3535910918
 30
0.0
 10
695.170351216
 20
262.9109107516
 30
0.0
 10
697.8064699547
 20
265.7771032922
 30
0.0
 10
700.4135983778
 20
267.5339622961
 30
0.0
 10
701.8222302975
 20
268.2951317961
 30
0.0
  0
SPLINE
  5
4AE
100
AcDbEntity
  8
KONSTRUKTIONSELEMENTE
100
AcDbSpline
 62
7
  6
CONTINUOUS
 70
0
 71
3
 72
13
 73
9
 74
0
 42
0.0000001
 43
0.0000001
 44
0.0000000001
 40
0.0
 40
0.0
 40
0.0
 40
0.0
 40
0.2674822374
 40
0.5206880275
 40
0.6430883129
 40
0.7633087882
 40
0.8820108759
 40
1.0
 40
1.0
 40
1.0
 40
1.0
 10
729.5720994229
 20
268.2932278079
 30
0.0
 10
730.9802577502
 20
267.5320100868
 30
0.0
 10
733.5864715987
 20
265.7751671226
 30
0.0
 10
736.221597221
 20
262.9093339942
 30
0.0
 10
737.7449429626
 20
260.352446472
 30
0.0
 10
738.5740356421
 20
258.3463881126
 30
0.0
 10
739.0814108452
 20
256.2631189287
 30
0.0
 10
739.1953975088
 20
254.8440691527
 30
0.0
 10
739.1953975088
 20
254.1379673873
 30
0.0
  0
SPLINE
  5
4AF
100
AcDbEntity
  8
KONSTRUKTIONSELEMENTE
100
AcDbSpline
 62
7
  6
CONTINUOUS
 70
0
 71
3
 72
9
 73
5
 74
0
 42
0.0000001
 43
0.0000001
 44
0.0000000001
 40
0.0
 40
0.0
 40
0.0
 40
0.0
 40
0.2448925609
 40
1.0
 40
1.0
 40
1.0
 40
1.0
 10
723.3277378984
 20
243.8194884355
 30
0.0
 10
722.9206623999
 20
243.6872294287
 30
0.0
 10
721.24311641
 20
243.1949787199
 30
0.0
 10
719.5113471191
 20
242.8910304902
 30
0.0
 10
718.1977645091
 20
242.7633501439
 30
0.0
  0
SPLINE
  5
4B0
100
AcDbEntity
  8
KONSTRUKTIONSELEMENTE
100
AcDbSpline
 62
7
  6
CONTINUOUS
 70
0
 71
3
 72
9
 73
5
 74
0
 42
0.0000001
 43
0.0000001
 44
0.0000000001
 40
0.0
 40
0.0
 40
0.0
 40
0.0
 40
0.2546729281
 40
1.0
 40
1.0
 40
1.0
 40
1.0
 10
713.1933706819
 20
242.7633103695
 30
0.0
 10
712.749627798
 20
242.8064374932
 30
0.0
 10
711.0120955961
 20
243.0213539669
 30
0.0
 10
709.2959893756
 20
243.4184155878
 30
0.0
 10
708.0552081454
 20
243.822037477
 30
0.0
  0
SPLINE
  5
4B1
100
AcDbEntity
  8
KONSTRUKTIONSELEMENTE
100
AcDbSpline
 62
7
  6
CONTINUOUS
 70
0
 71
3
 72
15
 73
11
 74
0
 42
0.0000001
 43
0.0000001
 44
0.0000000001
 40
0.0
 40
0.0
 40
0.0
 40
0.0
 40
0.0625108926
 40
0.1250275914
 40
0.2497931609
 40
0.3747532875
 40
0.4997959152
 40
0.6248713155
 40
0.749960006
 40
1.0
 40
1.0
 40
1.0
 40
1.0
 10
707.064252046
 20
223.4831513382
 30
0.0
 10
707.064252046
 20
223.6237564096
 30
0.0
 10
707.0937589571
 20
223.9057887296
 30
0.0
 10
707.2612081788
 20
224.4451669849
 30
0.0
 10
707.635240942
 20
225.0518355152
 30
0.0
 10
708.2272929552
 20
225.6572276581
 30
0.0
 10
708.9027654761
 20
226.1667068102
 30
0.0
 10
709.6309034113
 20
226.5962106249
 30
0.0
 10
710.648999801
 20
227.0775774974
 30
0.0
 10
711.4521080228
 20
227.3482670104
 30
0.0
 10
711.9953975088
 20
227.4936769936
 30
0.0
  0
SPLINE
  5
4B2
100
AcDbEntity
  8
KONSTRUKTIONSELEMENTE
100
AcDbSpline
 62
7
  6
CONTINUOUS
 70
0
 71
3
 72
9
 73
5
 74
0
 42
0.0000001
 43
0.0000001
 44
0.0000000001
 40
0.0
 40
0.0
 40
0.0
 40
0.0
 40
0.5002606694
 40
1.0
 40
1.0
 40
1.0
 40
1.0
 10
706.5135219264
 20
219.9331513382
 30
0.0
 10
706.6771288053
 20
220.2751711478
 30
0.0
 10
706.9556373431
 20
220.9849486033
 30
0.0
 10
707.064252046
 20
221.7454095865
 30
0.0
 10
707.064252046
 20
222.1241513382
 30
0.0
  0
SPLINE
  5
4B3
100
AcDbEntity
  8
KONSTRUKTIONSELEMENTE
100
AcDbSpline
 62
7
  6
CONTINUOUS
 70
0
 71
3
 72
9
 73
5
 74
0
 42
0.0000001
 43
0.0000001
 44
0.0000000001
 40
0.0
 40
0.0
 40
0.0
 40
0.0
 40
0.4997393306
 40
1.0
 40
1.0
 40
1.0
 40
1.0
 10
724.3265429716
 20
222.1241513382
 30
0.0
 10
724.3265429716
 20
221.7454095865
 30
0.0
 10
724.4351576745
 20
220.9849486033
 30
0.0
 10
724.7136662122
 20
220.2751711478
 30
0.0
 10
724.8772730912
 20
219.9331513382
 30
0.0
  0
SPLINE
  5
4B4
100
AcDbEntity
  8
KONSTRUKTIONSELEMENTE
100
AcDbSpline
 62
7
  6
CONTINUOUS
 70
0
 71
3
 72
15
 73
11
 74
0
 42
0.0000001
 43
0.0000001
 44
0.0000000001
 40
0.0
 40
0.0
 40
0.0
 40
0.0
 40
0.250002393
 40
0.3750704934
 40
0.5001233091
 40
0.6251474546
 40
0.7501032798
 40
0.8748945538
 40
0.9374477433
 40
1.0
 40
1.0
 40
1.0
 40
1.0
 10
719.3953975088
 20
227.4936769936
 30
0.0
 10
719.9386053207
 20
227.3482888703
 30
0.0
 10
720.7415864875
 20
227.0776408719
 30
0.0
 10
721.7595415409
 20
226.596400467
 30
0.0
 10
722.4875752118
 20
226.1669951738
 30
0.0
 10
723.1630178967
 20
225.6576488393
 30
0.0
 10
723.7551556243
 20
225.0523372579
 30
0.0
 10
724.1293864606
 20
224.4456351517
 30
0.0
 10
724.2969860171
 20
223.9060567822
 30
0.0
 10
724.3265429716
 20
223.6238494562
 30
0.0
 10
724.3265429716
 20
223.4831513382
 30
0.0
  0
SPLINE
  5
4B5
100
AcDbEntity
  8
RUNDUNGEN
100
AcDbSpline
 62
7
  6
CONTINUOUS
 70
0
 71
3
 72
9
 73
5
 74
0
 42
0.0000001
 43
0.0000001
 44
0.0000000001
 40
0.0
 40
0.0
 40
0.0
 40
0.0
 40
0.2519459173
 40
1.0
 40
1.0
 40
1.0
 40
1.0
 10
699.9018564531
 20
239.0606599189
 30
0.0
 10
699.9464891098
 20
239.1054954402
 30
0.0
 10
700.1282848893
 20
239.2787530381
 30
0.0
 10
700.3288362037
 20
239.43245271
 30
0.0
 10
700.4871170454
 20
239.533595136
 30
0.0
  0
SPLINE
  5
4B6
100
AcDbEntity
  8
RUNDUNGEN
100
AcDbSpline
 62
7
  6
CONTINUOUS
 70
0
 71
3
 72
9
 73
5
 74
0
 42
0.0000001
 43
0.0000001
 44
0.0000000001
 40
0.0
 40
0.0
 40
0.0
 40
0.0
 40
0.2485467635
 40
1.0
 40
1.0
 40
1.0
 40
1.0
 10
730.9036779721
 20
239.533595136
 30
0.0
 10
730.9562691065
 20
239.4999890795
 30
0.0
 10
731.1640194019
 20
239.3588296975
 30
0.0
 10
731.3558145378
 20
239.1943890213
 30
0.0
 10
731.4889385644
 20
239.0606599189
 30
0.0
  0
SPLINE
  5
4B7
100
AcDbEntity
  8
RUNDUNGEN
100
AcDbSpline
 62
7
  6
CONTINUOUS
 70
0
 71
3
 72
15
 73
11
 74
0
 42
0.0000001
 43
0.0000001
 44
0.0000000001
 40
0.0
 40
0.0
 40
0.0
 40
0.0
 40
0.050654758
 40
0.0823015106
 40
0.11971707
 40
0.2136401844
 40
0.3333770036
 40
0.4766964534
 40
0.6394895419
 40
1.0
 40
1.0
 40
1.0
 40
1.0
 10
698.4453975088
 20
231.0594307799
 30
0.0
 10
698.4453975088
 20
231.1140961691
 30
0.0
 10
698.483429883
 20
231.2025555795
 30
0.0
 10
698.5730127144
 20
231.2954362481
 30
0.0
 10
698.7147851974
 20
231.4010686289
 30
0.0
 10
698.9610266292
 20
231.5183994054
 30
0.0
 10
699.3284014243
 20
231.6360730604
 30
0.0
 10
699.7781007595
 20
231.7338048934
 30
0.0
 10
700.4906869046
 20
231.8351987554
 30
0.0
 10
701.0563433446
 20
231.8632783571
 30
0.0
 10
701.4453975088
 20
231.8632783571
 30
0.0
  0
SPLINE
  5
4B8
100
AcDbEntity
  8
KONSTRUKTIONSELEMENTE
100
AcDbSpline
 62
7
  6
CONTINUOUS
 70
0
 71
3
 72
21
 73
17
 74
0
 42
0.0000001
 43
0.0000001
 44
0.0000000001
 40
0.0
 40
0.0
 40
0.0
 40
0.0
 40
0.189585311
 40
0.3731480926
 40
0.5437166844
 40
0.6218531709
 40
0.6940426713
 40
0.7594773527
 40
0.8174400207
 40
0.8673460254
 40
0.9087925068
 40
0.9416484049
 40
0.9662894745
 40
0.9842834506
 40
0.9920698784
 40
1.0
 40
1.0
 40
1.0
 40
1.0
 10
706.5135219264
 20
219.9331513382
 30
0.0
 10
706.2717306423
 20
219.4276872069
 30
0.0
 10
705.8383826509
 20
218.412050265
 30
0.0
 10
705.3139070319
 20
216.8920252541
 30
0.0
 10
704.9722434011
 20
215.6600795838
 30
0.0
 10
704.7614586141
 20
214.7352683753
 30
0.0
 10
704.6395700043
 20
214.1092235967
 30
0.0
 10
704.5489563743
 20
213.5381780958
 30
0.0
 10
704.4893442032
 20
213.0292916029
 30
0.0
 10
704.4605743396
 20
212.588664049
 30
0.0
 10
704.4618915143
 20
212.2212176081
 30
0.0
 10
704.4938773472
 20
211.9295491219
 30
0.0
 10
704.5541775297
 20
211.7136918774
 30
0.0
 10
704.6432445397
 20
211.5858662648
 30
0.0
 10
704.7336216223
 20
211.5395768676
 30
0.0
 10
704.7805139254
 20
211.5331513382
 30
0.0
 10
704.80395137
 20
211.5331513382
 30
0.0
  0
SPLINE
  5
4B9
100
AcDbEntity
  8
RUNDUNGEN
100
AcDbSpline
 62
7
  6
CONTINUOUS
 70
0
 71
3
 72
10
 73
6
 74
0
 42
0.0000001
 43
0.0000001
 44
0.0000000001
 40
0.0
 40
0.0
 40
0.0
 40
0.0
 40
0.2573822802
 40
0.5112136635
 40
1.0
 40
1.0
 40
1.0
 40
1.0
 10
704.4540660766
 20
240.361578463
 30
0.0
 10
704.8369307489
 20
240.361578463
 30
0.0
 10
705.5974999154
 20
240.3783743008
 30
0.0
 10
707.0824591402
 20
240.4625418177
 30
0.0
 10
708.1859881714
 20
240.5331513382
 30
0.0
 10
708.913074047
 20
240.5331513382
 30
0.0
  0
SPLINE
  5
4BA
100
AcDbEntity
  8
KONSTRUKTIONSELEMENTE
100
AcDbSpline
 62
7
  6
CONTINUOUS
 70
0
 71
3
 72
21
 73
17
 74
0
 42
0.0000001
 43
0.0000001
 44
0.0000000001
 40
0.0
 40
0.0
 40
0.0
 40
0.0
 40
0.0079301216
 40
0.0157165494
 40
0.0337105255
 40
0.0583515951
 40
0.0912074932
 40
0.1326539746
 40
0.1825599793
 40
0.2405226473
 40
0.3059573287
 40
0.3781468291
 40
0.4562833156
 40
0.6268519074
 40
0.810414689
 40
1.0
 40
1.0
 40
1.0
 40
1.0
 10
726.5868436475
 20
211.5331513382
 30
0.0
 10
726.6102810921
 20
211.5331513382
 30
0.0
 10
726.6571733952
 20
211.5395768676
 30
0.0
 10
726.7475504778
 20
211.5858662648
 30
0.0
 10
726.8366174878
 20
211.7136918774
 30
0.0
 10
726.8969176703
 20
211.9295491219
 30
0.0
 10
726.9289035032
 20
212.2212176081
 30
0.0
 10
726.9302206779
 20
212.588664049
 30
0.0
 10
726.9014508144
 20
213.0292916029
 30
0.0
 10
726.8418386432
 20
213.5381780958
 30
0.0
 10
726.7512250133
 20
214.1092235967
 30
0.0
 10
726.6293364034
 20
214.7352683753
 30
0.0
 10
726.4185516164
 20
215.6600795838
 30
0.0
 10
726.0768879857
 20
216.8920252541
 30
0.0
 10
725.5524123666
 20
218.412050265
 30
0.0
 10
725.1190643752
 20
219.4276872069
 30
0.0
 10
724.8772730912
 20
219.9331513382
 30
0.0
  0
SPLINE
  5
4BB
100
AcDbEntity
  8
RUNDUNGEN
100
AcDbSpline
 62
7
  6
CONTINUOUS
 70
0
 71
3
 72
15
 73
11
 74
0
 42
0.0000001
 43
0.0000001
 44
0.0000000001
 40
0.0
 40
0.0
 40
0.0
 40
0.0
 40
0.050654758
 40
0.0823015106
 40
0.11971707
 40
0.2136401844
 40
0.3333770036
 40
0.4766964534
 40
0.6394895419
 40
1.0
 40
1.0
 40
1.0
 40
1.0
 10
732.9453975088
 20
226.7293037609
 30
0.0
 10
732.9453975088
 20
226.7839691502
 30
0.0
 10
732.9073651345
 20
226.8724285605
 30
0.0
 10
732.8177823032
 20
226.9653092292
 30
0.0
 10
732.6760098202
 20
227.0709416099
 30
0.0
 10
732.4297683884
 20
227.1882723865
 30
0.0
 10
732.0623935932
 20
227.3059460414
 30
0.0
 10
731.612694258
 20
227.4036778745
 30
0.0
 10
730.9001081129
 20
227.5050717365
 30
0.0
 10
730.334451673
 20
227.5331513382
 30
0.0
 10
729.9453975088
 20
227.5331513382
 30
0.0
  0
SPLINE
  5
4BC
100
AcDbEntity
  8
RUNDUNGEN
100
AcDbSpline
 62
7
  6
CONTINUOUS
 70
0
 71
3
 72
15
 73
11
 74
0
 42
0.0000001
 43
0.0000001
 44
0.0000000001
 40
0.0
 40
0.0
 40
0.0
 40
0.0
 40
0.050654758
 40
0.0823015106
 40
0.11971707
 40
0.2136401844
 40
0.3333770036
 40
0.4766964534
 40
0.6394895419
 40
1.0
 40
1.0
 40
1.0
 40
1.0
 10
732.9453975088
 20
231.0594307799
 30
0.0
 10
732.9453975088
 20
231.1140961691
 30
0.0
 10
732.9073651345
 20
231.2025555795
 30
0.0
 10
732.8177823032
 20
231.2954362481
 30
0.0
 10
732.6760098202
 20
231.4010686289
 30
0.0
 10
732.4297683884
 20
231.5183994054
 30
0.0
 10
732.0623935932
 20
231.6360730604
 30
0.0
 10
731.612694258
 20
231.7338048934
 30
0.0
 10
730.9001081129
 20
231.8351987554
 30
0.0
 10
730.334451673
 20
231.8632783571
 30
0.0
 10
729.9453975088
 20
231.8632783571
 30
0.0
  0
SPLINE
  5
4BD
100
AcDbEntity
  8
RUNDUNGEN
100
AcDbSpline
 62
7
  6
CONTINUOUS
 70
0
 71
3
 72
15
 73
11
 74
0
 42
0.0000001
 43
0.0000001
 44
0.0000000001
 40
0.0
 40
0.0
 40
0.0
 40
0.0
 40
0.050654758
 40
0.0823015106
 40
0.11971707
 40
0.2136401844
 40
0.3333770036
 40
0.4766964534
 40
0.6394895419
 40
1.0
 40
1.0
 40
1.0
 40
1.0
 10
698.4453975088
 20
226.7293037609
 30
0.0
 10
698.4453975088
 20
226.7839691502
 30
0.0
 10
698.483429883
 20
226.8724285605
 30
0.0
 10
698.5730127144
 20
226.9653092292
 30
0.0
 10
698.7147851974
 20
227.0709416099
 30
0.0
 10
698.9610266292
 20
227.1882723865
 30
0.0
 10
699.3284014243
 20
227.3059460414
 30
0.0
 10
699.7781007595
 20
227.4036778745
 30
0.0
 10
700.4906869046
 20
227.5050717365
 30
0.0
 10
701.0563433446
 20
227.5331513382
 30
0.0
 10
701.4453975088
 20
227.5331513382
 30
0.0
  0
SPLINE
  5
4BE
100
AcDbEntity
  8
RUNDUNGEN
100
AcDbSpline
 62
7
  6
CONTINUOUS
 70
0
 71
3
 72
9
 73
5
 74
0
 42
0.0000001
 43
0.0000001
 44
0.0000000001
 40
0.0
 40
0.0
 40
0.0
 40
0.0
 40
0.5159918292
 40
1.0
 40
1.0
 40
1.0
 40
1.0
 10
728.6262430446
 20
240.3133352108
 30
0.0
 10
729.0383340964
 20
240.254640742
 30
0.0
 10
729.8286472626
 20
240.0746607085
 30
0.0
 10
730.574665699
 20
239.7438359909
 30
0.0
 10
730.9036779721
 20
239.533595136
 30
0.0
  0
SPLINE
  5
4BF
100
AcDbEntity
  8
RUNDUNGEN
100
AcDbSpline
 62
7
  6
CONTINUOUS
 70
0
 71
3
 72
9
 73
5
 74
0
 42
0.0000001
 43
0.0000001
 44
0.0000000001
 40
0.0
 40
0.0
 40
0.0
 40
0.0
 40
0.5159918292
 40
1.0
 40
1.0
 40
1.0
 40
1.0
 10
702.7645515403
 20
240.3133351492
 30
0.0
 10
702.3524605662
 20
240.2546406661
 30
0.0
 10
701.562147551
 20
240.0746606293
 30
0.0
 10
700.8161292595
 20
239.7438359531
 30
0.0
 10
700.4871170454
 20
239.533595136
 30
0.0
  0
SPLINE
  5
4C0
100
AcDbEntity
  8
RUNDUNGEN
100
AcDbSpline
 62
7
  6
CONTINUOUS
 70
0
 71
3
 72
10
 73
6
 74
0
 42
0.0000001
 43
0.0000001
 44
0.0000000001
 40
0.0
 40
0.0
 40
0.0
 40
0.0
 40
0.2573821486
 40
0.5112132368
 40
1.0
 40
1.0
 40
1.0
 40
1.0
 10
726.9367289409
 20
240.361578463
 30
0.0
 10
726.5538620556
 20
240.361578463
 30
0.0
 10
725.7932887332
 20
240.3783743622
 30
0.0
 10
724.3083202158
 20
240.4625434139
 30
0.0
 10
723.2047839589
 20
240.5331513382
 30
0.0
 10
722.4776928744
 20
240.5331513382
 30
0.0
  0
SPLINE
  5
4C1
100
AcDbEntity
  8
0
100
AcDbSpline
 62
7
  6
CONTINUOUS
 70
0
 71
3
 72
11
 73
7
 74
0
 42
0.0000001
 43
0.0000001
 44
0.0000000001
 40
0.0
 40
0.0
 40
0.0
 40
0.0
 40
0.2506353974
 40
0.5000000009
 40
0.7493646041
 40
1.0
 40
1.0
 40
1.0
 40
1.0
 10
364.378723804
 20
262.4211893227
 30
0.0
 10
364.24064721
 20
263.1084389824
 30
0.0
 10
364.026409103
 20
264.4928569641
 30
0.0
 10
363.9159910517
 20
266.5895005312
 30
0.0
 10
364.0264091019
 20
268.6861440942
 30
0.0
 10
364.2406472108
 20
270.0705620706
 30
0.0
 10
364.378723804
 20
270.7578117259
 30
0.0
  0
SPLINE
  5
4C2
100
AcDbEntity
  8
0
100
AcDbSpline
 62
7
  6
CONTINUOUS
 70
0
 71
3
 72
9
 73
5
 74
0
 42
0.0000001
 43
0.0000001
 44
0.0000000001
 40
0.0
 40
0.0
 40
0.0
 40
0.0
 40
0.5000000009
 40
1.0
 40
1.0
 40
1.0
 40
1.0
 10
364.378723804
 20
251.0331513382
 30
0.0
 10
364.101768811
 20
252.9162038998
 30
0.0
 10
363.8037004924
 20
256.727170334
 30
0.0
 10
364.101768812
 20
260.538136768
 30
0.0
 10
364.378723804
 20
262.4211893227
 30
0.0
  0
SPLINE
  5
4C3
100
AcDbEntity
  8
0
100
AcDbSpline
 62
7
  6
CONTINUOUS
 70
0
 71
3
 72
9
 73
5
 74
0
 42
0.0000001
 43
0.0000001
 44
0.0000000001
 40
0.0
 40
0.0
 40
0.0
 40
0.0
 40
0.4999041821
 40
1.0
 40
1.0
 40
1.0
 40
1.0
 10
363.9600954052
 20
244.5970531372
 30
0.0
 10
363.9387665455
 20
245.6725222607
 30
0.0
 10
363.9895474815
 20
247.8267584709
 30
0.0
 10
364.2221391001
 20
249.9685118289
 30
0.0
 10
364.378723804
 20
251.0331513382
 30
0.0
  0
LINE
  5
4C4
100
AcDbEntity
  8
0
100
AcDbLine
 62
7
  6
CONTINUOUS
 10
372.5885866866
 20
226.7293037609
 11
375.5885866866
 21
227.5331513382
  0
LINE
  5
4C5
100
AcDbEntity
  8
0
100
AcDbLine
 62
7
  6
CONTINUOUS
 10
370.0885866866
 20
231.0594307799
 11
373.0885866866
 21
231.8632783571
  0
SPLINE
  5
4C6
100
AcDbEntity
  8
RUNDUNGEN
100
AcDbSpline
 62
7
  6
CONTINUOUS
 70
0
 71
3
 72
9
 73
5
 74
0
 42
0.0000001
 43
0.0000001
 44
0.0000000001
 40
0.0
 40
0.0
 40
0.0
 40
0.0
 40
0.2362642616
 40
1.0
 40
1.0
 40
1.0
 40
1.0
 10
361.7054752963
 20
239.533595136
 30
0.0
 10
361.7390844592
 20
239.4993678865
 30
0.0
 10
361.8774820073
 20
239.3507200961
 30
0.0
 10
362.0011279537
 20
239.1887060585
 30
0.0
 10
362.0885866866
 20
239.0606599189
 30
0.0
  0
SPLINE
  5
4C7
100
AcDbEntity
  8
RUNDUNGEN
100
AcDbSpline
 62
7
  6
CONTINUOUS
 70
0
 71
3
 72
12
 73
8
 74
0
 42
0.0000001
 43
0.0000001
 44
0.0000000001
 40
0.0
 40
0.0
 40
0.0
 40
0.0
 40
0.0519679069
 40
0.122722382
 40
0.3277813342
 40
0.6210641814
 40
1.0
 40
1.0
 40
1.0
 40
1.0
 10
361.0885866866
 20
240.3133352108
 30
0.0
 10
361.0885866866
 20
240.2959295462
 30
0.0
 10
361.098425608
 20
240.2551147258
 30
0.0
 10
361.1466964785
 20
240.1563064607
 30
0.0
 10
361.2625585238
 20
240.0033146331
 30
0.0
 10
361.4590540938
 20
239.7852537407
 30
0.0
 10
361.6165525561
 20
239.6241532026
 30
0.0
 10
361.7054752963
 20
239.533595136
 30
0.0
  0
SPLINE
  5
4C8
100
AcDbEntity
  8
0
100
AcDbSpline
 62
7
  6
CONTINUOUS
 70
0
 71
3
 72
12
 73
8
 74
0
 42
0.0000001
 43
0.0000001
 44
0.0000000001
 40
0.0
 40
0.0
 40
0.0
 40
0.0
 40
0.0519679069
 40
0.122722382
 40
0.3277813342
 40
0.6210641814
 40
1.0
 40
1.0
 40
1.0
 40
1.0
 10
371.0885866866
 20
240.3133352108
 30
0.0
 10
371.0885866866
 20
240.2959295462
 30
0.0
 10
371.0787477652
 20
240.2551147258
 30
0.0
 10
371.0304768947
 20
240.1563064607
 30
0.0
 10
370.9146148494
 20
240.0033146331
 30
0.0
 10
370.7181192794
 20
239.7852537407
 30
0.0
 10
370.5606208171
 20
239.6241532026
 30
0.0
 10
370.4716980769
 20
239.533595136
 30
0.0
  0
SPLINE
  5
4C9
100
AcDbEntity
  8
0
100
AcDbSpline
 62
7
  6
CONTINUOUS
 70
0
 71
3
 72
9
 73
5
 74
0
 42
0.0000001
 43
0.0000001
 44
0.0000000001
 40
0.0
 40
0.0
 40
0.0
 40
0.0
 40
0.2362642616
 40
1.0
 40
1.0
 40
1.0
 40
1.0
 10
370.4716980769
 20
239.533595136
 30
0.0
 10
370.438088914
 20
239.4993678865
 30
0.0
 10
370.299691366
 20
239.3507200961
 30
0.0
 10
370.1760454195
 20
239.1887060585
 30
0.0
 10
370.0885866866
 20
239.0606599189
 30
0.0
  0
SPLINE
  5
4CA
100
AcDbEntity
  8
0
100
AcDbSpline
 62
7
  6
CONTINUOUS
 70
0
 71
3
 72
11
 73
7
 74
0
 42
0.0000001
 43
0.0000001
 44
0.0000000001
 40
0.0
 40
0.0
 40
0.0
 40
0.0
 40
0.2581491009
 40
0.5000000008
 40
0.7418509005
 40
1.0
 40
1.0
 40
1.0
 40
1.0
 10
367.7984495692
 20
270.7578117259
 30
0.0
 10
367.9306946933
 20
270.9987386658
 30
0.0
 10
368.1449078595
 20
271.4918645422
 30
0.0
 10
368.262907942
 20
272.283519519
 30
0.0
 10
368.1449078605
 20
273.0751744949
 30
0.0
 10
367.9306946926
 20
273.5683003687
 30
0.0
 10
367.7984495692
 20
273.8092273072
 30
0.0
  0
SPLINE
  5
4CB
100
AcDbEntity
  8
0
100
AcDbSpline
 62
7
  6
CONTINUOUS
 70
0
 71
3
 72
11
 73
7
 74
0
 42
0.0000001
 43
0.0000001
 44
0.0000000001
 40
0.0
 40
0.0
 40
0.0
 40
0.0
 40
0.2506353974
 40
0.5000000009
 40
0.7493646041
 40
1.0
 40
1.0
 40
1.0
 40
1.0
 10
367.7984495692
 20
262.4211893227
 30
0.0
 10
367.9365261632
 20
263.1084389824
 30
0.0
 10
368.1507642702
 20
264.4928569641
 30
0.0
 10
368.2611823215
 20
266.5895005312
 30
0.0
 10
368.1507642713
 20
268.6861440942
 30
0.0
 10
367.9365261624
 20
270.0705620706
 30
0.0
 10
367.7984495692
 20
270.7578117259
 30
0.0
  0
SPLINE
  5
4CC
100
AcDbEntity
  8
0
100
AcDbSpline
 62
7
  6
CONTINUOUS
 70
0
 71
3
 72
9
 73
5
 74
0
 42
0.0000001
 43
0.0000001
 44
0.0000000001
 40
0.0
 40
0.0
 40
0.0
 40
0.0
 40
0.5000000009
 40
1.0
 40
1.0
 40
1.0
 40
1.0
 10
367.7984495692
 20
251.0331513382
 30
0.0
 10
368.0754045622
 20
252.9162038998
 30
0.0
 10
368.3734728809
 20
256.727170334
 30
0.0
 10
368.0754045612
 20
260.538136768
 30
0.0
 10
367.7984495692
 20
262.4211893227
 30
0.0
  0
SPLINE
  5
4CD
100
AcDbEntity
  8
0
100
AcDbSpline
 62
7
  6
CONTINUOUS
 70
0
 71
3
 72
9
 73
5
 74
0
 42
0.0000001
 43
0.0000001
 44
0.0000000001
 40
0.0
 40
0.0
 40
0.0
 40
0.0
 40
0.4999041821
 40
1.0
 40
1.0
 40
1.0
 40
1.0
 10
368.217077968
 20
244.5970531372
 30
0.0
 10
368.2384068277
 20
245.6725222607
 30
0.0
 10
368.1876258917
 20
247.8267584709
 30
0.0
 10
367.9550342731
 20
249.9685118289
 30
0.0
 10
367.7984495692
 20
251.0331513382
 30
0.0
  0
LINE
  5
4CE
100
AcDbEntity
  8
RUNDUNGEN
100
AcDbLine
 62
7
  6
CONTINUOUS
 10
359.5885866866
 20
226.7293037609
 11
356.5885866866
 21
227.5331513382
  0
LINE
  5
4CF
100
AcDbEntity
  8
RUNDUNGEN
100
AcDbLine
 62
7
  6
CONTINUOUS
 10
362.0885866866
 20
231.0594307799
 11
359.0885866866
 21
231.8632783571
  0
SPLINE
  5
4D0
100
AcDbEntity
  8
RUNDUNGEN
100
AcDbSpline
 62
7
  6
CONTINUOUS
 70
0
 71
3
 72
20
 73
16
 74
0
 42
0.0000001
 43
0.0000001
 44
0.0000000001
 40
0.0
 40
0.0
 40
0.0
 40
0.0
 40
0.0661717834
 40
0.1303109935
 40
0.1609556379
 40
0.1904541369
 40
0.2472011919
 40
0.3038533301
 40
0.3616711693
 40
0.4209739968
 40
0.4817380747
 40
0.6068436566
 40
0.7358547562
 40
0.8673297403
 40
1.0
 40
1.0
 40
1.0
 40
1.0
 10
361.2550269673
 20
216.0318013382
 30
0.0
 10
361.0557514752
 20
216.0318013382
 30
0.0
 10
360.6618091607
 20
216.0036473698
 30
0.0
 10
360.1967804545
 20
215.8210328216
 30
0.0
 10
359.9180572292
 20
215.5650657702
 30
0.0
 10
359.7258241391
 20
215.2658040625
 30
0.0
 10
359.6357630661
 20
214.829773113
 30
0.0
 10
359.7215301612
 20
214.3137565075
 30
0.0
 10
359.9372562048
 20
213.8322983939
 30
0.0
 10
360.2491508514
 20
213.3934123553
 30
0.0
 10
360.767394246
 20
212.86426021
 30
0.0
 10
361.5585944776
 20
212.324741372
 30
0.0
 10
362.6343316682
 20
211.8719950758
 30
0.0
 10
363.7922657776
 20
211.6021296397
 30
0.0
 10
364.5890518708
 20
211.5425583369
 30
0.0
 10
364.9885866866
 20
211.5425583369
 30
0.0
  0
SPLINE
  5
4D1
100
AcDbEntity
  8
0
100
AcDbSpline
 62
7
  6
CONTINUOUS
 70
0
 71
3
 72
20
 73
16
 74
0
 42
0.0000001
 43
0.0000001
 44
0.0000000001
 40
0.0
 40
0.0
 40
0.0
 40
0.0
 40
0.0661717834
 40
0.1303109935
 40
0.1609556379
 40
0.1904541369
 40
0.2472011919
 40
0.3038533301
 40
0.3616711693
 40
0.4209739968
 40
0.4817380747
 40
0.6068436566
 40
0.7358547562
 40
0.8673297403
 40
1.0
 40
1.0
 40
1.0
 40
1.0
 10
370.9221464059
 20
216.0318013382
 30
0.0
 10
371.121421898
 20
216.0318013382
 30
0.0
 10
371.5153642125
 20
216.0036473698
 30
0.0
 10
371.9803929187
 20
215.8210328216
 30
0.0
 10
372.259116144
 20
215.5650657702
 30
0.0
 10
372.4513492341
 20
215.2658040625
 30
0.0
 10
372.5414103071
 20
214.829773113
 30
0.0
 10
372.455643212
 20
214.3137565075
 30
0.0
 10
372.2399171684
 20
213.8322983939
 30
0.0
 10
371.9280225218
 20
213.3934123553
 30
0.0
 10
371.4097791272
 20
212.86426021
 30
0.0
 10
370.6185788956
 20
212.324741372
 30
0.0
 10
369.542841705
 20
211.8719950758
 30
0.0
 10
368.3849075956
 20
211.6021296397
 30
0.0
 10
367.5881215024
 20
211.5425583369
 30
0.0
 10
367.1885866866
 20
211.5425583369
 30
0.0
  0
SPLINE
  5
4D2
100
AcDbEntity
  8
0
100
AcDbSpline
 62
7
  6
CONTINUOUS
 70
0
 71
3
 72
11
 73
7
 74
0
 42
0.0000001
 43
0.0000001
 44
0.0000000001
 40
0.0
 40
0.0
 40
0.0
 40
0.0
 40
0.2581491009
 40
0.5000000008
 40
0.7418509005
 40
1.0
 40
1.0
 40
1.0
 40
1.0
 10
364.378723804
 20
270.7578117259
 30
0.0
 10
364.2464786799
 20
270.9987386658
 30
0.0
 10
364.0322655137
 20
271.4918645422
 30
0.0
 10
363.9142654312
 20
272.283519519
 30
0.0
 10
364.0322655127
 20
273.0751744949
 30
0.0
 10
364.2464786806
 20
273.5683003687
 30
0.0
 10
364.378723804
 20
273.8092273072
 30
0.0
  0
ELLIPSE
  5
4D3
100
AcDbEntity
  8
0
100
AcDbEllipse
 62
7
  6
CONTINUOUS
 10
371.3825455936
 20
235.5331513382
 30
0.0
 11
1.0868367001
 21
4.9695299996
 31
0.0
 40
0.5071182934
 41
0.8981209173
 42
1.6812517444
  0
ELLIPSE
  5
4D4
100
AcDbEntity
  8
RUNDUNGEN
100
AcDbEllipse
 62
7
  6
CONTINUOUS
 10
360.7946277796
 20
235.5331513382
 30
0.0
 11
-1.0868367001
 21
4.9695299996
 31
0.0
 40
0.5071182934
 41
-1.6812517444
 42
-0.8981209173
  0
ENDSEC
  0
SECTION
  2
OBJECTS
  0
DICTIONARY
  5
C
100
AcDbDictionary
280
0
281
1
  3
ACAD_GROUP
350
D
  3
ACAD_MLINESTYLE
350
17
  3
ACAD_LAYOUT
350
1A
  3
ACAD_PLOTSETTINGS
350
19
  3
ACAD_PLOTSTYLENAME
350
E
  0
DICTIONARY
  5
D
102
{ACAD_REACTORS
330
C
102
}
100
AcDbDictionary
280
0
281
1
  0
ACDBDICTIONARYWDFLT
  5
E
102
{ACAD_REACTORS
330
C
102
}
100
AcDbDictionary
281
1
  3
Normal
350
F
100
AcDbDictionaryWithDefault
340
F
  0
DICTIONARY
  5
17
102
{ACAD_REACTORS
330
C
102
}
100
AcDbDictionary
280
0
281
1
  3
Standard
350
18
  0
DICTIONARY
  5
19
102
{ACAD_REACTORS
330
C
102
}
100
AcDbDictionary
281
1
  0
DICTIONARY
  5
1A
102
{ACAD_REACTORS
330
C
102
}
100
AcDbDictionary
281
1
  3
Model
350
4D5
  3
Layout1
350
4D6
  0
ACDBPLACEHOLDER
  5
F
102
{ACAD_REACTORS
330
E
102
}
  0
MLINESTYLE
  5
18
102
{ACAD_REACTORS
330
17
102
}
100
AcDbMlineStyle
  2
STANDARD
 70
0
  3

 62
256
 51
90.0
 52
90.0
 71
2
 49
0.5
 62
256
  6
BYLAYER
 49
-0.5
 62
256
  6
BYLAYER
  0
LAYOUT
  5
4D5
102
{ACAD_REACTORS
330
1A
102
}
100
AcDbPlotSettings
  1

  2
none_device
  4
ISO_A0_(1189.00_x_841.00_MM)
  6

 40
0.0
 41
0.0
 42
0.0
 43
0.0
 44
1189.0
 45
841.0
 46
0.0
 47
0.0
 48
0.0
 49
0.0
140
0.0
141
0.0
142
1.0
143
1.0
 70
1024
 72
1
 73
0
 74
0
  7

 75
0
147
1.0
148
0.0
149
0.0
100
AcDbLayout
  1
Model
 70
0
 71
0
 10
0.0
 20
0.0
 11
1189.0
 21
841.0
 12
0.0
 22
0.0
 32
0.0
 14
0.0
 24
0.0
 34
0.0
 15
0.0
 25
0.0
 35
0.0
146
0.0
 13
0.0
 23
0.0
 33
0.0
 16
1.0
 26
0.0
 36
0.0
 17
0.0
 27
1.0
 37
0.0
 76
0
330
20A
345
0
346
0
  0
LAYOUT
  5
4D6
102
{ACAD_REACTORS
330
1A
102
}
100
AcDbPlotSettings
  1

  2
none_device
  4
ISO_A0_(1189.00_x_841.00_MM)
  6

 40
0.0
 41
0.0
 42
0.0
 43
0.0
 44
1189.0
 45
841.0
 46
0.0
 47
0.0
 48
0.0
 49
0.0
140
0.0
141
0.0
142
1.0
143
1.0
 70
0
 72
1
 73
0
 74
0
  7

 75
0
147
1.0
148
0.0
149
0.0
100
AcDbLayout
  1
Layout1
 70
0
 71
1
 10
0.0
 20
0.0
 11
1189.0
 21
841.0
 12
0.0
 22
0.0
 32
0.0
 14
0.0
 24
0.0
 34
0.0
 15
0.0
 25
0.0
 35
0.0
146
0.0
 13
0.0
 23
0.0
 33
0.0
 16
1.0
 26
0.0
 36
0.0
 17
0.0
 27
1.0
 37
0.0
 76
0
330
20B
345
0
346
0
  0
ENDSEC
  0
EOF
