999
DXF file: ISAK-RG-1-6_140_7903182_M34585-P-1.dxf
999
Pro/ENGINEER 2010140 by Parametric Technology Corporation
  0
SECTION
  2
HEADER
  9
$ACADVER
  1
AC1015
  9
$DWGCODEPAGE
  3
ANSI_1252
  9
$EXTMAX
 10
841.0
 20
594.0
 30
0.0
  9
$EXTMIN
 10
0.0
 20
0.0
 30
0.0
  9
$LIMMIN
 10
0.0
 20
0.0
  9
$LIMMAX
 10
841.0
 20
594.0
  9
$VIEWCTR
 10
420.5
 20
297.0
  9
$VIEWSIZE
 40
594.0
  9
$CLAYER
  8
0
  9
$LTSCALE
 40
46.255
  9
$CELTYPE
  6
BYLAYER
  9
$DIMSCALE
 40
1.0
  9
$DIMASZ
 40
3.5
  9
$DIMEXO
 40
5.25625
  9
$DIMDLI
 40
31.958
  9
$DIMEXE
 40
15.138
  9
$DIMCEN
 40
7.569
  9
$DIMLFAC
 40
1.0
  9
$DIMBLK
  1
_FILLED
  9
$DIMTXT
 40
3.5
  9
$DIMTOL
 70
1
  9
$DIMLIM
 70
0
  9
$DIMTFAC
 40
1.0
  9
$DIMTP
 40
0.005
  9
$DIMTM
 40
0.005
  9
$PDMODE
 70
3
  9
$PDSIZE
 40
0.3125
  9
$HANDSEED
  5
4D8
  9
$TILEMODE
 70
1
  9
$MEASUREMENT
 70
1
  9
$INSUNITS
 70
4
  0
ENDSEC
  0
SECTION
  2
CLASSES
  0
CLASS
  1
ACDBDICTIONARYWDFLT
  2
AcDbDictionaryWithDefault
  3
AutoCAD 2000
 90
0
280
0
281
0
  0
CLASS
  1
ACDBPLACEHOLDER
  2
AcDbPlaceHolder
  3
AutoCAD 2000
 90
0
280
0
281
0
  0
CLASS
  1
LAYOUT
  2
AcDbLayout
  3
AutoCAD 2000
 90
0
280
0
281
0
  0
ENDSEC
  0
SECTION
  2
TABLES
  0
TABLE
  2
VPORT
  5
8
100
AcDbSymbolTable
 70
2
  0
VPORT
  5
1F4
100
AcDbSymbolTableRecord
100
AcDbViewportTableRecord
  2
*ACTIVE
 70
0
 10
0.0
 20
0.0
 11
1.0
 21
1.0
 12
420.5
 22
297.0
 13
0.0
 23
0.0
 14
1.0
 24
1.0
 15
0.0
 25
0.0
 16
0.0
 26
0.0
 36
1.0
 17
0.0
 27
0.0
 37
0.0
 40
594.0
 41
1.4158249158
 42
50.0
 43
0.0
 44
0.0
 50
0.0
 51
0.0
 71
0
 72
100
 73
1
 74
1
 75
0
 76
0
 77
0
 78
0
  0
ENDTAB
  0
TABLE
  2
LTYPE
  5
5
100
AcDbSymbolTable
 70
6
  0
LTYPE
  5
14
100
AcDbSymbolTableRecord
100
AcDbLinetypeTableRecord
  2
BYBLOCK
 70
0
  3

 72
65
 73
0
 40
0.0
  0
LTYPE
  5
15
100
AcDbSymbolTableRecord
100
AcDbLinetypeTableRecord
  2
BYLAYER
 70
0
  3

 72
65
 73
0
 40
0.0
  0
LTYPE
  5
16
100
AcDbSymbolTableRecord
100
AcDbLinetypeTableRecord
  2
CONTINUOUS
 70
64
  3
Solid line
 72
65
 73
0
 40
0.0
  0
LTYPE
  5
1F5
100
AcDbSymbolTableRecord
100
AcDbLinetypeTableRecord
  2
CENTER
 70
64
  3
____ _ ____ _ ____ _ ____ _ ____ _ ____ _ ____
 72
65
 73
4
 40
0.6
 49
0.375
 74
0
 49
-0.075
 74
0
 49
0.075
 74
0
 49
-0.075
 74
0
  0
LTYPE
  5
1F6
100
AcDbSymbolTableRecord
100
AcDbLinetypeTableRecord
  2
HIDDEN
 70
64
  3
- - - - - - - - - - - - - - - - - - - -
 72
65
 73
2
 40
0.2
 49
0.1
 74
0
 49
-0.1
 74
0
  0
LTYPE
  5
1F7
100
AcDbSymbolTableRecord
100
AcDbLinetypeTableRecord
  2
PHANTOM
 70
64
  3
_____ _ _ _____ _ _ _____ _ _ _____
 72
65
 73
6
 40
0.8
 49
0.45
 74
0
 49
-0.05
 74
0
 49
0.1
 74
0
 49
-0.05
 74
0
 49
0.1
 74
0
 49
-0.05
 74
0
  0
LTYPE
  5
1F8
100
AcDbSymbolTableRecord
100
AcDbLinetypeTableRecord
  2
DOT
 70
64
  3
. . . . . . . . . . . . . . . . . . . .
 72
65
 73
2
 40
0.2
 49
0.1
 74
0
 49
-0.1
 74
0
  0
LTYPE
  5
1F9
100
AcDbSymbolTableRecord
100
AcDbLinetypeTableRecord
  2
DASHED
 70
64
  3
- - - - - - - - - - - - - - - - - - - -
 72
65
 73
2
 40
0.2
 49
0.1
 74
0
 49
-0.1
 74
0
  0
ENDTAB
  0
TABLE
  2
LAYER
  5
2
100
AcDbSymbolTable
 70
36
  0
LAYER
  5
10
100
AcDbSymbolTableRecord
100
AcDbLayerTableRecord
  2
0
 70
0
 62
7
  6
CONTINUOUS
370
-3
390
F
  0
LAYER
  5
1FA
100
AcDbSymbolTableRecord
100
AcDbLayerTableRecord
  2
DEFAULT_1
 70
0
 62
7
  6
CENTER
370
-3
390
F
  0
LAYER
  5
1FB
100
AcDbSymbolTableRecord
100
AcDbLayerTableRecord
  2
DEFAULT_2
 70
0
 62
8
  6
HIDDEN
370
-3
390
F
  0
LAYER
  5
1FC
100
AcDbSymbolTableRecord
100
AcDbLayerTableRecord
  2
DEFAULT_3
 70
0
 62
7
  6
PHANTOM
370
-3
390
F
  0
LAYER
  5
1FD
100
AcDbSymbolTableRecord
100
AcDbLayerTableRecord
  2
BEZUGSACHSEN
 70
0
 62
7
  6
CONTINUOUS
370
-3
390
F
  0
LAYER
  5
1FE
100
AcDbSymbolTableRecord
100
AcDbLayerTableRecord
  2
BEZUGSEBENEN
 70
0
 62
7
  6
CONTINUOUS
370
-3
390
F
  0
LAYER
  5
1FF
100
AcDbSymbolTableRecord
100
AcDbLayerTableRecord
  2
BG_STARTBEZUEGE
 70
0
 62
7
  6
CONTINUOUS
370
-3
390
F
  0
LAYER
  5
200
100
AcDbSymbolTableRecord
100
AcDbLayerTableRecord
  2
FASEN
 70
0
 62
7
  6
CONTINUOUS
370
-3
390
F
  0
LAYER
  5
201
100
AcDbSymbolTableRecord
100
AcDbLayerTableRecord
  2
HILFEN
 70
0
 62
7
  6
CONTINUOUS
370
-3
390
F
  0
LAYER
  5
202
100
AcDbSymbolTableRecord
100
AcDbLayerTableRecord
  2
KONSTRUKTIONSELEMENTE
 70
0
 62
7
  6
CONTINUOUS
370
-3
390
F
  0
LAYER
  5
203
100
AcDbSymbolTableRecord
100
AcDbLayerTableRecord
  2
NORM
 70
0
 62
7
  6
CONTINUOUS
370
-3
390
F
  0
LAYER
  5
204
100
AcDbSymbolTableRecord
100
AcDbLayerTableRecord
  2
PLATZIERUNG
 70
0
 62
7
  6
CONTINUOUS
370
-3
390
F
  0
LAYER
  5
205
100
AcDbSymbolTableRecord
100
AcDbLayerTableRecord
  2
RUNDUNGEN
 70
0
 62
7
  6
CONTINUOUS
370
-3
390
F
  0
LAYER
  5
206
100
AcDbSymbolTableRecord
100
AcDbLayerTableRecord
  2
TEIL_STARTBEZUEGE
 70
0
 62
7
  6
CONTINUOUS
370
-3
390
F
  0
LAYER
  5
207
100
AcDbSymbolTableRecord
100
AcDbLayerTableRecord
  2
T_STARTBEZUEGE
 70
0
 62
7
  6
CONTINUOUS
370
-3
390
F
  0
LAYER
  5
208
100
AcDbSymbolTableRecord
100
AcDbLayerTableRecord
  2
ZEICHNUNGSBEMASSUNGEN
 70
0
 62
7
  6
CONTINUOUS
370
-3
390
F
  0
ENDTAB
  0
TABLE
  2
STYLE
  5
3
100
AcDbSymbolTable
 70
1
  0
STYLE
  5
11
100
AcDbSymbolTableRecord
100
AcDbTextStyleTableRecord
  2
STANDARD
 70
0
 40
0.0
 41
0.7
 50
0.0
 71
0
 42
0.2
  3
txt
  4

  0
STYLE
  5
209
100
AcDbSymbolTableRecord
100
AcDbTextStyleTableRecord
  2
TEXTSTYLE_1
 70
0
 40
0.0
 41
0.8
 50
0.0
 71
0
 42
0.2
  3
gdt
  4

  0
ENDTAB
  0
TABLE
  2
VIEW
  5
6
100
AcDbSymbolTable
 70
0
  0
ENDTAB
  0
TABLE
  2
UCS
  5
7
100
AcDbSymbolTable
 70
0
  0
ENDTAB
  0
TABLE
  2
APPID
  5
9
100
AcDbSymbolTable
 70
1
  0
APPID
  5
20A
100
AcDbSymbolTableRecord
100
AcDbRegAppTableRecord
  2
ACAD
 70
0
  0
ENDTAB
  0
TABLE
  2
BLOCK_RECORD
  5
1
100
AcDbSymbolTable
 70
0
  0
BLOCK_RECORD
  5
20B
100
AcDbSymbolTableRecord
100
AcDbBlockTableRecord
  2
*Model_Space
  0
BLOCK_RECORD
  5
20C
100
AcDbSymbolTableRecord
100
AcDbBlockTableRecord
  2
*Paper_Space
  0
ENDTAB
  0
TABLE
  2
DIMSTYLE
  5
A
100
AcDbSymbolTable
 70
1
100
AcDbDimStyleTable
 71
0
  0
DIMSTYLE
105
20D
100
AcDbSymbolTableRecord
100
AcDbDimStyleTableRecord
  2
STANDARD
 70
0
  3

  4

 40
1.0
 41
3.5
 42
0.0625
 43
0.38
 44
0.18
 45
0.0
 46
0.0
 47
0.005
 48
0.005
140
3.5
141
0.09
142
0.0
143
25.4
144
1.0
145
0.0
146
1.0
147
0.09
 71
1.0
 72
0.0
 73
0
 74
0
 75
0
 76
0
 77
1
 78
8
170
0
171
2
172
0
173
0
174
0
175
0
176
0
177
0
178
5
270
2
271
3
272
3
273
2
274
2
275
0
280
0
281
0
282
0
283
1
284
8
285
0
286
0
287
3
288
0
340
11
  0
ENDTAB
  0
ENDSEC
  0
SECTION
  2
BLOCKS
  0
BLOCK
  5
20
100
AcDbEntity
  8
0
100
AcDbBlockBegin
  2
*Model_Space
 70
0
 10
0.0
 20
0.0
 30
0.0
  3
*Model_Space
  1

  0
ENDBLK
  5
21
100
AcDbEntity
  8
0
100
AcDbBlockEnd
  0
BLOCK
  5
1C
100
AcDbEntity
  8
0
100
AcDbBlockBegin
  2
*Paper_Space
 70
0
 10
0.0
 20
0.0
 30
0.0
  3
*Paper_Space
  1

  0
ENDBLK
  5
1D
100
AcDbEntity
  8
0
100
AcDbBlockEnd
  0
ENDSEC
  0
SECTION
  2
ENTITIES
  0
MTEXT
  5
20E
100
AcDbEntity
  8
0
100
AcDbMText
 62
5
  6
CONTINUOUS
  7
STANDARD
 71
1
 72
1
 10
461.5415114726
 20
377.278107115
 30
0.0
 11
0.0
 21
1.0
 31
0.0
 44
0.9
  1
RUD
 40
10.0
 41
26.6666666667
  0
MTEXT
  5
20F
100
AcDbEntity
  8
0
100
AcDbMText
 62
5
  6
CONTINUOUS
  7
STANDARD
 71
1
 72
1
 10
619.4614194657
 20
333.6453990721
 30
0.0
 11
0.0
 21
1.0
 31
0.0
 44
0.9
  1
ISAK-RG 1-6/140
 40
10.0
 41
113.0952380952
  0
MTEXT
  5
210
100
AcDbEntity
  8
0
100
AcDbMText
 62
5
  6
CONTINUOUS
  7
STANDARD
 71
1
 72
1
 10
193.8001487693
 20
314.1279806758
 30
0.0
 11
0.0
 21
1.0
 31
0.0
 44
0.9
  1
RUD ISAK-RG 1-6/140
 40
10.0
 41
145.7142857143
  0
LINE
  5
211
100
AcDbEntity
  8
0
100
AcDbLine
 62
7
  6
CONTINUOUS
 10
0.0
 20
0.0
 11
0.0
 21
594.0
  0
LINE
  5
212
100
AcDbEntity
  8
0
100
AcDbLine
 62
7
  6
CONTINUOUS
 10
0.0
 20
0.0
 11
841.0
 21
0.0
  0
LINE
  5
213
100
AcDbEntity
  8
0
100
AcDbLine
 62
7
  6
CONTINUOUS
 10
0.0
 20
594.0
 11
841.0
 21
594.0
  0
LINE
  5
214
100
AcDbEntity
  8
0
100
AcDbLine
 62
7
  6
CONTINUOUS
 10
841.0
 20
0.0
 11
841.0
 21
594.0
  0
LINE
  5
215
100
AcDbEntity
  8
RUNDUNGEN
100
AcDbLine
 62
7
  6
CONTINUOUS
 10
528.318862545
 20
54.5844836742
 11
529.518862545
 21
54.5844836742
  0
LINE
  5
216
100
AcDbEntity
  8
RUNDUNGEN
100
AcDbLine
 62
7
  6
CONTINUOUS
 10
561.918862545
 20
54.5844836742
 11
563.118862545
 21
54.5844836742
  0
LINE
  5
217
100
AcDbEntity
  8
RUNDUNGEN
100
AcDbLine
 62
7
  6
CONTINUOUS
 10
532.818862545
 20
59.6756524987
 11
537.1460828897
 21
59.6756524987
  0
LINE
  5
218
100
AcDbEntity
  8
RUNDUNGEN
100
AcDbLine
 62
7
  6
CONTINUOUS
 10
554.2916422003
 20
59.6756524987
 11
558.618862545
 21
59.6756524987
  0
LINE
  5
219
100
AcDbEntity
  8
0
100
AcDbLine
 62
7
  6
CONTINUOUS
 10
537.3265019039
 20
84.282968484
 11
540.2065019039
 21
84.282968484
  0
LINE
  5
21A
100
AcDbEntity
  8
0
100
AcDbLine
 62
7
  6
CONTINUOUS
 10
541.7339826848
 20
84.282968484
 11
542.3099826848
 21
84.282968484
  0
LINE
  5
21B
100
AcDbEntity
  8
0
100
AcDbLine
 62
7
  6
CONTINUOUS
 10
545.0537550349
 20
84.282968484
 11
545.718862545
 21
84.282968484
  0
LINE
  5
21C
100
AcDbEntity
  8
0
100
AcDbLine
 62
7
  6
CONTINUOUS
 10
550.7304639011
 20
84.282968484
 11
552.8172441417
 21
84.282968484
  0
LINE
  5
21D
100
AcDbEntity
  8
0
100
AcDbLine
 62
7
  6
CONTINUOUS
 10
537.3265019039
 20
84.4951005184
 11
540.2065019039
 21
84.4951005184
  0
LINE
  5
21E
100
AcDbEntity
  8
0
100
AcDbLine
 62
7
  6
CONTINUOUS
 10
541.7339826848
 20
84.4951005184
 11
542.3099826848
 21
84.4951005184
  0
LINE
  5
21F
100
AcDbEntity
  8
0
100
AcDbLine
 62
7
  6
CONTINUOUS
 10
545.0537550349
 20
84.4951005184
 11
545.5456574643
 21
84.4951005184
  0
LINE
  5
220
100
AcDbEntity
  8
0
100
AcDbLine
 62
7
  6
CONTINUOUS
 10
550.7304639011
 20
84.4951005184
 11
552.8172441417
 21
84.4951005184
  0
LINE
  5
221
100
AcDbEntity
  8
0
100
AcDbLine
 62
7
  6
CONTINUOUS
 10
552.8298660284
 20
84.7072325527
 11
551.3064639011
 21
84.7072325527
  0
LINE
  5
222
100
AcDbEntity
  8
0
100
AcDbLine
 62
7
  6
CONTINUOUS
 10
539.2165019039
 20
84.7920853665
 11
538.3165019039
 21
84.7920853665
  0
LINE
  5
223
100
AcDbEntity
  8
0
100
AcDbLine
 62
7
  6
CONTINUOUS
 10
538.4785019039
 20
84.9830041974
 11
539.0545019039
 21
84.9830041974
  0
LINE
  5
224
100
AcDbEntity
  8
0
100
AcDbLine
 62
7
  6
CONTINUOUS
 10
538.4785019039
 20
85.1951362318
 11
539.0545019039
 21
85.1951362318
  0
LINE
  5
225
100
AcDbEntity
  8
0
100
AcDbLine
 62
7
  6
CONTINUOUS
 10
538.8295019039
 20
85.4921210799
 11
538.7035019039
 21
85.4921210799
  0
LINE
  5
226
100
AcDbEntity
  8
0
100
AcDbLine
 62
7
  6
CONTINUOUS
 10
539.0545019039
 20
85.6194003005
 11
538.9015019039
 21
85.6194003005
  0
LINE
  5
227
100
AcDbEntity
  8
0
100
AcDbLine
 62
7
  6
CONTINUOUS
 10
538.6315019039
 20
85.6194003005
 11
538.4785019039
 21
85.6194003005
  0
LINE
  5
228
100
AcDbEntity
  8
0
100
AcDbLine
 62
7
  6
CONTINUOUS
 10
538.9015019039
 20
85.8103191314
 11
539.2165019039
 21
85.8103191314
  0
LINE
  5
229
100
AcDbEntity
  8
0
100
AcDbLine
 62
7
  6
CONTINUOUS
 10
538.3165019039
 20
85.8103191314
 11
538.6315019039
 21
85.8103191314
  0
LINE
  5
22A
100
AcDbEntity
  8
0
100
AcDbLine
 62
7
  6
CONTINUOUS
 10
542.3099826848
 20
85.8797569833
 11
543.7499826848
 21
85.8797569833
  0
LINE
  5
22B
100
AcDbEntity
  8
0
100
AcDbLine
 62
7
  6
CONTINUOUS
 10
538.9015019039
 20
86.0224511657
 11
539.2165019039
 21
86.0224511657
  0
LINE
  5
22C
100
AcDbEntity
  8
0
100
AcDbLine
 62
7
  6
CONTINUOUS
 10
538.3165019039
 20
86.0224511657
 11
538.6315019039
 21
86.0224511657
  0
LINE
  5
22D
100
AcDbEntity
  8
0
100
AcDbLine
 62
7
  6
CONTINUOUS
 10
539.2165019039
 20
86.0648775726
 11
538.9015019039
 21
86.0648775726
  0
LINE
  5
22E
100
AcDbEntity
  8
0
100
AcDbLine
 62
7
  6
CONTINUOUS
 10
538.6315019039
 20
86.0648775726
 11
538.3165019039
 21
86.0648775726
  0
LINE
  5
22F
100
AcDbEntity
  8
0
100
AcDbLine
 62
7
  6
CONTINUOUS
 10
542.3099826848
 20
86.0918890177
 11
543.7499826848
 21
86.0918890177
  0
LINE
  5
230
100
AcDbEntity
  8
0
100
AcDbLine
 62
7
  6
CONTINUOUS
 10
538.4785019039
 20
86.2557964035
 11
538.6315019039
 21
86.2557964035
  0
LINE
  5
231
100
AcDbEntity
  8
0
100
AcDbLine
 62
7
  6
CONTINUOUS
 10
538.9015019039
 20
86.2557964035
 11
539.0545019039
 21
86.2557964035
  0
LINE
  5
232
100
AcDbEntity
  8
0
100
AcDbLine
 62
7
  6
CONTINUOUS
 10
543.9899826848
 20
86.2870504893
 11
542.3099826848
 21
86.2870504893
  0
LINE
  5
233
100
AcDbEntity
  8
0
100
AcDbLine
 62
7
  6
CONTINUOUS
 10
538.7035019039
 20
86.3830756242
 11
538.8295019039
 21
86.3830756242
  0
LINE
  5
234
100
AcDbEntity
  8
0
100
AcDbLine
 62
7
  6
CONTINUOUS
 10
538.4785019039
 20
86.4679284379
 11
538.6315019039
 21
86.4679284379
  0
LINE
  5
235
100
AcDbEntity
  8
0
100
AcDbLine
 62
7
  6
CONTINUOUS
 10
538.9015019039
 20
86.4679284379
 11
539.0545019039
 21
86.4679284379
  0
LINE
  5
236
100
AcDbEntity
  8
0
100
AcDbLine
 62
7
  6
CONTINUOUS
 10
538.7035019039
 20
86.5952076585
 11
538.8295019039
 21
86.5952076585
  0
LINE
  5
237
100
AcDbEntity
  8
0
100
AcDbLine
 62
7
  6
CONTINUOUS
 10
551.3064639011
 20
86.8285528963
 11
550.7304639011
 21
86.8285528963
  0
LINE
  5
238
100
AcDbEntity
  8
0
100
AcDbLine
 62
7
  6
CONTINUOUS
 10
542.3099826848
 20
86.8497660997
 11
541.7339826848
 21
86.8497660997
  0
LINE
  5
239
100
AcDbEntity
  8
0
100
AcDbLine
 62
7
  6
CONTINUOUS
 10
539.0545019039
 20
86.8921925066
 11
538.4785019039
 21
86.8921925066
  0
LINE
  5
23A
100
AcDbEntity
  8
0
100
AcDbLine
 62
7
  6
CONTINUOUS
 10
538.3165019039
 20
87.0831113375
 11
539.2165019039
 21
87.0831113375
  0
LINE
  5
23B
100
AcDbEntity
  8
0
100
AcDbLine
 62
7
  6
CONTINUOUS
 10
550.7304639011
 20
87.184934714
 11
552.8298660284
 21
87.184934714
  0
LINE
  5
23C
100
AcDbEntity
  8
0
100
AcDbLine
 62
7
  6
CONTINUOUS
 10
541.7339826848
 20
87.2061479175
 11
543.9899826848
 21
87.2061479175
  0
LINE
  5
23D
100
AcDbEntity
  8
0
100
AcDbLine
 62
7
  6
CONTINUOUS
 10
538.3165019039
 20
87.2952433719
 11
539.2165019039
 21
87.2952433719
  0
LINE
  5
23E
100
AcDbEntity
  8
0
100
AcDbLine
 62
7
  6
CONTINUOUS
 10
550.7304639011
 20
87.3970667484
 11
552.8298660284
 21
87.3970667484
  0
LINE
  5
23F
100
AcDbEntity
  8
0
100
AcDbLine
 62
7
  6
CONTINUOUS
 10
541.7339826848
 20
87.4182799518
 11
543.9899826848
 21
87.4182799518
  0
LINE
  5
240
100
AcDbEntity
  8
0
100
AcDbLine
 62
7
  6
CONTINUOUS
 10
552.8172441417
 20
87.59222822
 11
550.7304639011
 21
87.59222822
  0
LINE
  5
241
100
AcDbEntity
  8
0
100
AcDbLine
 62
7
  6
CONTINUOUS
 10
549.4704639011
 20
87.59222822
 11
548.8944639011
 21
87.59222822
  0
LINE
  5
242
100
AcDbEntity
  8
0
100
AcDbLine
 62
7
  6
CONTINUOUS
 10
546.6299826848
 20
87.59222822
 11
546.0539826848
 21
87.59222822
  0
LINE
  5
243
100
AcDbEntity
  8
0
100
AcDbLine
 62
7
  6
CONTINUOUS
 10
543.9899826848
 20
87.59222822
 11
541.7339826848
 21
87.59222822
  0
LINE
  5
244
100
AcDbEntity
  8
0
100
AcDbLine
 62
7
  6
CONTINUOUS
 10
540.2065019039
 20
87.59222822
 11
537.3265019039
 21
87.59222822
  0
LINE
  5
245
100
AcDbEntity
  8
RUNDUNGEN
100
AcDbLine
 62
7
  6
CONTINUOUS
 10
557.0246908043
 20
91.1174703545
 11
550.8810504722
 21
94.159318762
  0
LINE
  5
246
100
AcDbEntity
  8
RUNDUNGEN
100
AcDbLine
 62
7
  6
CONTINUOUS
 10
550.8810504722
 20
97.6948526679
 11
557.0246908043
 21
94.6530042604
  0
LINE
  5
247
100
AcDbEntity
  8
RUNDUNGEN
100
AcDbLine
 62
7
  6
CONTINUOUS
 10
571.8295350322
 20
94.3565597944
 11
567.3241987886
 21
96.5872486266
  0
LINE
  5
248
100
AcDbEntity
  8
RUNDUNGEN
100
AcDbLine
 62
7
  6
CONTINUOUS
 10
560.2062514673
 20
139.056163203
 11
559.968862545
 21
139.0467562044
  0
LINE
  5
249
100
AcDbEntity
  8
RUNDUNGEN
100
AcDbLine
 62
7
  6
CONTINUOUS
 10
559.968862545
 20
139.0467562044
 11
556.6103086838
 21
139.0467562044
  0
LINE
  5
24A
100
AcDbEntity
  8
0
100
AcDbLine
 62
7
  6
CONTINUOUS
 10
556.6103086838
 20
139.0467562044
 11
556.512014202
 21
139.0467562044
  0
LINE
  5
24B
100
AcDbEntity
  8
0
100
AcDbLine
 62
7
  6
CONTINUOUS
 10
534.925710888
 20
139.0467562044
 11
534.8274164063
 21
139.0467562044
  0
LINE
  5
24C
100
AcDbEntity
  8
RUNDUNGEN
100
AcDbLine
 62
7
  6
CONTINUOUS
 10
534.8274164063
 20
139.0467562044
 11
531.468862545
 21
139.0467562044
  0
LINE
  5
24D
100
AcDbEntity
  8
RUNDUNGEN
100
AcDbLine
 62
7
  6
CONTINUOUS
 10
531.468862545
 20
139.0467562044
 11
531.2314736228
 21
139.056163203
  0
LINE
  5
24E
100
AcDbEntity
  8
RUNDUNGEN
100
AcDbLine
 62
7
  6
CONTINUOUS
 10
571.8295350322
 20
97.8920937004
 11
567.3241987886
 21
100.1227825326
  0
LINE
  5
24F
100
AcDbEntity
  8
RUNDUNGEN
100
AcDbLine
 62
7
  6
CONTINUOUS
 10
520.5097673226
 20
92.2132961107
 11
522.0584237008
 21
90.6493806043
  0
LINE
  5
250
100
AcDbEntity
  8
RUNDUNGEN
100
AcDbLine
 62
7
  6
CONTINUOUS
 10
526.5323199043
 20
86.1314024747
 11
534.7796121122
 21
77.8028485411
  0
LINE
  5
251
100
AcDbEntity
  8
RUNDUNGEN
100
AcDbLine
 62
7
  6
CONTINUOUS
 10
548.6678099045
 20
63.7778083902
 11
551.8341860674
 21
60.5802334793
  0
LINE
  5
252
100
AcDbEntity
  8
RUNDUNGEN
100
AcDbLine
 62
7
  6
CONTINUOUS
 10
529.0876662696
 20
89.4683325723
 11
527.3669369606
 21
91.2060164683
  0
LINE
  5
253
100
AcDbEntity
  8
BEZUGSACHSEN
100
AcDbLine
 62
7
  6
CONTINUOUS
 10
542.018862545
 20
145.2092562044
 11
549.418862545
 21
145.2092562044
  0
LINE
  5
254
100
AcDbEntity
  8
BEZUGSACHSEN
100
AcDbLine
 62
7
  6
CONTINUOUS
 10
542.018862545
 20
147.4734578868
 11
549.418862545
 21
147.4734578868
  0
LINE
  5
255
100
AcDbEntity
  8
BEZUGSACHSEN
100
AcDbLine
 62
7
  6
CONTINUOUS
 10
542.018862545
 20
151.4200545219
 11
549.418862545
 21
151.4200545219
  0
LINE
  5
256
100
AcDbEntity
  8
BEZUGSACHSEN
100
AcDbLine
 62
7
  6
CONTINUOUS
 10
542.018862545
 20
153.6842562044
 11
549.418862545
 21
153.6842562044
  0
LINE
  5
257
100
AcDbEntity
  8
RUNDUNGEN
100
AcDbLine
 62
7
  6
CONTINUOUS
 10
531.468862545
 20
155.0467562044
 11
542.018862545
 21
155.0467562044
  0
LINE
  5
258
100
AcDbEntity
  8
RUNDUNGEN
100
AcDbLine
 62
7
  6
CONTINUOUS
 10
549.418862545
 20
155.0467562044
 11
559.968862545
 21
155.0467562044
  0
LINE
  5
259
100
AcDbEntity
  8
RUNDUNGEN
100
AcDbLine
 62
7
  6
CONTINUOUS
 10
559.968862545
 20
159.3768832233
 11
549.2725702321
 21
159.3768832233
  0
LINE
  5
25A
100
AcDbEntity
  8
RUNDUNGEN
100
AcDbLine
 62
7
  6
CONTINUOUS
 10
542.165154858
 20
159.3768832233
 11
531.468862545
 21
159.3768832233
  0
LINE
  5
25B
100
AcDbEntity
  8
RUNDUNGEN
100
AcDbLine
 62
7
  6
CONTINUOUS
 10
565.5763186779
 20
61.4963343327
 11
556.6581129778
 21
70.502412363
  0
LINE
  5
25C
100
AcDbEntity
  8
RUNDUNGEN
100
AcDbLine
 62
7
  6
CONTINUOUS
 10
533.9210330431
 20
93.463523932
 11
533.2074740358
 21
94.1841137361
  0
LINE
  5
25D
100
AcDbEntity
  8
RUNDUNGEN
100
AcDbLine
 62
7
  6
CONTINUOUS
 10
565.5763186779
 20
65.0318682387
 11
556.6581129778
 21
74.037946269
  0
LINE
  5
25E
100
AcDbEntity
  8
RUNDUNGEN
100
AcDbLine
 62
7
  6
CONTINUOUS
 10
533.9210330431
 20
96.9990578379
 11
533.2074740358
 21
97.719647642
  0
LINE
  5
25F
100
AcDbEntity
  8
0
100
AcDbLine
 62
7
  6
CONTINUOUS
 10
540.027587165
 20
161.8900790559
 11
539.7891973923
 21
161.8292135312
  0
LINE
  5
260
100
AcDbEntity
  8
0
100
AcDbLine
 62
7
  6
CONTINUOUS
 10
537.166907506
 20
161.8900790559
 11
536.9285173923
 21
161.8292135312
  0
LINE
  5
261
100
AcDbEntity
  8
0
100
AcDbLine
 62
7
  6
CONTINUOUS
 10
558.4350031923
 20
161.4640203406
 11
558.694539059
 21
161.5248858706
  0
LINE
  5
262
100
AcDbEntity
  8
0
100
AcDbLine
 62
7
  6
CONTINUOUS
 10
553.711443111
 20
161.4640203406
 11
553.9709792747
 21
161.5248858706
  0
LINE
  5
263
100
AcDbEntity
  8
0
100
AcDbLine
 62
7
  6
CONTINUOUS
 10
558.1754667315
 20
163.2899862509
 11
557.9159302707
 21
163.2291207263
  0
LINE
  5
264
100
AcDbEntity
  8
0
100
AcDbLine
 62
7
  6
CONTINUOUS
 10
558.1754667315
 20
164.3247003406
 11
557.9159302707
 21
164.263834816
  0
LINE
  5
265
100
AcDbEntity
  8
0
100
AcDbLine
 62
7
  6
CONTINUOUS
 10
553.244277838
 20
164.3247003406
 11
552.9847413772
 21
164.263834816
  0
LINE
  5
266
100
AcDbEntity
  8
0
100
AcDbLine
 62
7
  6
CONTINUOUS
 10
539.7891973923
 20
161.4640203406
 11
540.0871851197
 21
161.5248858706
  0
LINE
  5
267
100
AcDbEntity
  8
0
100
AcDbLine
 62
7
  6
CONTINUOUS
 10
536.9285173923
 20
161.4640203406
 11
537.2265047787
 21
161.5248858706
  0
LINE
  5
268
100
AcDbEntity
  8
0
100
AcDbLine
 62
7
  6
CONTINUOUS
 10
532.9950823923
 20
161.4640203406
 11
533.3526673923
 21
161.4640203406
  0
LINE
  5
269
100
AcDbEntity
  8
0
100
AcDbLine
 62
7
  6
CONTINUOUS
 10
534.8426048355
 20
161.4640203406
 11
535.2597874492
 21
161.4640203406
  0
LINE
  5
26A
100
AcDbEntity
  8
0
100
AcDbLine
 62
7
  6
CONTINUOUS
 10
536.6901272787
 20
161.4640203406
 11
536.9285173923
 21
161.4640203406
  0
LINE
  5
26B
100
AcDbEntity
  8
0
100
AcDbLine
 62
7
  6
CONTINUOUS
 10
538.3588573923
 20
161.4640203406
 11
539.7891973923
 21
161.4640203406
  0
LINE
  5
26C
100
AcDbEntity
  8
0
100
AcDbLine
 62
7
  6
CONTINUOUS
 10
549.299326545
 20
161.4640203406
 11
549.6107700603
 21
161.4640203406
  0
LINE
  5
26D
100
AcDbEntity
  8
0
100
AcDbLine
 62
7
  6
CONTINUOUS
 10
550.026028056
 20
161.4640203406
 11
550.3374715713
 21
161.4640203406
  0
LINE
  5
26E
100
AcDbEntity
  8
0
100
AcDbLine
 62
7
  6
CONTINUOUS
 10
551.6351529099
 20
161.4640203406
 11
551.9985037767
 21
161.4640203406
  0
LINE
  5
26F
100
AcDbEntity
  8
0
100
AcDbLine
 62
7
  6
CONTINUOUS
 10
553.244277838
 20
161.4640203406
 11
553.711443111
 21
161.4640203406
  0
LINE
  5
270
100
AcDbEntity
  8
0
100
AcDbLine
 62
7
  6
CONTINUOUS
 10
558.1754667315
 20
161.4640203406
 11
558.4350031923
 21
161.4640203406
  0
LINE
  5
271
100
AcDbEntity
  8
0
100
AcDbLine
 62
7
  6
CONTINUOUS
 10
558.4869102468
 20
161.7683480066
 11
558.1235596769
 21
161.7683480066
  0
LINE
  5
272
100
AcDbEntity
  8
0
100
AcDbLine
 62
7
  6
CONTINUOUS
 10
553.711443111
 20
161.8292135312
 11
553.244277838
 21
161.8292135312
  0
LINE
  5
273
100
AcDbEntity
  8
0
100
AcDbLine
 62
7
  6
CONTINUOUS
 10
539.7891973923
 20
161.8292135312
 11
538.7164423923
 21
161.8292135312
  0
LINE
  5
274
100
AcDbEntity
  8
0
100
AcDbLine
 62
7
  6
CONTINUOUS
 10
536.9285173923
 20
161.8292135312
 11
536.6901272787
 21
161.8292135312
  0
LINE
  5
275
100
AcDbEntity
  8
0
100
AcDbLine
 62
7
  6
CONTINUOUS
 10
553.6595357594
 20
162.6813310043
 11
554.1267010324
 21
162.6813310043
  0
LINE
  5
276
100
AcDbEntity
  8
0
100
AcDbLine
 62
7
  6
CONTINUOUS
 10
533.3526673923
 20
162.742196529
 11
534.3658248639
 21
162.742196529
  0
LINE
  5
277
100
AcDbEntity
  8
0
100
AcDbLine
 62
7
  6
CONTINUOUS
 10
550.3374715713
 20
162.742196529
 11
551.21989484
 21
162.742196529
  0
LINE
  5
278
100
AcDbEntity
  8
0
100
AcDbLine
 62
7
  6
CONTINUOUS
 10
558.1235596769
 20
162.9856586276
 11
558.4869102468
 21
162.9856586276
  0
LINE
  5
279
100
AcDbEntity
  8
0
100
AcDbLine
 62
7
  6
CONTINUOUS
 10
554.4381445477
 20
163.0465241523
 11
553.6595357594
 21
163.0465241523
  0
LINE
  5
27A
100
AcDbEntity
  8
0
100
AcDbLine
 62
7
  6
CONTINUOUS
 10
551.3237093946
 20
163.107389677
 11
550.3374715713
 21
163.107389677
  0
LINE
  5
27B
100
AcDbEntity
  8
0
100
AcDbLine
 62
7
  6
CONTINUOUS
 10
534.4850198355
 20
163.107389677
 11
533.3526673923
 21
163.107389677
  0
LINE
  5
27C
100
AcDbEntity
  8
0
100
AcDbLine
 62
7
  6
CONTINUOUS
 10
558.4350031923
 20
163.2899862509
 11
558.1754667315
 21
163.2899862509
  0
LINE
  5
27D
100
AcDbEntity
  8
0
100
AcDbLine
 62
7
  6
CONTINUOUS
 10
554.1267010324
 20
163.5943138742
 11
554.4381445477
 21
163.5943138742
  0
LINE
  5
27E
100
AcDbEntity
  8
0
100
AcDbLine
 62
7
  6
CONTINUOUS
 10
558.8502608167
 20
163.6551795694
 11
559.1097972774
 21
163.6551795694
  0
LINE
  5
27F
100
AcDbEntity
  8
0
100
AcDbLine
 62
7
  6
CONTINUOUS
 10
538.7164423923
 20
163.9595071927
 11
539.7891973923
 21
163.9595071927
  0
LINE
  5
280
100
AcDbEntity
  8
0
100
AcDbLine
 62
7
  6
CONTINUOUS
 10
553.244277838
 20
163.9595071927
 11
553.711443111
 21
163.9595071927
  0
LINE
  5
281
100
AcDbEntity
  8
0
100
AcDbLine
 62
7
  6
CONTINUOUS
 10
533.3526673923
 20
164.0203727174
 11
534.4850198355
 21
164.0203727174
  0
LINE
  5
282
100
AcDbEntity
  8
0
100
AcDbLine
 62
7
  6
CONTINUOUS
 10
550.3374715713
 20
164.0203727174
 11
551.3237093946
 21
164.0203727174
  0
LINE
  5
283
100
AcDbEntity
  8
0
100
AcDbLine
 62
7
  6
CONTINUOUS
 10
558.1235596769
 20
164.0203727174
 11
558.4350031923
 21
164.0203727174
  0
LINE
  5
284
100
AcDbEntity
  8
0
100
AcDbLine
 62
7
  6
CONTINUOUS
 10
558.3830955437
 20
164.3247003406
 11
558.1754667315
 21
164.3247003406
  0
LINE
  5
285
100
AcDbEntity
  8
0
100
AcDbLine
 62
7
  6
CONTINUOUS
 10
553.711443111
 20
164.3247003406
 11
553.244277838
 21
164.3247003406
  0
LINE
  5
286
100
AcDbEntity
  8
0
100
AcDbLine
 62
7
  6
CONTINUOUS
 10
551.2718021915
 20
164.3247003406
 11
550.026028056
 21
164.3247003406
  0
LINE
  5
287
100
AcDbEntity
  8
0
100
AcDbLine
 62
7
  6
CONTINUOUS
 10
549.6107700603
 20
164.3247003406
 11
549.299326545
 21
164.3247003406
  0
LINE
  5
288
100
AcDbEntity
  8
0
100
AcDbLine
 62
7
  6
CONTINUOUS
 10
539.7891973923
 20
164.3247003406
 11
538.3588573923
 21
164.3247003406
  0
LINE
  5
289
100
AcDbEntity
  8
0
100
AcDbLine
 62
7
  6
CONTINUOUS
 10
537.882077506
 20
164.3247003406
 11
537.524492506
 21
164.3247003406
  0
LINE
  5
28A
100
AcDbEntity
  8
0
100
AcDbLine
 62
7
  6
CONTINUOUS
 10
536.094152506
 20
164.3247003406
 11
535.7365673355
 21
164.3247003406
  0
LINE
  5
28B
100
AcDbEntity
  8
0
100
AcDbLine
 62
7
  6
CONTINUOUS
 10
534.4254223923
 20
164.3247003406
 11
532.9950823923
 21
164.3247003406
  0
LINE
  5
28C
100
AcDbEntity
  8
RUNDUNGEN
100
AcDbLine
 62
7
  6
CONTINUOUS
 10
534.4775311128
 20
167.8751833291
 11
533.468862545
 21
167.8751833291
  0
LINE
  5
28D
100
AcDbEntity
  8
RUNDUNGEN
100
AcDbLine
 62
7
  6
CONTINUOUS
 10
556.9601939772
 20
167.8751833291
 11
557.9691922173
 21
167.8751833291
  0
LINE
  5
28E
100
AcDbEntity
  8
RUNDUNGEN
100
AcDbLine
 62
7
  6
CONTINUOUS
 10
538.9365325619
 20
168.0467562044
 11
552.5011925281
 21
168.0467562044
  0
LINE
  5
28F
100
AcDbEntity
  8
0
100
AcDbLine
 62
7
  6
CONTINUOUS
 10
536.3921398923
 20
161.5248858706
 11
536.6901272787
 21
161.4640203406
  0
LINE
  5
290
100
AcDbEntity
  8
0
100
AcDbLine
 62
7
  6
CONTINUOUS
 10
534.7234099492
 20
164.263834816
 11
534.4254223923
 21
164.3247003406
  0
LINE
  5
291
100
AcDbEntity
  8
0
100
AcDbLine
 62
7
  6
CONTINUOUS
 10
540.0871851197
 20
164.263834816
 11
539.7891973923
 21
164.3247003406
  0
LINE
  5
292
100
AcDbEntity
  8
0
100
AcDbLine
 62
7
  6
CONTINUOUS
 10
552.9847413772
 20
161.5248858706
 11
553.244277838
 21
161.4640203406
  0
LINE
  5
293
100
AcDbEntity
  8
0
100
AcDbLine
 62
7
  6
CONTINUOUS
 10
557.9159302707
 20
161.5248858706
 11
558.1754667315
 21
161.4640203406
  0
LINE
  5
294
100
AcDbEntity
  8
0
100
AcDbLine
 62
7
  6
CONTINUOUS
 10
551.5313383553
 20
164.263834816
 11
551.2718021915
 21
164.3247003406
  0
LINE
  5
295
100
AcDbEntity
  8
0
100
AcDbLine
 62
7
  6
CONTINUOUS
 10
553.9709792747
 20
164.263834816
 11
553.711443111
 21
164.3247003406
  0
LINE
  5
296
100
AcDbEntity
  8
0
100
AcDbLine
 62
7
  6
CONTINUOUS
 10
558.694539059
 20
163.2291207263
 11
558.4350031923
 21
163.2899862509
  0
LINE
  5
297
100
AcDbEntity
  8
0
100
AcDbLine
 62
7
  6
CONTINUOUS
 10
558.6426320045
 20
164.263834816
 11
558.3830955437
 21
164.3247003406
  0
LINE
  5
298
100
AcDbEntity
  8
0
100
AcDbLine
 62
7
  6
CONTINUOUS
 10
536.6901272787
 20
161.8292135312
 11
536.451737506
 21
161.8900790559
  0
LINE
  5
299
100
AcDbEntity
  8
0
100
AcDbLine
 62
7
  6
CONTINUOUS
 10
539.7891973923
 20
163.9595071927
 11
540.027587165
 21
163.898641668
  0
LINE
  5
29A
100
AcDbEntity
  8
0
100
AcDbLine
 62
7
  6
CONTINUOUS
 10
553.244277838
 20
161.8292135312
 11
553.0366487288
 21
161.8900790559
  0
LINE
  5
29B
100
AcDbEntity
  8
0
100
AcDbLine
 62
7
  6
CONTINUOUS
 10
553.711443111
 20
163.9595071927
 11
553.9190719232
 21
163.898641668
  0
LINE
  5
29C
100
AcDbEntity
  8
0
100
AcDbLine
 62
7
  6
CONTINUOUS
 10
534.4850198355
 20
164.0203727174
 11
534.6638123355
 21
163.9595071927
  0
LINE
  5
29D
100
AcDbEntity
  8
0
100
AcDbLine
 62
7
  6
CONTINUOUS
 10
551.3237093946
 20
164.0203727174
 11
551.4794311522
 21
163.9595071927
  0
LINE
  5
29E
100
AcDbEntity
  8
0
100
AcDbLine
 62
7
  6
CONTINUOUS
 10
558.1235596769
 20
161.7683480066
 11
557.9678379193
 21
161.8292135312
  0
LINE
  5
29F
100
AcDbEntity
  8
0
100
AcDbLine
 62
7
  6
CONTINUOUS
 10
558.4869102468
 20
162.9856586276
 11
558.6426320045
 21
162.924793103
  0
LINE
  5
2A0
100
AcDbEntity
  8
0
100
AcDbLine
 62
7
  6
CONTINUOUS
 10
558.4350031923
 20
164.0203727174
 11
558.5907249499
 21
163.9595071927
  0
LINE
  5
2A1
100
AcDbEntity
  8
0
100
AcDbLine
 62
7
  6
CONTINUOUS
 10
536.1537497787
 20
161.6466169359
 11
536.3921398923
 21
161.5248858706
  0
LINE
  5
2A2
100
AcDbEntity
  8
0
100
AcDbLine
 62
7
  6
CONTINUOUS
 10
540.3255748923
 20
164.1421037667
 11
540.0871851197
 21
164.263834816
  0
LINE
  5
2A3
100
AcDbEntity
  8
0
100
AcDbLine
 62
7
  6
CONTINUOUS
 10
543.7499826848
 20
85.8797569833
 11
545.0537550349
 21
84.282968484
  0
LINE
  5
2A4
100
AcDbEntity
  8
0
100
AcDbLine
 62
7
  6
CONTINUOUS
 10
543.7499826848
 20
86.0918890177
 11
545.0537550349
 21
84.4951005184
  0
LINE
  5
2A5
100
AcDbEntity
  8
0
100
AcDbLine
 62
7
  6
CONTINUOUS
 10
545.718862545
 20
84.282968484
 11
544.3632717962
 21
85.9432213014
  0
LINE
  5
2A6
100
AcDbEntity
  8
0
100
AcDbLine
 62
7
  6
CONTINUOUS
 10
552.777112565
 20
161.6466169359
 11
552.9847413772
 21
161.5248858706
  0
LINE
  5
2A7
100
AcDbEntity
  8
0
100
AcDbLine
 62
7
  6
CONTINUOUS
 10
554.1786083839
 20
164.1421037667
 11
553.9709792747
 21
164.263834816
  0
LINE
  5
2A8
100
AcDbEntity
  8
0
100
AcDbLine
 62
7
  6
CONTINUOUS
 10
536.451737506
 20
161.8900790559
 11
536.272945006
 21
162.0118101478
  0
LINE
  5
2A9
100
AcDbEntity
  8
0
100
AcDbLine
 62
7
  6
CONTINUOUS
 10
540.027587165
 20
163.898641668
 11
540.206379665
 21
163.7769106187
  0
LINE
  5
2AA
100
AcDbEntity
  8
0
100
AcDbLine
 62
7
  6
CONTINUOUS
 10
557.656394404
 20
161.7074824606
 11
557.9159302707
 21
161.5248858706
  0
LINE
  5
2AB
100
AcDbEntity
  8
0
100
AcDbLine
 62
7
  6
CONTINUOUS
 10
558.9540755198
 20
163.0465241523
 11
558.694539059
 21
163.2291207263
  0
LINE
  5
2AC
100
AcDbEntity
  8
0
100
AcDbLine
 62
7
  6
CONTINUOUS
 10
534.9617998923
 20
164.081238242
 11
534.7234099492
 21
164.263834816
  0
LINE
  5
2AD
100
AcDbEntity
  8
0
100
AcDbLine
 62
7
  6
CONTINUOUS
 10
553.0366487288
 20
161.8900790559
 11
552.8809269711
 21
162.0118101478
  0
LINE
  5
2AE
100
AcDbEntity
  8
0
100
AcDbLine
 62
7
  6
CONTINUOUS
 10
535.915360006
 20
161.8900790559
 11
536.1537497787
 21
161.6466169359
  0
LINE
  5
2AF
100
AcDbEntity
  8
0
100
AcDbLine
 62
7
  6
CONTINUOUS
 10
457.718862545
 20
449.0467562044
 11
457.718862545
 21
329.0467562044
  0
LINE
  5
2B0
100
AcDbEntity
  8
0
100
AcDbLine
 62
7
  6
CONTINUOUS
 10
539.218862545
 20
199.5811624226
 11
534.3308245605
 21
198.2714165921
  0
LINE
  5
2B1
100
AcDbEntity
  8
0
100
AcDbLine
 62
7
  6
CONTINUOUS
 10
557.1069005295
 20
198.2714165921
 11
552.218862545
 21
199.5811624226
  0
LINE
  5
2B2
100
AcDbEntity
  8
0
100
AcDbLine
 62
7
  6
CONTINUOUS
 10
558.9021684652
 20
164.081238242
 11
558.6426320045
 21
164.263834816
  0
LINE
  5
2B3
100
AcDbEntity
  8
0
100
AcDbLine
 62
7
  6
CONTINUOUS
 10
553.9190719232
 20
163.898641668
 11
554.0747936808
 21
163.7769106187
  0
LINE
  5
2B4
100
AcDbEntity
  8
0
100
AcDbLine
 62
7
  6
CONTINUOUS
 10
557.9678379193
 20
161.8292135312
 11
557.8121161616
 21
161.9509445805
  0
LINE
  5
2B5
100
AcDbEntity
  8
0
100
AcDbLine
 62
7
  6
CONTINUOUS
 10
558.6426320045
 20
162.924793103
 11
558.7983537621
 21
162.8030620537
  0
LINE
  5
2B6
100
AcDbEntity
  8
0
100
AcDbLine
 62
7
  6
CONTINUOUS
 10
558.5907249499
 20
163.9595071927
 11
558.7464467076
 21
163.8377761434
  0
LINE
  5
2B7
100
AcDbEntity
  8
0
100
AcDbLine
 62
7
  6
CONTINUOUS
 10
551.7389674645
 20
164.081238242
 11
551.5313383553
 21
164.263834816
  0
LINE
  5
2B8
100
AcDbEntity
  8
0
100
AcDbLine
 62
7
  6
CONTINUOUS
 10
534.6638123355
 20
163.9595071927
 11
534.7830073923
 21
163.8377761434
  0
LINE
  5
2B9
100
AcDbEntity
  8
0
100
AcDbLine
 62
7
  6
CONTINUOUS
 10
540.563964665
 20
163.898641668
 11
540.3255748923
 21
164.1421037667
  0
LINE
  5
2BA
100
AcDbEntity
  8
0
100
AcDbLine
 62
7
  6
CONTINUOUS
 10
535.1405923923
 20
163.8377761434
 11
534.9617998923
 21
164.081238242
  0
LINE
  5
2BB
100
AcDbEntity
  8
RUNDUNGEN
100
AcDbLine
 62
7
  6
CONTINUOUS
 10
531.2314736228
 20
139.056163203
 11
528.468862545
 21
143.5454062044
  0
LINE
  5
2BC
100
AcDbEntity
  8
0
100
AcDbLine
 62
7
  6
CONTINUOUS
 10
475.718862545
 20
449.0467562044
 11
475.718862545
 21
329.0467562044
  0
LINE
  5
2BD
100
AcDbEntity
  8
0
100
AcDbLine
 62
7
  6
CONTINUOUS
 10
552.5694834558
 20
161.8900790559
 11
552.777112565
 21
161.6466169359
  0
LINE
  5
2BE
100
AcDbEntity
  8
0
100
AcDbLine
 62
7
  6
CONTINUOUS
 10
551.4794311522
 20
163.9595071927
 11
551.5832457068
 21
163.8377761434
  0
LINE
  5
2BF
100
AcDbEntity
  8
0
100
AcDbLine
 62
7
  6
CONTINUOUS
 10
554.3862374932
 20
163.898641668
 11
554.1786083839
 21
164.1421037667
  0
LINE
  5
2C0
100
AcDbEntity
  8
0
100
AcDbLine
 62
7
  6
CONTINUOUS
 10
558.7983537621
 20
162.8030620537
 11
558.9021684652
 21
162.6813310043
  0
LINE
  5
2C1
100
AcDbEntity
  8
0
100
AcDbLine
 62
7
  6
CONTINUOUS
 10
559.1097972774
 20
162.8639275783
 11
558.9540755198
 21
163.0465241523
  0
LINE
  5
2C2
100
AcDbEntity
  8
0
100
AcDbLine
 62
7
  6
CONTINUOUS
 10
536.272945006
 20
162.0118101478
 11
536.1537497787
 21
162.1944067218
  0
LINE
  5
2C3
100
AcDbEntity
  8
0
100
AcDbLine
 62
7
  6
CONTINUOUS
 10
540.206379665
 20
163.7769106187
 11
540.3255748923
 21
163.5943138742
  0
LINE
  5
2C4
100
AcDbEntity
  8
0
100
AcDbLine
 62
7
  6
CONTINUOUS
 10
535.7961649492
 20
162.1335411972
 11
535.915360006
 21
161.8900790559
  0
LINE
  5
2C5
100
AcDbEntity
  8
0
100
AcDbLine
 62
7
  6
CONTINUOUS
 10
565.4435229327
 20
189.9347941889
 11
557.1069005295
 21
198.2714165921
  0
LINE
  5
2C6
100
AcDbEntity
  8
0
100
AcDbLine
 62
7
  6
CONTINUOUS
 10
551.8946890736
 20
163.8377761434
 11
551.7389674645
 21
164.081238242
  0
LINE
  5
2C7
100
AcDbEntity
  8
0
100
AcDbLine
 62
7
  6
CONTINUOUS
 10
557.5006726463
 20
161.9509445805
 11
557.656394404
 21
161.7074824606
  0
LINE
  5
2C8
100
AcDbEntity
  8
0
100
AcDbLine
 62
7
  6
CONTINUOUS
 10
559.0578902229
 20
163.8377761434
 11
558.9021684652
 21
164.081238242
  0
LINE
  5
2C9
100
AcDbEntity
  8
0
100
AcDbLine
 62
7
  6
CONTINUOUS
 10
552.8809269711
 20
162.0118101478
 11
552.777112565
 21
162.1944067218
  0
LINE
  5
2CA
100
AcDbEntity
  8
0
100
AcDbLine
 62
7
  6
CONTINUOUS
 10
557.8121161616
 20
161.9509445805
 11
557.7083014585
 21
162.1335411972
  0
LINE
  5
2CB
100
AcDbEntity
  8
0
100
AcDbLine
 62
7
  6
CONTINUOUS
 10
558.7464467076
 20
163.8377761434
 11
558.8502608167
 21
163.6551795694
  0
LINE
  5
2CC
100
AcDbEntity
  8
0
100
AcDbLine
 62
7
  6
CONTINUOUS
 10
540.6831598923
 20
163.6551795694
 11
540.563964665
 21
163.898641668
  0
LINE
  5
2CD
100
AcDbEntity
  8
0
100
AcDbLine
 62
7
  6
CONTINUOUS
 10
535.2597874492
 20
161.4640203406
 11
534.7234099492
 21
162.8639275783
  0
LINE
  5
2CE
100
AcDbEntity
  8
0
100
AcDbLine
 62
7
  6
CONTINUOUS
 10
534.3658248639
 20
162.742196529
 11
534.8426048355
 21
161.4640203406
  0
LINE
  5
2CF
100
AcDbEntity
  8
0
100
AcDbLine
 62
7
  6
CONTINUOUS
 10
534.7830073923
 20
163.8377761434
 11
534.8426048355
 21
163.6551795694
  0
LINE
  5
2D0
100
AcDbEntity
  8
0
100
AcDbLine
 62
7
  6
CONTINUOUS
 10
535.2001898355
 20
163.6551795694
 11
535.1405923923
 21
163.8377761434
  0
LINE
  5
2D1
100
AcDbEntity
  8
0
100
AcDbLine
 62
7
  6
CONTINUOUS
 10
525.9942021573
 20
162.6860782161
 11
528.468862545
 21
154.5918288071
  0
LINE
  5
2D2
100
AcDbEntity
  8
0
100
AcDbLine
 62
7
  6
CONTINUOUS
 10
522.942786576
 20
178.5467562044
 11
525.9942021573
 21
167.1587182198
  0
LINE
  5
2D3
100
AcDbEntity
  8
0
100
AcDbLine
 62
7
  6
CONTINUOUS
 10
552.4656690497
 20
162.1335411972
 11
552.5694834558
 21
161.8900790559
  0
LINE
  5
2D4
100
AcDbEntity
  8
0
100
AcDbLine
 62
7
  6
CONTINUOUS
 10
557.3968579432
 20
162.2552722465
 11
557.5006726463
 21
161.9509445805
  0
LINE
  5
2D5
100
AcDbEntity
  8
0
100
AcDbLine
 62
7
  6
CONTINUOUS
 10
551.9985037767
 20
161.4640203406
 11
551.5313383553
 21
162.8639275783
  0
LINE
  5
2D6
100
AcDbEntity
  8
0
100
AcDbLine
 62
7
  6
CONTINUOUS
 10
551.21989484
 20
162.742196529
 11
551.6351529099
 21
161.4640203406
  0
LINE
  5
2D7
100
AcDbEntity
  8
0
100
AcDbLine
 62
7
  6
CONTINUOUS
 10
536.1537497787
 20
162.1944067218
 11
536.094152506
 21
162.4378688204
  0
LINE
  5
2D8
100
AcDbEntity
  8
0
100
AcDbLine
 62
7
  6
CONTINUOUS
 10
540.3255748923
 20
163.5943138742
 11
540.385172165
 21
163.3508517756
  0
LINE
  5
2D9
100
AcDbEntity
  8
0
100
AcDbLine
 62
7
  6
CONTINUOUS
 10
535.7365673355
 20
162.4378688204
 11
535.7961649492
 21
162.1335411972
  0
LINE
  5
2DA
100
AcDbEntity
  8
RUNDUNGEN
100
AcDbLine
 62
7
  6
CONTINUOUS
 10
519.9672234555
 20
93.4300354738
 11
519.9672234555
 21
96.9655693797
  0
LINE
  5
2DB
100
AcDbEntity
  8
RUNDUNGEN
100
AcDbLine
 62
7
  6
CONTINUOUS
 10
525.318862545
 20
56.7058040178
 11
525.318862545
 21
63.8151288757
  0
LINE
  5
2DC
100
AcDbEntity
  8
0
100
AcDbLine
 62
7
  6
CONTINUOUS
 10
525.9942021573
 20
162.6860782161
 11
525.9942021573
 21
167.1587182198
  0
LINE
  5
2DD
100
AcDbEntity
  8
RUNDUNGEN
100
AcDbLine
 62
7
  6
CONTINUOUS
 10
526.3695567441
 20
86.4964242836
 11
526.3695567441
 21
90.0319581895
  0
LINE
  5
2DE
100
AcDbEntity
  8
RUNDUNGEN
100
AcDbLine
 62
7
  6
CONTINUOUS
 10
528.468862545
 20
143.5454062044
 11
528.468862545
 21
163.0467562044
  0
LINE
  5
2DF
100
AcDbEntity
  8
RUNDUNGEN
100
AcDbLine
 62
7
  6
CONTINUOUS
 10
529.818862545
 20
54.7966157086
 11
529.818862545
 21
57.5543321552
  0
LINE
  5
2E0
100
AcDbEntity
  8
0
100
AcDbLine
 62
7
  6
CONTINUOUS
 10
559.2136119805
 20
162.559599955
 11
559.1097972774
 21
162.8639275783
  0
LINE
  5
2E1
100
AcDbEntity
  8
0
100
AcDbLine
 62
7
  6
CONTINUOUS
 10
551.5832457068
 20
163.8377761434
 11
551.6351529099
 21
163.6551795694
  0
LINE
  5
2E2
100
AcDbEntity
  8
0
100
AcDbLine
 62
7
  6
CONTINUOUS
 10
551.9465964252
 20
163.6551795694
 11
551.8946890736
 21
163.8377761434
  0
LINE
  5
2E3
100
AcDbEntity
  8
0
100
AcDbLine
 62
7
  6
CONTINUOUS
 10
554.0747936808
 20
163.7769106187
 11
554.1267010324
 21
163.5943138742
  0
LINE
  5
2E4
100
AcDbEntity
  8
0
100
AcDbLine
 62
7
  6
CONTINUOUS
 10
557.7083014585
 20
162.1335411972
 11
557.656394404
 21
162.3161377711
  0
LINE
  5
2E5
100
AcDbEntity
  8
0
100
AcDbLine
 62
7
  6
CONTINUOUS
 10
558.9021684652
 20
162.6813310043
 11
558.9540755198
 21
162.4987343451
  0
LINE
  5
2E6
100
AcDbEntity
  8
0
100
AcDbLine
 62
7
  6
CONTINUOUS
 10
559.1097972774
 20
163.6551795694
 11
559.0578902229
 21
163.8377761434
  0
LINE
  5
2E7
100
AcDbEntity
  8
0
100
AcDbLine
 62
7
  6
CONTINUOUS
 10
552.777112565
 20
162.1944067218
 11
552.7252052135
 21
162.4378688204
  0
LINE
  5
2E8
100
AcDbEntity
  8
0
100
AcDbLine
 62
7
  6
CONTINUOUS
 10
540.742757165
 20
163.3508517756
 11
540.6831598923
 21
163.6551795694
  0
LINE
  5
2E9
100
AcDbEntity
  8
0
100
AcDbLine
 62
7
  6
CONTINUOUS
 10
552.4137616982
 20
162.4378688204
 11
552.4656690497
 21
162.1335411972
  0
LINE
  5
2EA
100
AcDbEntity
  8
0
100
AcDbLine
 62
7
  6
CONTINUOUS
 10
532.9950823923
 20
164.3247003406
 11
532.9950823923
 21
161.4640203406
  0
LINE
  5
2EB
100
AcDbEntity
  8
0
100
AcDbLine
 62
7
  6
CONTINUOUS
 10
533.3526673923
 20
161.4640203406
 11
533.3526673923
 21
162.742196529
  0
LINE
  5
2EC
100
AcDbEntity
  8
0
100
AcDbLine
 62
7
  6
CONTINUOUS
 10
533.3526673923
 20
163.107389677
 11
533.3526673923
 21
164.0203727174
  0
LINE
  5
2ED
100
AcDbEntity
  8
0
100
AcDbLine
 62
7
  6
CONTINUOUS
 10
534.8426048355
 20
163.6551795694
 11
534.8426048355
 21
163.4725828249
  0
LINE
  5
2EE
100
AcDbEntity
  8
0
100
AcDbLine
 62
7
  6
CONTINUOUS
 10
535.2001898355
 20
163.4117173002
 11
535.2001898355
 21
163.6551795694
  0
LINE
  5
2EF
100
AcDbEntity
  8
0
100
AcDbLine
 62
7
  6
CONTINUOUS
 10
535.7365673355
 20
164.3247003406
 11
535.7365673355
 21
162.4378688204
  0
LINE
  5
2F0
100
AcDbEntity
  8
0
100
AcDbLine
 62
7
  6
CONTINUOUS
 10
536.094152506
 20
162.4378688204
 11
536.094152506
 21
164.3247003406
  0
LINE
  5
2F1
100
AcDbEntity
  8
0
100
AcDbLine
 62
7
  6
CONTINUOUS
 10
536.9665019039
 20
87.3376697788
 11
536.9665019039
 21
84.5375269253
  0
LINE
  5
2F2
100
AcDbEntity
  8
KONSTRUKTIONSELEMENTE
100
AcDbLine
 62
7
  6
CONTINUOUS
 10
537.0877170822
 20
149.6377562044
 11
537.0877170822
 21
150.9967562044
  0
LINE
  5
2F3
100
AcDbEntity
  8
0
100
AcDbLine
 62
7
  6
CONTINUOUS
 10
537.524492506
 20
164.3247003406
 11
537.524492506
 21
162.4378688204
  0
LINE
  5
2F4
100
AcDbEntity
  8
KONSTRUKTIONSELEMENTE
100
AcDbLine
 62
7
  6
CONTINUOUS
 10
537.718862545
 20
110.9408941348
 11
537.718862545
 21
121.5474958526
  0
LINE
  5
2F5
100
AcDbEntity
  8
0
100
AcDbLine
 62
7
  6
CONTINUOUS
 10
537.882077506
 20
162.4378688204
 11
537.882077506
 21
164.3247003406
  0
LINE
  5
2F6
100
AcDbEntity
  8
0
100
AcDbLine
 62
7
  6
CONTINUOUS
 10
538.1365019039
 20
84.9193645871
 11
538.1365019039
 21
85.8951719451
  0
LINE
  5
2F7
100
AcDbEntity
  8
0
100
AcDbLine
 62
7
  6
CONTINUOUS
 10
538.1365019039
 20
86.1921567932
 11
538.1365019039
 21
87.1679641513
  0
LINE
  5
2F8
100
AcDbEntity
  8
0
100
AcDbLine
 62
7
  6
CONTINUOUS
 10
538.3588573923
 20
164.3247003406
 11
538.3588573923
 21
161.4640203406
  0
LINE
  5
2F9
100
AcDbEntity
  8
0
100
AcDbLine
 62
7
  6
CONTINUOUS
 10
538.4065019039
 20
86.8412808184
 11
538.4065019039
 21
86.3067080918
  0
LINE
  5
2FA
100
AcDbEntity
  8
0
100
AcDbLine
 62
7
  6
CONTINUOUS
 10
538.4065019039
 20
85.5684886122
 11
538.4065019039
 21
85.0339158857
  0
LINE
  5
2FB
100
AcDbEntity
  8
0
100
AcDbLine
 62
7
  6
CONTINUOUS
 10
538.6315019039
 20
85.5430327681
 11
538.6315019039
 21
85.6194003005
  0
LINE
  5
2FC
100
AcDbEntity
  8
0
100
AcDbLine
 62
7
  6
CONTINUOUS
 10
538.6315019039
 20
85.8103191314
 11
538.6315019039
 21
86.0648775726
  0
LINE
  5
2FD
100
AcDbEntity
  8
0
100
AcDbLine
 62
7
  6
CONTINUOUS
 10
538.6315019039
 20
86.2557964035
 11
538.6315019039
 21
86.5442959703
  0
LINE
  5
2FE
100
AcDbEntity
  8
0
100
AcDbLine
 62
7
  6
CONTINUOUS
 10
538.7164423923
 20
161.8292135312
 11
538.7164423923
 21
163.9595071927
  0
LINE
  5
2FF
100
AcDbEntity
  8
0
100
AcDbLine
 62
7
  6
CONTINUOUS
 10
538.9015019039
 20
86.0648775726
 11
538.9015019039
 21
85.8103191314
  0
LINE
  5
300
100
AcDbEntity
  8
0
100
AcDbLine
 62
7
  6
CONTINUOUS
 10
538.9015019039
 20
86.5442959703
 11
538.9015019039
 21
86.2557964035
  0
LINE
  5
301
100
AcDbEntity
  8
0
100
AcDbLine
 62
7
  6
CONTINUOUS
 10
538.9015019039
 20
85.6194003005
 11
538.9015019039
 21
85.5430327681
  0
LINE
  5
302
100
AcDbEntity
  8
0
100
AcDbLine
 62
7
  6
CONTINUOUS
 10
539.1265019039
 20
85.0339158857
 11
539.1265019039
 21
85.5684886122
  0
LINE
  5
303
100
AcDbEntity
  8
0
100
AcDbLine
 62
7
  6
CONTINUOUS
 10
539.1265019039
 20
86.3067080918
 11
539.1265019039
 21
86.8412808184
  0
LINE
  5
304
100
AcDbEntity
  8
0
100
AcDbLine
 62
7
  6
CONTINUOUS
 10
539.218862545
 20
265.4919722803
 11
539.218862545
 21
182.6015401284
  0
LINE
  5
305
100
AcDbEntity
  8
0
100
AcDbLine
 62
7
  6
CONTINUOUS
 10
539.3965019039
 20
87.1679641513
 11
539.3965019039
 21
86.1921567932
  0
LINE
  5
306
100
AcDbEntity
  8
0
100
AcDbLine
 62
7
  6
CONTINUOUS
 10
539.3965019039
 20
85.8951719451
 11
539.3965019039
 21
84.9193645871
  0
LINE
  5
307
100
AcDbEntity
  8
0
100
AcDbLine
 62
7
  6
CONTINUOUS
 10
540.385172165
 20
163.3508517756
 11
540.385172165
 21
162.4378688204
  0
LINE
  5
308
100
AcDbEntity
  8
0
100
AcDbLine
 62
7
  6
CONTINUOUS
 10
540.5665019039
 20
84.5375269253
 11
540.5665019039
 21
87.3376697788
  0
LINE
  5
309
100
AcDbEntity
  8
0
100
AcDbLine
 62
7
  6
CONTINUOUS
 10
540.742757165
 20
162.4378688204
 11
540.742757165
 21
163.3508517756
  0
LINE
  5
30A
100
AcDbEntity
  8
0
100
AcDbLine
 62
7
  6
CONTINUOUS
 10
541.7339826848
 20
87.59222822
 11
541.7339826848
 21
87.2061479175
  0
LINE
  5
30B
100
AcDbEntity
  8
0
100
AcDbLine
 62
7
  6
CONTINUOUS
 10
541.7339826848
 20
86.8497660997
 11
541.7339826848
 21
84.282968484
  0
LINE
  5
30C
100
AcDbEntity
  8
0
100
AcDbLine
 62
7
  6
CONTINUOUS
 10
542.018862545
 20
149.6377562044
 11
542.018862545
 21
141.6184014286
  0
LINE
  5
30D
100
AcDbEntity
  8
KONSTRUKTIONSELEMENTE
100
AcDbLine
 62
7
  6
CONTINUOUS
 10
542.018862545
 20
149.6377562044
 11
542.018862545
 21
158.3467562044
  0
LINE
  5
30E
100
AcDbEntity
  8
KONSTRUKTIONSELEMENTE
100
AcDbLine
 62
7
  6
CONTINUOUS
 10
542.218862545
 20
110.9408941348
 11
542.218862545
 21
121.5474958526
  0
LINE
  5
30F
100
AcDbEntity
  8
KONSTRUKTIONSELEMENTE
100
AcDbLine
 62
7
  6
CONTINUOUS
 10
542.218862545
 20
142.053592507
 11
542.218862545
 21
145.2092562044
  0
LINE
  5
310
100
AcDbEntity
  8
0
100
AcDbLine
 62
7
  6
CONTINUOUS
 10
542.3099826848
 20
84.282968484
 11
542.3099826848
 21
86.0918890177
  0
LINE
  5
311
100
AcDbEntity
  8
0
100
AcDbLine
 62
7
  6
CONTINUOUS
 10
542.3099826848
 20
86.2870504893
 11
542.3099826848
 21
86.8497660997
  0
LINE
  5
312
100
AcDbEntity
  8
KONSTRUKTIONSELEMENTE
100
AcDbLine
 62
7
  6
CONTINUOUS
 10
543.218862545
 20
90.1376672407
 11
543.218862545
 21
112.5919242095
  0
LINE
  5
313
100
AcDbEntity
  8
KONSTRUKTIONSELEMENTE
100
AcDbLine
 62
7
  6
CONTINUOUS
 10
543.218862545
 20
153.6842562044
 11
543.218862545
 21
161.0731147846
  0
LINE
  5
314
100
AcDbEntity
  8
KONSTRUKTIONSELEMENTE
100
AcDbLine
 62
7
  6
CONTINUOUS
 10
543.218862545
 20
168.3538309097
 11
543.218862545
 21
173.7566607821
  0
LINE
  5
315
100
AcDbEntity
  8
KONSTRUKTIONSELEMENTE
100
AcDbLine
 62
7
  6
CONTINUOUS
 10
543.468862545
 20
120.796435368
 11
543.468862545
 21
142.8046529916
  0
LINE
  5
316
100
AcDbEntity
  8
0
100
AcDbLine
 62
7
  6
CONTINUOUS
 10
543.7499826848
 20
85.8797569833
 11
543.7499826848
 21
86.0918890177
  0
LINE
  5
317
100
AcDbEntity
  8
0
100
AcDbLine
 62
7
  6
CONTINUOUS
 10
544.3632717962
 20
85.9432213014
 11
544.3632717962
 21
86.1553533358
  0
LINE
  5
318
100
AcDbEntity
  8
0
100
AcDbLine
 62
7
  6
CONTINUOUS
 10
544.6398827088
 20
86.9587312377
 11
544.6398827088
 21
86.7465992034
  0
LINE
  5
319
100
AcDbEntity
  8
0
100
AcDbLine
 62
7
  6
CONTINUOUS
 10
545.0537550349
 20
84.282968484
 11
545.0537550349
 21
84.4951005184
  0
LINE
  5
31A
100
AcDbEntity
  8
0
100
AcDbLine
 62
7
  6
CONTINUOUS
 10
546.0539826848
 20
87.59222822
 11
546.0539826848
 21
85.4984152121
  0
LINE
  5
31B
100
AcDbEntity
  8
0
100
AcDbLine
 62
7
  6
CONTINUOUS
 10
546.6299826848
 20
85.4984152121
 11
546.6299826848
 21
87.59222822
  0
LINE
  5
31C
100
AcDbEntity
  8
KONSTRUKTIONSELEMENTE
100
AcDbLine
 62
7
  6
CONTINUOUS
 10
547.968862545
 20
120.796435368
 11
547.968862545
 21
142.8046529916
  0
LINE
  5
31D
100
AcDbEntity
  8
0
100
AcDbLine
 62
7
  6
CONTINUOUS
 10
568.494938514
 20
178.5467562044
 11
565.4435229327
 21
189.9347941889
  0
LINE
  5
31E
100
AcDbEntity
  8
0
100
AcDbLine
 62
7
  6
CONTINUOUS
 10
554.4381445477
 20
163.5943138742
 11
554.3862374932
 21
163.898641668
  0
LINE
  5
31F
100
AcDbEntity
  8
0
100
AcDbLine
 62
7
  6
CONTINUOUS
 10
557.3449508887
 20
162.6813310043
 11
557.3968579432
 21
162.2552722465
  0
LINE
  5
320
100
AcDbEntity
  8
KONSTRUKTIONSELEMENTE
100
AcDbLine
 62
7
  6
CONTINUOUS
 10
548.218862545
 20
90.1376672407
 11
548.218862545
 21
112.5919242095
  0
LINE
  5
321
100
AcDbEntity
  8
KONSTRUKTIONSELEMENTE
100
AcDbLine
 62
7
  6
CONTINUOUS
 10
548.218862545
 20
153.6842562044
 11
548.218862545
 21
161.0731147846
  0
LINE
  5
322
100
AcDbEntity
  8
KONSTRUKTIONSELEMENTE
100
AcDbLine
 62
7
  6
CONTINUOUS
 10
548.218862545
 20
168.3538309097
 11
548.218862545
 21
173.7566607821
  0
LINE
  5
323
100
AcDbEntity
  8
0
100
AcDbLine
 62
7
  6
CONTINUOUS
 10
548.8944639011
 20
87.59222822
 11
548.8944639011
 21
85.4984152121
  0
LINE
  5
324
100
AcDbEntity
  8
KONSTRUKTIONSELEMENTE
100
AcDbLine
 62
7
  6
CONTINUOUS
 10
549.218862545
 20
145.2092562044
 11
549.218862545
 21
142.053592507
  0
LINE
  5
325
100
AcDbEntity
  8
KONSTRUKTIONSELEMENTE
100
AcDbLine
 62
7
  6
CONTINUOUS
 10
549.218862545
 20
121.5474958526
 11
549.218862545
 21
110.9408941348
  0
LINE
  5
326
100
AcDbEntity
  8
0
100
AcDbLine
 62
7
  6
CONTINUOUS
 10
549.299326545
 20
164.3247003406
 11
549.299326545
 21
161.4640203406
  0
LINE
  5
327
100
AcDbEntity
  8
0
100
AcDbLine
 62
7
  6
CONTINUOUS
 10
549.418862545
 20
141.6184014286
 11
549.418862545
 21
149.6377562044
  0
LINE
  5
328
100
AcDbEntity
  8
KONSTRUKTIONSELEMENTE
100
AcDbLine
 62
7
  6
CONTINUOUS
 10
549.418862545
 20
149.6377562044
 11
549.418862545
 21
158.3467562044
  0
LINE
  5
329
100
AcDbEntity
  8
0
100
AcDbLine
 62
7
  6
CONTINUOUS
 10
549.4704639011
 20
85.4984152121
 11
549.4704639011
 21
87.59222822
  0
LINE
  5
32A
100
AcDbEntity
  8
0
100
AcDbLine
 62
7
  6
CONTINUOUS
 10
549.6107700603
 20
161.4640203406
 11
549.6107700603
 21
164.3247003406
  0
LINE
  5
32B
100
AcDbEntity
  8
0
100
AcDbLine
 62
7
  6
CONTINUOUS
 10
550.026028056
 20
164.3247003406
 11
550.026028056
 21
161.4640203406
  0
LINE
  5
32C
100
AcDbEntity
  8
0
100
AcDbLine
 62
7
  6
CONTINUOUS
 10
550.3374715713
 20
161.4640203406
 11
550.3374715713
 21
162.742196529
  0
LINE
  5
32D
100
AcDbEntity
  8
0
100
AcDbLine
 62
7
  6
CONTINUOUS
 10
550.3374715713
 20
163.107389677
 11
550.3374715713
 21
164.0203727174
  0
LINE
  5
32E
100
AcDbEntity
  8
0
100
AcDbLine
 62
7
  6
CONTINUOUS
 10
550.7304639011
 20
87.59222822
 11
550.7304639011
 21
87.184934714
  0
LINE
  5
32F
100
AcDbEntity
  8
0
100
AcDbLine
 62
7
  6
CONTINUOUS
 10
550.7304639011
 20
86.8285528963
 11
550.7304639011
 21
84.282968484
  0
LINE
  5
330
100
AcDbEntity
  8
0
100
AcDbLine
 62
7
  6
CONTINUOUS
 10
551.3064639011
 20
84.7072325527
 11
551.3064639011
 21
86.8285528963
  0
LINE
  5
331
100
AcDbEntity
  8
0
100
AcDbLine
 62
7
  6
CONTINUOUS
 10
551.6351529099
 20
163.6551795694
 11
551.6351529099
 21
163.4725828249
  0
LINE
  5
332
100
AcDbEntity
  8
0
100
AcDbLine
 62
7
  6
CONTINUOUS
 10
551.9465964252
 20
163.4117173002
 11
551.9465964252
 21
163.6551795694
  0
LINE
  5
333
100
AcDbEntity
  8
0
100
AcDbLine
 62
7
  6
CONTINUOUS
 10
552.218862545
 20
265.4919722803
 11
552.218862545
 21
182.6015401284
  0
LINE
  5
334
100
AcDbEntity
  8
0
100
AcDbLine
 62
7
  6
CONTINUOUS
 10
552.4137616982
 20
163.3508517756
 11
552.4137616982
 21
162.4378688204
  0
LINE
  5
335
100
AcDbEntity
  8
0
100
AcDbLine
 62
7
  6
CONTINUOUS
 10
552.7252052135
 20
162.4378688204
 11
552.7252052135
 21
163.3508517756
  0
LINE
  5
336
100
AcDbEntity
  8
0
100
AcDbLine
 62
7
  6
CONTINUOUS
 10
553.6595357594
 20
163.0465241523
 11
553.6595357594
 21
162.6813310043
  0
LINE
  5
337
100
AcDbEntity
  8
KONSTRUKTIONSELEMENTE
100
AcDbLine
 62
7
  6
CONTINUOUS
 10
553.718862545
 20
121.5474958526
 11
553.718862545
 21
110.9408941348
  0
LINE
  5
338
100
AcDbEntity
  8
0
100
AcDbLine
 62
7
  6
CONTINUOUS
 10
553.7860321528
 20
86.1582156677
 11
553.7860321528
 21
85.9460836334
  0
LINE
  5
339
100
AcDbEntity
  8
0
100
AcDbLine
 62
7
  6
CONTINUOUS
 10
554.1267010324
 20
162.6813310043
 11
554.1267010324
 21
162.1944067218
  0
LINE
  5
33A
100
AcDbEntity
  8
KONSTRUKTIONSELEMENTE
100
AcDbLine
 62
7
  6
CONTINUOUS
 10
554.3500080078
 20
149.6377562044
 11
554.3500080078
 21
150.9967562044
  0
LINE
  5
33B
100
AcDbEntity
  8
0
100
AcDbLine
 62
7
  6
CONTINUOUS
 10
554.4381445477
 20
162.1335411972
 11
554.4381445477
 21
163.0465241523
  0
LINE
  5
33C
100
AcDbEntity
  8
0
100
AcDbLine
 62
7
  6
CONTINUOUS
 10
557.3449508887
 20
163.107389677
 11
557.3449508887
 21
162.6813310043
  0
LINE
  5
33D
100
AcDbEntity
  8
0
100
AcDbLine
 62
7
  6
CONTINUOUS
 10
557.6044867554
 20
162.9856586276
 11
557.6044867554
 21
163.107389677
  0
LINE
  5
33E
100
AcDbEntity
  8
0
100
AcDbLine
 62
7
  6
CONTINUOUS
 10
557.656394404
 20
162.3161377711
 11
557.656394404
 21
162.4987343451
  0
LINE
  5
33F
100
AcDbEntity
  8
0
100
AcDbLine
 62
7
  6
CONTINUOUS
 10
558.9540755198
 20
162.4987343451
 11
558.9540755198
 21
162.3161377711
  0
LINE
  5
340
100
AcDbEntity
  8
0
100
AcDbLine
 62
7
  6
CONTINUOUS
 10
559.2136119805
 20
162.2552722465
 11
559.2136119805
 21
162.559599955
  0
LINE
  5
341
100
AcDbEntity
  8
RUNDUNGEN
100
AcDbLine
 62
7
  6
CONTINUOUS
 10
561.618862545
 20
57.5543321552
 11
561.618862545
 21
54.7966157086
  0
LINE
  5
342
100
AcDbEntity
  8
RUNDUNGEN
100
AcDbLine
 62
7
  6
CONTINUOUS
 10
562.968862545
 20
143.5454062044
 11
562.968862545
 21
163.0467562044
  0
LINE
  5
343
100
AcDbEntity
  8
0
100
AcDbLine
 62
7
  6
CONTINUOUS
 10
537.8224798923
 20
162.1335411972
 11
537.882077506
 21
162.4378688204
  0
LINE
  5
344
100
AcDbEntity
  8
0
100
AcDbLine
 62
7
  6
CONTINUOUS
 10
525.9942021573
 20
189.9347941889
 11
522.942786576
 21
178.5467562044
  0
LINE
  5
345
100
AcDbEntity
  8
0
100
AcDbLine
 62
7
  6
CONTINUOUS
 10
565.4435229327
 20
162.6860782161
 11
565.4435229327
 21
167.1587182198
  0
LINE
  5
346
100
AcDbEntity
  8
RUNDUNGEN
100
AcDbLine
 62
7
  6
CONTINUOUS
 10
566.118862545
 20
56.7058040178
 11
566.118862545
 21
63.8151288757
  0
LINE
  5
347
100
AcDbEntity
  8
RUNDUNGEN
100
AcDbLine
 62
7
  6
CONTINUOUS
 10
572.2559585958
 20
93.7773318291
 11
572.2559585958
 21
97.312865735
  0
LINE
  5
348
100
AcDbEntity
  8
0
100
AcDbLine
 62
7
  6
CONTINUOUS
 10
557.3968579432
 20
163.5334483496
 11
557.3449508887
 21
163.107389677
  0
LINE
  5
349
100
AcDbEntity
  8
0
100
AcDbLine
 62
7
  6
CONTINUOUS
 10
557.6044867554
 20
163.107389677
 11
557.656394404
 21
163.4725828249
  0
LINE
  5
34A
100
AcDbEntity
  8
0
100
AcDbLine
 62
7
  6
CONTINUOUS
 10
552.4656690497
 20
163.6551795694
 11
552.4137616982
 21
163.3508517756
  0
LINE
  5
34B
100
AcDbEntity
  8
0
100
AcDbLine
 62
7
  6
CONTINUOUS
 10
540.6831598923
 20
162.1335411972
 11
540.742757165
 21
162.4378688204
  0
LINE
  5
34C
100
AcDbEntity
  8
0
100
AcDbLine
 62
7
  6
CONTINUOUS
 10
552.7252052135
 20
163.3508517756
 11
552.777112565
 21
163.5943138742
  0
LINE
  5
34D
100
AcDbEntity
  8
0
100
AcDbLine
 62
7
  6
CONTINUOUS
 10
554.3862374932
 20
161.8900790559
 11
554.4381445477
 21
162.1335411972
  0
LINE
  5
34E
100
AcDbEntity
  8
0
100
AcDbLine
 62
7
  6
CONTINUOUS
 10
537.524492506
 20
162.4378688204
 11
537.4648948923
 21
162.1944067218
  0
LINE
  5
34F
100
AcDbEntity
  8
0
100
AcDbLine
 62
7
  6
CONTINUOUS
 10
540.385172165
 20
162.4378688204
 11
540.3255748923
 21
162.1944067218
  0
LINE
  5
350
100
AcDbEntity
  8
0
100
AcDbLine
 62
7
  6
CONTINUOUS
 10
534.8426048355
 20
163.4725828249
 11
534.7830073923
 21
163.2899862509
  0
LINE
  5
351
100
AcDbEntity
  8
0
100
AcDbLine
 62
7
  6
CONTINUOUS
 10
535.1405923923
 20
163.2291207263
 11
535.2001898355
 21
163.4117173002
  0
LINE
  5
352
100
AcDbEntity
  8
0
100
AcDbLine
 62
7
  6
CONTINUOUS
 10
565.4435229327
 20
167.1587182198
 11
568.494938514
 21
178.5467562044
  0
LINE
  5
353
100
AcDbEntity
  8
0
100
AcDbLine
 62
7
  6
CONTINUOUS
 10
551.6351529099
 20
163.4725828249
 11
551.5832457068
 21
163.2899862509
  0
LINE
  5
354
100
AcDbEntity
  8
0
100
AcDbLine
 62
7
  6
CONTINUOUS
 10
551.8946890736
 20
163.2291207263
 11
551.9465964252
 21
163.4117173002
  0
LINE
  5
355
100
AcDbEntity
  8
0
100
AcDbLine
 62
7
  6
CONTINUOUS
 10
554.1267010324
 20
162.1944067218
 11
554.0747936808
 21
162.0118101478
  0
LINE
  5
356
100
AcDbEntity
  8
0
100
AcDbLine
 62
7
  6
CONTINUOUS
 10
557.656394404
 20
163.4725828249
 11
557.7083014585
 21
163.6551795694
  0
LINE
  5
357
100
AcDbEntity
  8
0
100
AcDbLine
 62
7
  6
CONTINUOUS
 10
557.656394404
 20
162.4987343451
 11
557.7083014585
 21
162.6813310043
  0
LINE
  5
358
100
AcDbEntity
  8
0
100
AcDbLine
 62
7
  6
CONTINUOUS
 10
558.9540755198
 20
162.3161377711
 11
558.9021684652
 21
162.1335411972
  0
LINE
  5
359
100
AcDbEntity
  8
0
100
AcDbLine
 62
7
  6
CONTINUOUS
 10
537.703285006
 20
161.8900790559
 11
537.8224798923
 21
162.1335411972
  0
LINE
  5
35A
100
AcDbEntity
  8
0
100
AcDbLine
 62
7
  6
CONTINUOUS
 10
615.718862545
 20
329.0467562044
 11
615.718862545
 21
449.0467562044
  0
LINE
  5
35B
100
AcDbEntity
  8
0
100
AcDbLine
 62
7
  6
CONTINUOUS
 10
565.4435229327
 20
162.6860782161
 11
562.968862545
 21
154.5918288071
  0
LINE
  5
35C
100
AcDbEntity
  8
0
100
AcDbLine
 62
7
  6
CONTINUOUS
 10
557.5006726463
 20
163.8377761434
 11
557.3968579432
 21
163.5334483496
  0
LINE
  5
35D
100
AcDbEntity
  8
0
100
AcDbLine
 62
7
  6
CONTINUOUS
 10
559.1097972774
 20
161.9509445805
 11
559.2136119805
 21
162.2552722465
  0
LINE
  5
35E
100
AcDbEntity
  8
0
100
AcDbLine
 62
7
  6
CONTINUOUS
 10
552.5694834558
 20
163.898641668
 11
552.4656690497
 21
163.6551795694
  0
LINE
  5
35F
100
AcDbEntity
  8
0
100
AcDbLine
 62
7
  6
CONTINUOUS
 10
540.563964665
 20
161.8900790559
 11
540.6831598923
 21
162.1335411972
  0
LINE
  5
360
100
AcDbEntity
  8
0
100
AcDbLine
 62
7
  6
CONTINUOUS
 10
537.4648948923
 20
162.1944067218
 11
537.345700006
 21
162.0118101478
  0
LINE
  5
361
100
AcDbEntity
  8
0
100
AcDbLine
 62
7
  6
CONTINUOUS
 10
540.3255748923
 20
162.1944067218
 11
540.206379665
 21
162.0118101478
  0
LINE
  5
362
100
AcDbEntity
  8
0
100
AcDbLine
 62
7
  6
CONTINUOUS
 10
534.9617998923
 20
162.9856586276
 11
535.1405923923
 21
163.2291207263
  0
LINE
  5
363
100
AcDbEntity
  8
0
100
AcDbLine
 62
7
  6
CONTINUOUS
 10
534.3308245605
 20
198.2714165921
 11
525.9942021573
 21
189.9347941889
  0
LINE
  5
364
100
AcDbEntity
  8
0
100
AcDbLine
 62
7
  6
CONTINUOUS
 10
552.777112565
 20
163.5943138742
 11
552.8809269711
 21
163.7769106187
  0
LINE
  5
365
100
AcDbEntity
  8
0
100
AcDbLine
 62
7
  6
CONTINUOUS
 10
557.7083014585
 20
163.6551795694
 11
557.8121161616
 21
163.8377761434
  0
LINE
  5
366
100
AcDbEntity
  8
0
100
AcDbLine
 62
7
  6
CONTINUOUS
 10
558.9021684652
 20
162.1335411972
 11
558.7983537621
 21
161.9509445805
  0
LINE
  5
367
100
AcDbEntity
  8
0
100
AcDbLine
 62
7
  6
CONTINUOUS
 10
551.7389674645
 20
162.9856586276
 11
551.8946890736
 21
163.2291207263
  0
LINE
  5
368
100
AcDbEntity
  8
0
100
AcDbLine
 62
7
  6
CONTINUOUS
 10
557.656394404
 20
164.081238242
 11
557.5006726463
 21
163.8377761434
  0
LINE
  5
369
100
AcDbEntity
  8
0
100
AcDbLine
 62
7
  6
CONTINUOUS
 10
558.9540755198
 20
161.7074824606
 11
559.1097972774
 21
161.9509445805
  0
LINE
  5
36A
100
AcDbEntity
  8
0
100
AcDbLine
 62
7
  6
CONTINUOUS
 10
534.7830073923
 20
163.2899862509
 11
534.6638123355
 21
163.1682552016
  0
LINE
  5
36B
100
AcDbEntity
  8
0
100
AcDbLine
 62
7
  6
CONTINUOUS
 10
633.718862545
 20
329.0467562044
 11
633.718862545
 21
449.0467562044
  0
LINE
  5
36C
100
AcDbEntity
  8
RUNDUNGEN
100
AcDbLine
 62
7
  6
CONTINUOUS
 10
562.968862545
 20
143.5454062044
 11
560.2062514673
 21
139.056163203
  0
LINE
  5
36D
100
AcDbEntity
  8
0
100
AcDbLine
 62
7
  6
CONTINUOUS
 10
551.5832457068
 20
163.2899862509
 11
551.4794311522
 21
163.1682552016
  0
LINE
  5
36E
100
AcDbEntity
  8
0
100
AcDbLine
 62
7
  6
CONTINUOUS
 10
552.777112565
 20
164.1421037667
 11
552.5694834558
 21
163.898641668
  0
LINE
  5
36F
100
AcDbEntity
  8
0
100
AcDbLine
 62
7
  6
CONTINUOUS
 10
554.1786083839
 20
161.6466169359
 11
554.3862374932
 21
161.8900790559
  0
LINE
  5
370
100
AcDbEntity
  8
0
100
AcDbLine
 62
7
  6
CONTINUOUS
 10
557.7083014585
 20
162.6813310043
 11
557.8121161616
 21
162.8030620537
  0
LINE
  5
371
100
AcDbEntity
  8
0
100
AcDbLine
 62
7
  6
CONTINUOUS
 10
537.4648948923
 20
161.6466169359
 11
537.703285006
 21
161.8900790559
  0
LINE
  5
372
100
AcDbEntity
  8
0
100
AcDbLine
 62
7
  6
CONTINUOUS
 10
540.3255748923
 20
161.6466169359
 11
540.563964665
 21
161.8900790559
  0
LINE
  5
373
100
AcDbEntity
  8
0
100
AcDbLine
 62
7
  6
CONTINUOUS
 10
552.8809269711
 20
163.7769106187
 11
553.0366487288
 21
163.898641668
  0
LINE
  5
374
100
AcDbEntity
  8
0
100
AcDbLine
 62
7
  6
CONTINUOUS
 10
554.0747936808
 20
162.0118101478
 11
553.9190719232
 21
161.8900790559
  0
LINE
  5
375
100
AcDbEntity
  8
0
100
AcDbLine
 62
7
  6
CONTINUOUS
 10
557.8121161616
 20
163.8377761434
 11
557.9678379193
 21
163.9595071927
  0
LINE
  5
376
100
AcDbEntity
  8
0
100
AcDbLine
 62
7
  6
CONTINUOUS
 10
557.9159302707
 20
163.2291207263
 11
557.6044867554
 21
162.9856586276
  0
LINE
  5
377
100
AcDbEntity
  8
0
100
AcDbLine
 62
7
  6
CONTINUOUS
 10
557.8121161616
 20
162.8030620537
 11
557.9678379193
 21
162.924793103
  0
LINE
  5
378
100
AcDbEntity
  8
0
100
AcDbLine
 62
7
  6
CONTINUOUS
 10
558.7983537621
 20
161.9509445805
 11
558.6426320045
 21
161.8292135312
  0
LINE
  5
379
100
AcDbEntity
  8
0
100
AcDbLine
 62
7
  6
CONTINUOUS
 10
557.9159302707
 20
164.263834816
 11
557.656394404
 21
164.081238242
  0
LINE
  5
37A
100
AcDbEntity
  8
0
100
AcDbLine
 62
7
  6
CONTINUOUS
 10
558.694539059
 20
161.5248858706
 11
558.9540755198
 21
161.7074824606
  0
LINE
  5
37B
100
AcDbEntity
  8
0
100
AcDbLine
 62
7
  6
CONTINUOUS
 10
537.345700006
 20
162.0118101478
 11
537.166907506
 21
161.8900790559
  0
LINE
  5
37C
100
AcDbEntity
  8
0
100
AcDbLine
 62
7
  6
CONTINUOUS
 10
540.206379665
 20
162.0118101478
 11
540.027587165
 21
161.8900790559
  0
LINE
  5
37D
100
AcDbEntity
  8
0
100
AcDbLine
 62
7
  6
CONTINUOUS
 10
552.9847413772
 20
164.263834816
 11
552.777112565
 21
164.1421037667
  0
LINE
  5
37E
100
AcDbEntity
  8
0
100
AcDbLine
 62
7
  6
CONTINUOUS
 10
551.5313383553
 20
162.8639275783
 11
551.7389674645
 21
162.9856586276
  0
LINE
  5
37F
100
AcDbEntity
  8
0
100
AcDbLine
 62
7
  6
CONTINUOUS
 10
553.9709792747
 20
161.5248858706
 11
554.1786083839
 21
161.6466169359
  0
LINE
  5
380
100
AcDbEntity
  8
0
100
AcDbLine
 62
7
  6
CONTINUOUS
 10
534.7234099492
 20
162.8639275783
 11
534.9617998923
 21
162.9856586276
  0
LINE
  5
381
100
AcDbEntity
  8
0
100
AcDbLine
 62
7
  6
CONTINUOUS
 10
537.2265047787
 20
161.5248858706
 11
537.4648948923
 21
161.6466169359
  0
LINE
  5
382
100
AcDbEntity
  8
0
100
AcDbLine
 62
7
  6
CONTINUOUS
 10
540.0871851197
 20
161.5248858706
 11
540.3255748923
 21
161.6466169359
  0
LINE
  5
383
100
AcDbEntity
  8
0
100
AcDbLine
 62
7
  6
CONTINUOUS
 10
534.6638123355
 20
163.1682552016
 11
534.4850198355
 21
163.107389677
  0
LINE
  5
384
100
AcDbEntity
  8
0
100
AcDbLine
 62
7
  6
CONTINUOUS
 10
551.4794311522
 20
163.1682552016
 11
551.3237093946
 21
163.107389677
  0
LINE
  5
385
100
AcDbEntity
  8
0
100
AcDbLine
 62
7
  6
CONTINUOUS
 10
557.9678379193
 20
163.9595071927
 11
558.1235596769
 21
164.0203727174
  0
LINE
  5
386
100
AcDbEntity
  8
0
100
AcDbLine
 62
7
  6
CONTINUOUS
 10
557.9678379193
 20
162.924793103
 11
558.1235596769
 21
162.9856586276
  0
LINE
  5
387
100
AcDbEntity
  8
0
100
AcDbLine
 62
7
  6
CONTINUOUS
 10
558.6426320045
 20
161.8292135312
 11
558.4869102468
 21
161.7683480066
  0
LINE
  5
388
100
AcDbEntity
  8
0
100
AcDbLine
 62
7
  6
CONTINUOUS
 10
553.0366487288
 20
163.898641668
 11
553.244277838
 21
163.9595071927
  0
LINE
  5
389
100
AcDbEntity
  8
0
100
AcDbLine
 62
7
  6
CONTINUOUS
 10
553.9190719232
 20
161.8900790559
 11
553.711443111
 21
161.8292135312
  0
LINE
  5
38A
100
AcDbEntity
  8
RUNDUNGEN
100
AcDbLine
 62
7
  6
CONTINUOUS
 10
534.7796121122
 20
74.037946269
 11
525.8614064122
 21
65.0318682387
  0
LINE
  5
38B
100
AcDbEntity
  8
RUNDUNGEN
100
AcDbLine
 62
7
  6
CONTINUOUS
 10
534.7796121122
 20
70.502412363
 11
525.8614064122
 21
61.4963343327
  0
LINE
  5
38C
100
AcDbEntity
  8
RUNDUNGEN
100
AcDbLine
 62
7
  6
CONTINUOUS
 10
561.2028762463
 20
95.1739487934
 11
565.931470308
 21
99.9491343549
  0
LINE
  5
38D
100
AcDbEntity
  8
RUNDUNGEN
100
AcDbLine
 62
7
  6
CONTINUOUS
 10
561.2028762463
 20
91.6384148875
 11
565.931470308
 21
96.413600449
  0
LINE
  5
38E
100
AcDbEntity
  8
RUNDUNGEN
100
AcDbLine
 62
7
  6
CONTINUOUS
 10
539.6035390226
 20
60.5802334793
 11
542.7699151856
 21
63.7778083902
  0
LINE
  5
38F
100
AcDbEntity
  8
RUNDUNGEN
100
AcDbLine
 62
7
  6
CONTINUOUS
 10
556.6581129778
 20
77.8028485411
 11
572.0751106401
 21
93.3717520414
  0
LINE
  5
390
100
AcDbEntity
  8
RUNDUNGEN
100
AcDbLine
 62
7
  6
CONTINUOUS
 10
522.0656461907
 20
99.1088330634
 11
521.2464941464
 21
98.7032532757
  0
LINE
  5
391
100
AcDbEntity
  8
RUNDUNGEN
100
AcDbLine
 62
7
  6
CONTINUOUS
 10
522.0656461907
 20
95.5732991574
 11
521.2464941464
 21
95.1677193698
  0
LINE
  5
392
100
AcDbEntity
  8
RUNDUNGEN
100
AcDbLine
 62
7
  6
CONTINUOUS
 10
525.2778442396
 20
91.4664887348
 11
523.3118793333
 21
90.4930972444
  0
LINE
  5
393
100
AcDbEntity
  8
RUNDUNGEN
100
AcDbLine
 62
7
  6
CONTINUOUS
 10
540.5566746179
 20
97.6948526679
 11
538.099218485
 21
96.4781133049
  0
LINE
  5
394
100
AcDbEntity
  8
RUNDUNGEN
100
AcDbLine
 62
7
  6
CONTINUOUS
 10
526.7533379514
 20
90.5532633583
 11
527.5987993722
 21
90.9718694839
  0
LINE
  5
395
100
AcDbEntity
  8
RUNDUNGEN
100
AcDbLine
 62
7
  6
CONTINUOUS
 10
540.5566746179
 20
94.159318762
 11
538.099218485
 21
92.942579399
  0
LINE
  5
396
100
AcDbEntity
  8
RUNDUNGEN
100
AcDbLine
 62
7
  6
CONTINUOUS
 10
526.7533379514
 20
87.0177294524
 11
528.7193028577
 21
87.9911209428
  0
LINE
  5
397
100
AcDbEntity
  8
0
100
AcDbLine
 62
7
  6
CONTINUOUS
 10
200.0283236126
 20
139.0467562044
 11
197.8283236126
 21
139.0467562044
  0
LINE
  5
398
100
AcDbEntity
  8
0
100
AcDbLine
 62
7
  6
CONTINUOUS
 10
197.8283236126
 20
139.056163203
 11
200.0283236126
 21
139.056163203
  0
LINE
  5
399
100
AcDbEntity
  8
0
100
AcDbLine
 62
7
  6
CONTINUOUS
 10
194.0947638933
 20
143.5454062044
 11
203.7618833319
 21
143.5454062044
  0
LINE
  5
39A
100
AcDbEntity
  8
0
100
AcDbLine
 62
7
  6
CONTINUOUS
 10
197.6158236126
 20
154.5918288071
 11
200.2408236126
 21
154.5918288071
  0
LINE
  5
39B
100
AcDbEntity
  8
0
100
AcDbLine
 62
7
  6
CONTINUOUS
 10
200.2408236126
 20
162.6860782161
 11
197.6158236126
 21
162.6860782161
  0
LINE
  5
39C
100
AcDbEntity
  8
0
100
AcDbLine
 62
7
  6
CONTINUOUS
 10
200.9586073061
 20
167.1587182198
 11
196.8980399192
 21
167.1587182198
  0
LINE
  5
39D
100
AcDbEntity
  8
0
100
AcDbLine
 62
7
  6
CONTINUOUS
 10
200.6381864952
 20
178.5467562044
 11
197.2184607301
 21
178.5467562044
  0
LINE
  5
39E
100
AcDbEntity
  8
0
100
AcDbLine
 62
7
  6
CONTINUOUS
 10
200.6381864952
 20
189.9347941889
 11
197.2184607301
 21
189.9347941889
  0
LINE
  5
39F
100
AcDbEntity
  8
KONSTRUKTIONSELEMENTE
100
AcDbLine
 62
7
  6
CONTINUOUS
 10
301.034542816
 20
90.4347974804
 11
292.6199721198
 21
98.8493681765
  0
LINE
  5
3A0
100
AcDbEntity
  8
KONSTRUKTIONSELEMENTE
100
AcDbLine
 62
7
  6
CONTINUOUS
 10
239.8698062433
 20
151.599534053
 11
231.4552355472
 21
160.0141047491
  0
LINE
  5
3A1
100
AcDbEntity
  8
KONSTRUKTIONSELEMENTE
100
AcDbLine
 62
7
  6
CONTINUOUS
 10
272.8209822466
 20
120.8403890714
 11
262.2143805288
 21
131.4469907892
  0
LINE
  5
3A2
100
AcDbEntity
  8
KONSTRUKTIONSELEMENTE
100
AcDbLine
 62
7
  6
CONTINUOUS
 10
304.5700767219
 20
93.9703313863
 11
296.1555060258
 21
102.3849020824
  0
LINE
  5
3A3
100
AcDbEntity
  8
KONSTRUKTIONSELEMENTE
100
AcDbLine
 62
7
  6
CONTINUOUS
 10
243.4053401493
 20
155.1350679589
 11
234.9907694531
 21
163.549638655
  0
LINE
  5
3A4
100
AcDbEntity
  8
KONSTRUKTIONSELEMENTE
100
AcDbLine
 62
7
  6
CONTINUOUS
 10
276.002962762
 20
124.0223695867
 11
265.3963610442
 21
134.6289713045
  0
LINE
  5
3A5
100
AcDbEntity
  8
KONSTRUKTIONSELEMENTE
100
AcDbLine
 62
7
  6
CONTINUOUS
 10
206.7064982057
 20
194.0259409242
 11
235.6978762343
 21
165.0345628955
  0
LINE
  5
3A6
100
AcDbEntity
  8
RUNDUNGEN
100
AcDbLine
 62
7
  6
CONTINUOUS
 10
346.8550622368
 20
54.5844836742
 11
304.7245185566
 21
96.7150273545
  0
LINE
  5
3A7
100
AcDbEntity
  8
KONSTRUKTIONSELEMENTE
100
AcDbLine
 62
7
  6
CONTINUOUS
 10
246.6580313427
 20
155.1350679589
 11
265.3667163179
 21
136.4263829837
  0
LINE
  5
3A8
100
AcDbEntity
  8
KONSTRUKTIONSELEMENTE
100
AcDbLine
 62
7
  6
CONTINUOUS
 10
277.7707297149
 20
124.0223695867
 11
296.4794146901
 21
105.3136846115
  0
LINE
  5
3A9
100
AcDbEntity
  8
KONSTRUKTIONSELEMENTE
100
AcDbLine
 62
7
  6
CONTINUOUS
 10
249.8400118581
 20
158.3170484743
 11
268.5486968332
 21
139.6083634991
  0
LINE
  5
3AA
100
AcDbEntity
  8
KONSTRUKTIONSELEMENTE
100
AcDbLine
 62
7
  6
CONTINUOUS
 10
280.9527102303
 20
127.2043501021
 11
299.6613952054
 21
108.4956651269
  0
LINE
  5
3AB
100
AcDbEntity
  8
RUNDUNGEN
100
AcDbLine
 62
7
  6
CONTINUOUS
 10
308.260040218
 20
100.2505735049
 11
350.3905961428
 21
58.1200175801
  0
LINE
  5
3AC
100
AcDbEntity
  8
KONSTRUKTIONSELEMENTE
100
AcDbLine
 62
7
  6
CONTINUOUS
 10
210.9491388928
 20
198.2685816113
 11
239.8910067942
 21
169.3267137099
  0
LINE
  5
3AD
100
AcDbEntity
  8
KONSTRUKTIONSELEMENTE
100
AcDbLine
 62
7
  6
CONTINUOUS
 10
270.3461085125
 20
139.5787187728
 11
280.9527102303
 21
128.972117055
  0
LINE
  5
3AE
100
AcDbEntity
  8
KONSTRUKTIONSELEMENTE
100
AcDbLine
 62
7
  6
CONTINUOUS
 10
241.4254411619
 20
169.9843103638
 11
245.4559498147
 21
165.9538017111
  0
LINE
  5
3AF
100
AcDbEntity
  8
KONSTRUKTIONSELEMENTE
100
AcDbLine
 62
7
  6
CONTINUOUS
 10
245.8095032053
 20
165.6002483205
 11
249.8400118581
 21
161.5697396677
  0
LINE
  5
3B0
100
AcDbEntity
  8
KONSTRUKTIONSELEMENTE
100
AcDbLine
 62
7
  6
CONTINUOUS
 10
302.5901777346
 20
108.8195737912
 11
306.6206863873
 21
104.7890651384
  0
LINE
  5
3B1
100
AcDbEntity
  8
KONSTRUKTIONSELEMENTE
100
AcDbLine
 62
7
  6
CONTINUOUS
 10
306.9742397779
 20
104.4355117478
 11
311.0047484307
 21
100.4050030951
  0
LINE
  5
3B2
100
AcDbEntity
  8
0
100
AcDbLine
 62
7
  6
CONTINUOUS
 10
205.9283236126
 20
159.3768832233
 11
208.4283236126
 21
155.0467562044
  0
LINE
  5
3B3
100
AcDbEntity
  8
0
100
AcDbLine
 62
7
  6
CONTINUOUS
 10
168.9283236126
 20
242.0467562044
 11
168.9283236126
 21
206.0467562044
  0
LINE
  5
3B4
100
AcDbEntity
  8
0
100
AcDbLine
 62
7
  6
CONTINUOUS
 10
200.6381864952
 20
198.2714165921
 11
197.2184607301
 21
198.2714165921
  0
LINE
  5
3B5
100
AcDbEntity
  8
0
100
AcDbLine
 62
7
  6
CONTINUOUS
 10
197.2184607301
 20
201.3228321734
 11
200.6381864952
 21
201.3228321734
  0
LINE
  5
3B6
100
AcDbEntity
  8
KONSTRUKTIONSELEMENTE
100
AcDbLine
 62
7
  6
CONTINUOUS
 10
273.5280890278
 20
142.7606992882
 11
284.1346907456
 21
132.1540975704
  0
LINE
  5
3B7
100
AcDbEntity
  8
KONSTRUKTIONSELEMENTE
100
AcDbLine
 62
7
  6
CONTINUOUS
 10
244.9609750679
 20
173.5198442698
 11
248.9914837206
 21
169.489335617
  0
LINE
  5
3B8
100
AcDbEntity
  8
KONSTRUKTIONSELEMENTE
100
AcDbLine
 62
7
  6
CONTINUOUS
 10
249.3450371112
 20
169.1357822264
 11
253.375545764
 21
165.1052735737
  0
LINE
  5
3B9
100
AcDbEntity
  8
KONSTRUKTIONSELEMENTE
100
AcDbLine
 62
7
  6
CONTINUOUS
 10
306.1257116405
 20
112.3551076971
 11
310.1562202933
 21
108.3245990444
  0
LINE
  5
3BA
100
AcDbEntity
  8
KONSTRUKTIONSELEMENTE
100
AcDbLine
 62
7
  6
CONTINUOUS
 10
310.5097736839
 20
107.9710456538
 11
314.5402823366
 21
103.940537001
  0
LINE
  5
3BB
100
AcDbEntity
  8
0
100
AcDbLine
 62
7
  6
CONTINUOUS
 10
203.3114350029
 20
196.4526519919
 11
200.6381864952
 21
201.3228321734
  0
LINE
  5
3BC
100
AcDbEntity
  8
RUNDUNGEN
100
AcDbLine
 62
7
  6
CONTINUOUS
 10
197.6158236126
 20
154.5918288071
 11
196.2589495942
 21
163.0467562044
  0
LINE
  5
3BD
100
AcDbEntity
  8
0
100
AcDbLine
 62
7
  6
CONTINUOUS
 10
181.9283236126
 20
242.0467562044
 11
181.9283236126
 21
206.0467562044
  0
LINE
  5
3BE
100
AcDbEntity
  8
RUNDUNGEN
100
AcDbLine
 62
7
  6
CONTINUOUS
 10
189.4283236126
 20
147.4467562044
 11
189.4283236126
 21
155.0467562044
  0
LINE
  5
3BF
100
AcDbEntity
  8
0
100
AcDbLine
 62
7
  6
CONTINUOUS
 10
189.9283236126
 20
250.0467562044
 11
189.9283236126
 21
528.0467562044
  0
LINE
  5
3C0
100
AcDbEntity
  8
RUNDUNGEN
100
AcDbLine
 62
7
  6
CONTINUOUS
 10
191.9283236126
 20
159.3768832233
 11
191.9283236126
 21
165.0467561997
  0
LINE
  5
3C1
100
AcDbEntity
  8
0
100
AcDbLine
 62
7
  6
CONTINUOUS
 10
197.6158236126
 20
162.6860782161
 11
196.8980399192
 21
167.1587182198
  0
LINE
  5
3C2
100
AcDbEntity
  8
0
100
AcDbLine
 62
7
  6
CONTINUOUS
 10
196.7998323312
 20
172.1106580033
 11
196.8980399192
 21
167.1587182198
  0
LINE
  5
3C3
100
AcDbEntity
  8
BEZUGSACHSEN
100
AcDbLine
 62
7
  6
CONTINUOUS
 10
193.9283236126
 20
194.0467562044
 11
193.9283236126
 21
174.0149947812
  0
LINE
  5
3C4
100
AcDbEntity
  8
RUNDUNGEN
100
AcDbLine
 62
7
  6
CONTINUOUS
 10
193.9283236126
 20
174.0147774892
 11
193.9283236126
 21
167.8269400769
  0
LINE
  5
3C5
100
AcDbEntity
  8
KONSTRUKTIONSELEMENTE
100
AcDbLine
 62
7
  6
CONTINUOUS
 10
193.9283236126
 20
167.8269400769
 11
193.9283236126
 21
174.0149947812
  0
LINE
  5
3C6
100
AcDbEntity
  8
0
100
AcDbLine
 62
7
  6
CONTINUOUS
 10
197.6158236126
 20
162.6860782161
 11
197.6158236126
 21
154.5918288071
  0
LINE
  5
3C7
100
AcDbEntity
  8
0
100
AcDbLine
 62
7
  6
CONTINUOUS
 10
200.2408236126
 20
162.6860782161
 11
200.2408236126
 21
154.5918288071
  0
LINE
  5
3C8
100
AcDbEntity
  8
BEZUGSACHSEN
100
AcDbLine
 62
7
  6
CONTINUOUS
 10
203.9283236126
 20
194.0467562044
 11
203.9283236126
 21
174.0149947812
  0
LINE
  5
3C9
100
AcDbEntity
  8
0
100
AcDbLine
 62
7
  6
CONTINUOUS
 10
203.9283236126
 20
174.0149947812
 11
203.9283236126
 21
167.8269400769
  0
LINE
  5
3CA
100
AcDbEntity
  8
0
100
AcDbLine
 62
7
  6
CONTINUOUS
 10
205.9283236126
 20
165.0467561997
 11
205.9283236126
 21
159.3768832233
  0
LINE
  5
3CB
100
AcDbEntity
  8
0
100
AcDbLine
 62
7
  6
CONTINUOUS
 10
207.9283236126
 20
250.0467562044
 11
207.9283236126
 21
528.0467562044
  0
LINE
  5
3CC
100
AcDbEntity
  8
0
100
AcDbLine
 62
7
  6
CONTINUOUS
 10
208.4283236126
 20
155.0467562044
 11
208.4283236126
 21
147.4467562044
  0
LINE
  5
3CD
100
AcDbEntity
  8
0
100
AcDbLine
 62
7
  6
CONTINUOUS
 10
201.056814894
 20
172.1106580033
 11
200.9586073061
 21
167.1587182198
  0
LINE
  5
3CE
100
AcDbEntity
  8
0
100
AcDbLine
 62
7
  6
CONTINUOUS
 10
215.9283236126
 20
206.0467562044
 11
215.9283236126
 21
242.0467562044
  0
LINE
  5
3CF
100
AcDbEntity
  8
0
100
AcDbLine
 62
7
  6
CONTINUOUS
 10
200.2408236126
 20
162.6860782161
 11
200.9586073061
 21
167.1587182198
  0
LINE
  5
3D0
100
AcDbEntity
  8
0
100
AcDbLine
 62
7
  6
CONTINUOUS
 10
200.2408236126
 20
154.5918288071
 11
201.5976976311
 21
163.0467562044
  0
LINE
  5
3D1
100
AcDbEntity
  8
0
100
AcDbLine
 62
7
  6
CONTINUOUS
 10
228.9283236126
 20
206.0467562044
 11
228.9283236126
 21
242.0467562044
  0
LINE
  5
3D2
100
AcDbEntity
  8
KONSTRUKTIONSELEMENTE
100
AcDbLine
 62
7
  6
CONTINUOUS
 10
197.2184607301
 20
201.3228321734
 11
194.5452122224
 21
196.4526519919
  0
LINE
  5
3D3
100
AcDbEntity
  8
RUNDUNGEN
100
AcDbLine
 62
7
  6
CONTINUOUS
 10
191.9283236126
 20
159.3768832233
 11
189.4283236126
 21
155.0467562044
  0
LINE
  5
3D4
100
AcDbEntity
  8
KONSTRUKTIONSELEMENTE
100
AcDbLine
 62
7
  6
CONTINUOUS
 10
248.9914837206
 20
169.489335617
 11
245.4559498147
 21
165.9538017111
  0
LINE
  5
3D5
100
AcDbEntity
  8
KONSTRUKTIONSELEMENTE
100
AcDbLine
 62
7
  6
CONTINUOUS
 10
249.3450371112
 20
169.1357822264
 11
245.8095032053
 21
165.6002483205
  0
LINE
  5
3D6
100
AcDbEntity
  8
KONSTRUKTIONSELEMENTE
100
AcDbLine
 62
7
  6
CONTINUOUS
 10
310.1562202933
 20
108.3245990444
 11
306.6206863873
 21
104.7890651384
  0
LINE
  5
3D7
100
AcDbEntity
  8
KONSTRUKTIONSELEMENTE
100
AcDbLine
 62
7
  6
CONTINUOUS
 10
310.5097736839
 20
107.9710456538
 11
306.9742397779
 21
104.4355117478
  0
LINE
  5
3D8
100
AcDbEntity
  8
RUNDUNGEN
100
AcDbLine
 62
7
  6
CONTINUOUS
 10
308.2599523745
 20
100.2506613484
 11
304.7244184686
 21
96.7151274425
  0
LINE
  5
3D9
100
AcDbEntity
  8
RUNDUNGEN
100
AcDbLine
 62
7
  6
CONTINUOUS
 10
346.8550622368
 20
54.5844836742
 11
350.3905961428
 21
58.1200175801
  0
ARC
  5
3DA
100
AcDbEntity
  8
KONSTRUKTIONSELEMENTE
100
AcDbCircle
 62
7
  6
CONTINUOUS
 10
545.4937143997
 20
149.6718887715
 40
9.278155833
100
AcDbArc
 50
104.2144987627
 51
111.6730141175
  0
ARC
  5
3DB
100
AcDbEntity
  8
KONSTRUKTIONSELEMENTE
100
AcDbCircle
 62
7
  6
CONTINUOUS
 10
545.3733599819
 20
149.9851623522
 40
8.9425814053
100
AcDbArc
 50
111.8381223954
 51
112.0409123258
  0
ARC
  5
3DC
100
AcDbEntity
  8
RUNDUNGEN
100
AcDbCircle
 62
7
  6
CONTINUOUS
 10
533.468862545
 20
163.0467562044
 40
5.0
100
AcDbArc
 50
135.1299088003
 51
180.0
  0
ARC
  5
3DD
100
AcDbEntity
  8
RUNDUNGEN
100
AcDbCircle
 62
7
  6
CONTINUOUS
 10
533.468862545
 20
163.0467562044
 40
4.8284271247
100
AcDbArc
 50
90.0
 51
98.1061684603
  0
ARC
  5
3DE
100
AcDbEntity
  8
BEZUGSACHSEN
100
AcDbCircle
 62
7
  6
CONTINUOUS
 10
545.2174929681
 20
95.6423709498
 40
4.056554047
100
AcDbArc
 50
239.8204512709
 51
240.4446380906
  0
ARC
  5
3DF
100
AcDbEntity
  8
RUNDUNGEN
100
AcDbCircle
 62
7
  6
CONTINUOUS
 10
531.468862545
 20
142.0467562044
 40
3.0
100
AcDbArc
 50
265.4614607767
 51
270.0
  0
CIRCLE
  5
3E0
100
AcDbEntity
  8
BEZUGSACHSEN
100
AcDbCircle
 62
7
  6
CONTINUOUS
 10
534.718862545
 20
149.4467562044
 40
1.5
  0
ARC
  5
3E1
100
AcDbEntity
  8
0
100
AcDbCircle
 62
7
  6
CONTINUOUS
 10
539.2163677662
 20
85.7722753391
 40
0.2501758626
100
AcDbArc
 50
78.8903114984
 51
89.9692795104
  0
ARC
  5
3E2
100
AcDbEntity
  8
KONSTRUKTIONSELEMENTE
100
AcDbCircle
 62
7
  6
CONTINUOUS
 10
545.718862545
 20
120.3442362044
 40
21.59352
100
AcDbArc
 50
59.9775906644
 51
80.1338135404
  0
ARC
  5
3E3
100
AcDbEntity
  8
KONSTRUKTIONSELEMENTE
100
AcDbCircle
 62
7
  6
CONTINUOUS
 10
545.718862545
 20
120.3442362044
 40
21.59352
100
AcDbArc
 50
99.8661864596
 51
120.0224093356
  0
ARC
  5
3E4
100
AcDbEntity
  8
BEZUGSACHSEN
100
AcDbCircle
 62
7
  6
CONTINUOUS
 10
545.718862545
 20
178.5467562044
 40
10.5
100
AcDbArc
 50
128.2550249251
 51
51.7449750749
  0
ARC
  5
3E5
100
AcDbEntity
  8
KONSTRUKTIONSELEMENTE
100
AcDbCircle
 62
7
  6
CONTINUOUS
 10
545.9104749985
 20
149.5686166211
 40
9.3864866154
100
AcDbArc
 50
68.194728592
 51
75.7361395262
  0
ARC
  5
3E6
100
AcDbEntity
  8
KONSTRUKTIONSELEMENTE
100
AcDbCircle
 62
7
  6
CONTINUOUS
 10
546.0667120321
 20
149.9915005034
 40
8.935832708
100
AcDbArc
 50
67.9362825258
 51
68.1176377366
  0
ARC
  5
3E7
100
AcDbEntity
  8
0
100
AcDbCircle
 62
7
  6
CONTINUOUS
 10
545.718862545
 20
265.5467562044
 40
6.5
100
AcDbArc
 50
0.0
 51
180.0
  0
ARC
  5
3E8
100
AcDbEntity
  8
0
100
AcDbCircle
 62
7
  6
CONTINUOUS
 10
545.718862545
 20
182.5467562044
 40
6.5
100
AcDbArc
 50
180.0
 51
360.0
  0
ARC
  5
3E9
100
AcDbEntity
  8
RUNDUNGEN
100
AcDbCircle
 62
7
  6
CONTINUOUS
 10
557.968862545
 20
163.0467562044
 40
5.0
100
AcDbArc
 50
0.0
 51
44.8700911997
  0
ARC
  5
3EA
100
AcDbEntity
  8
RUNDUNGEN
100
AcDbCircle
 62
7
  6
CONTINUOUS
 10
557.968862545
 20
163.0467562044
 40
4.8284271247
100
AcDbArc
 50
81.8938367256
 51
89.996087995
  0
ARC
  5
3EB
100
AcDbEntity
  8
BEZUGSACHSEN
100
AcDbCircle
 62
7
  6
CONTINUOUS
 10
546.2202321219
 20
95.6423709498
 40
4.056554047
100
AcDbArc
 50
299.5553619094
 51
300.1795487291
  0
ARC
  5
3EC
100
AcDbEntity
  8
KONSTRUKTIONSELEMENTE
100
AcDbCircle
 62
7
  6
CONTINUOUS
 10
545.718862545
 20
158.3467562044
 40
3.7
100
AcDbArc
 50
0.0
 51
180.0
  0
ARC
  5
3ED
100
AcDbEntity
  8
RUNDUNGEN
100
AcDbCircle
 62
7
  6
CONTINUOUS
 10
559.968862545
 20
142.0467562044
 40
3.0
100
AcDbArc
 50
270.0
 51
274.5385392233
  0
ARC
  5
3EE
100
AcDbEntity
  8
KONSTRUKTIONSELEMENTE
100
AcDbCircle
 62
7
  6
CONTINUOUS
 10
545.718862545
 20
90.1376672407
 40
2.5
100
AcDbArc
 50
180.0
 51
360.0
  0
ARC
  5
3EF
100
AcDbEntity
  8
KONSTRUKTIONSELEMENTE
100
AcDbCircle
 62
7
  6
CONTINUOUS
 10
545.718862545
 20
112.6522379368
 40
2.5
100
AcDbArc
 50
0.0
 51
180.0
  0
ARC
  5
3F0
100
AcDbEntity
  8
KONSTRUKTIONSELEMENTE
100
AcDbCircle
 62
7
  6
CONTINUOUS
 10
545.718862545
 20
173.8169745094
 40
2.5
100
AcDbArc
 50
0.0
 51
67.7415658431
  0
ARC
  5
3F1
100
AcDbEntity
  8
KONSTRUKTIONSELEMENTE
100
AcDbCircle
 62
7
  6
CONTINUOUS
 10
545.718862545
 20
173.8169745094
 40
2.5
100
AcDbArc
 50
112.2584341569
 51
180.0
  0
ARC
  5
3F2
100
AcDbEntity
  8
KONSTRUKTIONSELEMENTE
100
AcDbCircle
 62
7
  6
CONTINUOUS
 10
545.718862545
 20
120.7472433209
 40
2.25
100
AcDbArc
 50
180.0
 51
360.0
  0
ARC
  5
3F3
100
AcDbEntity
  8
KONSTRUKTIONSELEMENTE
100
AcDbCircle
 62
7
  6
CONTINUOUS
 10
545.718862545
 20
142.8538450387
 40
2.25
100
AcDbArc
 50
0.0
 51
180.0
  0
ARC
  5
3F4
100
AcDbEntity
  8
0
100
AcDbCircle
 62
7
  6
CONTINUOUS
 10
553.1965322194
 20
86.1513336824
 40
1.2775271223
100
AcDbArc
 50
350.5636876714
 51
355.3957076166
  0
ARC
  5
3F5
100
AcDbEntity
  8
0
100
AcDbCircle
 62
7
  6
CONTINUOUS
 10
545.718862545
 20
329.0467562044
 40
88.0
100
AcDbArc
 50
180.0
 51
265.7634026106
  0
ARC
  5
3F6
100
AcDbEntity
  8
0
100
AcDbCircle
 62
7
  6
CONTINUOUS
 10
545.718862545
 20
329.0467562044
 40
88.0
100
AcDbArc
 50
274.2365973894
 51
360.0
  0
ARC
  5
3F7
100
AcDbEntity
  8
0
100
AcDbCircle
 62
7
  6
CONTINUOUS
 10
545.718862545
 20
449.0467562044
 40
88.0
100
AcDbArc
 50
0.0
 51
180.0
  0
ARC
  5
3F8
100
AcDbEntity
  8
0
100
AcDbCircle
 62
7
  6
CONTINUOUS
 10
545.718862545
 20
329.0467562044
 40
70.0
100
AcDbArc
 50
180.0
 51
264.6711890226
  0
ARC
  5
3F9
100
AcDbEntity
  8
0
100
AcDbCircle
 62
7
  6
CONTINUOUS
 10
545.718862545
 20
329.0467562044
 40
70.0
100
AcDbArc
 50
275.3288109774
 51
360.0
  0
ARC
  5
3FA
100
AcDbEntity
  8
0
100
AcDbCircle
 62
7
  6
CONTINUOUS
 10
545.718862545
 20
449.0467562044
 40
70.0
100
AcDbArc
 50
0.0
 51
180.0
  0
ARC
  5
3FB
100
AcDbEntity
  8
0
100
AcDbCircle
 62
7
  6
CONTINUOUS
 10
200.0283236126
 20
147.4467562044
 40
8.4
100
AcDbArc
 50
270.0
 51
360.0
  0
ARC
  5
3FC
100
AcDbEntity
  8
RUNDUNGEN
100
AcDbCircle
 62
7
  6
CONTINUOUS
 10
197.8283236126
 20
147.4467562044
 40
8.4
100
AcDbArc
 50
180.0
 51
270.0
  0
ARC
  5
3FD
100
AcDbEntity
  8
BEZUGSACHSEN
100
AcDbCircle
 62
7
  6
CONTINUOUS
 10
198.9283236126
 20
194.0467562044
 40
5.0
100
AcDbArc
 50
151.2375569983
 51
180.0
  0
ARC
  5
3FE
100
AcDbEntity
  8
BEZUGSACHSEN
100
AcDbCircle
 62
7
  6
CONTINUOUS
 10
198.9283236126
 20
194.0467562044
 40
5.0
100
AcDbArc
 50
0.0
 51
28.7624430017
  0
CIRCLE
  5
3FF
100
AcDbEntity
  8
BEZUGSACHSEN
100
AcDbCircle
 62
7
  6
CONTINUOUS
 10
198.9283236126
 20
149.4467562044
 40
4.26795
  0
ARC
  5
400
100
AcDbEntity
  8
0
100
AcDbCircle
 62
7
  6
CONTINUOUS
 10
202.9283236126
 20
165.0467562044
 40
3.0
100
AcDbArc
 50
0.0000023923
 51
70.5287793655
  0
ARC
  5
401
100
AcDbEntity
  8
RUNDUNGEN
100
AcDbCircle
 62
7
  6
CONTINUOUS
 10
194.9283236126
 20
165.0467562044
 40
3.0
100
AcDbArc
 50
109.4712206345
 51
179.9999976077
  0
ARC
  5
402
100
AcDbEntity
  8
KONSTRUKTIONSELEMENTE
100
AcDbCircle
 62
7
  6
CONTINUOUS
 10
208.8278185492
 20
196.1472612677
 40
3.0
100
AcDbArc
 50
45.0
 51
225.0
  0
ARC
  5
403
100
AcDbEntity
  8
0
100
AcDbCircle
 62
7
  6
CONTINUOUS
 10
198.9283236126
 20
206.0467562044
 40
30.0
100
AcDbArc
 50
180.0
 51
260.4020988194
  0
ARC
  5
404
100
AcDbEntity
  8
0
100
AcDbCircle
 62
7
  6
CONTINUOUS
 10
198.9283236126
 20
206.0467562044
 40
30.0
100
AcDbArc
 50
279.5979011806
 51
309.2568629674
  0
ARC
  5
405
100
AcDbEntity
  8
0
100
AcDbCircle
 62
7
  6
CONTINUOUS
 10
198.9283236126
 20
206.0467562044
 40
30.0
100
AcDbArc
 50
320.7431370326
 51
360.0
  0
ARC
  5
406
100
AcDbEntity
  8
0
100
AcDbCircle
 62
7
  6
CONTINUOUS
 10
198.9283236126
 20
242.0467562044
 40
30.0
100
AcDbArc
 50
0.0
 51
72.5369273418
  0
ARC
  5
407
100
AcDbEntity
  8
0
100
AcDbCircle
 62
7
  6
CONTINUOUS
 10
198.9283236126
 20
242.0467562044
 40
30.0
100
AcDbArc
 50
107.4630726582
 51
180.0
  0
ARC
  5
408
100
AcDbEntity
  8
0
100
AcDbCircle
 62
7
  6
CONTINUOUS
 10
198.9283236126
 20
206.0467562044
 40
17.0
100
AcDbArc
 50
180.0
 51
252.8871988399
  0
ARC
  5
409
100
AcDbEntity
  8
0
100
AcDbCircle
 62
7
  6
CONTINUOUS
 10
198.9283236126
 20
206.0467562044
 40
17.0
100
AcDbArc
 50
287.1128011601
 51
304.8292234506
  0
ARC
  5
40A
100
AcDbEntity
  8
0
100
AcDbCircle
 62
7
  6
CONTINUOUS
 10
198.9283236126
 20
206.0467562044
 40
17.0
100
AcDbArc
 50
325.1707765494
 51
360.0
  0
ARC
  5
40B
100
AcDbEntity
  8
0
100
AcDbCircle
 62
7
  6
CONTINUOUS
 10
198.9283236126
 20
242.0467562044
 40
17.0
100
AcDbArc
 50
0.0
 51
58.0282882044
  0
ARC
  5
40C
100
AcDbEntity
  8
0
100
AcDbCircle
 62
7
  6
CONTINUOUS
 10
198.9283236126
 20
242.0467562044
 40
17.0
100
AcDbArc
 50
121.9717117956
 51
180.0
  0
ARC
  5
40D
100
AcDbEntity
  8
0
100
AcDbCircle
 62
7
  6
CONTINUOUS
 10
198.9283236126
 20
250.0467562044
 40
9.0
100
AcDbArc
 50
180.0
 51
360.0
  0
ARC
  5
40E
100
AcDbEntity
  8
KONSTRUKTIONSELEMENTE
100
AcDbCircle
 62
7
  6
CONTINUOUS
 10
246.6226760037
 20
158.3524038133
 40
9.55
100
AcDbArc
 50
328.6297070454
 51
45.0
  0
ARC
  5
40F
100
AcDbEntity
  8
KONSTRUKTIONSELEMENTE
100
AcDbCircle
 62
7
  6
CONTINUOUS
 10
246.6226760037
 20
158.3524038133
 40
9.55
100
AcDbArc
 50
225.0
 51
301.3702929546
  0
ARC
  5
410
100
AcDbEntity
  8
KONSTRUKTIONSELEMENTE
100
AcDbCircle
 62
7
  6
CONTINUOUS
 10
238.2081053075
 20
166.7669745094
 40
9.55
100
AcDbArc
 50
153.3390960058
 51
225.0
  0
ARC
  5
411
100
AcDbEntity
  8
KONSTRUKTIONSELEMENTE
100
AcDbCircle
 62
7
  6
CONTINUOUS
 10
238.2081053075
 20
166.7669745094
 40
9.55
100
AcDbArc
 50
45.0
 51
116.6609039942
  0
ARC
  5
412
100
AcDbEntity
  8
KONSTRUKTIONSELEMENTE
100
AcDbCircle
 62
7
  6
CONTINUOUS
 10
246.6226760037
 20
158.3524038133
 40
4.55
100
AcDbArc
 50
344.6522021471
 51
45.0
  0
ARC
  5
413
100
AcDbEntity
  8
KONSTRUKTIONSELEMENTE
100
AcDbCircle
 62
7
  6
CONTINUOUS
 10
246.6226760037
 20
158.3524038133
 40
4.55
100
AcDbArc
 50
225.0
 51
285.3477978529
  0
ARC
  5
414
100
AcDbEntity
  8
KONSTRUKTIONSELEMENTE
100
AcDbCircle
 62
7
  6
CONTINUOUS
 10
238.2081053075
 20
166.7669745094
 40
4.55
100
AcDbArc
 50
176.2724010126
 51
225.0
  0
ARC
  5
415
100
AcDbEntity
  8
KONSTRUKTIONSELEMENTE
100
AcDbCircle
 62
7
  6
CONTINUOUS
 10
238.2081053075
 20
166.7669745094
 40
4.55
100
AcDbArc
 50
45.0
 51
93.7275989874
  0
ARC
  5
416
100
AcDbEntity
  8
KONSTRUKTIONSELEMENTE
100
AcDbCircle
 62
7
  6
CONTINUOUS
 10
237.8191965779
 20
167.1558832391
 40
3.0
100
AcDbArc
 50
225.0
 51
45.0
  0
ARC
  5
417
100
AcDbEntity
  8
KONSTRUKTIONSELEMENTE
100
AcDbCircle
 62
7
  6
CONTINUOUS
 10
248.2490216004
 20
156.7260582166
 40
2.25
100
AcDbArc
 50
45.0
 51
225.0
  0
ARC
  5
418
100
AcDbEntity
  8
0
100
AcDbCircle
 62
7
  6
CONTINUOUS
 10
198.9283236126
 20
528.0467562044
 40
9.0
100
AcDbArc
 50
0.0
 51
180.0
  0
ARC
  5
419
100
AcDbEntity
  8
KONSTRUKTIONSELEMENTE
100
AcDbCircle
 62
7
  6
CONTINUOUS
 10
307.7874125763
 20
97.1876672407
 40
9.55
100
AcDbArc
 50
330.1951355235
 51
45.0
  0
ARC
  5
41A
100
AcDbEntity
  8
KONSTRUKTIONSELEMENTE
100
AcDbCircle
 62
7
  6
CONTINUOUS
 10
307.7874125763
 20
97.1876672407
 40
9.55
100
AcDbArc
 50
225.0
 51
299.8048644765
  0
ARC
  5
41B
100
AcDbEntity
  8
KONSTRUKTIONSELEMENTE
100
AcDbCircle
 62
7
  6
CONTINUOUS
 10
299.3728418802
 20
105.6022379368
 40
9.55
100
AcDbArc
 50
148.6297070454
 51
225.0
  0
ARC
  5
41C
100
AcDbEntity
  8
KONSTRUKTIONSELEMENTE
100
AcDbCircle
 62
7
  6
CONTINUOUS
 10
299.3728418802
 20
105.6022379368
 40
9.55
100
AcDbArc
 50
45.0
 51
121.3702929546
  0
ARC
  5
41D
100
AcDbEntity
  8
KONSTRUKTIONSELEMENTE
100
AcDbCircle
 62
7
  6
CONTINUOUS
 10
278.4778364961
 20
126.4972433209
 40
8.0
100
AcDbArc
 50
331.3642958278
 51
45.0
  0
ARC
  5
41E
100
AcDbEntity
  8
KONSTRUKTIONSELEMENTE
100
AcDbCircle
 62
7
  6
CONTINUOUS
 10
278.4778364961
 20
126.4972433209
 40
8.0
100
AcDbArc
 50
225.0
 51
298.6357041722
  0
ARC
  5
41F
100
AcDbEntity
  8
KONSTRUKTIONSELEMENTE
100
AcDbCircle
 62
7
  6
CONTINUOUS
 10
267.8712347783
 20
137.1038450387
 40
8.0
100
AcDbArc
 50
151.3642958278
 51
225.0
  0
ARC
  5
420
100
AcDbEntity
  8
KONSTRUKTIONSELEMENTE
100
AcDbCircle
 62
7
  6
CONTINUOUS
 10
267.8712347783
 20
137.1038450387
 40
8.0
100
AcDbArc
 50
45.0
 51
118.6357041722
  0
ARC
  5
421
100
AcDbEntity
  8
KONSTRUKTIONSELEMENTE
100
AcDbCircle
 62
7
  6
CONTINUOUS
 10
307.7874125763
 20
97.1876672407
 40
4.55
100
AcDbArc
 50
348.3583327703
 51
45.0
  0
ARC
  5
422
100
AcDbEntity
  8
KONSTRUKTIONSELEMENTE
100
AcDbCircle
 62
7
  6
CONTINUOUS
 10
307.7874125763
 20
97.1876672407
 40
4.55
100
AcDbArc
 50
225.0
 51
281.6416672297
  0
ARC
  5
423
100
AcDbEntity
  8
KONSTRUKTIONSELEMENTE
100
AcDbCircle
 62
7
  6
CONTINUOUS
 10
299.3728418802
 20
105.6022379368
 40
4.55
100
AcDbArc
 50
164.6522021471
 51
225.0
  0
ARC
  5
424
100
AcDbEntity
  8
KONSTRUKTIONSELEMENTE
100
AcDbCircle
 62
7
  6
CONTINUOUS
 10
299.3728418802
 20
105.6022379368
 40
4.55
100
AcDbArc
 50
45.0
 51
105.3477978529
  0
ARC
  5
425
100
AcDbEntity
  8
KONSTRUKTIONSELEMENTE
100
AcDbCircle
 62
7
  6
CONTINUOUS
 10
278.4778364961
 20
126.4972433209
 40
3.5
100
AcDbArc
 50
355.1538775079
 51
45.0
  0
ARC
  5
426
100
AcDbEntity
  8
KONSTRUKTIONSELEMENTE
100
AcDbCircle
 62
7
  6
CONTINUOUS
 10
278.4778364961
 20
126.4972433209
 40
3.5
100
AcDbArc
 50
225.0
 51
274.8461224921
  0
ARC
  5
427
100
AcDbEntity
  8
KONSTRUKTIONSELEMENTE
100
AcDbCircle
 62
7
  6
CONTINUOUS
 10
267.8712347783
 20
137.1038450387
 40
3.5
100
AcDbArc
 50
175.1538775079
 51
225.0
  0
ARC
  5
428
100
AcDbEntity
  8
KONSTRUKTIONSELEMENTE
100
AcDbCircle
 62
7
  6
CONTINUOUS
 10
267.8712347783
 20
137.1038450387
 40
3.5
100
AcDbArc
 50
45.0
 51
94.8461224921
  0
ARC
  5
429
100
AcDbEntity
  8
KONSTRUKTIONSELEMENTE
100
AcDbCircle
 62
7
  6
CONTINUOUS
 10
266.9873513018
 20
137.9877285151
 40
2.25
100
AcDbArc
 50
225.0
 51
45.0
  0
ARC
  5
42A
100
AcDbEntity
  8
KONSTRUKTIONSELEMENTE
100
AcDbCircle
 62
7
  6
CONTINUOUS
 10
279.3617199726
 20
125.6133598444
 40
2.25
100
AcDbArc
 50
45.0
 51
225.0
  0
ARC
  5
42B
100
AcDbEntity
  8
KONSTRUKTIONSELEMENTE
100
AcDbCircle
 62
7
  6
CONTINUOUS
 10
298.100049674
 20
106.8750301429
 40
2.25
100
AcDbArc
 50
225.0
 51
45.0
  0
SPLINE
  5
42C
100
AcDbEntity
  8
KONSTRUKTIONSELEMENTE
100
AcDbSpline
 62
7
  6
CONTINUOUS
 70
0
 71
3
 72
13
 73
9
 74
0
 42
0.0000001
 43
0.0000001
 44
0.0000000001
 40
0.0
 40
0.0
 40
0.0
 40
0.0
 40
0.1194785188
 40
0.2392741704
 40
0.3602835725
 40
0.4830059608
 40
0.7355440041
 40
1.0
 40
1.0
 40
1.0
 40
1.0
 10
537.718862545
 20
121.5474958526
 30
0.0
 10
537.718862545
 20
121.9061354638
 30
0.0
 10
537.7949580282
 20
122.6266420928
 30
0.0
 10
538.1305342558
 20
123.6621378485
 30
0.0
 10
538.6665187211
 20
124.6204575277
 30
0.0
 10
539.6242142868
 20
125.7708372885
 30
0.0
 10
541.2105329295
 20
126.9101798078
 30
0.0
 10
542.690586372
 20
127.4377058282
 30
0.0
 10
543.4647502245
 20
127.6132619732
 30
0.0
  0
SPLINE
  5
42D
100
AcDbEntity
  8
KONSTRUKTIONSELEMENTE
100
AcDbSpline
 62
7
  6
CONTINUOUS
 70
0
 71
3
 72
13
 73
9
 74
0
 42
0.0000001
 43
0.0000001
 44
0.0000000001
 40
0.0
 40
0.0
 40
0.0
 40
0.0
 40
0.2644681654
 40
0.5169944072
 40
0.6397129492
 40
0.760706397
 40
0.8805228501
 40
1.0
 40
1.0
 40
1.0
 40
1.0
 10
547.9710333238
 20
127.6136931855
 30
0.0
 10
548.7454306503
 20
127.4382130813
 30
0.0
 10
550.2259214979
 20
126.9108923526
 30
0.0
 10
551.812771905
 20
125.7715398892
 30
0.0
 10
552.7707438643
 20
124.6210973404
 30
0.0
 10
553.3070606221
 20
123.6626755538
 30
0.0
 10
553.6426749586
 20
122.6269221414
 30
0.0
 10
553.718862545
 20
121.9062101229
 30
0.0
 10
553.718862545
 20
121.5474958526
 30
0.0
  0
SPLINE
  5
42E
100
AcDbEntity
  8
KONSTRUKTIONSELEMENTE
100
AcDbSpline
 62
7
  6
CONTINUOUS
 70
0
 71
3
 72
10
 73
6
 74
0
 42
0.0000001
 43
0.0000001
 44
0.0000000001
 40
0.0
 40
0.0
 40
0.0
 40
0.0
 40
0.3116645009
 40
0.6060899939
 40
1.0
 40
1.0
 40
1.0
 40
1.0
 10
542.218862545
 20
121.5474958526
 30
0.0
 10
542.218862545
 20
121.744650699
 30
0.0
 10
542.4063911016
 20
122.1159768937
 30
0.0
 10
542.8637103712
 20
122.5498499835
 30
0.0
 10
543.2421116834
 20
122.7772600169
 30
0.0
 10
543.4668706567
 20
122.8848481479
 30
0.0
  0
SPLINE
  5
42F
100
AcDbEntity
  8
KONSTRUKTIONSELEMENTE
100
AcDbSpline
 62
7
  6
CONTINUOUS
 70
0
 71
3
 72
10
 73
6
 74
0
 42
0.0000001
 43
0.0000001
 44
0.0000000001
 40
0.0
 40
0.0
 40
0.0
 40
0.0
 40
0.3939255147
 40
0.6883533687
 40
1.0
 40
1.0
 40
1.0
 40
1.0
 10
547.9706117805
 20
122.8849600759
 30
0.0
 10
548.1954196865
 20
122.7773701753
 30
0.0
 10
548.5738822081
 20
122.549924607
 30
0.0
 10
549.0313237258
 20
122.1160468636
 30
0.0
 10
549.218862545
 20
121.7446671564
 30
0.0
 10
549.218862545
 20
121.5474958526
 30
0.0
  0
SPLINE
  5
430
100
AcDbEntity
  8
KONSTRUKTIONSELEMENTE
100
AcDbSpline
 62
7
  6
CONTINUOUS
 70
0
 71
3
 72
10
 73
6
 74
0
 42
0.0000001
 43
0.0000001
 44
0.0000000001
 40
0.0
 40
0.0
 40
0.0
 40
0.0
 40
0.3192646009
 40
0.6086079864
 40
1.0
 40
1.0
 40
1.0
 40
1.0
 10
549.218862545
 20
110.9408941348
 30
0.0
 10
549.218862545
 20
110.7691543596
 30
0.0
 10
549.0768467585
 20
110.4483031446
 30
0.0
 10
548.7110407438
 20
110.0549508052
 30
0.0
 10
548.4077529111
 20
109.8419108919
 30
0.0
 10
548.22521661
 20
109.7369962955
 30
0.0
  0
SPLINE
  5
431
100
AcDbEntity
  8
KONSTRUKTIONSELEMENTE
100
AcDbSpline
 62
7
  6
CONTINUOUS
 70
0
 71
3
 72
10
 73
6
 74
0
 42
0.0000001
 43
0.0000001
 44
0.0000000001
 40
0.0
 40
0.0
 40
0.0
 40
0.0
 40
0.3914026107
 40
0.6807340322
 40
1.0
 40
1.0
 40
1.0
 40
1.0
 10
543.2124169439
 20
109.7370487666
 30
0.0
 10
543.0298897005
 20
109.8419641761
 30
0.0
 10
542.7266501197
 20
110.0550232476
 30
0.0
 10
542.3608294151
 20
110.4483216082
 30
0.0
 10
542.218862545
 20
110.7691643491
 30
0.0
 10
542.218862545
 20
110.9408941348
 30
0.0
  0
SPLINE
  5
432
100
AcDbEntity
  8
KONSTRUKTIONSELEMENTE
100
AcDbSpline
 62
7
  6
CONTINUOUS
 70
0
 71
3
 72
13
 73
9
 74
0
 42
0.0000001
 43
0.0000001
 44
0.0000000001
 40
0.0
 40
0.0
 40
0.0
 40
0.0
 40
0.1197290731
 40
0.2397365246
 40
0.3609040964
 40
0.4836831257
 40
0.7359942557
 40
1.0
 40
1.0
 40
1.0
 40
1.0
 10
553.718862545
 20
110.9408941348
 30
0.0
 10
553.718862545
 20
110.5916804327
 30
0.0
 10
553.6467589232
 20
109.8903393966
 30
0.0
 10
553.3284735885
 20
108.8801211485
 30
0.0
 10
552.8190900468
 20
107.9415429298
 30
0.0
 10
551.9072895183
 20
106.8087684232
 30
0.0
 10
550.3913982527
 20
105.6716250071
 30
0.0
 10
548.9685114026
 20
105.1250792831
 30
0.0
 10
548.2222868809
 20
104.9351107925
 30
0.0
  0
SPLINE
  5
433
100
AcDbEntity
  8
KONSTRUKTIONSELEMENTE
100
AcDbSpline
 62
7
  6
CONTINUOUS
 70
0
 71
3
 72
13
 73
9
 74
0
 42
0.0000001
 43
0.0000001
 44
0.0000000001
 40
0.0
 40
0.0
 40
0.0
 40
0.0
 40
0.2640112835
 40
0.5163080567
 40
0.6390830379
 40
0.7602378991
 40
0.8802701562
 40
1.0
 40
1.0
 40
1.0
 40
1.0
 10
543.2145347425
 20
104.9353579821
 30
0.0
 10
542.4683949202
 20
105.1253925834
 30
0.0
 10
541.0457184788
 20
105.6719592146
 30
0.0
 10
539.5301284117
 20
106.8091045555
 30
0.0
 10
538.6185381343
 20
107.9417200641
 30
0.0
 10
538.1091472185
 20
108.8801973507
 30
0.0
 10
537.7910104994
 20
109.8903854538
 30
0.0
 10
537.718862545
 20
110.5917153373
 30
0.0
 10
537.718862545
 20
110.9408941348
 30
0.0
  0
LINE
  5
434
100
AcDbEntity
  8
KONSTRUKTIONSELEMENTE
100
AcDbLine
 62
7
  6
CONTINUOUS
 10
542.0468490817
 20
158.2860109486
 11
542.0672070026
 21
158.2941403753
  0
SPLINE
  5
435
100
AcDbEntity
  8
KONSTRUKTIONSELEMENTE
100
AcDbSpline
 62
7
  6
CONTINUOUS
 70
0
 71
3
 72
9
 73
5
 74
0
 42
0.0000001
 43
0.0000001
 44
0.0000000001
 40
0.0
 40
0.0
 40
0.0
 40
0.0
 40
0.2401783802
 40
1.0
 40
1.0
 40
1.0
 40
1.0
 10
542.9340386953
 20
153.6849721918
 30
0.0
 10
542.9555519761
 20
153.7004705301
 30
0.0
 10
543.0459710521
 20
153.7638184785
 30
0.0
 10
543.1397843291
 20
153.8222931183
 30
0.0
 10
543.21250848
 20
153.864092064
 30
0.0
  0
SPLINE
  5
436
100
AcDbEntity
  8
KONSTRUKTIONSELEMENTE
100
AcDbSpline
 62
7
  6
CONTINUOUS
 70
0
 71
3
 72
9
 73
5
 74
0
 42
0.0000001
 43
0.0000001
 44
0.0000000001
 40
0.0
 40
0.0
 40
0.0
 40
0.0
 40
0.2597110025
 40
1.0
 40
1.0
 40
1.0
 40
1.0
 10
548.2253081461
 20
153.8640395929
 30
0.0
 10
548.2501563483
 20
153.8497570165
 30
0.0
 10
548.3451652501
 20
153.7936129746
 30
0.0
 10
548.4373876156
 20
153.732729114
 30
0.0
 10
548.5036718756
 20
153.6849750205
 30
0.0
  0
SPLINE
  5
437
100
AcDbEntity
  8
KONSTRUKTIONSELEMENTE
100
AcDbSpline
 62
7
  6
CONTINUOUS
 70
0
 71
3
 72
10
 73
6
 74
0
 42
0.0000001
 43
0.0000001
 44
0.0000000001
 40
0.0
 40
0.0
 40
0.0
 40
0.0
 40
0.3116645009
 40
0.6060899939
 40
1.0
 40
1.0
 40
1.0
 40
1.0
 10
549.218862545
 20
142.053592507
 30
0.0
 10
549.218862545
 20
141.8564376605
 30
0.0
 10
549.0313339885
 20
141.4851114659
 30
0.0
 10
548.5740147188
 20
141.0512383761
 30
0.0
 10
548.1956134066
 20
140.8238283426
 30
0.0
 10
547.9708544333
 20
140.7162402116
 30
0.0
  0
SPLINE
  5
438
100
AcDbEntity
  8
KONSTRUKTIONSELEMENTE
100
AcDbSpline
 62
7
  6
CONTINUOUS
 70
0
 71
3
 72
10
 73
6
 74
0
 42
0.0000001
 43
0.0000001
 44
0.0000000001
 40
0.0
 40
0.0
 40
0.0
 40
0.0
 40
0.3939255147
 40
0.6883533687
 40
1.0
 40
1.0
 40
1.0
 40
1.0
 10
543.4671133095
 20
140.7161282836
 30
0.0
 10
543.2423054036
 20
140.8237181842
 30
0.0
 10
542.8638428819
 20
141.0511637525
 30
0.0
 10
542.4064013642
 20
141.4850414959
 30
0.0
 10
542.218862545
 20
141.8564212031
 30
0.0
 10
542.218862545
 20
142.053592507
 30
0.0
  0
SPLINE
  5
439
100
AcDbEntity
  8
KONSTRUKTIONSELEMENTE
100
AcDbSpline
 62
7
  6
CONTINUOUS
 70
0
 71
3
 72
11
 73
7
 74
0
 42
0.0000001
 43
0.0000001
 44
0.0000000001
 40
0.0
 40
0.0
 40
0.0
 40
0.0
 40
0.2385338003
 40
0.4831075981
 40
0.7368032203
 40
1.0
 40
1.0
 40
1.0
 40
1.0
 10
553.477660254
 20
140.4946185707
 30
0.0
 10
553.3002696809
 20
139.9317049256
 30
0.0
 10
552.7459213073
 20
138.8457627793
 30
0.0
 10
551.4589168106
 20
137.5234905664
 30
0.0
 10
549.8317899403
 20
136.5397373426
 30
0.0
 10
548.6080759545
 20
136.1318474466
 30
0.0
 10
547.9729748655
 20
135.9878263863
 30
0.0
  0
SPLINE
  5
43A
100
AcDbEntity
  8
KONSTRUKTIONSELEMENTE
100
AcDbSpline
 62
7
  6
CONTINUOUS
 70
0
 71
3
 72
11
 73
7
 74
0
 42
0.0000001
 43
0.0000001
 44
0.0000000001
 40
0.0
 40
0.0
 40
0.0
 40
0.0
 40
0.2632172474
 40
0.5169134065
 40
0.7614766644
 40
1.0
 40
1.0
 40
1.0
 40
1.0
 10
543.4666917662
 20
135.987395174
 30
0.0
 10
542.8313431437
 20
136.131366542
 30
0.0
 10
541.607156191
 20
136.5391257972
 30
0.0
 10
539.9794111633
 20
137.5229576775
 30
0.0
 10
538.6920101188
 20
138.8454742858
 30
0.0
 10
538.1374307833
 20
139.9316373988
 30
0.0
 10
537.9600388429
 20
140.4946942751
 30
0.0
  0
SPLINE
  5
43B
100
AcDbEntity
  8
0
100
AcDbSpline
 62
7
  6
CONTINUOUS
 70
0
 71
3
 72
11
 73
7
 74
0
 42
0.0000001
 43
0.0000001
 44
0.0000000001
 40
0.0
 40
0.0
 40
0.0
 40
0.0
 40
0.2192989281
 40
0.4548225453
 40
0.7152180566
 40
1.0
 40
1.0
 40
1.0
 40
1.0
 10
554.4739817453
 20
85.937598352
 30
0.0
 10
554.4739817453
 20
86.1109768148
 30
0.0
 10
554.3960184808
 20
86.4739502727
 30
0.0
 10
554.0706862982
 20
86.9499787819
 30
0.0
 10
553.5767112394
 20
87.3331143139
 30
0.0
 10
553.176276263
 20
87.5046847
 30
0.0
 10
552.9611190874
 20
87.5710150165
 30
0.0
  0
SPLINE
  5
43C
100
AcDbEntity
  8
0
100
AcDbSpline
 62
7
  6
CONTINUOUS
 70
0
 71
3
 72
17
 73
13
 74
0
 42
0.0000001
 43
0.0000001
 44
0.0000000001
 40
0.0
 40
0.0
 40
0.0
 40
0.0
 40
0.0517809237
 40
0.1054811646
 40
0.2228479209
 40
0.3562855052
 40
0.5
 40
0.6437144948
 40
0.7771520791
 40
0.8945188354
 40
0.9482190763
 40
1.0
 40
1.0
 40
1.0
 40
1.0
 10
546.6299826848
 20
85.4984152121
 30
0.0
 10
546.6299826848
 20
85.4458647801
 30
0.0
 10
546.6452830291
 20
85.3382764054
 30
0.0
 10
546.7367115306
 20
85.1288549513
 30
0.0
 10
546.9626451752
 20
84.9027795961
 30
0.0
 10
547.3335707619
 20
84.7361803245
 30
0.0
 10
547.7622232929
 20
84.6778985627
 30
0.0
 10
548.190875824
 20
84.7361803245
 30
0.0
 10
548.5618014106
 20
84.9027795961
 30
0.0
 10
548.7877350553
 20
85.1288549513
 30
0.0
 10
548.8791635567
 20
85.3382764054
 30
0.0
 10
548.8944639011
 20
85.4458647801
 30
0.0
 10
548.8944639011
 20
85.4984152121
 30
0.0
  0
SPLINE
  5
43D
100
AcDbEntity
  8
0
100
AcDbSpline
 62
7
  6
CONTINUOUS
 70
0
 71
3
 72
12
 73
8
 74
0
 42
0.0000001
 43
0.0000001
 44
0.0000000001
 40
0.0
 40
0.0
 40
0.0
 40
0.0
 40
0.1035930223
 40
0.210949621
 40
0.4457011106
 40
0.7125563401
 40
1.0
 40
1.0
 40
1.0
 40
1.0
 10
545.1858801457
 20
86.7467892074
 30
0.0
 10
545.1858718177
 20
86.8023045754
 30
0.0
 10
545.1696880942
 20
86.9159232385
 30
0.0
 10
545.0730288204
 20
87.1370452087
 30
0.0
 10
544.8343876249
 20
87.3757733559
 30
0.0
 10
544.4429283178
 20
87.5517151459
 30
0.0
 10
544.1440233756
 20
87.59222822
 30
0.0
 10
543.9899826848
 20
87.59222822
 30
0.0
  0
SPLINE
  5
43E
100
AcDbEntity
  8
0
100
AcDbSpline
 62
7
  6
CONTINUOUS
 70
0
 71
3
 72
9
 73
5
 74
0
 42
0.0000001
 43
0.0000001
 44
0.0000000001
 40
0.0
 40
0.0
 40
0.0
 40
0.0
 40
0.4402133985
 40
1.0
 40
1.0
 40
1.0
 40
1.0
 10
538.6315019039
 20
85.5430327681
 30
0.0
 10
538.6315019039
 20
85.5291252398
 30
0.0
 10
538.6529205775
 20
85.4988399471
 30
0.0
 10
538.6858167357
 20
85.4921210799
 30
0.0
 10
538.7035019039
 20
85.4921210799
 30
0.0
  0
SPLINE
  5
43F
100
AcDbEntity
  8
0
100
AcDbSpline
 62
7
  6
CONTINUOUS
 70
0
 71
3
 72
9
 73
5
 74
0
 42
0.0000001
 43
0.0000001
 44
0.0000000001
 40
0.0
 40
0.0
 40
0.0
 40
0.0
 40
0.4402133985
 40
1.0
 40
1.0
 40
1.0
 40
1.0
 10
539.1265019039
 20
85.5684886122
 30
0.0
 10
539.1265019039
 20
85.5823961405
 30
0.0
 10
539.1050832303
 20
85.6126814332
 30
0.0
 10
539.0721870721
 20
85.6194003005
 30
0.0
 10
539.0545019039
 20
85.6194003005
 30
0.0
  0
SPLINE
  5
440
100
AcDbEntity
  8
0
100
AcDbSpline
 62
7
  6
CONTINUOUS
 70
0
 71
3
 72
9
 73
5
 74
0
 42
0.0000001
 43
0.0000001
 44
0.0000000001
 40
0.0
 40
0.0
 40
0.0
 40
0.0
 40
0.4402133985
 40
1.0
 40
1.0
 40
1.0
 40
1.0
 10
539.1265019039
 20
86.8412808184
 30
0.0
 10
539.1265019039
 20
86.8551883467
 30
0.0
 10
539.1050832303
 20
86.8854736393
 30
0.0
 10
539.0721870721
 20
86.8921925066
 30
0.0
 10
539.0545019039
 20
86.8921925066
 30
0.0
  0
SPLINE
  5
441
100
AcDbEntity
  8
0
100
AcDbSpline
 62
7
  6
CONTINUOUS
 70
0
 71
3
 72
11
 73
7
 74
0
 42
0.0000001
 43
0.0000001
 44
0.0000000001
 40
0.0
 40
0.0
 40
0.0
 40
0.0
 40
0.2094668498
 40
0.4446559298
 40
0.7120302568
 40
1.0
 40
1.0
 40
1.0
 40
1.0
 10
538.1365019039
 20
86.1921567932
 30
0.0
 10
538.1365019039
 20
86.1752907484
 30
0.0
 10
538.1474551817
 20
86.1390633803
 30
0.0
 10
538.189399174
 20
86.0975774725
 30
0.0
 10
538.2483176681
 20
86.0709396912
 30
0.0
 10
538.2933148907
 20
86.0648775726
 30
0.0
 10
538.3165019039
 20
86.0648775726
 30
0.0
  0
SPLINE
  5
442
100
AcDbEntity
  8
0
100
AcDbSpline
 62
7
  6
CONTINUOUS
 70
0
 71
3
 72
11
 73
7
 74
0
 42
0.0000001
 43
0.0000001
 44
0.0000000001
 40
0.0
 40
0.0
 40
0.0
 40
0.0
 40
0.2094668498
 40
0.4446559298
 40
0.7120302568
 40
1.0
 40
1.0
 40
1.0
 40
1.0
 10
538.1365019039
 20
84.9193645871
 30
0.0
 10
538.1365019039
 20
84.9024985422
 30
0.0
 10
538.1474551817
 20
84.8662711742
 30
0.0
 10
538.189399174
 20
84.8247852664
 30
0.0
 10
538.2483176681
 20
84.7981474851
 30
0.0
 10
538.2933148907
 20
84.7920853665
 30
0.0
 10
538.3165019039
 20
84.7920853665
 30
0.0
  0
SPLINE
  5
443
100
AcDbEntity
  8
0
100
AcDbSpline
 62
7
  6
CONTINUOUS
 70
0
 71
3
 72
9
 73
5
 74
0
 42
0.0000001
 43
0.0000001
 44
0.0000000001
 40
0.0
 40
0.0
 40
0.0
 40
0.0
 40
0.2432035461
 40
1.0
 40
1.0
 40
1.0
 40
1.0
 10
540.5665019039
 20
87.3376697788
 30
0.0
 10
540.5665019039
 20
87.3476583487
 30
0.0
 10
540.5630866429
 20
87.3887306107
 30
0.0
 10
540.5454368907
 20
87.4280203721
 30
0.0
 10
540.5272648739
 20
87.4532371186
 30
0.0
  0
SPLINE
  5
444
100
AcDbEntity
  8
0
100
AcDbSpline
 62
7
  6
CONTINUOUS
 70
0
 71
3
 72
9
 73
5
 74
0
 42
0.0000001
 43
0.0000001
 44
0.0000000001
 40
0.0
 40
0.0
 40
0.0
 40
0.0
 40
0.2250156934
 40
1.0
 40
1.0
 40
1.0
 40
1.0
 10
540.5272648739
 20
87.4532371186
 30
0.0
 10
540.5116073859
 20
87.4749645311
 30
0.0
 10
540.4256682521
 20
87.5596848533
 30
0.0
 10
540.298740261
 20
87.59222822
 30
0.0
 10
540.2065019039
 20
87.59222822
 30
0.0
  0
SPLINE
  5
445
100
AcDbEntity
  8
RUNDUNGEN
100
AcDbSpline
 62
7
  6
CONTINUOUS
 70
0
 71
3
 72
11
 73
7
 74
0
 42
0.0000001
 43
0.0000001
 44
0.0000000001
 40
0.0
 40
0.0
 40
0.0
 40
0.0
 40
0.2256934588
 40
0.4632957354
 40
0.7206235605
 40
1.0
 40
1.0
 40
1.0
 40
1.0
 10
526.3695639416
 20
90.0323127604
 30
0.0
 10
526.3695961592
 20
90.0834358475
 30
0.0
 10
526.3881863925
 20
90.1891154624
 30
0.0
 10
526.4677857336
 20
90.3343812916
 30
0.0
 10
526.5924483641
 20
90.4604115167
 30
0.0
 10
526.6966255619
 20
90.525183835
 30
0.0
 10
526.7533379514
 20
90.5532633583
 30
0.0
  0
SPLINE
  5
446
100
AcDbEntity
  8
RUNDUNGEN
100
AcDbSpline
 62
7
  6
CONTINUOUS
 70
0
 71
3
 72
9
 73
5
 74
0
 42
0.0000001
 43
0.0000001
 44
0.0000000001
 40
0.0
 40
0.0
 40
0.0
 40
0.0
 40
0.4805181646
 40
1.0
 40
1.0
 40
1.0
 40
1.0
 10
526.3695631661
 20
86.4967535419
 30
0.0
 10
526.3695262564
 20
86.4314216511
 30
0.0
 10
526.4005721222
 20
86.2941780973
 30
0.0
 10
526.4826227744
 20
86.1815892773
 30
0.0
 10
526.5323199043
 20
86.1314024747
 30
0.0
  0
SPLINE
  5
447
100
AcDbEntity
  8
RUNDUNGEN
100
AcDbSpline
 62
7
  6
CONTINUOUS
 70
0
 71
3
 72
11
 73
7
 74
0
 42
0.0000001
 43
0.0000001
 44
0.0000000001
 40
0.0
 40
0.0
 40
0.0
 40
0.0
 40
0.2256919297
 40
0.4632773963
 40
0.7205986282
 40
1.0
 40
1.0
 40
1.0
 40
1.0
 10
519.9672249111
 20
96.9651860278
 30
0.0
 10
519.9671920119
 20
97.1357116382
 30
0.0
 10
520.0288595287
 20
97.4882682796
 30
0.0
 10
520.2940988645
 20
97.9729735935
 30
0.0
 10
520.7098113176
 20
98.3934890856
 30
0.0
 10
521.05730679
 20
98.6095825483
 30
0.0
 10
521.2464941464
 20
98.7032532757
 30
0.0
  0
SPLINE
  5
448
100
AcDbEntity
  8
RUNDUNGEN
100
AcDbSpline
 62
7
  6
CONTINUOUS
 70
0
 71
3
 72
10
 73
6
 74
0
 42
0.0000001
 43
0.0000001
 44
0.0000000001
 40
0.0
 40
0.0
 40
0.0
 40
0.0
 40
0.2382860828
 40
0.4819052527
 40
1.0
 40
1.0
 40
1.0
 40
1.0
 10
519.9672249111
 20
93.4296521219
 30
0.0
 10
519.9672457794
 20
93.3214859503
 30
0.0
 10
519.9913900699
 20
93.1019791095
 30
0.0
 10
520.1356305174
 20
92.6688638448
 30
0.0
 10
520.344286591
 20
92.3804073472
 30
0.0
 10
520.5097673226
 20
92.2132961107
 30
0.0
  0
SPLINE
  5
449
100
AcDbEntity
  8
RUNDUNGEN
100
AcDbSpline
 62
7
  6
CONTINUOUS
 70
0
 71
3
 72
11
 73
7
 74
0
 42
0.0000001
 43
0.0000001
 44
0.0000000001
 40
0.0
 40
0.0
 40
0.0
 40
0.0
 40
0.237780559
 40
0.4809056754
 40
0.7339193747
 40
1.0
 40
1.0
 40
1.0
 40
1.0
 10
555.0304813764
 20
74.1526307227
 30
0.0
 10
555.0304813879
 20
74.4772178405
 30
0.0
 10
555.1024872473
 20
75.1357841107
 30
0.0
 10
555.4217590906
 20
76.0926226386
 30
0.0
 10
555.942526822
 20
77.0004893017
 30
0.0
 10
556.4025407595
 20
77.5447581339
 30
0.0
 10
556.6581129778
 20
77.8028485411
 30
0.0
  0
SPLINE
  5
44A
100
AcDbEntity
  8
RUNDUNGEN
100
AcDbSpline
 62
7
  6
CONTINUOUS
 70
0
 71
3
 72
9
 73
5
 74
0
 42
0.0000001
 43
0.0000001
 44
0.0000000001
 40
0.0
 40
0.0
 40
0.0
 40
0.0
 40
0.4865850801
 40
1.0
 40
1.0
 40
1.0
 40
1.0
 10
555.3851271717
 20
75.9193043758
 30
0.0
 10
555.525319155
 20
75.5766597884
 30
0.0
 10
555.8924248156
 20
74.9030732621
 30
0.0
 10
556.3832545249
 20
74.3155129408
 30
0.0
 10
556.6581129778
 20
74.037946269
 30
0.0
  0
SPLINE
  5
44B
100
AcDbEntity
  8
RUNDUNGEN
100
AcDbSpline
 62
7
  6
CONTINUOUS
 70
0
 71
3
 72
10
 73
6
 74
0
 42
0.0000001
 43
0.0000001
 44
0.0000000001
 40
0.0
 40
0.0
 40
0.0
 40
0.0
 40
0.2382826319
 40
0.4819247904
 40
1.0
 40
1.0
 40
1.0
 40
1.0
 10
525.318862545
 20
63.8151288757
 30
0.0
 10
525.318862545
 20
63.9233238479
 30
0.0
 10
525.3429347093
 20
64.1429108542
 30
0.0
 10
525.4871908431
 20
64.5761626583
 30
0.0
 10
525.6958854672
 20
64.8647163927
 30
0.0
 10
525.8614064122
 20
65.0318682387
 30
0.0
  0
SPLINE
  5
44C
100
AcDbEntity
  8
BEZUGSACHSEN
100
AcDbSpline
 62
7
  6
CONTINUOUS
 70
0
 71
3
 72
9
 73
5
 74
0
 42
0.0000001
 43
0.0000001
 44
0.0000000001
 40
0.0
 40
0.0
 40
0.0
 40
0.0
 40
0.243640565
 40
1.0
 40
1.0
 40
1.0
 40
1.0
 10
542.5982535618
 20
92.5508533073
 30
0.0
 10
542.641738991
 20
92.5125046807
 30
0.0
 10
542.8243693066
 20
92.359839698
 30
0.0
 10
543.0226235078
 20
92.2261505857
 30
0.0
 10
543.1782169285
 20
92.1356653776
 30
0.0
  0
SPLINE
  5
44D
100
AcDbEntity
  8
BEZUGSACHSEN
100
AcDbSpline
 62
7
  6
CONTINUOUS
 70
0
 71
3
 72
9
 73
5
 74
0
 42
0.0000001
 43
0.0000001
 44
0.0000000001
 40
0.0
 40
0.0
 40
0.0
 40
0.0
 40
0.2565853179
 40
1.0
 40
1.0
 40
1.0
 40
1.0
 10
548.2595081615
 20
92.1356653776
 30
0.0
 10
548.3122895312
 20
92.1663603337
 30
0.0
 10
548.5152412004
 20
92.2906207564
 30
0.0
 10
548.7067897904
 20
92.433844863
 30
0.0
 10
548.8394715282
 20
92.5508533073
 30
0.0
  0
SPLINE
  5
44E
100
AcDbEntity
  8
BEZUGSACHSEN
100
AcDbSpline
 62
7
  6
CONTINUOUS
 70
0
 71
3
 72
11
 73
7
 74
0
 42
0.0000001
 43
0.0000001
 44
0.0000000001
 40
0.0
 40
0.0
 40
0.0
 40
0.0
 40
0.2279232111
 40
0.4663851525
 40
0.7228056147
 40
1.0
 40
1.0
 40
1.0
 40
1.0
 10
549.718862545
 20
90.784744705
 30
0.0
 10
549.718862545
 20
90.9965561792
 30
0.0
 10
549.6479476884
 20
91.4327381068
 30
0.0
 10
549.3408636524
 20
92.0401264729
 30
0.0
 10
548.8553129929
 20
92.5779929315
 30
0.0
 10
548.4452649322
 20
92.8642986336
 30
0.0
 10
548.2211854516
 20
92.9913655181
 30
0.0
  0
SPLINE
  5
44F
100
AcDbEntity
  8
BEZUGSACHSEN
100
AcDbSpline
 62
7
  6
CONTINUOUS
 70
0
 71
3
 72
11
 73
7
 74
0
 42
0.0000001
 43
0.0000001
 44
0.0000000001
 40
0.0
 40
0.0
 40
0.0
 40
0.0
 40
0.2771943853
 40
0.5336148475
 40
0.7720767889
 40
1.0
 40
1.0
 40
1.0
 40
1.0
 10
543.2165396384
 20
92.9913655181
 30
0.0
 10
542.9924601578
 20
92.8642986336
 30
0.0
 10
542.5824120971
 20
92.5779929315
 30
0.0
 10
542.0968614376
 20
92.0401264729
 30
0.0
 10
541.7897774017
 20
91.4327381068
 30
0.0
 10
541.718862545
 20
90.9965561792
 30
0.0
 10
541.718862545
 20
90.784744705
 30
0.0
  0
SPLINE
  5
450
100
AcDbEntity
  8
RUNDUNGEN
100
AcDbSpline
 62
7
  6
CONTINUOUS
 70
0
 71
3
 72
10
 73
6
 74
0
 42
0.0000001
 43
0.0000001
 44
0.0000000001
 40
0.0
 40
0.0
 40
0.0
 40
0.0
 40
0.5180750537
 40
0.7617172794
 40
1.0
 40
1.0
 40
1.0
 40
1.0
 10
565.5763186779
 20
65.0318682387
 30
0.0
 10
565.7418395733
 20
64.8647164427
 30
0.0
 10
565.9505341861
 20
64.5761627588
 30
0.0
 10
566.0947903583
 20
64.1429109657
 30
0.0
 10
566.118862545
 20
63.9233238883
 30
0.0
 10
566.118862545
 20
63.8151288757
 30
0.0
  0
SPLINE
  5
451
100
AcDbEntity
  8
RUNDUNGEN
100
AcDbSpline
 62
7
  6
CONTINUOUS
 70
0
 71
3
 72
11
 73
7
 74
0
 42
0.0000001
 43
0.0000001
 44
0.0000000001
 40
0.0
 40
0.0
 40
0.0
 40
0.0
 40
0.2793753354
 40
0.5367191876
 40
0.7743210397
 40
1.0
 40
1.0
 40
1.0
 40
1.0
 10
571.8295350322
 20
97.8920937004
 30
0.0
 10
571.8925495576
 20
97.8608938541
 30
0.0
 10
572.0083065882
 20
97.7889209128
 30
0.0
 10
572.1468252463
 20
97.6488815724
 30
0.0
 10
572.2352648744
 20
97.4874689655
 30
0.0
 10
572.2559173886
 20
97.370048708
 30
0.0
 10
572.2559513719
 20
97.313248017
 30
0.0
  0
SPLINE
  5
452
100
AcDbEntity
  8
RUNDUNGEN
100
AcDbSpline
 62
7
  6
CONTINUOUS
 70
0
 71
3
 72
10
 73
6
 74
0
 42
0.0000001
 43
0.0000001
 44
0.0000000001
 40
0.0
 40
0.0
 40
0.0
 40
0.0
 40
0.4809191867
 40
0.7459271427
 40
1.0
 40
1.0
 40
1.0
 40
1.0
 10
565.931470308
 20
99.9491343549
 30
0.0
 10
566.0975220713
 20
100.1168222496
 30
0.0
 10
566.4719081732
 20
100.2607676864
 30
0.0
 10
566.9631734427
 20
100.2521160537
 30
0.0
 10
567.2124676592
 20
100.1781030168
 30
0.0
 10
567.3241987886
 20
100.1227825326
 30
0.0
  0
SPLINE
  5
453
100
AcDbEntity
  8
0
100
AcDbSpline
 62
7
  6
CONTINUOUS
 70
0
 71
3
 72
9
 73
5
 74
0
 42
0.0000001
 43
0.0000001
 44
0.0000000001
 40
0.0
 40
0.0
 40
0.0
 40
0.0
 40
0.2432212797
 40
1.0
 40
1.0
 40
1.0
 40
1.0
 10
550.8810504722
 20
97.6948526679
 30
0.0
 10
550.676664777
 20
97.7960484196
 30
0.0
 10
549.8217977982
 20
98.1824144442
 30
0.0
 10
548.9157704782
 20
98.4527160785
 30
0.0
 10
548.2205512206
 20
98.5949672152
 30
0.0
  0
SPLINE
  5
454
100
AcDbEntity
  8
0
100
AcDbSpline
 62
7
  6
CONTINUOUS
 70
0
 71
3
 72
9
 73
5
 74
0
 42
0.0000001
 43
0.0000001
 44
0.0000000001
 40
0.0
 40
0.0
 40
0.0
 40
0.0
 40
0.2565045474
 40
1.0
 40
1.0
 40
1.0
 40
1.0
 10
543.2171738694
 20
98.5949672152
 30
0.0
 10
542.9815468776
 20
98.5467547886
 30
0.0
 10
542.0689443936
 20
98.3313009134
 30
0.0
 10
541.1814218376
 20
98.0041784476
 30
0.0
 10
540.5566746179
 20
97.6948526679
 30
0.0
  0
SPLINE
  5
455
100
AcDbEntity
  8
RUNDUNGEN
100
AcDbSpline
 62
7
  6
CONTINUOUS
 70
0
 71
3
 72
13
 73
9
 74
0
 42
0.0000001
 43
0.0000001
 44
0.0000000001
 40
0.0
 40
0.0
 40
0.0
 40
0.0
 40
0.2520973387
 40
0.3837531395
 40
0.5156914498
 40
0.6454036081
 40
0.7706002201
 40
1.0
 40
1.0
 40
1.0
 40
1.0
 10
522.0656461907
 20
99.1088330634
 30
0.0
 10
522.959485004
 20
99.551391876
 30
0.0
 10
524.4434403283
 20
99.9948823623
 30
0.0
 10
526.4798540942
 20
100.1663912427
 30
0.0
 10
528.0390669181
 20
100.0831691858
 30
0.0
 10
529.5469855514
 20
99.7874602055
 30
0.0
 10
531.3556882036
 20
99.1473646647
 30
0.0
 10
532.5688585935
 20
98.3645554518
 30
0.0
 10
533.2074740358
 20
97.719647642
 30
0.0
  0
SPLINE
  5
456
100
AcDbEntity
  8
0
100
AcDbSpline
 62
7
  6
CONTINUOUS
 70
0
 71
3
 72
11
 73
7
 74
0
 42
0.0000001
 43
0.0000001
 44
0.0000000001
 40
0.0
 40
0.0
 40
0.0
 40
0.0
 40
0.2880052506
 40
0.5553344723
 40
0.7905070702
 40
1.0
 40
1.0
 40
1.0
 40
1.0
 10
537.3265019039
 20
87.59222822
 30
0.0
 10
537.2801224843
 20
87.59222822
 30
0.0
 10
537.1901249329
 20
87.5801132303
 30
0.0
 10
537.0723130474
 20
87.5268062119
 30
0.0
 10
536.9884035391
 20
87.4438675252
 30
0.0
 10
536.9665019039
 20
87.371405832
 30
0.0
 10
536.9665019039
 20
87.3376697788
 30
0.0
  0
SPLINE
  5
457
100
AcDbEntity
  8
0
100
AcDbSpline
 62
7
  6
CONTINUOUS
 70
0
 71
3
 72
11
 73
7
 74
0
 42
0.0000001
 43
0.0000001
 44
0.0000000001
 40
0.0
 40
0.0
 40
0.0
 40
0.0
 40
0.2879697432
 40
0.5553440702
 40
0.7905331502
 40
1.0
 40
1.0
 40
1.0
 40
1.0
 10
539.2165019039
 20
86.0648775726
 30
0.0
 10
539.239688917
 20
86.0648775726
 30
0.0
 10
539.2846861396
 20
86.0709396912
 30
0.0
 10
539.3436046337
 20
86.0975774725
 30
0.0
 10
539.3855486261
 20
86.1390633803
 30
0.0
 10
539.3965019039
 20
86.1752907484
 30
0.0
 10
539.3965019039
 20
86.1921567932
 30
0.0
  0
SPLINE
  5
458
100
AcDbEntity
  8
0
100
AcDbSpline
 62
7
  6
CONTINUOUS
 70
0
 71
3
 72
11
 73
7
 74
0
 42
0.0000001
 43
0.0000001
 44
0.0000000001
 40
0.0
 40
0.0
 40
0.0
 40
0.0
 40
0.2879697432
 40
0.5553440702
 40
0.7905331502
 40
1.0
 40
1.0
 40
1.0
 40
1.0
 10
539.2165019039
 20
84.7920853665
 30
0.0
 10
539.239688917
 20
84.7920853665
 30
0.0
 10
539.2846861396
 20
84.7981474851
 30
0.0
 10
539.3436046337
 20
84.8247852664
 30
0.0
 10
539.3855486261
 20
84.8662711742
 30
0.0
 10
539.3965019039
 20
84.9024985422
 30
0.0
 10
539.3965019039
 20
84.9193645871
 30
0.0
  0
SPLINE
  5
459
100
AcDbEntity
  8
0
100
AcDbSpline
 62
7
  6
CONTINUOUS
 70
0
 71
3
 72
9
 73
5
 74
0
 42
0.0000001
 43
0.0000001
 44
0.0000000001
 40
0.0
 40
0.0
 40
0.0
 40
0.0
 40
0.5597866015
 40
1.0
 40
1.0
 40
1.0
 40
1.0
 10
538.4785019039
 20
86.8921925066
 30
0.0
 10
538.4608167357
 20
86.8921925066
 30
0.0
 10
538.4279205775
 20
86.8854736393
 30
0.0
 10
538.4065019039
 20
86.8551883467
 30
0.0
 10
538.4065019039
 20
86.8412808184
 30
0.0
  0
SPLINE
  5
45A
100
AcDbEntity
  8
0
100
AcDbSpline
 62
7
  6
CONTINUOUS
 70
0
 71
3
 72
9
 73
5
 74
0
 42
0.0000001
 43
0.0000001
 44
0.0000000001
 40
0.0
 40
0.0
 40
0.0
 40
0.0
 40
0.5597866015
 40
1.0
 40
1.0
 40
1.0
 40
1.0
 10
538.4785019039
 20
85.6194003005
 30
0.0
 10
538.4608167357
 20
85.6194003005
 30
0.0
 10
538.4279205775
 20
85.6126814332
 30
0.0
 10
538.4065019039
 20
85.5823961405
 30
0.0
 10
538.4065019039
 20
85.5684886122
 30
0.0
  0
SPLINE
  5
45B
100
AcDbEntity
  8
0
100
AcDbSpline
 62
7
  6
CONTINUOUS
 70
0
 71
3
 72
9
 73
5
 74
0
 42
0.0000001
 43
0.0000001
 44
0.0000000001
 40
0.0
 40
0.0
 40
0.0
 40
0.0
 40
0.5597866015
 40
1.0
 40
1.0
 40
1.0
 40
1.0
 10
538.8295019039
 20
85.4921210799
 30
0.0
 10
538.8471870721
 20
85.4921210799
 30
0.0
 10
538.8800832303
 20
85.4988399471
 30
0.0
 10
538.9015019039
 20
85.5291252398
 30
0.0
 10
538.9015019039
 20
85.5430327681
 30
0.0
  0
SPLINE
  5
45C
100
AcDbEntity
  8
0
100
AcDbSpline
 62
7
  6
CONTINUOUS
 70
0
 71
3
 72
11
 73
7
 74
0
 42
0.0000001
 43
0.0000001
 44
0.0000000001
 40
0.0
 40
0.0
 40
0.0
 40
0.0
 40
0.2880001164
 40
0.5553425139
 40
0.7905343079
 40
1.0
 40
1.0
 40
1.0
 40
1.0
 10
543.9899826848
 20
86.2870504893
 30
0.0
 10
544.0737088715
 20
86.2870504893
 30
0.0
 10
544.2361752019
 20
86.3089355013
 30
0.0
 10
544.4488897147
 20
86.4051305264
 30
0.0
 10
544.6003379132
 20
86.5548986263
 30
0.0
 10
544.6398714903
 20
86.6857042153
 30
0.0
 10
544.6398714903
 20
86.7465992034
 30
0.0
  0
SPLINE
  5
45D
100
AcDbEntity
  8
0
100
AcDbSpline
 62
7
  6
CONTINUOUS
 70
0
 71
3
 72
9
 73
5
 74
0
 42
0.0000001
 43
0.0000001
 44
0.0000000001
 40
0.0
 40
0.0
 40
0.0
 40
0.0
 40
0.2457811574
 40
1.0
 40
1.0
 40
1.0
 40
1.0
 10
552.9611190874
 20
87.5710150165
 30
0.0
 10
552.9497092676
 20
87.5745325239
 30
0.0
 10
552.9027297825
 20
87.5869921024
 30
0.0
 10
552.8538830758
 20
87.59222822
 30
0.0
 10
552.8172441417
 20
87.59222822
 30
0.0
  0
SPLINE
  5
45E
100
AcDbEntity
  8
0
100
AcDbSpline
 62
7
  6
CONTINUOUS
 70
0
 71
3
 72
11
 73
7
 74
0
 42
0.0000001
 43
0.0000001
 44
0.0000000001
 40
0.0
 40
0.0
 40
0.0
 40
0.0
 40
0.2779817175
 40
0.5346952233
 40
0.772857858
 40
1.0
 40
1.0
 40
1.0
 40
1.0
 10
552.9393054717
 20
84.7334597861
 30
0.0
 10
553.0654884214
 20
84.8017879414
 30
0.0
 10
553.2966761826
 20
84.9569200003
 30
0.0
 10
553.5714069448
 20
85.2517871171
 30
0.0
 10
553.7456738693
 20
85.5870440482
 30
0.0
 10
553.7860213582
 20
85.8288320086
 30
0.0
 10
553.7860213582
 20
85.9460836334
 30
0.0
  0
SPLINE
  5
45F
100
AcDbEntity
  8
0
100
AcDbSpline
 62
7
  6
CONTINUOUS
 70
0
 71
3
 72
9
 73
5
 74
0
 42
0.0000001
 43
0.0000001
 44
0.0000000001
 40
0.0
 40
0.0
 40
0.0
 40
0.0
 40
0.2591205677
 40
1.0
 40
1.0
 40
1.0
 40
1.0
 10
552.8298660284
 20
84.7072325527
 30
0.0
 10
552.8396398759
 20
84.7072325527
 30
0.0
 10
552.8772920285
 20
84.7093897147
 30
0.0
 10
552.9147315483
 20
84.7201529895
 30
0.0
 10
552.9393054717
 20
84.7334597861
 30
0.0
  0
SPLINE
  5
460
100
AcDbEntity
  8
RUNDUNGEN
100
AcDbSpline
 62
7
  6
CONTINUOUS
 70
0
 71
3
 72
11
 73
7
 74
0
 42
0.0000001
 43
0.0000001
 44
0.0000000001
 40
0.0
 40
0.0
 40
0.0
 40
0.0
 40
0.2880068215
 40
0.5553366529
 40
0.7905059061
 40
1.0
 40
1.0
 40
1.0
 40
1.0
 10
529.518862545
 20
54.5844836742
 30
0.0
 10
529.5575122772
 20
54.5844836742
 30
0.0
 10
529.6325104368
 20
54.5945798834
 30
0.0
 10
529.7306871718
 20
54.6390019076
 30
0.0
 10
529.8006110513
 20
54.7081178027
 30
0.0
 10
529.818862545
 20
54.7685021709
 30
0.0
 10
529.818862545
 20
54.7966157086
 30
0.0
  0
SPLINE
  5
461
100
AcDbEntity
  8
RUNDUNGEN
100
AcDbSpline
 62
7
  6
CONTINUOUS
 70
0
 71
3
 72
13
 73
9
 74
0
 42
0.0000001
 43
0.0000001
 44
0.0000000001
 40
0.0
 40
0.0
 40
0.0
 40
0.0
 40
0.1034546555
 40
0.2106690395
 40
0.3244963599
 40
0.4464318111
 40
0.7129511617
 40
1.0
 40
1.0
 40
1.0
 40
1.0
 10
525.318862545
 20
56.7058040178
 30
0.0
 10
525.318862545
 20
56.5665243639
 30
0.0
 10
525.3592819732
 20
56.2814567614
 30
0.0
 10
525.5361550794
 20
55.8769557527
 30
0.0
 10
525.8198780332
 20
55.507524336
 30
0.0
 10
526.3384647735
 20
55.0671148153
 30
0.0
 10
527.183349108
 20
54.6851100963
 30
0.0
 10
527.9324124364
 20
54.5844836742
 30
0.0
 10
528.318862545
 20
54.5844836742
 30
0.0
  0
SPLINE
  5
462
100
AcDbEntity
  8
RUNDUNGEN
100
AcDbSpline
 62
7
  6
CONTINUOUS
 70
0
 71
3
 72
10
 73
6
 74
0
 42
0.0000001
 43
0.0000001
 44
0.0000000001
 40
0.0
 40
0.0
 40
0.0
 40
0.0
 40
0.4808964563
 40
0.7459158441
 40
1.0
 40
1.0
 40
1.0
 40
1.0
 10
522.0584237008
 20
90.6493806043
 30
0.0
 10
522.207863328
 20
90.4984685274
 30
0.0
 10
522.5448014051
 20
90.3689151724
 30
0.0
 10
522.9869411729
 20
90.3766935341
 30
0.0
 10
523.2113167752
 20
90.44330656
 30
0.0
 10
523.3118793333
 20
90.4930972444
 30
0.0
  0
SPLINE
  5
463
100
AcDbEntity
  8
RUNDUNGEN
100
AcDbSpline
 62
7
  6
CONTINUOUS
 70
0
 71
3
 72
9
 73
5
 74
0
 42
0.0000001
 43
0.0000001
 44
0.0000000001
 40
0.0
 40
0.0
 40
0.0
 40
0.0
 40
0.5194815986
 40
1.0
 40
1.0
 40
1.0
 40
1.0
 10
572.0751106401
 20
93.3717520414
 30
0.0
 10
572.1303345542
 20
93.4275200845
 30
0.0
 10
572.221508984
 20
93.552631647
 30
0.0
 10
572.2559982447
 20
93.7051415448
 30
0.0
 10
572.2559505421
 20
93.7777390157
 30
0.0
  0
SPLINE
  5
464
100
AcDbEntity
  8
RUNDUNGEN
100
AcDbSpline
 62
7
  6
CONTINUOUS
 70
0
 71
3
 72
13
 73
9
 74
0
 42
0.0000001
 43
0.0000001
 44
0.0000000001
 40
0.0
 40
0.0
 40
0.0
 40
0.0
 40
0.2870490624
 40
0.5535683755
 40
0.6755038246
 40
0.7893311355
 40
0.8965454157
 40
1.0
 40
1.0
 40
1.0
 40
1.0
 10
563.118862545
 20
54.5844836742
 30
0.0
 10
563.5053129552
 20
54.5844836742
 30
0.0
 10
564.2543765525
 20
54.6851101921
 30
0.0
 10
565.0992610109
 20
55.0671152442
 30
0.0
 10
565.6178475835
 20
55.507524868
 30
0.0
 10
565.9015702824
 20
55.8769562822
 30
0.0
 10
566.0784432023
 20
56.28145709
 30
0.0
 10
566.118862545
 20
56.5665244597
 30
0.0
 10
566.118862545
 20
56.7058040178
 30
0.0
  0
SPLINE
  5
465
100
AcDbEntity
  8
RUNDUNGEN
100
AcDbSpline
 62
7
  6
CONTINUOUS
 70
0
 71
3
 72
11
 73
7
 74
0
 42
0.0000001
 43
0.0000001
 44
0.0000000001
 40
0.0
 40
0.0
 40
0.0
 40
0.0
 40
0.2094942263
 40
0.444667264
 40
0.7119932261
 40
1.0
 40
1.0
 40
1.0
 40
1.0
 10
561.618862545
 20
54.7966157086
 30
0.0
 10
561.618862545
 20
54.7685021555
 30
0.0
 10
561.6371143893
 20
54.7081173236
 30
0.0
 10
561.7070384544
 20
54.6390015655
 30
0.0
 10
561.8052151684
 20
54.5945796764
 30
0.0
 10
561.8802128224
 20
54.5844836742
 30
0.0
 10
561.918862545
 20
54.5844836742
 30
0.0
  0
SPLINE
  5
466
100
AcDbEntity
  8
RUNDUNGEN
100
AcDbSpline
 62
7
  6
CONTINUOUS
 70
0
 71
3
 72
10
 73
6
 74
0
 42
0.0000001
 43
0.0000001
 44
0.0000000001
 40
0.0
 40
0.0
 40
0.0
 40
0.0
 40
0.47201694
 40
0.7322443513
 40
1.0
 40
1.0
 40
1.0
 40
1.0
 10
551.8341860674
 20
60.5802334793
 30
0.0
 10
552.1300949956
 20
60.281408919
 30
0.0
 10
552.7180829729
 20
59.9409333607
 30
0.0
 10
553.581078618
 20
59.7155275908
 30
0.0
 10
554.0530843728
 20
59.6756524987
 30
0.0
 10
554.2916422003
 20
59.6756524987
 30
0.0
  0
SPLINE
  5
467
100
AcDbEntity
  8
RUNDUNGEN
100
AcDbSpline
 62
7
  6
CONTINUOUS
 70
0
 71
3
 72
10
 73
6
 74
0
 42
0.0000001
 43
0.0000001
 44
0.0000000001
 40
0.0
 40
0.0
 40
0.0
 40
0.0
 40
0.2677558652
 40
0.5279833681
 40
1.0
 40
1.0
 40
1.0
 40
1.0
 10
537.1460828897
 20
59.6756524987
 30
0.0
 10
537.3846409114
 20
59.6756524987
 30
0.0
 10
537.8566469464
 20
59.7155276406
 30
0.0
 10
538.7196425608
 20
59.9409335776
 30
0.0
 10
539.307630286
 20
60.2814091125
 30
0.0
 10
539.6035390226
 20
60.5802334793
 30
0.0
  0
SPLINE
  5
468
100
AcDbEntity
  8
RUNDUNGEN
100
AcDbSpline
 62
7
  6
CONTINUOUS
 70
0
 71
3
 72
13
 73
9
 74
0
 42
0.0000001
 43
0.0000001
 44
0.0000000001
 40
0.0
 40
0.0
 40
0.0
 40
0.0
 40
0.1034546555
 40
0.2106690395
 40
0.3244963599
 40
0.4464318111
 40
0.7129511617
 40
1.0
 40
1.0
 40
1.0
 40
1.0
 10
529.818862545
 20
57.5543321552
 30
0.0
 10
529.818862545
 20
57.693611809
 30
0.0
 10
529.8592819732
 20
57.9786794115
 30
0.0
 10
530.0361550794
 20
58.3831804202
 30
0.0
 10
530.3198780332
 20
58.7526118369
 30
0.0
 10
530.8384647735
 20
59.1930213576
 30
0.0
 10
531.683349108
 20
59.5750260767
 30
0.0
 10
532.4324124364
 20
59.6756524987
 30
0.0
 10
532.818862545
 20
59.6756524987
 30
0.0
  0
SPLINE
  5
469
100
AcDbEntity
  8
RUNDUNGEN
100
AcDbSpline
 62
7
  6
CONTINUOUS
 70
0
 71
3
 72
13
 73
9
 74
0
 42
0.0000001
 43
0.0000001
 44
0.0000000001
 40
0.0
 40
0.0
 40
0.0
 40
0.0
 40
0.2870490624
 40
0.5535683755
 40
0.6755038246
 40
0.7893311355
 40
0.8965454157
 40
1.0
 40
1.0
 40
1.0
 40
1.0
 10
558.618862545
 20
59.6756524987
 30
0.0
 10
559.0053129552
 20
59.6756524987
 30
0.0
 10
559.7543765525
 20
59.5750259808
 30
0.0
 10
560.5992610109
 20
59.1930209287
 30
0.0
 10
561.1178475835
 20
58.7526113049
 30
0.0
 10
561.4015702824
 20
58.3831798907
 30
0.0
 10
561.5784432023
 20
57.9786790829
 30
0.0
 10
561.618862545
 20
57.6936117132
 30
0.0
 10
561.618862545
 20
57.5543321552
 30
0.0
  0
SPLINE
  5
46A
100
AcDbEntity
  8
RUNDUNGEN
100
AcDbSpline
 62
7
  6
CONTINUOUS
 70
0
 71
3
 72
13
 73
9
 74
0
 42
0.0000001
 43
0.0000001
 44
0.0000000001
 40
0.0
 40
0.0
 40
0.0
 40
0.0
 40
0.2360077172
 40
0.3661261163
 40
0.500000078
 40
0.6338740716
 40
0.7639924399
 40
1.0
 40
1.0
 40
1.0
 40
1.0
 10
542.7699151856
 20
63.7778083902
 30
0.0
 10
543.1250047559
 20
64.1363967078
 30
0.0
 10
543.8304609304
 20
64.544982826
 30
0.0
 10
544.8664433665
 20
64.8154449451
 30
0.0
 10
545.7188631303
 20
64.8875763589
 30
0.0
 10
546.5712828132
 20
64.8154447673
 30
0.0
 10
547.6072648731
 20
64.5449825045
 30
0.0
 10
548.3127205705
 20
64.1363964691
 30
0.0
 10
548.6678099045
 20
63.7778083902
 30
0.0
  0
SPLINE
  5
46B
100
AcDbEntity
  8
RUNDUNGEN
100
AcDbSpline
 62
7
  6
CONTINUOUS
 70
0
 71
3
 72
9
 73
5
 74
0
 42
0.0000001
 43
0.0000001
 44
0.0000000001
 40
0.0
 40
0.0
 40
0.0
 40
0.0
 40
0.5134149467
 40
1.0
 40
1.0
 40
1.0
 40
1.0
 10
534.7796121122
 20
74.037946269
 30
0.0
 10
535.0544715134
 20
74.3155138983
 30
0.0
 10
535.5453027481
 20
74.9030763822
 30
0.0
 10
535.9124089437
 20
75.576665645
 30
0.0
 10
536.0526008647
 20
75.9193115949
 30
0.0
  0
SPLINE
  5
46C
100
AcDbEntity
  8
RUNDUNGEN
100
AcDbSpline
 62
7
  6
CONTINUOUS
 70
0
 71
3
 72
11
 73
7
 74
0
 42
0.0000001
 43
0.0000001
 44
0.0000000001
 40
0.0
 40
0.0
 40
0.0
 40
0.0
 40
0.2660806488
 40
0.5190943636
 40
0.7622194616
 40
1.0
 40
1.0
 40
1.0
 40
1.0
 10
534.7796121122
 20
77.8028485411
 30
0.0
 10
535.0351843867
 20
77.5447580772
 30
0.0
 10
535.4951984035
 20
77.0004891175
 30
0.0
 10
536.015966177
 20
76.0926222851
 30
0.0
 10
536.3352379576
 20
75.135783625
 30
0.0
 10
536.4072437251
 20
74.4772173137
 30
0.0
 10
536.4072437136
 20
74.1526301815
 30
0.0
  0
SPLINE
  5
46D
100
AcDbEntity
  8
RUNDUNGEN
100
AcDbSpline
 62
7
  6
CONTINUOUS
 70
0
 71
3
 72
11
 73
7
 74
0
 42
0.0000001
 43
0.0000001
 44
0.0000000001
 40
0.0
 40
0.0
 40
0.0
 40
0.0
 40
0.2524507309
 40
0.5157647478
 40
0.7702968692
 40
1.0
 40
1.0
 40
1.0
 40
1.0
 10
525.2778442396
 20
91.4664887348
 30
0.0
 10
525.4454486374
 20
91.5494732754
 30
0.0
 10
525.8181291114
 20
91.6609233686
 30
0.0
 10
526.3953241456
 20
91.6689982469
 30
0.0
 10
526.937732574
 20
91.5266040044
 30
0.0
 10
527.2471991913
 20
91.3269340306
 30
0.0
 10
527.3669369606
 20
91.2060164683
 30
0.0
  0
SPLINE
  5
46E
100
AcDbEntity
  8
RUNDUNGEN
100
AcDbSpline
 62
7
  6
CONTINUOUS
 70
0
 71
3
 72
9
 73
5
 74
0
 42
0.0000001
 43
0.0000001
 44
0.0000000001
 40
0.0
 40
0.0
 40
0.0
 40
0.0
 40
0.5194825986
 40
1.0
 40
1.0
 40
1.0
 40
1.0
 10
529.0876662696
 20
89.4683325723
 30
0.0
 10
529.1705018926
 20
89.3846807584
 30
0.0
 10
529.3072628086
 20
89.1970143907
 30
0.0
 10
529.3589973306
 20
88.9682509915
 30
0.0
 10
529.3589262302
 20
88.8593555472
 30
0.0
  0
SPLINE
  5
46F
100
AcDbEntity
  8
RUNDUNGEN
100
AcDbSpline
 62
7
  6
CONTINUOUS
 70
0
 71
3
 72
11
 73
7
 74
0
 42
0.0000001
 43
0.0000001
 44
0.0000000001
 40
0.0
 40
0.0
 40
0.0
 40
0.0
 40
0.2524375529
 40
0.5157480446
 40
0.7702932073
 40
1.0
 40
1.0
 40
1.0
 40
1.0
 10
557.0246908043
 20
94.6530042604
 30
0.0
 10
557.3598822503
 20
94.4870437694
 30
0.0
 10
558.1052157249
 20
94.264147935
 30
0.0
 10
559.2596015357
 20
94.2479626794
 30
0.0
 10
560.3444379859
 20
94.532763623
 30
0.0
 10
560.963396784
 20
94.9321097064
 30
0.0
 10
561.2028762463
 20
95.1739487934
 30
0.0
  0
SPLINE
  5
470
100
AcDbEntity
  8
RUNDUNGEN
100
AcDbSpline
 62
7
  6
CONTINUOUS
 70
0
 71
3
 72
11
 73
7
 74
0
 42
0.0000001
 43
0.0000001
 44
0.0000000001
 40
0.0
 40
0.0
 40
0.0
 40
0.0
 40
0.2297109937
 40
0.4842558728
 40
0.7475644511
 40
1.0
 40
1.0
 40
1.0
 40
1.0
 10
533.9210330431
 20
96.9990578379
 30
0.0
 10
534.1605168846
 20
96.7572143286
 30
0.0
 10
534.7794825421
 20
96.3578667162
 30
0.0
 10
535.8643230676
 20
96.0730704529
 30
0.0
 10
537.0187023301
 20
96.0892591845
 30
0.0
 10
537.7640297007
 20
96.3121541317
 30
0.0
 10
538.099218485
 20
96.4781133049
 30
0.0
  0
SPLINE
  5
471
100
AcDbEntity
  8
0
100
AcDbSpline
 62
7
  6
CONTINUOUS
 70
0
 71
3
 72
9
 73
5
 74
0
 42
0.0000001
 43
0.0000001
 44
0.0000000001
 40
0.0
 40
0.0
 40
0.0
 40
0.0
 40
0.4402133985
 40
1.0
 40
1.0
 40
1.0
 40
1.0
 10
538.4065019039
 20
85.24604792
 30
0.0
 10
538.4065019039
 20
85.2321403917
 30
0.0
 10
538.4279205775
 20
85.201855099
 30
0.0
 10
538.4608167357
 20
85.1951362318
 30
0.0
 10
538.4785019039
 20
85.1951362318
 30
0.0
  0
SPLINE
  5
472
100
AcDbEntity
  8
0
100
AcDbSpline
 62
7
  6
CONTINUOUS
 70
0
 71
3
 72
17
 73
13
 74
0
 42
0.0000001
 43
0.0000001
 44
0.0000000001
 40
0.0
 40
0.0
 40
0.0
 40
0.0
 40
0.0519082659
 40
0.1062678596
 40
0.2250851405
 40
0.3581749994
 40
0.5
 40
0.6418250006
 40
0.7749148595
 40
0.8937321404
 40
0.9480917341
 40
1.0
 40
1.0
 40
1.0
 40
1.0
 10
546.0666528654
 20
85.5639029071
 30
0.0
 10
546.0793494057
 20
85.4905218232
 30
0.0
 10
546.1249269046
 20
85.3431000166
 30
0.0
 10
546.2915358732
 20
85.0635864876
 30
0.0
 10
546.6331707252
 20
84.7693785435
 30
0.0
 10
547.1625018505
 20
84.552346778
 30
0.0
 10
547.7622232929
 20
84.4770116189
 30
0.0
 10
548.3619447353
 20
84.552346778
 30
0.0
 10
548.8912758607
 20
84.7693785435
 30
0.0
 10
549.2329107126
 20
85.0635864876
 30
0.0
 10
549.3995196813
 20
85.3431000166
 30
0.0
 10
549.4450971801
 20
85.4905218232
 30
0.0
 10
549.4577937204
 20
85.5639029071
 30
0.0
  0
SPLINE
  5
473
100
AcDbEntity
  8
RUNDUNGEN
100
AcDbSpline
 62
7
  6
CONTINUOUS
 70
0
 71
3
 72
11
 73
7
 74
0
 42
0.0000001
 43
0.0000001
 44
0.0000000001
 40
0.0
 40
0.0
 40
0.0
 40
0.0
 40
0.2256927635
 40
0.4632951072
 40
0.7206222905
 40
1.0
 40
1.0
 40
1.0
 40
1.0
 10
529.3589262302
 20
88.8593555472
 30
0.0
 10
529.3588705988
 20
88.7741518821
 30
0.0
 10
529.3278842552
 20
88.5980226811
 30
0.0
 10
529.1952181179
 20
88.355918512
 30
0.0
 10
528.987449082
 20
88.1458719292
 30
0.0
 10
528.8138225874
 20
88.037919693
 30
0.0
 10
528.7193028577
 20
87.9911209428
 30
0.0
  0
SPLINE
  5
474
100
AcDbEntity
  8
0
100
AcDbSpline
 62
7
  6
CONTINUOUS
 70
0
 71
3
 72
9
 73
5
 74
0
 42
0.0000001
 43
0.0000001
 44
0.0000000001
 40
0.0
 40
0.0
 40
0.0
 40
0.0
 40
0.4402133985
 40
1.0
 40
1.0
 40
1.0
 40
1.0
 10
538.9015019039
 20
86.3321639359
 30
0.0
 10
538.9015019039
 20
86.3460714642
 30
0.0
 10
538.8800832303
 20
86.3763567569
 30
0.0
 10
538.8471870721
 20
86.3830756242
 30
0.0
 10
538.8295019039
 20
86.3830756242
 30
0.0
  0
SPLINE
  5
475
100
AcDbEntity
  8
0
100
AcDbSpline
 62
7
  6
CONTINUOUS
 70
0
 71
3
 72
11
 73
7
 74
0
 42
0.0000001
 43
0.0000001
 44
0.0000000001
 40
0.0
 40
0.0
 40
0.0
 40
0.0
 40
0.2094656921
 40
0.4446574861
 40
0.7119998836
 40
1.0
 40
1.0
 40
1.0
 40
1.0
 10
544.6398714903
 20
86.7465992034
 30
0.0
 10
544.6398714903
 20
86.8074941914
 30
0.0
 10
544.6003379132
 20
86.9382997805
 30
0.0
 10
544.4488897147
 20
87.0880678804
 30
0.0
 10
544.2361752019
 20
87.1842629055
 30
0.0
 10
544.0737088715
 20
87.2061479175
 30
0.0
 10
543.9899826848
 20
87.2061479175
 30
0.0
  0
SPLINE
  5
476
100
AcDbEntity
  8
0
100
AcDbSpline
 62
7
  6
CONTINUOUS
 70
0
 71
3
 72
9
 73
5
 74
0
 42
0.0000001
 43
0.0000001
 44
0.0000000001
 40
0.0
 40
0.0
 40
0.0
 40
0.0
 40
0.4402133985
 40
1.0
 40
1.0
 40
1.0
 40
1.0
 10
538.4065019039
 20
86.3067080918
 30
0.0
 10
538.4065019039
 20
86.2928005635
 30
0.0
 10
538.4279205775
 20
86.2625152708
 30
0.0
 10
538.4608167357
 20
86.2557964035
 30
0.0
 10
538.4785019039
 20
86.2557964035
 30
0.0
  0
SPLINE
  5
477
100
AcDbEntity
  8
0
100
AcDbSpline
 62
7
  6
CONTINUOUS
 70
0
 71
3
 72
11
 73
7
 74
0
 42
0.0000001
 43
0.0000001
 44
0.0000000001
 40
0.0
 40
0.0
 40
0.0
 40
0.0
 40
0.2094929298
 40
0.4446655277
 40
0.7119947494
 40
1.0
 40
1.0
 40
1.0
 40
1.0
 10
536.9665019039
 20
84.5375269253
 30
0.0
 10
536.9665019039
 20
84.503790872
 30
0.0
 10
536.9884035391
 20
84.4313291788
 30
0.0
 10
537.0723130474
 20
84.3483904921
 30
0.0
 10
537.1901249329
 20
84.2950834737
 30
0.0
 10
537.2801224843
 20
84.282968484
 30
0.0
 10
537.3265019039
 20
84.282968484
 30
0.0
  0
SPLINE
  5
478
100
AcDbEntity
  8
0
100
AcDbSpline
 62
7
  6
CONTINUOUS
 70
0
 71
3
 72
11
 73
7
 74
0
 42
0.0000001
 43
0.0000001
 44
0.0000000001
 40
0.0
 40
0.0
 40
0.0
 40
0.0
 40
0.2880052506
 40
0.5553344723
 40
0.7905070702
 40
1.0
 40
1.0
 40
1.0
 40
1.0
 10
540.2065019039
 20
84.282968484
 30
0.0
 10
540.2528813234
 20
84.282968484
 30
0.0
 10
540.3428788748
 20
84.2950834737
 30
0.0
 10
540.4606907603
 20
84.3483904921
 30
0.0
 10
540.5446002686
 20
84.4313291788
 30
0.0
 10
540.5665019039
 20
84.503790872
 30
0.0
 10
540.5665019039
 20
84.5375269253
 30
0.0
  0
SPLINE
  5
479
100
AcDbEntity
  8
0
100
AcDbSpline
 62
7
  6
CONTINUOUS
 70
0
 71
3
 72
11
 73
7
 74
0
 42
0.0000001
 43
0.0000001
 44
0.0000000001
 40
0.0
 40
0.0
 40
0.0
 40
0.0
 40
0.2094668498
 40
0.4446559298
 40
0.7120302568
 40
1.0
 40
1.0
 40
1.0
 40
1.0
 10
539.3965019039
 20
85.6830399108
 30
0.0
 10
539.3965019039
 20
85.6999059556
 30
0.0
 10
539.3855486261
 20
85.7361333237
 30
0.0
 10
539.3436046337
 20
85.7776192315
 30
0.0
 10
539.2846861396
 20
85.8042570128
 30
0.0
 10
539.239688917
 20
85.8103191314
 30
0.0
 10
539.2165019039
 20
85.8103191314
 30
0.0
  0
SPLINE
  5
47A
100
AcDbEntity
  8
0
100
AcDbSpline
 62
7
  6
CONTINUOUS
 70
0
 71
3
 72
9
 73
5
 74
0
 42
0.0000001
 43
0.0000001
 44
0.0000000001
 40
0.0
 40
0.0
 40
0.0
 40
0.0
 40
0.2445376398
 40
1.0
 40
1.0
 40
1.0
 40
1.0
 10
536.9665019039
 20
84.7496589596
 30
0.0
 10
536.9665019039
 20
84.7413545259
 30
0.0
 10
536.9688871079
 20
84.7074060612
 30
0.0
 10
536.980952543
 20
84.6743891203
 30
0.0
 10
536.9939052722
 20
84.6522436616
 30
0.0
  0
SPLINE
  5
47B
100
AcDbEntity
  8
0
100
AcDbSpline
 62
7
  6
CONTINUOUS
 70
0
 71
3
 72
9
 73
5
 74
0
 42
0.0000001
 43
0.0000001
 44
0.0000000001
 40
0.0
 40
0.0
 40
0.0
 40
0.0
 40
0.461013727
 40
1.0
 40
1.0
 40
1.0
 40
1.0
 10
536.9939052722
 20
84.6522436616
 30
0.0
 10
537.0233541643
 20
84.6018944867
 30
0.0
 10
537.1303691602
 20
84.5190403609
 30
0.0
 10
537.2583075121
 20
84.4951005184
 30
0.0
 10
537.3265019039
 20
84.4951005184
 30
0.0
  0
SPLINE
  5
47C
100
AcDbEntity
  8
0
100
AcDbSpline
 62
7
  6
CONTINUOUS
 70
0
 71
3
 72
11
 73
7
 74
0
 42
0.0000001
 43
0.0000001
 44
0.0000000001
 40
0.0
 40
0.0
 40
0.0
 40
0.0
 40
0.2879697432
 40
0.5553440702
 40
0.7905331502
 40
1.0
 40
1.0
 40
1.0
 40
1.0
 10
538.3165019039
 20
85.8103191314
 30
0.0
 10
538.2933148907
 20
85.8103191314
 30
0.0
 10
538.2483176681
 20
85.8042570128
 30
0.0
 10
538.189399174
 20
85.7776192315
 30
0.0
 10
538.1474551817
 20
85.7361333237
 30
0.0
 10
538.1365019039
 20
85.6999059556
 30
0.0
 10
538.1365019039
 20
85.6830399108
 30
0.0
  0
SPLINE
  5
47D
100
AcDbEntity
  8
0
100
AcDbSpline
 62
7
  6
CONTINUOUS
 70
0
 71
3
 72
11
 73
7
 74
0
 42
0.0000001
 43
0.0000001
 44
0.0000000001
 40
0.0
 40
0.0
 40
0.0
 40
0.0
 40
0.2879697432
 40
0.5553440702
 40
0.7905331502
 40
1.0
 40
1.0
 40
1.0
 40
1.0
 10
538.3165019039
 20
87.0831113375
 30
0.0
 10
538.2933148907
 20
87.0831113375
 30
0.0
 10
538.2483176681
 20
87.077049219
 30
0.0
 10
538.189399174
 20
87.0504114376
 30
0.0
 10
538.1474551817
 20
87.0089255298
 30
0.0
 10
538.1365019039
 20
86.9726981618
 30
0.0
 10
538.1365019039
 20
86.9558321169
 30
0.0
  0
SPLINE
  5
47E
100
AcDbEntity
  8
0
100
AcDbSpline
 62
7
  6
CONTINUOUS
 70
0
 71
3
 72
9
 73
5
 74
0
 42
0.0000001
 43
0.0000001
 44
0.0000000001
 40
0.0
 40
0.0
 40
0.0
 40
0.0
 40
0.5597866015
 40
1.0
 40
1.0
 40
1.0
 40
1.0
 10
538.7035019039
 20
86.3830756242
 30
0.0
 10
538.6858167357
 20
86.3830756242
 30
0.0
 10
538.6529205775
 20
86.3763567569
 30
0.0
 10
538.6315019039
 20
86.3460714642
 30
0.0
 10
538.6315019039
 20
86.3321639359
 30
0.0
  0
SPLINE
  5
47F
100
AcDbEntity
  8
0
100
AcDbSpline
 62
7
  6
CONTINUOUS
 70
0
 71
3
 72
9
 73
5
 74
0
 42
0.0000001
 43
0.0000001
 44
0.0000000001
 40
0.0
 40
0.0
 40
0.0
 40
0.0
 40
0.5597866015
 40
1.0
 40
1.0
 40
1.0
 40
1.0
 10
539.0545019039
 20
86.2557964035
 30
0.0
 10
539.0721870721
 20
86.2557964035
 30
0.0
 10
539.1050832303
 20
86.2625152708
 30
0.0
 10
539.1265019039
 20
86.2928005635
 30
0.0
 10
539.1265019039
 20
86.3067080918
 30
0.0
  0
SPLINE
  5
480
100
AcDbEntity
  8
0
100
AcDbSpline
 62
7
  6
CONTINUOUS
 70
0
 71
3
 72
9
 73
5
 74
0
 42
0.0000001
 43
0.0000001
 44
0.0000000001
 40
0.0
 40
0.0
 40
0.0
 40
0.0
 40
0.5597866015
 40
1.0
 40
1.0
 40
1.0
 40
1.0
 10
539.0545019039
 20
84.9830041974
 30
0.0
 10
539.0721870721
 20
84.9830041974
 30
0.0
 10
539.1050832303
 20
84.9897230647
 30
0.0
 10
539.1265019039
 20
85.0200083574
 30
0.0
 10
539.1265019039
 20
85.0339158857
 30
0.0
  0
SPLINE
  5
481
100
AcDbEntity
  8
RUNDUNGEN
100
AcDbSpline
 62
7
  6
CONTINUOUS
 70
0
 71
3
 72
11
 73
7
 74
0
 42
0.0000001
 43
0.0000001
 44
0.0000000001
 40
0.0
 40
0.0
 40
0.0
 40
0.0
 40
0.237780559
 40
0.4809056754
 40
0.7339193747
 40
1.0
 40
1.0
 40
1.0
 40
1.0
 10
536.4072437136
 20
74.1526301815
 30
0.0
 10
536.4072437021
 20
73.8280430637
 30
0.0
 10
536.3352378428
 20
73.1694767935
 30
0.0
 10
536.0159659994
 20
72.2126382656
 30
0.0
 10
535.4951982681
 20
71.3047716025
 30
0.0
 10
535.0351843306
 20
70.7605027703
 30
0.0
 10
534.7796121122
 20
70.502412363
 30
0.0
  0
SPLINE
  5
482
100
AcDbEntity
  8
RUNDUNGEN
100
AcDbSpline
 62
7
  6
CONTINUOUS
 70
0
 71
3
 72
10
 73
6
 74
0
 42
0.0000001
 43
0.0000001
 44
0.0000000001
 40
0.0
 40
0.0
 40
0.0
 40
0.0
 40
0.2382827206
 40
0.4819249463
 40
1.0
 40
1.0
 40
1.0
 40
1.0
 10
566.118862545
 20
60.2795949697
 30
0.0
 10
566.118862545
 20
60.3877899824
 30
0.0
 10
566.0947903583
 20
60.6073770597
 30
0.0
 10
565.9505341861
 20
61.0406288529
 30
0.0
 10
565.7418395733
 20
61.3291825368
 30
0.0
 10
565.5763186779
 20
61.4963343327
 30
0.0
  0
SPLINE
  5
483
100
AcDbEntity
  8
RUNDUNGEN
100
AcDbSpline
 62
7
  6
CONTINUOUS
 70
0
 71
3
 72
11
 73
7
 74
0
 42
0.0000001
 43
0.0000001
 44
0.0000000001
 40
0.0
 40
0.0
 40
0.0
 40
0.0
 40
0.2256939479
 40
0.4632958812
 40
0.7206236633
 40
1.0
 40
1.0
 40
1.0
 40
1.0
 10
572.2559505421
 20
93.7777390157
 30
0.0
 10
572.255913218
 20
93.8345415842
 30
0.0
 10
572.2352550381
 20
93.9519607793
 30
0.0
 10
572.1468106231
 20
94.1133630828
 30
0.0
 10
572.00829816
 20
94.2533931076
 30
0.0
 10
571.8925476839
 20
94.3253608759
 30
0.0
 10
571.8295350322
 20
94.3565597944
 30
0.0
  0
SPLINE
  5
484
100
AcDbEntity
  8
0
100
AcDbSpline
 62
7
  6
CONTINUOUS
 70
0
 71
3
 72
11
 73
7
 74
0
 42
0.0000001
 43
0.0000001
 44
0.0000000001
 40
0.0
 40
0.0
 40
0.0
 40
0.0
 40
0.2865059912
 40
0.5484241175
 40
0.7833822346
 40
1.0
 40
1.0
 40
1.0
 40
1.0
 10
544.3632717962
 20
85.9432213014
 30
0.0
 10
544.47798212
 20
85.9698713467
 30
0.0
 10
544.6930417874
 20
86.0457000081
 30
0.0
 10
544.9619989496
 20
86.2306222667
 30
0.0
 10
545.1420679206
 20
86.4702039482
 30
0.0
 10
545.1858935027
 20
86.6577506789
 30
0.0
 10
545.1858801457
 20
86.7467892074
 30
0.0
  0
SPLINE
  5
485
100
AcDbEntity
  8
0
100
AcDbSpline
 62
7
  6
CONTINUOUS
 70
0
 71
3
 72
9
 73
5
 74
0
 42
0.0000001
 43
0.0000001
 44
0.0000000001
 40
0.0
 40
0.0
 40
0.0
 40
0.0
 40
0.4402133985
 40
1.0
 40
1.0
 40
1.0
 40
1.0
 10
538.4065019039
 20
86.5188401261
 30
0.0
 10
538.4065019039
 20
86.5049325978
 30
0.0
 10
538.4279205775
 20
86.4746473052
 30
0.0
 10
538.4608167357
 20
86.4679284379
 30
0.0
 10
538.4785019039
 20
86.4679284379
 30
0.0
  0
SPLINE
  5
486
100
AcDbEntity
  8
0
100
AcDbSpline
 62
7
  6
CONTINUOUS
 70
0
 71
3
 72
9
 73
5
 74
0
 42
0.0000001
 43
0.0000001
 44
0.0000000001
 40
0.0
 40
0.0
 40
0.0
 40
0.0
 40
0.2536121958
 40
1.0
 40
1.0
 40
1.0
 40
1.0
 10
552.8172441417
 20
84.282968484
 30
0.0
 10
552.829563742
 20
84.282968484
 30
0.0
 10
552.878117442
 20
84.2847285075
 30
0.0
 10
552.9264712793
 20
84.2935001935
 30
0.0
 10
552.9611190874
 20
84.3041816875
 30
0.0
  0
SPLINE
  5
487
100
AcDbEntity
  8
0
100
AcDbSpline
 62
7
  6
CONTINUOUS
 70
0
 71
3
 72
11
 73
7
 74
0
 42
0.0000001
 43
0.0000001
 44
0.0000000001
 40
0.0
 40
0.0
 40
0.0
 40
0.0
 40
0.2847819434
 40
0.5451774547
 40
0.7807010719
 40
1.0
 40
1.0
 40
1.0
 40
1.0
 10
552.9611190874
 20
84.3041816875
 30
0.0
 10
553.176276263
 20
84.370512004
 30
0.0
 10
553.5767112394
 20
84.5420823901
 30
0.0
 10
554.0706862982
 20
84.9252179221
 30
0.0
 10
554.3960184808
 20
85.4012464313
 30
0.0
 10
554.4739817453
 20
85.7642198892
 30
0.0
 10
554.4739817453
 20
85.937598352
 30
0.0
  0
SPLINE
  5
488
100
AcDbEntity
  8
0
100
AcDbSpline
 62
7
  6
CONTINUOUS
 70
0
 71
3
 72
9
 73
5
 74
0
 42
0.0000001
 43
0.0000001
 44
0.0000000001
 40
0.0
 40
0.0
 40
0.0
 40
0.0
 40
0.239729366
 40
1.0
 40
1.0
 40
1.0
 40
1.0
 10
552.9393054717
 20
87.1587074807
 30
0.0
 10
552.9313516271
 20
87.1630144931
 30
0.0
 10
552.8968925468
 20
87.1785738393
 30
0.0
 10
552.8585514204
 20
87.184934714
 30
0.0
 10
552.8298660284
 20
87.184934714
 30
0.0
  0
SPLINE
  5
489
100
AcDbEntity
  8
0
100
AcDbSpline
 62
7
  6
CONTINUOUS
 70
0
 71
3
 72
11
 73
7
 74
0
 42
0.0000001
 43
0.0000001
 44
0.0000000001
 40
0.0
 40
0.0
 40
0.0
 40
0.0
 40
0.2094668498
 40
0.4446559298
 40
0.7120302568
 40
1.0
 40
1.0
 40
1.0
 40
1.0
 10
539.3965019039
 20
86.9558321169
 30
0.0
 10
539.3965019039
 20
86.9726981618
 30
0.0
 10
539.3855486261
 20
87.0089255298
 30
0.0
 10
539.3436046337
 20
87.0504114376
 30
0.0
 10
539.2846861396
 20
87.077049219
 30
0.0
 10
539.239688917
 20
87.0831113375
 30
0.0
 10
539.2165019039
 20
87.0831113375
 30
0.0
  0
SPLINE
  5
48A
100
AcDbEntity
  8
RUNDUNGEN
100
AcDbSpline
 62
7
  6
CONTINUOUS
 70
0
 71
3
 72
10
 73
6
 74
0
 42
0.0000001
 43
0.0000001
 44
0.0000000001
 40
0.0
 40
0.0
 40
0.0
 40
0.0
 40
0.5180752096
 40
0.7617173681
 40
1.0
 40
1.0
 40
1.0
 40
1.0
 10
525.8614064122
 20
61.4963343327
 30
0.0
 10
525.6958854672
 20
61.3291824867
 30
0.0
 10
525.4871908431
 20
61.0406287524
 30
0.0
 10
525.3429347093
 20
60.6073769482
 30
0.0
 10
525.318862545
 20
60.3877899419
 30
0.0
 10
525.318862545
 20
60.2795949697
 30
0.0
  0
SPLINE
  5
48B
100
AcDbEntity
  8
RUNDUNGEN
100
AcDbSpline
 62
7
  6
CONTINUOUS
 70
0
 71
3
 72
11
 73
7
 74
0
 42
0.0000001
 43
0.0000001
 44
0.0000000001
 40
0.0
 40
0.0
 40
0.0
 40
0.0
 40
0.2793752682
 40
0.5367194959
 40
0.7743217448
 40
1.0
 40
1.0
 40
1.0
 40
1.0
 10
526.7533379514
 20
87.0177294524
 30
0.0
 10
526.6966236702
 20
86.9896489925
 30
0.0
 10
526.5924401279
 20
86.9248716742
 30
0.0
 10
526.4677715088
 20
86.7988323046
 30
0.0
 10
526.3881766755
 20
86.6535562095
 30
0.0
 10
526.3695920476
 20
86.5478751066
 30
0.0
 10
526.3695631661
 20
86.4967535419
 30
0.0
  0
SPLINE
  5
48C
100
AcDbEntity
  8
RUNDUNGEN
100
AcDbSpline
 62
7
  6
CONTINUOUS
 70
0
 71
3
 72
11
 73
7
 74
0
 42
0.0000001
 43
0.0000001
 44
0.0000000001
 40
0.0
 40
0.0
 40
0.0
 40
0.0
 40
0.2794013718
 40
0.5367226037
 40
0.7743080703
 40
1.0
 40
1.0
 40
1.0
 40
1.0
 10
521.2464941464
 20
95.1677193698
 30
0.0
 10
521.05730679
 20
95.0740486423
 30
0.0
 10
520.7098113176
 20
94.8579551796
 30
0.0
 10
520.2940988645
 20
94.4374396876
 30
0.0
 10
520.0288595287
 20
93.9527343737
 30
0.0
 10
519.9671920119
 20
93.6001777323
 30
0.0
 10
519.9672249111
 20
93.4296521219
 30
0.0
  0
SPLINE
  5
48D
100
AcDbEntity
  8
RUNDUNGEN
100
AcDbSpline
 62
7
  6
CONTINUOUS
 70
0
 71
3
 72
13
 73
9
 74
0
 42
0.0000001
 43
0.0000001
 44
0.0000000001
 40
0.0
 40
0.0
 40
0.0
 40
0.0
 40
0.2294024404
 40
0.354599695
 40
0.4843111925
 40
0.6162488643
 40
0.7479039558
 40
1.0
 40
1.0
 40
1.0
 40
1.0
 10
533.2074740358
 20
94.1841137361
 30
0.0
 10
532.5688512082
 20
94.829029004
 30
0.0
 10
531.3556663292
 20
95.6118418671
 30
0.0
 10
529.5469520706
 20
96.2519353942
 30
0.0
 10
528.0390350713
 20
96.5476387618
 30
0.0
 10
526.4798301504
 20
96.6308569417
 30
0.0
 10
524.4434272162
 20
96.4593450502
 30
0.0
 10
522.9594803847
 20
96.015855683
 30
0.0
 10
522.0656461907
 20
95.5732991574
 30
0.0
  0
SPLINE
  5
48E
100
AcDbEntity
  8
0
100
AcDbSpline
 62
7
  6
CONTINUOUS
 70
0
 71
3
 72
9
 73
5
 74
0
 42
0.0000001
 43
0.0000001
 44
0.0000000001
 40
0.0
 40
0.0
 40
0.0
 40
0.0
 40
0.2432212797
 40
1.0
 40
1.0
 40
1.0
 40
1.0
 10
550.8810504722
 20
94.159318762
 30
0.0
 10
550.676664777
 20
94.2605145137
 30
0.0
 10
549.8217977982
 20
94.6468805383
 30
0.0
 10
548.9157704782
 20
94.9171821725
 30
0.0
 10
548.2205512206
 20
95.0594333093
 30
0.0
  0
SPLINE
  5
48F
100
AcDbEntity
  8
0
100
AcDbSpline
 62
7
  6
CONTINUOUS
 70
0
 71
3
 72
9
 73
5
 74
0
 42
0.0000001
 43
0.0000001
 44
0.0000000001
 40
0.0
 40
0.0
 40
0.0
 40
0.0
 40
0.2565045474
 40
1.0
 40
1.0
 40
1.0
 40
1.0
 10
543.2171738694
 20
95.0594333093
 30
0.0
 10
542.9815468776
 20
95.0112208827
 30
0.0
 10
542.0689443936
 20
94.7957670075
 30
0.0
 10
541.1814218376
 20
94.4686445416
 30
0.0
 10
540.5566746179
 20
94.159318762
 30
0.0
  0
SPLINE
  5
490
100
AcDbEntity
  8
RUNDUNGEN
100
AcDbSpline
 62
7
  6
CONTINUOUS
 70
0
 71
3
 72
10
 73
6
 74
0
 42
0.0000001
 43
0.0000001
 44
0.0000000001
 40
0.0
 40
0.0
 40
0.0
 40
0.0
 40
0.2540840948
 40
0.5191023773
 40
1.0
 40
1.0
 40
1.0
 40
1.0
 10
567.3241987886
 20
96.5872486266
 30
0.0
 10
567.2124626439
 20
96.642571594
 30
0.0
 10
566.963156989
 20
96.7165859119
 30
0.0
 10
566.471890663
 20
96.7252288729
 30
0.0
 10
566.097514735
 20
96.581280935
 30
0.0
 10
565.931470308
 20
96.413600449
 30
0.0
  0
SPLINE
  5
491
100
AcDbEntity
  8
BEZUGSACHSEN
100
AcDbSpline
 62
7
  6
CONTINUOUS
 70
0
 71
3
 72
12
 73
8
 74
0
 42
0.0000001
 43
0.0000001
 44
0.0000000001
 40
0.0
 40
0.0
 40
0.0
 40
0.0
 40
0.1087272052
 40
0.2197523635
 40
0.4548946103
 40
0.7152520767
 40
1.0
 40
1.0
 40
1.0
 40
1.0
 10
541.718862545
 20
90.784744705
 30
0.0
 10
541.718862545
 20
90.6461129377
 30
0.0
 10
541.7484466475
 20
90.3650707499
 30
0.0
 10
541.9259724196
 20
89.8092764242
 30
0.0
 10
542.3755570971
 20
89.1579204506
 30
0.0
 10
543.1775911686
 20
88.54890009
 30
0.0
 10
543.8262446537
 20
88.2787066078
 30
0.0
 10
544.1743837856
 20
88.1756737308
 30
0.0
  0
SPLINE
  5
492
100
AcDbEntity
  8
BEZUGSACHSEN
100
AcDbSpline
 62
7
  6
CONTINUOUS
 70
0
 71
3
 72
12
 73
8
 74
0
 42
0.0000001
 43
0.0000001
 44
0.0000000001
 40
0.0
 40
0.0
 40
0.0
 40
0.0
 40
0.2847479233
 40
0.5451053897
 40
0.7802476365
 40
0.8912727948
 40
1.0
 40
1.0
 40
1.0
 40
1.0
 10
547.2633413044
 20
88.1756737308
 30
0.0
 10
547.6114804363
 20
88.2787066078
 30
0.0
 10
548.2601339214
 20
88.54890009
 30
0.0
 10
549.062167993
 20
89.1579204506
 30
0.0
 10
549.5117526704
 20
89.8092764242
 30
0.0
 10
549.6892784425
 20
90.3650707499
 30
0.0
 10
549.718862545
 20
90.6461129377
 30
0.0
 10
549.718862545
 20
90.784744705
 30
0.0
  0
SPLINE
  5
493
100
AcDbEntity
  8
0
100
AcDbSpline
 62
7
  6
CONTINUOUS
 70
0
 71
3
 72
11
 73
7
 74
0
 42
0.0000001
 43
0.0000001
 44
0.0000000001
 40
0.0
 40
0.0
 40
0.0
 40
0.0
 40
0.227142142
 40
0.4653047767
 40
0.7220182825
 40
1.0
 40
1.0
 40
1.0
 40
1.0
 10
553.7860213582
 20
85.9460836334
 30
0.0
 10
553.7860213582
 20
86.0633352582
 30
0.0
 10
553.7456738693
 20
86.3051232185
 30
0.0
 10
553.5714069448
 20
86.6403801496
 30
0.0
 10
553.2966761826
 20
86.9352472665
 30
0.0
 10
553.0654884214
 20
87.0903793254
 30
0.0
 10
552.9393054717
 20
87.1587074807
 30
0.0
  0
SPLINE
  5
494
100
AcDbEntity
  8
0
100
AcDbSpline
 62
7
  6
CONTINUOUS
 70
0
 71
3
 72
19
 73
15
 74
0
 42
0.0000001
 43
0.0000001
 44
0.0000000001
 40
0.0
 40
0.0
 40
0.0
 40
0.0
 40
0.0517234907
 40
0.1053372095
 40
0.1622487312
 40
0.2232163938
 40
0.3564752704
 40
0.5
 40
0.6435247296
 40
0.7767836062
 40
0.8377512688
 40
0.8946627905
 40
0.9482765093
 40
1.0
 40
1.0
 40
1.0
 40
1.0
 10
546.0539826848
 20
85.4984152121
 30
0.0
 10
546.0539826848
 20
85.4191136565
 30
0.0
 10
546.0770130546
 20
85.2567926173
 30
0.0
 10
546.177701663
 20
85.0264530222
 30
0.0
 10
546.3392925567
 20
84.8161069845
 30
0.0
 10
546.6345283617
 20
84.5653239203
 30
0.0
 10
547.115935565
 20
84.3478115771
 30
0.0
 10
547.7622232929
 20
84.2607915389
 30
0.0
 10
548.4085110209
 20
84.3478115771
 30
0.0
 10
548.8899182242
 20
84.5653239203
 30
0.0
 10
549.1851540291
 20
84.8161069845
 30
0.0
 10
549.3467449229
 20
85.0264530222
 30
0.0
 10
549.4474335313
 20
85.2567926173
 30
0.0
 10
549.4704639011
 20
85.4191136565
 30
0.0
 10
549.4704639011
 20
85.4984152121
 30
0.0
  0
SPLINE
  5
495
100
AcDbEntity
  8
0
100
AcDbSpline
 62
7
  6
CONTINUOUS
 70
0
 71
3
 72
9
 73
5
 74
0
 42
0.0000001
 43
0.0000001
 44
0.0000000001
 40
0.0
 40
0.0
 40
0.0
 40
0.0
 40
0.4402133985
 40
1.0
 40
1.0
 40
1.0
 40
1.0
 10
538.4065019039
 20
85.0339158857
 30
0.0
 10
538.4065019039
 20
85.0200083574
 30
0.0
 10
538.4279205775
 20
84.9897230647
 30
0.0
 10
538.4608167357
 20
84.9830041974
 30
0.0
 10
538.4785019039
 20
84.9830041974
 30
0.0
  0
SPLINE
  5
496
100
AcDbEntity
  8
0
100
AcDbSpline
 62
7
  6
CONTINUOUS
 70
0
 71
3
 72
9
 73
5
 74
0
 42
0.0000001
 43
0.0000001
 44
0.0000000001
 40
0.0
 40
0.0
 40
0.0
 40
0.0
 40
0.2536121958
 40
1.0
 40
1.0
 40
1.0
 40
1.0
 10
552.8172441417
 20
84.4951005184
 30
0.0
 10
552.829563742
 20
84.4951005184
 30
0.0
 10
552.878117442
 20
84.4968605419
 30
0.0
 10
552.9264712793
 20
84.5056322278
 30
0.0
 10
552.9611190874
 20
84.5163137218
 30
0.0
  0
SPLINE
  5
497
100
AcDbEntity
  8
0
100
AcDbSpline
 62
7
  6
CONTINUOUS
 70
0
 71
3
 72
11
 73
7
 74
0
 42
0.0000001
 43
0.0000001
 44
0.0000000001
 40
0.0
 40
0.0
 40
0.0
 40
0.0
 40
0.2816347582
 40
0.5420479832
 40
0.7798483853
 40
1.0
 40
1.0
 40
1.0
 40
1.0
 10
552.9611190874
 20
84.5163137218
 30
0.0
 10
553.1554441788
 20
84.5762217625
 30
0.0
 10
553.5198160253
 20
84.7280511896
 30
0.0
 10
553.9823690814
 20
85.0587728427
 30
0.0
 10
554.3137244111
 20
85.4672455129
 30
0.0
 10
554.4307273689
 20
85.7850728082
 30
0.0
 10
554.4567724227
 20
85.9418815918
 30
0.0
  0
SPLINE
  5
498
100
AcDbEntity
  8
0
100
AcDbSpline
 62
7
  6
CONTINUOUS
 70
0
 71
3
 72
9
 73
5
 74
0
 42
0.0000001
 43
0.0000001
 44
0.0000000001
 40
0.0
 40
0.0
 40
0.0
 40
0.0
 40
0.2591205677
 40
1.0
 40
1.0
 40
1.0
 40
1.0
 10
552.8298660284
 20
87.3970667484
 30
0.0
 10
552.8396398759
 20
87.3970667484
 30
0.0
 10
552.8772920285
 20
87.3949095865
 30
0.0
 10
552.9147315483
 20
87.3841463117
 30
0.0
 10
552.9393054717
 20
87.370839515
 30
0.0
  0
SPLINE
  5
499
100
AcDbEntity
  8
0
100
AcDbSpline
 62
7
  6
CONTINUOUS
 70
0
 71
3
 72
11
 73
7
 74
0
 42
0.0000001
 43
0.0000001
 44
0.0000000001
 40
0.0
 40
0.0
 40
0.0
 40
0.0
 40
0.2779697373
 40
0.5346991835
 40
0.7728568778
 40
1.0
 40
1.0
 40
1.0
 40
1.0
 10
552.9393054717
 20
87.370839515
 30
0.0
 10
553.0654834353
 20
87.3025140597
 30
0.0
 10
553.296668429
 20
87.1473754297
 30
0.0
 10
553.5714174424
 20
86.852522292
 30
0.0
 10
553.7456777234
 20
86.5172530787
 30
0.0
 10
553.7860321528
 20
86.2754682186
 30
0.0
 10
553.7860321528
 20
86.1582156677
 30
0.0
  0
SPLINE
  5
49A
100
AcDbEntity
  8
0
100
AcDbSpline
 62
7
  6
CONTINUOUS
 70
0
 71
3
 72
11
 73
7
 74
0
 42
0.0000001
 43
0.0000001
 44
0.0000000001
 40
0.0
 40
0.0
 40
0.0
 40
0.0
 40
0.2782911642
 40
0.539206302
 40
0.7792454761
 40
1.0
 40
1.0
 40
1.0
 40
1.0
 10
544.3632717962
 20
86.1553533358
 30
0.0
 10
544.4545024017
 20
86.1765484618
 30
0.0
 10
544.628143506
 20
86.2335218808
 30
0.0
 10
544.8577003504
 20
86.3644581414
 30
0.0
 10
545.0368528526
 20
86.5321503865
 30
0.0
 10
545.1175405021
 20
86.6679717156
 30
0.0
 10
545.1441515236
 20
86.737338567
 30
0.0
  0
SPLINE
  5
49B
100
AcDbEntity
  8
0
100
AcDbSpline
 62
7
  6
CONTINUOUS
 70
0
 71
3
 72
8
 73
4
 74
0
 42
0.0000001
 43
0.0000001
 44
0.0000000001
 40
0.0
 40
0.0
 40
0.0
 40
0.0
 40
1.0
 40
1.0
 40
1.0
 40
1.0
 10
545.1441515236
 20
86.737338567
 30
0.0
 10
545.1579191403
 20
86.7732265626
 30
0.0
 10
545.1685936677
 20
86.8104842314
 30
0.0
 10
545.1756361357
 20
86.8482717842
 30
0.0
  0
SPLINE
  5
49C
100
AcDbEntity
  8
0
100
AcDbSpline
 62
7
  6
CONTINUOUS
 70
0
 71
3
 72
11
 73
7
 74
0
 42
0.0000001
 43
0.0000001
 44
0.0000000001
 40
0.0
 40
0.0
 40
0.0
 40
0.0
 40
0.2880066977
 40
0.5553334191
 40
0.790532629
 40
1.0
 40
1.0
 40
1.0
 40
1.0
 10
543.9899826848
 20
87.4182799518
 30
0.0
 10
544.0737104659
 20
87.4182799518
 30
0.0
 10
544.2361763705
 20
87.3964034719
 30
0.0
 10
544.4488797295
 20
87.3001856669
 30
0.0
 10
544.6003274367
 20
87.1504302263
 30
0.0
 10
544.6398827088
 20
87.019626482
 30
0.0
 10
544.6398827088
 20
86.9587312377
 30
0.0
  0
SPLINE
  5
49D
100
AcDbEntity
  8
0
100
AcDbSpline
 62
7
  6
CONTINUOUS
 70
0
 71
3
 72
9
 73
5
 74
0
 42
0.0000001
 43
0.0000001
 44
0.0000000001
 40
0.0
 40
0.0
 40
0.0
 40
0.0
 40
0.5597866015
 40
1.0
 40
1.0
 40
1.0
 40
1.0
 10
539.0545019039
 20
85.1951362318
 30
0.0
 10
539.0721870721
 20
85.1951362318
 30
0.0
 10
539.1050832303
 20
85.201855099
 30
0.0
 10
539.1265019039
 20
85.2321403917
 30
0.0
 10
539.1265019039
 20
85.24604792
 30
0.0
  0
SPLINE
  5
49E
100
AcDbEntity
  8
0
100
AcDbSpline
 62
7
  6
CONTINUOUS
 70
0
 71
3
 72
9
 73
5
 74
0
 42
0.0000001
 43
0.0000001
 44
0.0000000001
 40
0.0
 40
0.0
 40
0.0
 40
0.0
 40
0.4402133985
 40
1.0
 40
1.0
 40
1.0
 40
1.0
 10
538.6315019039
 20
86.5442959703
 30
0.0
 10
538.6315019039
 20
86.5582034986
 30
0.0
 10
538.6529205775
 20
86.5884887912
 30
0.0
 10
538.6858167357
 20
86.5952076585
 30
0.0
 10
538.7035019039
 20
86.5952076585
 30
0.0
  0
SPLINE
  5
49F
100
AcDbEntity
  8
0
100
AcDbSpline
 62
7
  6
CONTINUOUS
 70
0
 71
3
 72
9
 73
5
 74
0
 42
0.0000001
 43
0.0000001
 44
0.0000000001
 40
0.0
 40
0.0
 40
0.0
 40
0.0
 40
0.5597866015
 40
1.0
 40
1.0
 40
1.0
 40
1.0
 10
538.8295019039
 20
86.5952076585
 30
0.0
 10
538.8471870721
 20
86.5952076585
 30
0.0
 10
538.8800832303
 20
86.5884887912
 30
0.0
 10
538.9015019039
 20
86.5582034986
 30
0.0
 10
538.9015019039
 20
86.5442959703
 30
0.0
  0
SPLINE
  5
4A0
100
AcDbEntity
  8
0
100
AcDbSpline
 62
7
  6
CONTINUOUS
 70
0
 71
3
 72
9
 73
5
 74
0
 42
0.0000001
 43
0.0000001
 44
0.0000000001
 40
0.0
 40
0.0
 40
0.0
 40
0.0
 40
0.5597866015
 40
1.0
 40
1.0
 40
1.0
 40
1.0
 10
539.0545019039
 20
86.4679284379
 30
0.0
 10
539.0721870721
 20
86.4679284379
 30
0.0
 10
539.1050832303
 20
86.4746473052
 30
0.0
 10
539.1265019039
 20
86.5049325978
 30
0.0
 10
539.1265019039
 20
86.5188401261
 30
0.0
  0
SPLINE
  5
4A1
100
AcDbEntity
  8
0
100
AcDbSpline
 62
7
  6
CONTINUOUS
 70
0
 71
3
 72
11
 73
7
 74
0
 42
0.0000001
 43
0.0000001
 44
0.0000000001
 40
0.0
 40
0.0
 40
0.0
 40
0.0
 40
0.2876567391
 40
0.555407049
 40
0.7907201247
 40
1.0
 40
1.0
 40
1.0
 40
1.0
 10
539.2165019039
 20
87.2952433719
 30
0.0
 10
539.239660359
 20
87.2952433719
 30
0.0
 10
539.2846226857
 20
87.2890893339
 30
0.0
 10
539.3436512484
 20
87.2626213755
 30
0.0
 10
539.3854556108
 20
87.2209823631
 30
0.0
 10
539.3965019039
 20
87.1848127
 30
0.0
 10
539.3965019039
 20
87.1679641513
 30
0.0
  0
SPLINE
  5
4A2
100
AcDbEntity
  8
RUNDUNGEN
100
AcDbSpline
 62
7
  6
CONTINUOUS
 70
0
 71
3
 72
11
 73
7
 74
0
 42
0.0000001
 43
0.0000001
 44
0.0000000001
 40
0.0
 40
0.0
 40
0.0
 40
0.0
 40
0.2660806488
 40
0.5190943636
 40
0.7622194616
 40
1.0
 40
1.0
 40
1.0
 40
1.0
 10
556.6581129778
 20
70.502412363
 30
0.0
 10
556.4025407034
 20
70.760502827
 30
0.0
 10
555.9425266865
 20
71.3047717867
 30
0.0
 10
555.421758913
 20
72.2126386191
 30
0.0
 10
555.1024871325
 20
73.1694772792
 30
0.0
 10
555.0304813649
 20
73.8280435905
 30
0.0
 10
555.0304813764
 20
74.1526307227
 30
0.0
  0
SPLINE
  5
4A3
100
AcDbEntity
  8
0
100
AcDbSpline
 62
7
  6
CONTINUOUS
 70
0
 71
3
 72
8
 73
4
 74
0
 42
0.0000001
 43
0.0000001
 44
0.0000000001
 40
0.0
 40
0.0
 40
0.0
 40
0.0
 40
1.0
 40
1.0
 40
1.0
 40
1.0
 10
539.2645736269
 20
86.0177629299
 30
0.0
 10
539.2788718778
 20
86.0149564339
 30
0.0
 10
539.2930024306
 20
86.0108835638
 30
0.0
 10
539.3065019039
 20
86.0053989836
 30
0.0
  0
SPLINE
  5
4A4
100
AcDbEntity
  8
0
100
AcDbSpline
 62
7
  6
CONTINUOUS
 70
0
 71
3
 72
9
 73
5
 74
0
 42
0.0000001
 43
0.0000001
 44
0.0000000001
 40
0.0
 40
0.0
 40
0.0
 40
0.0
 40
0.5424756321
 40
1.0
 40
1.0
 40
1.0
 40
1.0
 10
539.3065019039
 20
86.0053989836
 30
0.0
 10
539.3314210503
 20
85.9952748065
 30
0.0
 10
539.3753650717
 20
85.9677143335
 30
0.0
 10
539.3965019039
 20
85.9178571185
 30
0.0
 10
539.3965019039
 20
85.8951719451
 30
0.0
  0
SPLINE
  5
4A5
100
AcDbEntity
  8
RUNDUNGEN
100
AcDbSpline
 62
7
  6
CONTINUOUS
 70
0
 71
3
 72
11
 73
7
 74
0
 42
0.0000001
 43
0.0000001
 44
0.0000000001
 40
0.0
 40
0.0
 40
0.0
 40
0.0
 40
0.2297109937
 40
0.4842558728
 40
0.7475644511
 40
1.0
 40
1.0
 40
1.0
 40
1.0
 10
561.2028762463
 20
91.6384148875
 30
0.0
 10
560.9633924047
 20
91.3965713781
 30
0.0
 10
560.3444267472
 20
90.9972237658
 30
0.0
 10
559.2595862218
 20
90.7124275025
 30
0.0
 10
558.1052069592
 20
90.728616234
 30
0.0
 10
557.3598795887
 20
90.9515111813
 30
0.0
 10
557.0246908043
 20
91.1174703545
 30
0.0
  0
SPLINE
  5
4A6
100
AcDbEntity
  8
RUNDUNGEN
100
AcDbSpline
 62
7
  6
CONTINUOUS
 70
0
 71
3
 72
11
 73
7
 74
0
 42
0.0000001
 43
0.0000001
 44
0.0000000001
 40
0.0
 40
0.0
 40
0.0
 40
0.0
 40
0.2524375529
 40
0.5157480446
 40
0.7702932073
 40
1.0
 40
1.0
 40
1.0
 40
1.0
 10
538.099218485
 20
92.942579399
 30
0.0
 10
537.7640270391
 20
92.776618908
 30
0.0
 10
537.0186935644
 20
92.5537230736
 30
0.0
 10
535.8643077536
 20
92.537537818
 30
0.0
 10
534.7794713034
 20
92.8223387616
 30
0.0
 10
534.1605125054
 20
93.221684845
 30
0.0
 10
533.9210330431
 20
93.463523932
 30
0.0
  0
SPLINE
  5
4A7
100
AcDbEntity
  8
0
100
AcDbSpline
 62
7
  6
CONTINUOUS
 70
0
 71
3
 72
9
 73
5
 74
0
 42
0.0000001
 43
0.0000001
 44
0.0000000001
 40
0.0
 40
0.0
 40
0.0
 40
0.0
 40
0.4575243679
 40
1.0
 40
1.0
 40
1.0
 40
1.0
 10
538.1365019039
 20
85.8951719451
 30
0.0
 10
538.1365019039
 20
85.9178571185
 30
0.0
 10
538.157638736
 20
85.9677143335
 30
0.0
 10
538.2015827574
 20
85.9952748065
 30
0.0
 10
538.2265019039
 20
86.0053989836
 30
0.0
  0
SPLINE
  5
4A8
100
AcDbEntity
  8
0
100
AcDbSpline
 62
7
  6
CONTINUOUS
 70
0
 71
3
 72
9
 73
5
 74
0
 42
0.0000001
 43
0.0000001
 44
0.0000000001
 40
0.0
 40
0.0
 40
0.0
 40
0.0
 40
0.2441493338
 40
1.0
 40
1.0
 40
1.0
 40
1.0
 10
538.2265019039
 20
86.0053989836
 30
0.0
 10
538.2334322381
 20
86.0082146471
 30
0.0
 10
538.2624368852
 20
86.0181775187
 30
0.0
 10
538.2933434488
 20
86.0224511657
 30
0.0
 10
538.3165019039
 20
86.0224511657
 30
0.0
  0
SPLINE
  5
4A9
100
AcDbEntity
  8
0
100
AcDbSpline
 62
7
  6
CONTINUOUS
 70
0
 71
3
 72
11
 73
7
 74
0
 42
0.0000001
 43
0.0000001
 44
0.0000000001
 40
0.0
 40
0.0
 40
0.0
 40
0.0
 40
0.2092798753
 40
0.444592951
 40
0.7123432609
 40
1.0
 40
1.0
 40
1.0
 40
1.0
 10
538.1365019039
 20
87.1679641513
 30
0.0
 10
538.1365019039
 20
87.1848127
 30
0.0
 10
538.1475481969
 20
87.2209823631
 30
0.0
 10
538.1893525593
 20
87.2626213755
 30
0.0
 10
538.248381122
 20
87.2890893339
 30
0.0
 10
538.2933434488
 20
87.2952433719
 30
0.0
 10
538.3165019039
 20
87.2952433719
 30
0.0
  0
SPLINE
  5
4AA
100
AcDbEntity
  8
0
100
AcDbSpline
 62
7
  6
CONTINUOUS
 70
0
 71
3
 72
9
 73
5
 74
0
 42
0.0000001
 43
0.0000001
 44
0.0000000001
 40
0.0
 40
0.0
 40
0.0
 40
0.0
 40
0.538986273
 40
1.0
 40
1.0
 40
1.0
 40
1.0
 10
540.2065019039
 20
84.4951005184
 30
0.0
 10
540.2746962956
 20
84.4951005184
 30
0.0
 10
540.4026346475
 20
84.5190403609
 30
0.0
 10
540.5096496434
 20
84.6018944867
 30
0.0
 10
540.5390985356
 20
84.6522436616
 30
0.0
  0
SPLINE
  5
4AB
100
AcDbEntity
  8
0
100
AcDbSpline
 62
7
  6
CONTINUOUS
 70
0
 71
3
 72
9
 73
5
 74
0
 42
0.0000001
 43
0.0000001
 44
0.0000000001
 40
0.0
 40
0.0
 40
0.0
 40
0.0
 40
0.2592261758
 40
1.0
 40
1.0
 40
1.0
 40
1.0
 10
540.5390985356
 20
84.6522436616
 30
0.0
 10
540.5435420777
 20
84.6598408464
 30
0.0
 10
540.558916079
 20
84.6901281311
 30
0.0
 10
540.5665019039
 20
84.7245081526
 30
0.0
 10
540.5665019039
 20
84.7496589596
 30
0.0
  0
SPLINE
  5
4AC
100
AcDbEntity
  8
KONSTRUKTIONSELEMENTE
100
AcDbSpline
 62
7
  6
CONTINUOUS
 70
0
 71
3
 72
9
 73
5
 74
0
 42
0.0000001
 43
0.0000001
 44
0.0000000001
 40
0.0
 40
0.0
 40
0.0
 40
0.0
 40
0.4962403058
 40
1.0
 40
1.0
 40
1.0
 40
1.0
 10
569.218862545
 20
181.6515722534
 30
0.0
 10
569.218862545
 20
180.5654545513
 30
0.0
 10
568.9457345873
 20
178.368607441
 30
0.0
 10
568.1557710399
 20
176.3038766758
 30
0.0
 10
567.6513254705
 20
175.3234650085
 30
0.0
  0
SPLINE
  5
4AD
100
AcDbEntity
  8
KONSTRUKTIONSELEMENTE
100
AcDbSpline
 62
7
  6
CONTINUOUS
 70
0
 71
3
 72
9
 73
5
 74
0
 42
0.0000001
 43
0.0000001
 44
0.0000000001
 40
0.0
 40
0.0
 40
0.0
 40
0.0
 40
0.5037576341
 40
1.0
 40
1.0
 40
1.0
 40
1.0
 10
523.787757966
 20
175.3208305865
 30
0.0
 10
523.2828954852
 20
176.301578639
 30
0.0
 10
522.4922368956
 20
178.3671227928
 30
0.0
 10
522.218862545
 20
180.5649630298
 30
0.0
 10
522.218862545
 20
181.6515722534
 30
0.0
  0
SPLINE
  5
4AE
100
AcDbEntity
  8
KONSTRUKTIONSELEMENTE
100
AcDbSpline
 62
7
  6
CONTINUOUS
 70
0
 71
3
 72
13
 73
9
 74
0
 42
0.0000001
 43
0.0000001
 44
0.0000000001
 40
0.0
 40
0.0
 40
0.0
 40
0.0
 40
0.1179851403
 40
0.2366821749
 40
0.3569019105
 40
0.4793020309
 40
0.7325115522
 40
1.0
 40
1.0
 40
1.0
 40
1.0
 10
522.218862545
 20
181.6515722534
 30
0.0
 10
522.218862545
 20
182.3578074429
 30
0.0
 10
522.3328842188
 20
183.7771215532
 30
0.0
 10
522.8404712815
 20
185.8607725228
 30
0.0
 10
523.6698595034
 20
187.8671959579
 30
0.0
 10
525.1938162522
 20
190.4245156177
 30
0.0
 10
527.829934991
 20
193.2907081583
 30
0.0
 10
530.4370634141
 20
195.0475671622
 30
0.0
 10
531.8456953338
 20
195.8087366622
 30
0.0
  0
SPLINE
  5
4AF
100
AcDbEntity
  8
KONSTRUKTIONSELEMENTE
100
AcDbSpline
 62
7
  6
CONTINUOUS
 70
0
 71
3
 72
13
 73
9
 74
0
 42
0.0000001
 43
0.0000001
 44
0.0000000001
 40
0.0
 40
0.0
 40
0.0
 40
0.0
 40
0.2674822374
 40
0.5206880275
 40
0.6430883129
 40
0.7633087882
 40
0.8820108759
 40
1.0
 40
1.0
 40
1.0
 40
1.0
 10
559.5955644592
 20
195.8068326741
 30
0.0
 10
561.0037227864
 20
195.045614953
 30
0.0
 10
563.609936635
 20
193.2887719887
 30
0.0
 10
566.2450622572
 20
190.4229388603
 30
0.0
 10
567.7684079988
 20
187.8660513382
 30
0.0
 10
568.5975006783
 20
185.8599929787
 30
0.0
 10
569.1048758814
 20
183.7767237948
 30
0.0
 10
569.218862545
 20
182.3576740188
 30
0.0
 10
569.218862545
 20
181.6515722534
 30
0.0
  0
SPLINE
  5
4B0
100
AcDbEntity
  8
KONSTRUKTIONSELEMENTE
100
AcDbSpline
 62
7
  6
CONTINUOUS
 70
0
 71
3
 72
9
 73
5
 74
0
 42
0.0000001
 43
0.0000001
 44
0.0000000001
 40
0.0
 40
0.0
 40
0.0
 40
0.0
 40
0.2448925609
 40
1.0
 40
1.0
 40
1.0
 40
1.0
 10
553.3512029346
 20
171.3330933017
 30
0.0
 10
552.9441274362
 20
171.2008342948
 30
0.0
 10
551.2665814463
 20
170.708583586
 30
0.0
 10
549.5348121553
 20
170.4046353563
 30
0.0
 10
548.2212295454
 20
170.2769550101
 30
0.0
  0
SPLINE
  5
4B1
100
AcDbEntity
  8
KONSTRUKTIONSELEMENTE
100
AcDbSpline
 62
7
  6
CONTINUOUS
 70
0
 71
3
 72
9
 73
5
 74
0
 42
0.0000001
 43
0.0000001
 44
0.0000000001
 40
0.0
 40
0.0
 40
0.0
 40
0.0
 40
0.2546729281
 40
1.0
 40
1.0
 40
1.0
 40
1.0
 10
543.2168357181
 20
170.2769152356
 30
0.0
 10
542.7730928343
 20
170.3200423593
 30
0.0
 10
541.0355606323
 20
170.534958833
 30
0.0
 10
539.3194544119
 20
170.9320204539
 30
0.0
 10
538.0786731816
 20
171.3356423431
 30
0.0
  0
SPLINE
  5
4B2
100
AcDbEntity
  8
KONSTRUKTIONSELEMENTE
100
AcDbSpline
 62
7
  6
CONTINUOUS
 70
0
 71
3
 72
15
 73
11
 74
0
 42
0.0000001
 43
0.0000001
 44
0.0000000001
 40
0.0
 40
0.0
 40
0.0
 40
0.0
 40
0.0625108926
 40
0.1250275914
 40
0.2497931609
 40
0.3747532875
 40
0.4997959152
 40
0.6248713155
 40
0.749960006
 40
1.0
 40
1.0
 40
1.0
 40
1.0
 10
537.0877170822
 20
150.9967562044
 30
0.0
 10
537.0877170822
 20
151.1373612757
 30
0.0
 10
537.1172239934
 20
151.4193935958
 30
0.0
 10
537.2846732151
 20
151.958771851
 30
0.0
 10
537.6587059783
 20
152.5654403813
 30
0.0
 10
538.2507579915
 20
153.1708325243
 30
0.0
 10
538.9262305124
 20
153.6803116763
 30
0.0
 10
539.6543684475
 20
154.109815491
 30
0.0
 10
540.6724648372
 20
154.5911823635
 30
0.0
 10
541.4755730591
 20
154.8618718766
 30
0.0
 10
542.018862545
 20
155.0072818598
 30
0.0
  0
SPLINE
  5
4B3
100
AcDbEntity
  8
KONSTRUKTIONSELEMENTE
100
AcDbSpline
 62
7
  6
CONTINUOUS
 70
0
 71
3
 72
9
 73
5
 74
0
 42
0.0000001
 43
0.0000001
 44
0.0000000001
 40
0.0
 40
0.0
 40
0.0
 40
0.0
 40
0.5002606694
 40
1.0
 40
1.0
 40
1.0
 40
1.0
 10
536.5369869626
 20
147.4467562044
 30
0.0
 10
536.7005938415
 20
147.788776014
 30
0.0
 10
536.9791023793
 20
148.4985534695
 30
0.0
 10
537.0877170822
 20
149.2590144527
 30
0.0
 10
537.0877170822
 20
149.6377562044
 30
0.0
  0
SPLINE
  5
4B4
100
AcDbEntity
  8
KONSTRUKTIONSELEMENTE
100
AcDbSpline
 62
7
  6
CONTINUOUS
 70
0
 71
3
 72
9
 73
5
 74
0
 42
0.0000001
 43
0.0000001
 44
0.0000000001
 40
0.0
 40
0.0
 40
0.0
 40
0.0
 40
0.4997393306
 40
1.0
 40
1.0
 40
1.0
 40
1.0
 10
554.3500080078
 20
149.6377562044
 30
0.0
 10
554.3500080078
 20
149.2590144527
 30
0.0
 10
554.4586227107
 20
148.4985534695
 30
0.0
 10
554.7371312485
 20
147.788776014
 30
0.0
 10
554.9007381274
 20
147.4467562044
 30
0.0
  0
SPLINE
  5
4B5
100
AcDbEntity
  8
KONSTRUKTIONSELEMENTE
100
AcDbSpline
 62
7
  6
CONTINUOUS
 70
0
 71
3
 72
15
 73
11
 74
0
 42
0.0000001
 43
0.0000001
 44
0.0000000001
 40
0.0
 40
0.0
 40
0.0
 40
0.0
 40
0.250002393
 40
0.3750704934
 40
0.5001233091
 40
0.6251474546
 40
0.7501032798
 40
0.8748945538
 40
0.9374477433
 40
1.0
 40
1.0
 40
1.0
 40
1.0
 10
549.418862545
 20
155.0072818598
 30
0.0
 10
549.962070357
 20
154.8618937364
 30
0.0
 10
550.7650515237
 20
154.5912457381
 30
0.0
 10
551.7830065771
 20
154.1100053332
 30
0.0
 10
552.5110402481
 20
153.6806000399
 30
0.0
 10
553.186482933
 20
153.1712537055
 30
0.0
 10
553.7786206605
 20
152.565942124
 30
0.0
 10
554.1528514969
 20
151.9592400178
 30
0.0
 10
554.3204510534
 20
151.4196616484
 30
0.0
 10
554.3500080078
 20
151.1374543223
 30
0.0
 10
554.3500080078
 20
150.9967562044
 30
0.0
  0
SPLINE
  5
4B6
100
AcDbEntity
  8
RUNDUNGEN
100
AcDbSpline
 62
7
  6
CONTINUOUS
 70
0
 71
3
 72
9
 73
5
 74
0
 42
0.0000001
 43
0.0000001
 44
0.0000000001
 40
0.0
 40
0.0
 40
0.0
 40
0.0
 40
0.2519459173
 40
1.0
 40
1.0
 40
1.0
 40
1.0
 10
529.9253214894
 20
166.5742647851
 30
0.0
 10
529.9699541461
 20
166.6191003063
 30
0.0
 10
530.1517499256
 20
166.7923579042
 30
0.0
 10
530.35230124
 20
166.9460575762
 30
0.0
 10
530.5105820817
 20
167.0472000021
 30
0.0
  0
SPLINE
  5
4B7
100
AcDbEntity
  8
RUNDUNGEN
100
AcDbSpline
 62
7
  6
CONTINUOUS
 70
0
 71
3
 72
9
 73
5
 74
0
 42
0.0000001
 43
0.0000001
 44
0.0000000001
 40
0.0
 40
0.0
 40
0.0
 40
0.0
 40
0.2485467635
 40
1.0
 40
1.0
 40
1.0
 40
1.0
 10
560.9271430084
 20
167.0472000021
 30
0.0
 10
560.9797341427
 20
167.0135939456
 30
0.0
 10
561.1874844382
 20
166.8724345636
 30
0.0
 10
561.3792795741
 20
166.7079938874
 30
0.0
 10
561.5124036007
 20
166.5742647851
 30
0.0
  0
SPLINE
  5
4B8
100
AcDbEntity
  8
RUNDUNGEN
100
AcDbSpline
 62
7
  6
CONTINUOUS
 70
0
 71
3
 72
16
 73
12
 74
0
 42
0.0000001
 43
0.0000001
 44
0.0000000001
 40
0.0
 40
0.0
 40
0.0
 40
0.0
 40
0.0242828728
 40
0.0512731677
 40
0.0828993054
 40
0.1202904921
 40
0.2141524244
 40
0.3338112462
 40
0.4770373368
 40
0.6397243807
 40
1.0
 40
1.0
 40
1.0
 40
1.0
 10
528.468862545
 20
158.573035646
 30
0.0
 10
528.468862545
 20
158.5992582164
 30
0.0
 10
528.4795446393
 20
158.6549743911
 30
0.0
 10
528.5245533304
 20
158.7336777749
 30
0.0
 10
528.5964898874
 20
158.8093185441
 30
0.0
 10
528.7382407202
 20
158.9144560315
 30
0.0
 10
528.9844960816
 20
159.0321052199
 30
0.0
 10
529.3518648813
 20
159.1496418275
 30
0.0
 10
529.8015663091
 20
159.2474214947
 30
0.0
 10
530.5141515805
 20
159.3487953825
 30
0.0
 10
531.0798083808
 20
159.3768832233
 30
0.0
 10
531.468862545
 20
159.3768832233
 30
0.0
  0
SPLINE
  5
4B9
100
AcDbEntity
  8
KONSTRUKTIONSELEMENTE
100
AcDbSpline
 62
7
  6
CONTINUOUS
 70
0
 71
3
 72
21
 73
17
 74
0
 42
0.0000001
 43
0.0000001
 44
0.0000000001
 40
0.0
 40
0.0
 40
0.0
 40
0.0
 40
0.189585311
 40
0.3731480926
 40
0.5437166844
 40
0.6218531709
 40
0.6940426713
 40
0.7594773527
 40
0.8174400207
 40
0.8673460254
 40
0.9087925068
 40
0.9416484049
 40
0.9662894745
 40
0.9842834506
 40
0.9920698784
 40
1.0
 40
1.0
 40
1.0
 40
1.0
 10
536.5369869626
 20
147.4467562044
 30
0.0
 10
536.2951956786
 20
146.9412920731
 30
0.0
 10
535.8618476872
 20
145.9256551311
 30
0.0
 10
535.3373720681
 20
144.4056301203
 30
0.0
 10
534.9957084374
 20
143.17368445
 30
0.0
 10
534.7849236504
 20
142.2488732414
 30
0.0
 10
534.6630350405
 20
141.6228284629
 30
0.0
 10
534.5724214106
 20
141.0517829619
 30
0.0
 10
534.5128092394
 20
140.542896469
 30
0.0
 10
534.4840393759
 20
140.1022689151
 30
0.0
 10
534.4853565506
 20
139.7348224742
 30
0.0
 10
534.5173423835
 20
139.443153988
 30
0.0
 10
534.5776425659
 20
139.2272967436
 30
0.0
 10
534.666709576
 20
139.0994711309
 30
0.0
 10
534.7570866586
 20
139.0531817337
 30
0.0
 10
534.8039789617
 20
139.0467562044
 30
0.0
 10
534.8274164063
 20
139.0467562044
 30
0.0
  0
SPLINE
  5
4BA
100
AcDbEntity
  8
RUNDUNGEN
100
AcDbSpline
 62
7
  6
CONTINUOUS
 70
0
 71
3
 72
10
 73
6
 74
0
 42
0.0000001
 43
0.0000001
 44
0.0000000001
 40
0.0
 40
0.0
 40
0.0
 40
0.0
 40
0.2573822802
 40
0.5112136635
 40
1.0
 40
1.0
 40
1.0
 40
1.0
 10
534.4775311128
 20
167.8751833291
 30
0.0
 10
534.8603957851
 20
167.8751833291
 30
0.0
 10
535.6209649517
 20
167.8919791669
 30
0.0
 10
537.1059241765
 20
167.9761466838
 30
0.0
 10
538.2094532076
 20
168.0467562044
 30
0.0
 10
538.9365390832
 20
168.0467562044
 30
0.0
  0
SPLINE
  5
4BB
100
AcDbEntity
  8
KONSTRUKTIONSELEMENTE
100
AcDbSpline
 62
7
  6
CONTINUOUS
 70
0
 71
3
 72
21
 73
17
 74
0
 42
0.0000001
 43
0.0000001
 44
0.0000000001
 40
0.0
 40
0.0
 40
0.0
 40
0.0
 40
0.0079301216
 40
0.0157165494
 40
0.0337105255
 40
0.0583515951
 40
0.0912074932
 40
0.1326539746
 40
0.1825599793
 40
0.2405226473
 40
0.3059573287
 40
0.3781468291
 40
0.4562833156
 40
0.6268519074
 40
0.810414689
 40
1.0
 40
1.0
 40
1.0
 40
1.0
 10
556.6103086838
 20
139.0467562044
 30
0.0
 10
556.6337461283
 20
139.0467562044
 30
0.0
 10
556.6806384315
 20
139.0531817337
 30
0.0
 10
556.7710155141
 20
139.0994711309
 30
0.0
 10
556.8600825241
 20
139.2272967436
 30
0.0
 10
556.9203827066
 20
139.443153988
 30
0.0
 10
556.9523685394
 20
139.7348224742
 30
0.0
 10
556.9536857142
 20
140.1022689151
 30
0.0
 10
556.9249158506
 20
140.542896469
 30
0.0
 10
556.8653036794
 20
141.0517829619
 30
0.0
 10
556.7746900495
 20
141.6228284629
 30
0.0
 10
556.6528014397
 20
142.2488732414
 30
0.0
 10
556.4420166526
 20
143.17368445
 30
0.0
 10
556.1003530219
 20
144.4056301203
 30
0.0
 10
555.5758774029
 20
145.9256551311
 30
0.0
 10
555.1425294115
 20
146.9412920731
 30
0.0
 10
554.9007381274
 20
147.4467562044
 30
0.0
  0
SPLINE
  5
4BC
100
AcDbEntity
  8
RUNDUNGEN
100
AcDbSpline
 62
7
  6
CONTINUOUS
 70
0
 71
3
 72
16
 73
12
 74
0
 42
0.0000001
 43
0.0000001
 44
0.0000000001
 40
0.0
 40
0.0
 40
0.0
 40
0.0
 40
0.0242828728
 40
0.0512731677
 40
0.0828993054
 40
0.1202904921
 40
0.2141524244
 40
0.3338112462
 40
0.4770373368
 40
0.6397243807
 40
1.0
 40
1.0
 40
1.0
 40
1.0
 10
562.968862545
 20
154.2429086271
 30
0.0
 10
562.968862545
 20
154.2691311975
 30
0.0
 10
562.9581804507
 20
154.3248473722
 30
0.0
 10
562.9131717596
 20
154.403550756
 30
0.0
 10
562.8412352026
 20
154.4791915252
 30
0.0
 10
562.6994843698
 20
154.5843290126
 30
0.0
 10
562.4532290084
 20
154.7019782009
 30
0.0
 10
562.0858602087
 20
154.8195148086
 30
0.0
 10
561.6361587809
 20
154.9172944758
 30
0.0
 10
560.9235735096
 20
155.0186683636
 30
0.0
 10
560.3579167092
 20
155.0467562044
 30
0.0
 10
559.968862545
 20
155.0467562044
 30
0.0
  0
SPLINE
  5
4BD
100
AcDbEntity
  8
RUNDUNGEN
100
AcDbSpline
 62
7
  6
CONTINUOUS
 70
0
 71
3
 72
16
 73
12
 74
0
 42
0.0000001
 43
0.0000001
 44
0.0000000001
 40
0.0
 40
0.0
 40
0.0
 40
0.0
 40
0.0242828728
 40
0.0512731677
 40
0.0828993054
 40
0.1202904921
 40
0.2141524244
 40
0.3338112462
 40
0.4770373368
 40
0.6397243807
 40
1.0
 40
1.0
 40
1.0
 40
1.0
 10
562.968862545
 20
158.573035646
 30
0.0
 10
562.968862545
 20
158.5992582164
 30
0.0
 10
562.9581804507
 20
158.6549743911
 30
0.0
 10
562.9131717596
 20
158.7336777749
 30
0.0
 10
562.8412352026
 20
158.8093185441
 30
0.0
 10
562.6994843698
 20
158.9144560315
 30
0.0
 10
562.4532290084
 20
159.0321052199
 30
0.0
 10
562.0858602087
 20
159.1496418275
 30
0.0
 10
561.6361587809
 20
159.2474214947
 30
0.0
 10
560.9235735096
 20
159.3487953825
 30
0.0
 10
560.3579167092
 20
159.3768832233
 30
0.0
 10
559.968862545
 20
159.3768832233
 30
0.0
  0
SPLINE
  5
4BE
100
AcDbEntity
  8
RUNDUNGEN
100
AcDbSpline
 62
7
  6
CONTINUOUS
 70
0
 71
3
 72
16
 73
12
 74
0
 42
0.0000001
 43
0.0000001
 44
0.0000000001
 40
0.0
 40
0.0
 40
0.0
 40
0.0
 40
0.0242828728
 40
0.0512731677
 40
0.0828993054
 40
0.1202904921
 40
0.2141524244
 40
0.3338112462
 40
0.4770373368
 40
0.6397243807
 40
1.0
 40
1.0
 40
1.0
 40
1.0
 10
528.468862545
 20
154.2429086271
 30
0.0
 10
528.468862545
 20
154.2691311975
 30
0.0
 10
528.4795446393
 20
154.3248473722
 30
0.0
 10
528.5245533304
 20
154.403550756
 30
0.0
 10
528.5964898874
 20
154.4791915252
 30
0.0
 10
528.7382407202
 20
154.5843290126
 30
0.0
 10
528.9844960816
 20
154.7019782009
 30
0.0
 10
529.3518648813
 20
154.8195148086
 30
0.0
 10
529.8015663091
 20
154.9172944758
 30
0.0
 10
530.5141515805
 20
155.0186683636
 30
0.0
 10
531.0798083808
 20
155.0467562044
 30
0.0
 10
531.468862545
 20
155.0467562044
 30
0.0
  0
SPLINE
  5
4BF
100
AcDbEntity
  8
RUNDUNGEN
100
AcDbSpline
 62
7
  6
CONTINUOUS
 70
0
 71
3
 72
9
 73
5
 74
0
 42
0.0000001
 43
0.0000001
 44
0.0000000001
 40
0.0
 40
0.0
 40
0.0
 40
0.0
 40
0.5159918292
 40
1.0
 40
1.0
 40
1.0
 40
1.0
 10
558.6497080808
 20
167.8269400769
 30
0.0
 10
559.0617991326
 20
167.7682456081
 30
0.0
 10
559.8521122988
 20
167.5882655747
 30
0.0
 10
560.5981307353
 20
167.257440857
 30
0.0
 10
560.9271430084
 20
167.0472000021
 30
0.0
  0
SPLINE
  5
4C0
100
AcDbEntity
  8
RUNDUNGEN
100
AcDbSpline
 62
7
  6
CONTINUOUS
 70
0
 71
3
 72
9
 73
5
 74
0
 42
0.0000001
 43
0.0000001
 44
0.0000000001
 40
0.0
 40
0.0
 40
0.0
 40
0.0
 40
0.5159918292
 40
1.0
 40
1.0
 40
1.0
 40
1.0
 10
532.7880165766
 20
167.8269400153
 30
0.0
 10
532.3759256024
 20
167.7682455322
 30
0.0
 10
531.5856125873
 20
167.5882654954
 30
0.0
 10
530.8395942957
 20
167.2574408193
 30
0.0
 10
530.5105820817
 20
167.0472000021
 30
0.0
  0
SPLINE
  5
4C1
100
AcDbEntity
  8
RUNDUNGEN
100
AcDbSpline
 62
7
  6
CONTINUOUS
 70
0
 71
3
 72
10
 73
6
 74
0
 42
0.0000001
 43
0.0000001
 44
0.0000000001
 40
0.0
 40
0.0
 40
0.0
 40
0.0
 40
0.2573821486
 40
0.5112132368
 40
1.0
 40
1.0
 40
1.0
 40
1.0
 10
556.9601939772
 20
167.8751833291
 30
0.0
 10
556.5773270919
 20
167.8751833291
 30
0.0
 10
555.8167537695
 20
167.8919792284
 30
0.0
 10
554.331785252
 20
167.97614828
 30
0.0
 10
553.2282489951
 20
168.0467562044
 30
0.0
 10
552.5011579106
 20
168.0467562044
 30
0.0
  0
SPLINE
  5
4C2
100
AcDbEntity
  8
0
100
AcDbSpline
 62
7
  6
CONTINUOUS
 70
0
 71
3
 72
11
 73
7
 74
0
 42
0.0000001
 43
0.0000001
 44
0.0000000001
 40
0.0
 40
0.0
 40
0.0
 40
0.0
 40
0.2506353974
 40
0.5000000009
 40
0.7493646041
 40
1.0
 40
1.0
 40
1.0
 40
1.0
 10
197.2184607301
 20
189.9347941889
 30
0.0
 10
197.080384136
 20
190.6220438485
 30
0.0
 10
196.866146029
 20
192.0064618303
 30
0.0
 10
196.7557279777
 20
194.1031053974
 30
0.0
 10
196.8661460279
 20
196.1997489604
 30
0.0
 10
197.0803841368
 20
197.5841669367
 30
0.0
 10
197.2184607301
 20
198.2714165921
 30
0.0
  0
SPLINE
  5
4C3
100
AcDbEntity
  8
0
100
AcDbSpline
 62
7
  6
CONTINUOUS
 70
0
 71
3
 72
11
 73
7
 74
0
 42
0.0000001
 43
0.0000001
 44
0.0000000001
 40
0.0
 40
0.0
 40
0.0
 40
0.0
 40
0.2500485047
 40
0.5000000009
 40
0.7499514969
 40
1.0
 40
1.0
 40
1.0
 40
1.0
 10
197.2184607301
 20
178.5467562044
 30
0.0
 10
197.0798630904
 20
179.4890993542
 30
0.0
 10
196.8657310069
 20
181.3834808155
 30
0.0
 10
196.7558489705
 20
184.2407752061
 30
0.0
 10
196.8657310058
 20
187.0980695908
 30
0.0
 10
197.0798630912
 20
188.9924510449
 30
0.0
 10
197.2184607301
 20
189.9347941889
 30
0.0
  0
SPLINE
  5
4C4
100
AcDbEntity
  8
0
100
AcDbSpline
 62
7
  6
CONTINUOUS
 70
0
 71
3
 72
9
 73
5
 74
0
 42
0.0000001
 43
0.0000001
 44
0.0000000001
 40
0.0
 40
0.0
 40
0.0
 40
0.0
 40
0.4999041821
 40
1.0
 40
1.0
 40
1.0
 40
1.0
 10
196.7998323312
 20
172.1106580033
 30
0.0
 10
196.7785034716
 20
173.1861271268
 30
0.0
 10
196.8292844075
 20
175.340363337
 30
0.0
 10
197.0618760261
 20
177.4821166951
 30
0.0
 10
197.2184607301
 20
178.5467562044
 30
0.0
  0
LINE
  5
4C5
100
AcDbEntity
  8
0
100
AcDbLine
 62
7
  6
CONTINUOUS
 10
205.4283236126
 20
154.2429086271
 11
208.4283236126
 21
155.0467562044
  0
LINE
  5
4C6
100
AcDbEntity
  8
0
100
AcDbLine
 62
7
  6
CONTINUOUS
 10
202.9283236126
 20
158.573035646
 11
205.9283236126
 21
159.3768832233
  0
SPLINE
  5
4C7
100
AcDbEntity
  8
RUNDUNGEN
100
AcDbSpline
 62
7
  6
CONTINUOUS
 70
0
 71
3
 72
9
 73
5
 74
0
 42
0.0000001
 43
0.0000001
 44
0.0000000001
 40
0.0
 40
0.0
 40
0.0
 40
0.0
 40
0.2362642616
 40
1.0
 40
1.0
 40
1.0
 40
1.0
 10
194.5452122224
 20
167.0472000021
 30
0.0
 10
194.5788213852
 20
167.0129727526
 30
0.0
 10
194.7172189333
 20
166.8643249622
 30
0.0
 10
194.8408648797
 20
166.7023109247
 30
0.0
 10
194.9283236126
 20
166.5742647851
 30
0.0
  0
SPLINE
  5
4C8
100
AcDbEntity
  8
RUNDUNGEN
100
AcDbSpline
 62
7
  6
CONTINUOUS
 70
0
 71
3
 72
12
 73
8
 74
0
 42
0.0000001
 43
0.0000001
 44
0.0000000001
 40
0.0
 40
0.0
 40
0.0
 40
0.0
 40
0.0519679069
 40
0.122722382
 40
0.3277813342
 40
0.6210641814
 40
1.0
 40
1.0
 40
1.0
 40
1.0
 10
193.9283236126
 20
167.8269400769
 30
0.0
 10
193.9283236126
 20
167.8095344124
 30
0.0
 10
193.938162534
 20
167.7687195919
 30
0.0
 10
193.9864334046
 20
167.6699113268
 30
0.0
 10
194.1022954498
 20
167.5169194992
 30
0.0
 10
194.2987910198
 20
167.2988586068
 30
0.0
 10
194.4562894821
 20
167.1377580688
 30
0.0
 10
194.5452122224
 20
167.0472000021
 30
0.0
  0
SPLINE
  5
4C9
100
AcDbEntity
  8
0
100
AcDbSpline
 62
7
  6
CONTINUOUS
 70
0
 71
3
 72
12
 73
8
 74
0
 42
0.0000001
 43
0.0000001
 44
0.0000000001
 40
0.0
 40
0.0
 40
0.0
 40
0.0
 40
0.0519679069
 40
0.122722382
 40
0.3277813342
 40
0.6210641814
 40
1.0
 40
1.0
 40
1.0
 40
1.0
 10
203.9283236126
 20
167.8269400769
 30
0.0
 10
203.9283236126
 20
167.8095344124
 30
0.0
 10
203.9184846912
 20
167.7687195919
 30
0.0
 10
203.8702138207
 20
167.6699113268
 30
0.0
 10
203.7543517754
 20
167.5169194992
 30
0.0
 10
203.5578562054
 20
167.2988586068
 30
0.0
 10
203.4003577431
 20
167.1377580688
 30
0.0
 10
203.3114350029
 20
167.0472000021
 30
0.0
  0
SPLINE
  5
4CA
100
AcDbEntity
  8
0
100
AcDbSpline
 62
7
  6
CONTINUOUS
 70
0
 71
3
 72
9
 73
5
 74
0
 42
0.0000001
 43
0.0000001
 44
0.0000000001
 40
0.0
 40
0.0
 40
0.0
 40
0.0
 40
0.2362642616
 40
1.0
 40
1.0
 40
1.0
 40
1.0
 10
203.3114350029
 20
167.0472000021
 30
0.0
 10
203.27782584
 20
167.0129727526
 30
0.0
 10
203.139428292
 20
166.8643249622
 30
0.0
 10
203.0157823455
 20
166.7023109247
 30
0.0
 10
202.9283236126
 20
166.5742647851
 30
0.0
  0
SPLINE
  5
4CB
100
AcDbEntity
  8
0
100
AcDbSpline
 62
7
  6
CONTINUOUS
 70
0
 71
3
 72
11
 73
7
 74
0
 42
0.0000001
 43
0.0000001
 44
0.0000000001
 40
0.0
 40
0.0
 40
0.0
 40
0.0
 40
0.2581491009
 40
0.5000000008
 40
0.7418509005
 40
1.0
 40
1.0
 40
1.0
 40
1.0
 10
200.6381864952
 20
198.2714165921
 30
0.0
 10
200.7704316193
 20
198.5123435319
 30
0.0
 10
200.9846447856
 20
199.0054694083
 30
0.0
 10
201.102644868
 20
199.7971243852
 30
0.0
 10
200.9846447865
 20
200.5887793611
 30
0.0
 10
200.7704316186
 20
201.0819052348
 30
0.0
 10
200.6381864952
 20
201.3228321734
 30
0.0
  0
SPLINE
  5
4CC
100
AcDbEntity
  8
0
100
AcDbSpline
 62
7
  6
CONTINUOUS
 70
0
 71
3
 72
11
 73
7
 74
0
 42
0.0000001
 43
0.0000001
 44
0.0000000001
 40
0.0
 40
0.0
 40
0.0
 40
0.0
 40
0.2506353974
 40
0.5000000009
 40
0.7493646041
 40
1.0
 40
1.0
 40
1.0
 40
1.0
 10
200.6381864952
 20
189.9347941889
 30
0.0
 10
200.7762630893
 20
190.6220438485
 30
0.0
 10
200.9905011963
 20
192.0064618303
 30
0.0
 10
201.1009192475
 20
194.1031053974
 30
0.0
 10
200.9905011974
 20
196.1997489604
 30
0.0
 10
200.7762630884
 20
197.5841669367
 30
0.0
 10
200.6381864952
 20
198.2714165921
 30
0.0
  0
SPLINE
  5
4CD
100
AcDbEntity
  8
0
100
AcDbSpline
 62
7
  6
CONTINUOUS
 70
0
 71
3
 72
11
 73
7
 74
0
 42
0.0000001
 43
0.0000001
 44
0.0000000001
 40
0.0
 40
0.0
 40
0.0
 40
0.0
 40
0.2500485047
 40
0.5000000009
 40
0.7499514969
 40
1.0
 40
1.0
 40
1.0
 40
1.0
 10
200.6381864952
 20
178.5467562044
 30
0.0
 10
200.7767841349
 20
179.4890993542
 30
0.0
 10
200.9909162184
 20
181.3834808155
 30
0.0
 10
201.1007982547
 20
184.2407752061
 30
0.0
 10
200.9909162195
 20
187.0980695908
 30
0.0
 10
200.776784134
 20
188.9924510449
 30
0.0
 10
200.6381864952
 20
189.9347941889
 30
0.0
  0
SPLINE
  5
4CE
100
AcDbEntity
  8
0
100
AcDbSpline
 62
7
  6
CONTINUOUS
 70
0
 71
3
 72
9
 73
5
 74
0
 42
0.0000001
 43
0.0000001
 44
0.0000000001
 40
0.0
 40
0.0
 40
0.0
 40
0.0
 40
0.4999041821
 40
1.0
 40
1.0
 40
1.0
 40
1.0
 10
201.056814894
 20
172.1106580033
 30
0.0
 10
201.0781437537
 20
173.1861271268
 30
0.0
 10
201.0273628177
 20
175.340363337
 30
0.0
 10
200.7947711991
 20
177.4821166951
 30
0.0
 10
200.6381864952
 20
178.5467562044
 30
0.0
  0
LINE
  5
4CF
100
AcDbEntity
  8
RUNDUNGEN
100
AcDbLine
 62
7
  6
CONTINUOUS
 10
192.4283236126
 20
154.2429086271
 11
189.4283236126
 21
155.0467562044
  0
LINE
  5
4D0
100
AcDbEntity
  8
RUNDUNGEN
100
AcDbLine
 62
7
  6
CONTINUOUS
 10
194.9283236126
 20
158.573035646
 11
191.9283236126
 21
159.3768832233
  0
SPLINE
  5
4D1
100
AcDbEntity
  8
RUNDUNGEN
100
AcDbSpline
 62
7
  6
CONTINUOUS
 70
0
 71
3
 72
20
 73
16
 74
0
 42
0.0000001
 43
0.0000001
 44
0.0000000001
 40
0.0
 40
0.0
 40
0.0
 40
0.0
 40
0.0661717834
 40
0.1303109935
 40
0.1609556379
 40
0.1904541369
 40
0.2472011919
 40
0.3038533301
 40
0.3616711693
 40
0.4209739968
 40
0.4817380747
 40
0.6068436566
 40
0.7358547562
 40
0.8673297403
 40
1.0
 40
1.0
 40
1.0
 40
1.0
 10
194.0947638933
 20
143.5454062044
 30
0.0
 10
193.8954884012
 20
143.5454062044
 30
0.0
 10
193.5015460867
 20
143.5172522359
 30
0.0
 10
193.0365173805
 20
143.3346376877
 30
0.0
 10
192.7577941552
 20
143.0786706364
 30
0.0
 10
192.5655610652
 20
142.7794089286
 30
0.0
 10
192.4754999922
 20
142.3433779791
 30
0.0
 10
192.5612670872
 20
141.8273613736
 30
0.0
 10
192.7769931308
 20
141.34590326
 30
0.0
 10
193.0888877774
 20
140.9070172214
 30
0.0
 10
193.607131172
 20
140.3778650762
 30
0.0
 10
194.3983314036
 20
139.8383462381
 30
0.0
 10
195.4740685942
 20
139.385599942
 30
0.0
 10
196.6320027036
 20
139.1157345058
 30
0.0
 10
197.4287887969
 20
139.056163203
 30
0.0
 10
197.8283236126
 20
139.056163203
 30
0.0
  0
SPLINE
  5
4D2
100
AcDbEntity
  8
0
100
AcDbSpline
 62
7
  6
CONTINUOUS
 70
0
 71
3
 72
20
 73
16
 74
0
 42
0.0000001
 43
0.0000001
 44
0.0000000001
 40
0.0
 40
0.0
 40
0.0
 40
0.0
 40
0.0661717834
 40
0.1303109935
 40
0.1609556379
 40
0.1904541369
 40
0.2472011919
 40
0.3038533301
 40
0.3616711693
 40
0.4209739968
 40
0.4817380747
 40
0.6068436566
 40
0.7358547562
 40
0.8673297403
 40
1.0
 40
1.0
 40
1.0
 40
1.0
 10
203.7618833319
 20
143.5454062044
 30
0.0
 10
203.961158824
 20
143.5454062044
 30
0.0
 10
204.3551011386
 20
143.5172522359
 30
0.0
 10
204.8201298447
 20
143.3346376877
 30
0.0
 10
205.09885307
 20
143.0786706364
 30
0.0
 10
205.2910861601
 20
142.7794089286
 30
0.0
 10
205.3811472331
 20
142.3433779791
 30
0.0
 10
205.295380138
 20
141.8273613736
 30
0.0
 10
205.0796540944
 20
141.34590326
 30
0.0
 10
204.7677594479
 20
140.9070172214
 30
0.0
 10
204.2495160532
 20
140.3778650762
 30
0.0
 10
203.4583158217
 20
139.8383462381
 30
0.0
 10
202.382578631
 20
139.385599942
 30
0.0
 10
201.2246445216
 20
139.1157345058
 30
0.0
 10
200.4278584284
 20
139.056163203
 30
0.0
 10
200.0283236126
 20
139.056163203
 30
0.0
  0
SPLINE
  5
4D3
100
AcDbEntity
  8
0
100
AcDbSpline
 62
7
  6
CONTINUOUS
 70
0
 71
3
 72
11
 73
7
 74
0
 42
0.0000001
 43
0.0000001
 44
0.0000000001
 40
0.0
 40
0.0
 40
0.0
 40
0.0
 40
0.2581491009
 40
0.5000000008
 40
0.7418509005
 40
1.0
 40
1.0
 40
1.0
 40
1.0
 10
197.2184607301
 20
198.2714165921
 30
0.0
 10
197.086215606
 20
198.5123435319
 30
0.0
 10
196.8720024397
 20
199.0054694083
 30
0.0
 10
196.7540023573
 20
199.7971243852
 30
0.0
 10
196.8720024388
 20
200.5887793611
 30
0.0
 10
197.0862156067
 20
201.0819052348
 30
0.0
 10
197.2184607301
 20
201.3228321734
 30
0.0
  0
ELLIPSE
  5
4D4
100
AcDbEntity
  8
0
100
AcDbEllipse
 62
7
  6
CONTINUOUS
 10
204.2222825196
 20
163.0467562044
 30
0.0
 11
1.0868367001
 21
4.9695299996
 31
0.0
 40
0.5071182934
 41
0.8981209173
 42
1.6812517444
  0
ELLIPSE
  5
4D5
100
AcDbEntity
  8
RUNDUNGEN
100
AcDbEllipse
 62
7
  6
CONTINUOUS
 10
193.6343647056
 20
163.0467562044
 30
0.0
 11
-1.0868367001
 21
4.9695299996
 31
0.0
 40
0.5071182934
 41
-1.6812517444
 42
-0.8981209173
  0
ENDSEC
  0
SECTION
  2
OBJECTS
  0
DICTIONARY
  5
C
100
AcDbDictionary
280
0
281
1
  3
ACAD_GROUP
350
D
  3
ACAD_MLINESTYLE
350
17
  3
ACAD_LAYOUT
350
1A
  3
ACAD_PLOTSETTINGS
350
19
  3
ACAD_PLOTSTYLENAME
350
E
  0
DICTIONARY
  5
D
102
{ACAD_REACTORS
330
C
102
}
100
AcDbDictionary
280
0
281
1
  0
ACDBDICTIONARYWDFLT
  5
E
102
{ACAD_REACTORS
330
C
102
}
100
AcDbDictionary
281
1
  3
Normal
350
F
100
AcDbDictionaryWithDefault
340
F
  0
DICTIONARY
  5
17
102
{ACAD_REACTORS
330
C
102
}
100
AcDbDictionary
280
0
281
1
  3
Standard
350
18
  0
DICTIONARY
  5
19
102
{ACAD_REACTORS
330
C
102
}
100
AcDbDictionary
281
1
  0
DICTIONARY
  5
1A
102
{ACAD_REACTORS
330
C
102
}
100
AcDbDictionary
281
1
  3
Model
350
4D6
  3
Layout1
350
4D7
  0
ACDBPLACEHOLDER
  5
F
102
{ACAD_REACTORS
330
E
102
}
  0
MLINESTYLE
  5
18
102
{ACAD_REACTORS
330
17
102
}
100
AcDbMlineStyle
  2
STANDARD
 70
0
  3

 62
256
 51
90.0
 52
90.0
 71
2
 49
0.5
 62
256
  6
BYLAYER
 49
-0.5
 62
256
  6
BYLAYER
  0
LAYOUT
  5
4D6
102
{ACAD_REACTORS
330
1A
102
}
100
AcDbPlotSettings
  1

  2
none_device
  4
ISO_A1_(594.00_x_841.00_MM)
  6

 40
0.0
 41
0.0
 42
0.0
 43
0.0
 44
841.0
 45
594.0
 46
0.0
 47
0.0
 48
0.0
 49
0.0
140
0.0
141
0.0
142
1.0
143
1.0
 70
1024
 72
1
 73
0
 74
0
  7

 75
0
147
1.0
148
0.0
149
0.0
100
AcDbLayout
  1
Model
 70
0
 71
0
 10
0.0
 20
0.0
 11
841.0
 21
594.0
 12
0.0
 22
0.0
 32
0.0
 14
0.0
 24
0.0
 34
0.0
 15
0.0
 25
0.0
 35
0.0
146
0.0
 13
0.0
 23
0.0
 33
0.0
 16
1.0
 26
0.0
 36
0.0
 17
0.0
 27
1.0
 37
0.0
 76
0
330
20B
345
0
346
0
  0
LAYOUT
  5
4D7
102
{ACAD_REACTORS
330
1A
102
}
100
AcDbPlotSettings
  1

  2
none_device
  4
ISO_A1_(594.00_x_841.00_MM)
  6

 40
0.0
 41
0.0
 42
0.0
 43
0.0
 44
841.0
 45
594.0
 46
0.0
 47
0.0
 48
0.0
 49
0.0
140
0.0
141
0.0
142
1.0
143
1.0
 70
0
 72
1
 73
0
 74
0
  7

 75
0
147
1.0
148
0.0
149
0.0
100
AcDbLayout
  1
Layout1
 70
0
 71
1
 10
0.0
 20
0.0
 11
841.0
 21
594.0
 12
0.0
 22
0.0
 32
0.0
 14
0.0
 24
0.0
 34
0.0
 15
0.0
 25
0.0
 35
0.0
146
0.0
 13
0.0
 23
0.0
 33
0.0
 16
1.0
 26
0.0
 36
0.0
 17
0.0
 27
1.0
 37
0.0
 76
0
330
20C
345
0
346
0
  0
ENDSEC
  0
EOF
