999
DXF file: ISAK-RG-1-16_250_7903193_M34585-P-12.dxf
999
Pro/ENGINEER 2010140 by Parametric Technology Corporation
  0
SECTION
  2
HEADER
  9
$ACADVER
  1
AC1015
  9
$DWGCODEPAGE
  3
ANSI_1252
  9
$EXTMAX
 10
1189.0
 20
841.0
 30
0.0
  9
$EXTMIN
 10
0.0
 20
0.0
 30
0.0
  9
$LIMMIN
 10
0.0
 20
0.0
  9
$LIMMAX
 10
1189.0
 20
841.0
  9
$VIEWCTR
 10
594.5
 20
420.5
  9
$VIEWSIZE
 40
841.0
  9
$CLAYER
  8
0
  9
$LTSCALE
 40
65.395
  9
$CELTYPE
  6
BYLAYER
  9
$DIMSCALE
 40
1.0
  9
$DIMASZ
 40
3.5
  9
$DIMEXO
 40
7.43125
  9
$DIMDLI
 40
45.182
  9
$DIMEXE
 40
21.402
  9
$DIMCEN
 40
10.701
  9
$DIMLFAC
 40
1.0
  9
$DIMBLK
  1
_FILLED
  9
$DIMTXT
 40
3.5
  9
$DIMTOL
 70
1
  9
$DIMLIM
 70
0
  9
$DIMTFAC
 40
1.0
  9
$DIMTP
 40
0.005
  9
$DIMTM
 40
0.005
  9
$PDMODE
 70
3
  9
$PDSIZE
 40
0.3125
  9
$HANDSEED
  5
4C2
  9
$TILEMODE
 70
1
  9
$MEASUREMENT
 70
1
  9
$INSUNITS
 70
4
  0
ENDSEC
  0
SECTION
  2
CLASSES
  0
CLASS
  1
ACDBDICTIONARYWDFLT
  2
AcDbDictionaryWithDefault
  3
AutoCAD 2000
 90
0
280
0
281
0
  0
CLASS
  1
ACDBPLACEHOLDER
  2
AcDbPlaceHolder
  3
AutoCAD 2000
 90
0
280
0
281
0
  0
CLASS
  1
LAYOUT
  2
AcDbLayout
  3
AutoCAD 2000
 90
0
280
0
281
0
  0
ENDSEC
  0
SECTION
  2
TABLES
  0
TABLE
  2
VPORT
  5
8
100
AcDbSymbolTable
 70
2
  0
VPORT
  5
1F4
100
AcDbSymbolTableRecord
100
AcDbViewportTableRecord
  2
*ACTIVE
 70
0
 10
0.0
 20
0.0
 11
1.0
 21
1.0
 12
594.5
 22
420.5
 13
0.0
 23
0.0
 14
1.0
 24
1.0
 15
0.0
 25
0.0
 16
0.0
 26
0.0
 36
1.0
 17
0.0
 27
0.0
 37
0.0
 40
841.0
 41
1.4137931034
 42
50.0
 43
0.0
 44
0.0
 50
0.0
 51
0.0
 71
0
 72
100
 73
1
 74
1
 75
0
 76
0
 77
0
 78
0
  0
ENDTAB
  0
TABLE
  2
LTYPE
  5
5
100
AcDbSymbolTable
 70
6
  0
LTYPE
  5
14
100
AcDbSymbolTableRecord
100
AcDbLinetypeTableRecord
  2
BYBLOCK
 70
0
  3

 72
65
 73
0
 40
0.0
  0
LTYPE
  5
15
100
AcDbSymbolTableRecord
100
AcDbLinetypeTableRecord
  2
BYLAYER
 70
0
  3

 72
65
 73
0
 40
0.0
  0
LTYPE
  5
16
100
AcDbSymbolTableRecord
100
AcDbLinetypeTableRecord
  2
CONTINUOUS
 70
64
  3
Solid line
 72
65
 73
0
 40
0.0
  0
LTYPE
  5
1F5
100
AcDbSymbolTableRecord
100
AcDbLinetypeTableRecord
  2
CENTER
 70
64
  3
____ _ ____ _ ____ _ ____ _ ____ _ ____ _ ____
 72
65
 73
4
 40
0.6
 49
0.375
 74
0
 49
-0.075
 74
0
 49
0.075
 74
0
 49
-0.075
 74
0
  0
LTYPE
  5
1F6
100
AcDbSymbolTableRecord
100
AcDbLinetypeTableRecord
  2
HIDDEN
 70
64
  3
- - - - - - - - - - - - - - - - - - - -
 72
65
 73
2
 40
0.2
 49
0.1
 74
0
 49
-0.1
 74
0
  0
LTYPE
  5
1F7
100
AcDbSymbolTableRecord
100
AcDbLinetypeTableRecord
  2
PHANTOM
 70
64
  3
_____ _ _ _____ _ _ _____ _ _ _____
 72
65
 73
6
 40
0.8
 49
0.45
 74
0
 49
-0.05
 74
0
 49
0.1
 74
0
 49
-0.05
 74
0
 49
0.1
 74
0
 49
-0.05
 74
0
  0
LTYPE
  5
1F8
100
AcDbSymbolTableRecord
100
AcDbLinetypeTableRecord
  2
DOT
 70
64
  3
. . . . . . . . . . . . . . . . . . . .
 72
65
 73
2
 40
0.2
 49
0.1
 74
0
 49
-0.1
 74
0
  0
LTYPE
  5
1F9
100
AcDbSymbolTableRecord
100
AcDbLinetypeTableRecord
  2
DASHED
 70
64
  3
- - - - - - - - - - - - - - - - - - - -
 72
65
 73
2
 40
0.2
 49
0.1
 74
0
 49
-0.1
 74
0
  0
ENDTAB
  0
TABLE
  2
LAYER
  5
2
100
AcDbSymbolTable
 70
36
  0
LAYER
  5
10
100
AcDbSymbolTableRecord
100
AcDbLayerTableRecord
  2
0
 70
0
 62
7
  6
CONTINUOUS
370
-3
390
F
  0
LAYER
  5
1FA
100
AcDbSymbolTableRecord
100
AcDbLayerTableRecord
  2
DEFAULT_1
 70
0
 62
7
  6
CENTER
370
-3
390
F
  0
LAYER
  5
1FB
100
AcDbSymbolTableRecord
100
AcDbLayerTableRecord
  2
DEFAULT_2
 70
0
 62
8
  6
HIDDEN
370
-3
390
F
  0
LAYER
  5
1FC
100
AcDbSymbolTableRecord
100
AcDbLayerTableRecord
  2
DEFAULT_3
 70
0
 62
7
  6
PHANTOM
370
-3
390
F
  0
LAYER
  5
1FD
100
AcDbSymbolTableRecord
100
AcDbLayerTableRecord
  2
BEZUGSACHSEN
 70
0
 62
7
  6
CONTINUOUS
370
-3
390
F
  0
LAYER
  5
1FE
100
AcDbSymbolTableRecord
100
AcDbLayerTableRecord
  2
BEZUGSEBENEN
 70
0
 62
7
  6
CONTINUOUS
370
-3
390
F
  0
LAYER
  5
1FF
100
AcDbSymbolTableRecord
100
AcDbLayerTableRecord
  2
BG_STARTBEZUEGE
 70
0
 62
7
  6
CONTINUOUS
370
-3
390
F
  0
LAYER
  5
200
100
AcDbSymbolTableRecord
100
AcDbLayerTableRecord
  2
FASEN
 70
0
 62
7
  6
CONTINUOUS
370
-3
390
F
  0
LAYER
  5
201
100
AcDbSymbolTableRecord
100
AcDbLayerTableRecord
  2
HILFEN
 70
0
 62
7
  6
CONTINUOUS
370
-3
390
F
  0
LAYER
  5
202
100
AcDbSymbolTableRecord
100
AcDbLayerTableRecord
  2
KONSTRUKTIONSELEMENTE
 70
0
 62
7
  6
CONTINUOUS
370
-3
390
F
  0
LAYER
  5
203
100
AcDbSymbolTableRecord
100
AcDbLayerTableRecord
  2
NORM
 70
0
 62
7
  6
CONTINUOUS
370
-3
390
F
  0
LAYER
  5
204
100
AcDbSymbolTableRecord
100
AcDbLayerTableRecord
  2
PLATZIERUNG
 70
0
 62
7
  6
CONTINUOUS
370
-3
390
F
  0
LAYER
  5
205
100
AcDbSymbolTableRecord
100
AcDbLayerTableRecord
  2
RUNDUNGEN
 70
0
 62
7
  6
CONTINUOUS
370
-3
390
F
  0
LAYER
  5
206
100
AcDbSymbolTableRecord
100
AcDbLayerTableRecord
  2
TEIL_STARTBEZUEGE
 70
0
 62
7
  6
CONTINUOUS
370
-3
390
F
  0
LAYER
  5
207
100
AcDbSymbolTableRecord
100
AcDbLayerTableRecord
  2
T_STARTBEZUEGE
 70
0
 62
7
  6
CONTINUOUS
370
-3
390
F
  0
ENDTAB
  0
TABLE
  2
STYLE
  5
3
100
AcDbSymbolTable
 70
1
  0
STYLE
  5
11
100
AcDbSymbolTableRecord
100
AcDbTextStyleTableRecord
  2
STANDARD
 70
0
 40
0.0
 41
0.7
 50
0.0
 71
0
 42
0.2
  3
txt
  4

  0
STYLE
  5
208
100
AcDbSymbolTableRecord
100
AcDbTextStyleTableRecord
  2
TEXTSTYLE_1
 70
0
 40
0.0
 41
0.8
 50
0.0
 71
0
 42
0.2
  3
gdt
  4

  0
ENDTAB
  0
TABLE
  2
VIEW
  5
6
100
AcDbSymbolTable
 70
0
  0
ENDTAB
  0
TABLE
  2
UCS
  5
7
100
AcDbSymbolTable
 70
0
  0
ENDTAB
  0
TABLE
  2
APPID
  5
9
100
AcDbSymbolTable
 70
1
  0
APPID
  5
209
100
AcDbSymbolTableRecord
100
AcDbRegAppTableRecord
  2
ACAD
 70
0
  0
ENDTAB
  0
TABLE
  2
BLOCK_RECORD
  5
1
100
AcDbSymbolTable
 70
0
  0
BLOCK_RECORD
  5
20A
100
AcDbSymbolTableRecord
100
AcDbBlockTableRecord
  2
*Model_Space
  0
BLOCK_RECORD
  5
20B
100
AcDbSymbolTableRecord
100
AcDbBlockTableRecord
  2
*Paper_Space
  0
ENDTAB
  0
TABLE
  2
DIMSTYLE
  5
A
100
AcDbSymbolTable
 70
1
100
AcDbDimStyleTable
 71
0
  0
DIMSTYLE
105
20C
100
AcDbSymbolTableRecord
100
AcDbDimStyleTableRecord
  2
STANDARD
 70
0
  3

  4

 40
1.0
 41
3.5
 42
0.0625
 43
0.38
 44
0.18
 45
0.0
 46
0.0
 47
0.005
 48
0.005
140
3.5
141
0.09
142
0.0
143
25.4
144
1.0
145
0.0
146
1.0
147
0.09
 71
1.0
 72
0.0
 73
0
 74
0
 75
0
 76
0
 77
1
 78
8
170
0
171
2
172
0
173
0
174
0
175
0
176
0
177
0
178
5
270
2
271
3
272
3
273
2
274
2
275
0
280
0
281
0
282
0
283
1
284
8
285
0
286
0
287
3
288
0
340
11
  0
ENDTAB
  0
ENDSEC
  0
SECTION
  2
BLOCKS
  0
BLOCK
  5
20
100
AcDbEntity
  8
0
100
AcDbBlockBegin
  2
*Model_Space
 70
0
 10
0.0
 20
0.0
 30
0.0
  3
*Model_Space
  1

  0
ENDBLK
  5
21
100
AcDbEntity
  8
0
100
AcDbBlockEnd
  0
BLOCK
  5
1C
100
AcDbEntity
  8
0
100
AcDbBlockBegin
  2
*Paper_Space
 70
0
 10
0.0
 20
0.0
 30
0.0
  3
*Paper_Space
  1

  0
ENDBLK
  5
1D
100
AcDbEntity
  8
0
100
AcDbBlockEnd
  0
ENDSEC
  0
SECTION
  2
ENTITIES
  0
MTEXT
  5
20D
100
AcDbEntity
  8
0
100
AcDbMText
 62
5
  6
CONTINUOUS
  7
STANDARD
 71
1
 72
1
 10
605.1811189175
 20
534.6047878799
 30
0.0
 11
0.0
 21
1.0
 31
0.0
 44
0.9
  1
RUD
 40
11.0
 41
29.3333333333
  0
MTEXT
  5
20E
100
AcDbEntity
  8
0
100
AcDbMText
 62
5
  6
CONTINUOUS
  7
STANDARD
 71
1
 72
1
 10
895.720687629
 20
473.144476214
 30
0.0
 11
0.0
 21
1.0
 31
0.0
 44
0.9
  1
ISAK-RG 1-16/250
 40
11.0
 41
132.2619047619
  0
MTEXT
  5
20F
100
AcDbEntity
  8
0
100
AcDbMText
 62
5
  6
CONTINUOUS
  7
STANDARD
 71
1
 72
1
 10
297.4984238272
 20
451.5794304187
 30
0.0
 11
0.0
 21
1.0
 31
0.0
 44
0.9
  1
RUD ISAK-RG 1-16/250
 40
11.0
 41
168.1428571429
  0
LINE
  5
210
100
AcDbEntity
  8
0
100
AcDbLine
 62
7
  6
CONTINUOUS
 10
0.0
 20
0.0
 11
0.0
 21
841.0
  0
LINE
  5
211
100
AcDbEntity
  8
0
100
AcDbLine
 62
7
  6
CONTINUOUS
 10
0.0
 20
0.0
 11
1189.0
 21
0.0
  0
LINE
  5
212
100
AcDbEntity
  8
0
100
AcDbLine
 62
7
  6
CONTINUOUS
 10
0.0
 20
841.0
 11
1189.0
 21
841.0
  0
LINE
  5
213
100
AcDbEntity
  8
0
100
AcDbLine
 62
7
  6
CONTINUOUS
 10
1189.0
 20
0.0
 11
1189.0
 21
841.0
  0
LINE
  5
214
100
AcDbEntity
  8
RUNDUNGEN
100
AcDbLine
 62
7
  6
CONTINUOUS
 10
710.3788693212
 20
-58.4641846366
 11
713.9288693212
 21
-58.4641846366
  0
LINE
  5
215
100
AcDbEntity
  8
RUNDUNGEN
100
AcDbLine
 62
7
  6
CONTINUOUS
 10
799.8288693212
 20
-58.4641846366
 11
803.3788693212
 21
-58.4641846366
  0
LINE
  5
216
100
AcDbEntity
  8
RUNDUNGEN
100
AcDbLine
 62
7
  6
CONTINUOUS
 10
722.7288693212
 20
-45.029155794
 11
733.7780820661
 21
-45.029155794
  0
LINE
  5
217
100
AcDbEntity
  8
RUNDUNGEN
100
AcDbLine
 62
7
  6
CONTINUOUS
 10
779.9796565763
 20
-45.029155794
 11
791.0288693212
 21
-45.029155794
  0
LINE
  5
218
100
AcDbEntity
  8
RUNDUNGEN
100
AcDbLine
 62
7
  6
CONTINUOUS
 10
794.9934075683
 20
25.3065490091
 11
794.8788693212
 21
25.3056743575
  0
LINE
  5
219
100
AcDbEntity
  8
0
100
AcDbLine
 62
7
  6
CONTINUOUS
 10
734.4992409447
 20
20.5903535001
 11
742.1792409447
 21
20.5903535001
  0
LINE
  5
21A
100
AcDbEntity
  8
0
100
AcDbLine
 62
7
  6
CONTINUOUS
 10
746.2525230271
 20
20.5903535001
 11
747.7885230271
 21
20.5903535001
  0
LINE
  5
21B
100
AcDbEntity
  8
0
100
AcDbLine
 62
7
  6
CONTINUOUS
 10
755.1052492942
 20
20.5903535001
 11
756.8788693212
 21
20.5903535001
  0
LINE
  5
21C
100
AcDbEntity
  8
0
100
AcDbLine
 62
7
  6
CONTINUOUS
 10
770.2431396041
 20
20.5903535001
 11
775.8078869122
 21
20.5903535001
  0
LINE
  5
21D
100
AcDbEntity
  8
0
100
AcDbLine
 62
7
  6
CONTINUOUS
 10
734.4992409447
 20
21.156038925
 11
742.1792409447
 21
21.156038925
  0
LINE
  5
21E
100
AcDbEntity
  8
0
100
AcDbLine
 62
7
  6
CONTINUOUS
 10
746.2525230271
 20
21.156038925
 11
747.7885230271
 21
21.156038925
  0
LINE
  5
21F
100
AcDbEntity
  8
0
100
AcDbLine
 62
7
  6
CONTINUOUS
 10
755.1052492942
 20
21.156038925
 11
756.4169891058
 21
21.156038925
  0
LINE
  5
220
100
AcDbEntity
  8
0
100
AcDbLine
 62
7
  6
CONTINUOUS
 10
770.2431396041
 20
21.156038925
 11
775.8078869122
 21
21.156038925
  0
LINE
  5
221
100
AcDbEntity
  8
0
100
AcDbLine
 62
7
  6
CONTINUOUS
 10
775.8415452769
 20
21.72172435
 11
771.7791396041
 21
21.72172435
  0
LINE
  5
222
100
AcDbEntity
  8
0
100
AcDbLine
 62
7
  6
CONTINUOUS
 10
739.5392409447
 20
21.94799852
 11
737.1392409447
 21
21.94799852
  0
LINE
  5
223
100
AcDbEntity
  8
0
100
AcDbLine
 62
7
  6
CONTINUOUS
 10
737.5712409447
 20
22.4571154024
 11
739.1072409447
 21
22.4571154024
  0
LINE
  5
224
100
AcDbEntity
  8
0
100
AcDbLine
 62
7
  6
CONTINUOUS
 10
737.5712409447
 20
23.0228008274
 11
739.1072409447
 21
23.0228008274
  0
LINE
  5
225
100
AcDbEntity
  8
0
100
AcDbLine
 62
7
  6
CONTINUOUS
 10
738.5072409447
 20
23.8147604223
 11
738.1712409447
 21
23.8147604223
  0
LINE
  5
226
100
AcDbEntity
  8
0
100
AcDbLine
 62
7
  6
CONTINUOUS
 10
739.1072409447
 20
24.1541716773
 11
738.6992409447
 21
24.1541716773
  0
LINE
  5
227
100
AcDbEntity
  8
0
100
AcDbLine
 62
7
  6
CONTINUOUS
 10
737.9792409447
 20
24.1541716773
 11
737.5712409447
 21
24.1541716773
  0
LINE
  5
228
100
AcDbEntity
  8
0
100
AcDbLine
 62
7
  6
CONTINUOUS
 10
737.1392409447
 20
24.6632885597
 11
737.9792409447
 21
24.6632885597
  0
LINE
  5
229
100
AcDbEntity
  8
0
100
AcDbLine
 62
7
  6
CONTINUOUS
 10
738.6992409447
 20
24.6632885597
 11
739.5392409447
 21
24.6632885597
  0
LINE
  5
22A
100
AcDbEntity
  8
0
100
AcDbLine
 62
7
  6
CONTINUOUS
 10
747.7885230271
 20
24.8484561649
 11
751.6285230271
 21
24.8484561649
  0
LINE
  5
22B
100
AcDbEntity
  8
0
100
AcDbLine
 62
7
  6
CONTINUOUS
 10
737.1392409447
 20
25.2289739847
 11
737.9792409447
 21
25.2289739847
  0
LINE
  5
22C
100
AcDbEntity
  8
0
100
AcDbLine
 62
7
  6
CONTINUOUS
 10
738.6992409447
 20
25.2289739847
 11
739.5392409447
 21
25.2289739847
  0
LINE
  5
22D
100
AcDbEntity
  8
RUNDUNGEN
100
AcDbLine
 62
7
  6
CONTINUOUS
 10
794.8788693212
 20
25.3056743575
 11
787.7646661466
 21
25.3056743575
  0
LINE
  5
22E
100
AcDbEntity
  8
0
100
AcDbLine
 62
7
  6
CONTINUOUS
 10
787.7646661466
 20
25.3056743575
 11
787.7290507766
 21
25.3056743575
  0
LINE
  5
22F
100
AcDbEntity
  8
0
100
AcDbLine
 62
7
  6
CONTINUOUS
 10
726.0286878657
 20
25.3056743575
 11
725.9930724958
 21
25.3056743575
  0
LINE
  5
230
100
AcDbEntity
  8
RUNDUNGEN
100
AcDbLine
 62
7
  6
CONTINUOUS
 10
725.9930724958
 20
25.3056743575
 11
718.8788693212
 21
25.3056743575
  0
LINE
  5
231
100
AcDbEntity
  8
0
100
AcDbLine
 62
7
  6
CONTINUOUS
 10
739.5392409447
 20
25.3421110697
 11
738.6992409447
 21
25.3421110697
  0
LINE
  5
232
100
AcDbEntity
  8
0
100
AcDbLine
 62
7
  6
CONTINUOUS
 10
737.9792409447
 20
25.3421110697
 11
737.1392409447
 21
25.3421110697
  0
LINE
  5
233
100
AcDbEntity
  8
0
100
AcDbLine
 62
7
  6
CONTINUOUS
 10
747.7885230271
 20
25.4141415899
 11
751.6285230271
 21
25.4141415899
  0
LINE
  5
234
100
AcDbEntity
  8
0
100
AcDbLine
 62
7
  6
CONTINUOUS
 10
737.5712409447
 20
25.8512279521
 11
737.9792409447
 21
25.8512279521
  0
LINE
  5
235
100
AcDbEntity
  8
0
100
AcDbLine
 62
7
  6
CONTINUOUS
 10
738.6992409447
 20
25.8512279521
 11
739.1072409447
 21
25.8512279521
  0
LINE
  5
236
100
AcDbEntity
  8
0
100
AcDbLine
 62
7
  6
CONTINUOUS
 10
752.2685230271
 20
25.9345721808
 11
747.7885230271
 21
25.9345721808
  0
LINE
  5
237
100
AcDbEntity
  8
0
100
AcDbLine
 62
7
  6
CONTINUOUS
 10
738.1712409447
 20
26.1906392071
 11
738.5072409447
 21
26.1906392071
  0
LINE
  5
238
100
AcDbEntity
  8
0
100
AcDbLine
 62
7
  6
CONTINUOUS
 10
737.5712409447
 20
26.4169133771
 11
737.9792409447
 21
26.4169133771
  0
LINE
  5
239
100
AcDbEntity
  8
0
100
AcDbLine
 62
7
  6
CONTINUOUS
 10
738.6992409447
 20
26.4169133771
 11
739.1072409447
 21
26.4169133771
  0
LINE
  5
23A
100
AcDbEntity
  8
0
100
AcDbLine
 62
7
  6
CONTINUOUS
 10
738.1712409447
 20
26.756324632
 11
738.5072409447
 21
26.756324632
  0
LINE
  5
23B
100
AcDbEntity
  8
0
100
AcDbLine
 62
7
  6
CONTINUOUS
 10
771.7791396041
 20
27.3785785995
 11
770.2431396041
 21
27.3785785995
  0
LINE
  5
23C
100
AcDbEntity
  8
0
100
AcDbLine
 62
7
  6
CONTINUOUS
 10
747.7885230271
 20
27.435147142
 11
746.2525230271
 21
27.435147142
  0
LINE
  5
23D
100
AcDbEntity
  8
0
100
AcDbLine
 62
7
  6
CONTINUOUS
 10
739.1072409447
 20
27.548284227
 11
737.5712409447
 21
27.548284227
  0
LINE
  5
23E
100
AcDbEntity
  8
0
100
AcDbLine
 62
7
  6
CONTINUOUS
 10
737.1392409447
 20
28.0574011094
 11
739.5392409447
 21
28.0574011094
  0
LINE
  5
23F
100
AcDbEntity
  8
0
100
AcDbLine
 62
7
  6
CONTINUOUS
 10
770.2431396041
 20
28.3289301134
 11
775.8415452769
 21
28.3289301134
  0
LINE
  5
240
100
AcDbEntity
  8
0
100
AcDbLine
 62
7
  6
CONTINUOUS
 10
746.2525230271
 20
28.3854986559
 11
752.2685230271
 21
28.3854986559
  0
LINE
  5
241
100
AcDbEntity
  8
0
100
AcDbLine
 62
7
  6
CONTINUOUS
 10
737.1392409447
 20
28.6230865344
 11
739.5392409447
 21
28.6230865344
  0
LINE
  5
242
100
AcDbEntity
  8
0
100
AcDbLine
 62
7
  6
CONTINUOUS
 10
770.2431396041
 20
28.8946155383
 11
775.8415452769
 21
28.8946155383
  0
LINE
  5
243
100
AcDbEntity
  8
0
100
AcDbLine
 62
7
  6
CONTINUOUS
 10
746.2525230271
 20
28.9511840808
 11
752.2685230271
 21
28.9511840808
  0
LINE
  5
244
100
AcDbEntity
  8
0
100
AcDbLine
 62
7
  6
CONTINUOUS
 10
775.8078869122
 20
29.4150461293
 11
770.2431396041
 21
29.4150461293
  0
LINE
  5
245
100
AcDbEntity
  8
0
100
AcDbLine
 62
7
  6
CONTINUOUS
 10
766.8831396041
 20
29.4150461293
 11
765.3471396041
 21
29.4150461293
  0
LINE
  5
246
100
AcDbEntity
  8
0
100
AcDbLine
 62
7
  6
CONTINUOUS
 10
759.3085230271
 20
29.4150461293
 11
757.7725230271
 21
29.4150461293
  0
LINE
  5
247
100
AcDbEntity
  8
0
100
AcDbLine
 62
7
  6
CONTINUOUS
 10
752.2685230271
 20
29.4150461293
 11
746.2525230271
 21
29.4150461293
  0
LINE
  5
248
100
AcDbEntity
  8
0
100
AcDbLine
 62
7
  6
CONTINUOUS
 10
742.1792409447
 20
29.4150461293
 11
734.4992409447
 21
29.4150461293
  0
LINE
  5
249
100
AcDbEntity
  8
RUNDUNGEN
100
AcDbLine
 62
7
  6
CONTINUOUS
 10
718.8788693212
 20
25.3056743575
 11
718.764331074
 21
25.3065490091
  0
LINE
  5
24A
100
AcDbEntity
  8
BEZUGSACHSEN
100
AcDbLine
 62
7
  6
CONTINUOUS
 10
747.6288693212
 20
40.4098743575
 11
766.1288693212
 21
40.4098743575
  0
LINE
  5
24B
100
AcDbEntity
  8
BEZUGSACHSEN
100
AcDbLine
 62
7
  6
CONTINUOUS
 10
747.6288693212
 20
46.4477455107
 11
766.1288693212
 21
46.4477455107
  0
LINE
  5
24C
100
AcDbEntity
  8
BEZUGSACHSEN
100
AcDbLine
 62
7
  6
CONTINUOUS
 10
747.6288693212
 20
56.9720032042
 11
766.1288693212
 21
56.9720032042
  0
LINE
  5
24D
100
AcDbEntity
  8
BEZUGSACHSEN
100
AcDbLine
 62
7
  6
CONTINUOUS
 10
747.6288693212
 20
63.0098743575
 11
766.1288693212
 21
63.0098743575
  0
LINE
  5
24E
100
AcDbEntity
  8
RUNDUNGEN
100
AcDbLine
 62
7
  6
CONTINUOUS
 10
718.8788693212
 20
69.3056743575
 11
747.6288693212
 21
69.3056743575
  0
LINE
  5
24F
100
AcDbEntity
  8
RUNDUNGEN
100
AcDbLine
 62
7
  6
CONTINUOUS
 10
766.1288693212
 20
69.3056743575
 11
794.8788693212
 21
69.3056743575
  0
LINE
  5
250
100
AcDbEntity
  8
0
100
AcDbLine
 62
7
  6
CONTINUOUS
 10
741.6947340962
 20
82.3798625461
 11
741.0587180361
 21
82.2174753314
  0
LINE
  5
251
100
AcDbEntity
  8
0
100
AcDbLine
 62
7
  6
CONTINUOUS
 10
734.062535006
 20
82.3798625461
 11
733.4265180361
 21
82.2174753314
  0
LINE
  5
252
100
AcDbEntity
  8
0
100
AcDbLine
 62
7
  6
CONTINUOUS
 10
781.2497333972
 20
82.3798625461
 11
780.5837428237
 21
82.2174753314
  0
LINE
  5
253
100
AcDbEntity
  8
0
100
AcDbLine
 62
7
  6
CONTINUOUS
 10
778.4192710778
 20
87.7386414268
 11
779.0852626041
 21
87.9010286415
  0
LINE
  5
254
100
AcDbEntity
  8
0
100
AcDbLine
 62
7
  6
CONTINUOUS
 10
741.0587180361
 20
81.2431519296
 11
741.853739476
 21
81.4055391585
  0
LINE
  5
255
100
AcDbEntity
  8
0
100
AcDbLine
 62
7
  6
CONTINUOUS
 10
733.4265180361
 20
81.2431519296
 11
734.2215385661
 21
81.4055391585
  0
LINE
  5
256
100
AcDbEntity
  8
0
100
AcDbLine
 62
7
  6
CONTINUOUS
 10
791.073103408
 20
81.2431519296
 11
791.905593054
 21
81.4055391585
  0
LINE
  5
257
100
AcDbEntity
  8
0
100
AcDbLine
 62
7
  6
CONTINUOUS
 10
780.5837428237
 20
81.2431519296
 11
781.416231517
 21
81.4055391585
  0
LINE
  5
258
100
AcDbEntity
  8
0
100
AcDbLine
 62
7
  6
CONTINUOUS
 10
790.2406156674
 20
86.114768825
 11
789.4081260214
 21
85.9523816103
  0
LINE
  5
259
100
AcDbEntity
  8
0
100
AcDbLine
 62
7
  6
CONTINUOUS
 10
790.2406156674
 20
88.8753519296
 11
789.4081260214
 21
88.7129647149
  0
LINE
  5
25A
100
AcDbEntity
  8
0
100
AcDbLine
 62
7
  6
CONTINUOUS
 10
779.0852626041
 20
88.8753519296
 11
778.2527729581
 21
88.7129647149
  0
LINE
  5
25B
100
AcDbEntity
  8
RUNDUNGEN
100
AcDbLine
 62
7
  6
CONTINUOUS
 10
794.8788693212
 20
77.1604883945
 11
765.8862139837
 21
77.1604883945
  0
LINE
  5
25C
100
AcDbEntity
  8
RUNDUNGEN
100
AcDbLine
 62
7
  6
CONTINUOUS
 10
747.8715246587
 20
77.1604883945
 11
718.8788693212
 21
77.1604883945
  0
LINE
  5
25D
100
AcDbEntity
  8
0
100
AcDbLine
 62
7
  6
CONTINUOUS
 10
722.9322430361
 20
81.2431519296
 11
723.8862680361
 21
81.2431519296
  0
LINE
  5
25E
100
AcDbEntity
  8
0
100
AcDbLine
 62
7
  6
CONTINUOUS
 10
727.8613720511
 20
81.2431519296
 11
728.974401521
 21
81.2431519296
  0
LINE
  5
25F
100
AcDbEntity
  8
0
100
AcDbLine
 62
7
  6
CONTINUOUS
 10
732.7905010661
 20
81.2431519296
 11
733.4265180361
 21
81.2431519296
  0
LINE
  5
260
100
AcDbEntity
  8
0
100
AcDbLine
 62
7
  6
CONTINUOUS
 10
737.2426180361
 20
81.2431519296
 11
741.0587180361
 21
81.2431519296
  0
LINE
  5
261
100
AcDbEntity
  8
0
100
AcDbLine
 62
7
  6
CONTINUOUS
 10
766.4314293212
 20
81.2431519296
 11
767.4304161342
 21
81.2431519296
  0
LINE
  5
262
100
AcDbEntity
  8
0
100
AcDbLine
 62
7
  6
CONTINUOUS
 10
768.7623984722
 20
81.2431519296
 11
769.7613852853
 21
81.2431519296
  0
LINE
  5
263
100
AcDbEntity
  8
0
100
AcDbLine
 62
7
  6
CONTINUOUS
 10
773.9238304191
 20
81.2431519296
 11
775.0893153519
 21
81.2431519296
  0
LINE
  5
264
100
AcDbEntity
  8
0
100
AcDbLine
 62
7
  6
CONTINUOUS
 10
779.0852626041
 20
81.2431519296
 11
780.5837428237
 21
81.2431519296
  0
LINE
  5
265
100
AcDbEntity
  8
0
100
AcDbLine
 62
7
  6
CONTINUOUS
 10
785.2456816022
 20
81.2431519296
 11
786.2446684152
 21
81.2431519296
  0
LINE
  5
266
100
AcDbEntity
  8
0
100
AcDbLine
 62
7
  6
CONTINUOUS
 10
790.2406156674
 20
81.2431519296
 11
791.073103408
 21
81.2431519296
  0
LINE
  5
267
100
AcDbEntity
  8
0
100
AcDbLine
 62
7
  6
CONTINUOUS
 10
791.2396024805
 20
82.0550881167
 11
790.074116595
 21
82.0550881167
  0
LINE
  5
268
100
AcDbEntity
  8
0
100
AcDbLine
 62
7
  6
CONTINUOUS
 10
780.5837428237
 20
82.2174753314
 11
779.0852626041
 21
82.2174753314
  0
LINE
  5
269
100
AcDbEntity
  8
0
100
AcDbLine
 62
7
  6
CONTINUOUS
 10
741.0587180361
 20
82.2174753314
 11
738.1966430361
 21
82.2174753314
  0
LINE
  5
26A
100
AcDbEntity
  8
0
100
AcDbLine
 62
7
  6
CONTINUOUS
 10
733.4265180361
 20
82.2174753314
 11
732.7905010661
 21
82.2174753314
  0
LINE
  5
26B
100
AcDbEntity
  8
0
100
AcDbLine
 62
7
  6
CONTINUOUS
 10
780.4172447039
 20
84.4908966782
 11
781.9157249235
 21
84.4908966782
  0
LINE
  5
26C
100
AcDbEntity
  8
0
100
AcDbLine
 62
7
  6
CONTINUOUS
 10
723.8862680361
 20
84.6532838929
 11
726.5893387936
 21
84.6532838929
  0
LINE
  5
26D
100
AcDbEntity
  8
0
100
AcDbLine
 62
7
  6
CONTINUOUS
 10
769.7613852853
 20
84.6532838929
 11
772.5918478429
 21
84.6532838929
  0
LINE
  5
26E
100
AcDbEntity
  8
0
100
AcDbLine
 62
7
  6
CONTINUOUS
 10
790.074116595
 20
85.3028327516
 11
791.2396024805
 21
85.3028327516
  0
LINE
  5
26F
100
AcDbEntity
  8
0
100
AcDbLine
 62
7
  6
CONTINUOUS
 10
782.9147117366
 20
85.4652199663
 11
780.4172447039
 21
85.4652199663
  0
LINE
  5
270
100
AcDbEntity
  8
0
100
AcDbLine
 62
7
  6
CONTINUOUS
 10
772.924843606
 20
85.627607181
 11
769.7613852853
 21
85.627607181
  0
LINE
  5
271
100
AcDbEntity
  8
0
100
AcDbLine
 62
7
  6
CONTINUOUS
 10
726.9073470511
 20
85.627607181
 11
723.8862680361
 21
85.627607181
  0
LINE
  5
272
100
AcDbEntity
  8
0
100
AcDbLine
 62
7
  6
CONTINUOUS
 10
791.073103408
 20
86.114768825
 11
790.2406156674
 21
86.114768825
  0
LINE
  5
273
100
AcDbEntity
  8
0
100
AcDbLine
 62
7
  6
CONTINUOUS
 10
781.9157249235
 20
86.9267048984
 11
782.9147117366
 21
86.9267048984
  0
LINE
  5
274
100
AcDbEntity
  8
0
100
AcDbLine
 62
7
  6
CONTINUOUS
 10
792.4050864606
 20
87.089092568
 11
793.2375761066
 21
87.089092568
  0
LINE
  5
275
100
AcDbEntity
  8
0
100
AcDbLine
 62
7
  6
CONTINUOUS
 10
738.1966430361
 20
87.9010286415
 11
741.0587180361
 21
87.9010286415
  0
LINE
  5
276
100
AcDbEntity
  8
0
100
AcDbLine
 62
7
  6
CONTINUOUS
 10
779.0852626041
 20
87.9010286415
 11
780.5837428237
 21
87.9010286415
  0
LINE
  5
277
100
AcDbEntity
  8
0
100
AcDbLine
 62
7
  6
CONTINUOUS
 10
723.8862680361
 20
88.0634158562
 11
726.9073470511
 21
88.0634158562
  0
LINE
  5
278
100
AcDbEntity
  8
0
100
AcDbLine
 62
7
  6
CONTINUOUS
 10
769.7613852853
 20
88.0634158562
 11
772.924843606
 21
88.0634158562
  0
LINE
  5
279
100
AcDbEntity
  8
0
100
AcDbLine
 62
7
  6
CONTINUOUS
 10
790.074116595
 20
88.0634158562
 11
791.073103408
 21
88.0634158562
  0
LINE
  5
27A
100
AcDbEntity
  8
0
100
AcDbLine
 62
7
  6
CONTINUOUS
 10
790.906606241
 20
88.8753519296
 11
790.2406156674
 21
88.8753519296
  0
LINE
  5
27B
100
AcDbEntity
  8
0
100
AcDbLine
 62
7
  6
CONTINUOUS
 10
786.2446684152
 20
88.8753519296
 11
785.2456816022
 21
88.8753519296
  0
LINE
  5
27C
100
AcDbEntity
  8
0
100
AcDbLine
 62
7
  6
CONTINUOUS
 10
780.5837428237
 20
88.8753519296
 11
779.0852626041
 21
88.8753519296
  0
LINE
  5
27D
100
AcDbEntity
  8
0
100
AcDbLine
 62
7
  6
CONTINUOUS
 10
772.7583459626
 20
88.8753519296
 11
768.7623984722
 21
88.8753519296
  0
LINE
  5
27E
100
AcDbEntity
  8
0
100
AcDbLine
 62
7
  6
CONTINUOUS
 10
767.4304161342
 20
88.8753519296
 11
766.4314293212
 21
88.8753519296
  0
LINE
  5
27F
100
AcDbEntity
  8
0
100
AcDbLine
 62
7
  6
CONTINUOUS
 10
741.0587180361
 20
88.8753519296
 11
737.2426180361
 21
88.8753519296
  0
LINE
  5
280
100
AcDbEntity
  8
0
100
AcDbLine
 62
7
  6
CONTINUOUS
 10
735.970585006
 20
88.8753519296
 11
735.016560006
 21
88.8753519296
  0
LINE
  5
281
100
AcDbEntity
  8
0
100
AcDbLine
 62
7
  6
CONTINUOUS
 10
731.200460006
 20
88.8753519296
 11
730.2464345511
 21
88.8753519296
  0
LINE
  5
282
100
AcDbEntity
  8
0
100
AcDbLine
 62
7
  6
CONTINUOUS
 10
726.7483430361
 20
88.8753519296
 11
722.9322430361
 21
88.8753519296
  0
LINE
  5
283
100
AcDbEntity
  8
RUNDUNGEN
100
AcDbLine
 62
7
  6
CONTINUOUS
 10
787.7397803632
 20
98.6541435858
 11
783.1278049744
 21
98.6541435858
  0
LINE
  5
284
100
AcDbEntity
  8
RUNDUNGEN
100
AcDbLine
 62
7
  6
CONTINUOUS
 10
730.6299336679
 20
98.6541435858
 11
726.0179575452
 21
98.6541435858
  0
LINE
  5
285
100
AcDbEntity
  8
RUNDUNGEN
100
AcDbLine
 62
7
  6
CONTINUOUS
 10
738.9042553156
 20
98.8056743575
 11
774.8534833267
 21
98.8056743575
  0
LINE
  5
286
100
AcDbEntity
  8
0
100
AcDbLine
 62
7
  6
CONTINUOUS
 10
778.2527729581
 20
81.4055391585
 11
779.0852626041
 21
81.2431519296
  0
LINE
  5
287
100
AcDbEntity
  8
0
100
AcDbLine
 62
7
  6
CONTINUOUS
 10
789.4081260214
 20
81.4055391585
 11
790.2406156674
 21
81.2431519296
  0
LINE
  5
288
100
AcDbEntity
  8
0
100
AcDbLine
 62
7
  6
CONTINUOUS
 10
773.5908346559
 20
88.7129647149
 11
772.7583459626
 21
88.8753519296
  0
LINE
  5
289
100
AcDbEntity
  8
0
100
AcDbLine
 62
7
  6
CONTINUOUS
 10
791.905593054
 20
85.9523816103
 11
791.073103408
 21
86.114768825
  0
LINE
  5
28A
100
AcDbEntity
  8
0
100
AcDbLine
 62
7
  6
CONTINUOUS
 10
781.416231517
 20
88.7129647149
 11
780.5837428237
 21
88.8753519296
  0
LINE
  5
28B
100
AcDbEntity
  8
0
100
AcDbLine
 62
7
  6
CONTINUOUS
 10
791.739095887
 20
88.7129647149
 11
790.906606241
 21
88.8753519296
  0
LINE
  5
28C
100
AcDbEntity
  8
0
100
AcDbLine
 62
7
  6
CONTINUOUS
 10
731.9954805361
 20
81.4055391585
 11
732.7905010661
 21
81.2431519296
  0
LINE
  5
28D
100
AcDbEntity
  8
0
100
AcDbLine
 62
7
  6
CONTINUOUS
 10
727.543364021
 20
88.7129647149
 11
726.7483430361
 21
88.8753519296
  0
LINE
  5
28E
100
AcDbEntity
  8
0
100
AcDbLine
 62
7
  6
CONTINUOUS
 10
741.853739476
 20
88.7129647149
 11
741.0587180361
 21
88.8753519296
  0
LINE
  5
28F
100
AcDbEntity
  8
0
100
AcDbLine
 62
7
  6
CONTINUOUS
 10
779.0852626041
 20
82.2174753314
 11
778.4192710778
 21
82.3798625461
  0
LINE
  5
290
100
AcDbEntity
  8
0
100
AcDbLine
 62
7
  6
CONTINUOUS
 10
780.5837428237
 20
87.9010286415
 11
781.2497333972
 21
87.7386414268
  0
LINE
  5
291
100
AcDbEntity
  8
0
100
AcDbLine
 62
7
  6
CONTINUOUS
 10
732.7905010661
 20
82.2174753314
 11
732.154485006
 21
82.3798625461
  0
LINE
  5
292
100
AcDbEntity
  8
0
100
AcDbLine
 62
7
  6
CONTINUOUS
 10
741.0587180361
 20
87.9010286415
 11
741.6947340962
 21
87.7386414268
  0
LINE
  5
293
100
AcDbEntity
  8
0
100
AcDbLine
 62
7
  6
CONTINUOUS
 10
726.9073470511
 20
88.0634158562
 11
727.3843595511
 21
87.9010286415
  0
LINE
  5
294
100
AcDbEntity
  8
RUNDUNGEN
100
AcDbLine
 62
7
  6
CONTINUOUS
 10
689.6546153947
 20
41.9803005082
 11
693.6696504492
 21
37.9257047508
  0
LINE
  5
295
100
AcDbEntity
  8
RUNDUNGEN
100
AcDbLine
 62
7
  6
CONTINUOUS
 10
705.485325038
 20
25.9936086648
 11
727.3059122892
 21
3.9580201103
  0
LINE
  5
296
100
AcDbEntity
  8
RUNDUNGEN
100
AcDbLine
 62
7
  6
CONTINUOUS
 10
765.0703897641
 20
-34.1785560521
 11
773.4264402219
 21
-42.6169398459
  0
LINE
  5
297
100
AcDbEntity
  8
0
100
AcDbLine
 62
7
  6
CONTINUOUS
 10
790.074116595
 20
82.0550881167
 11
789.5746231885
 21
82.2174753314
  0
LINE
  5
298
100
AcDbEntity
  8
0
100
AcDbLine
 62
7
  6
CONTINUOUS
 10
772.924843606
 20
88.0634158562
 11
773.4243370125
 21
87.9010286415
  0
LINE
  5
299
100
AcDbEntity
  8
0
100
AcDbLine
 62
7
  6
CONTINUOUS
 10
791.2396024805
 20
85.3028327516
 11
791.739095887
 21
85.1404455369
  0
LINE
  5
29A
100
AcDbEntity
  8
0
100
AcDbLine
 62
7
  6
CONTINUOUS
 10
791.073103408
 20
88.0634158562
 11
791.5725968146
 21
87.9010286415
  0
LINE
  5
29B
100
AcDbEntity
  8
0
100
AcDbLine
 62
7
  6
CONTINUOUS
 10
777.5867823845
 20
81.7303136305
 11
778.2527729581
 21
81.4055391585
  0
LINE
  5
29C
100
AcDbEntity
  8
0
100
AcDbLine
 62
7
  6
CONTINUOUS
 10
782.0822230433
 20
88.3881902855
 11
781.416231517
 21
88.7129647149
  0
LINE
  5
29D
100
AcDbEntity
  8
RUNDUNGEN
100
AcDbLine
 62
7
  6
CONTINUOUS
 10
826.6438546277
 20
47.6280737001
 11
815.7900900409
 21
53.0020058868
  0
LINE
  5
29E
100
AcDbEntity
  8
RUNDUNGEN
100
AcDbLine
 62
7
  6
CONTINUOUS
 10
826.6438546277
 20
51.1636076061
 11
815.7900900409
 21
56.5375397927
  0
LINE
  5
29F
100
AcDbEntity
  8
0
100
AcDbLine
 62
7
  6
CONTINUOUS
 10
731.3594635661
 20
81.7303136305
 11
731.9954805361
 21
81.4055391585
  0
LINE
  5
2A0
100
AcDbEntity
  8
0
100
AcDbLine
 62
7
  6
CONTINUOUS
 10
742.4897555361
 20
88.3881902855
 11
741.853739476
 21
88.7129647149
  0
LINE
  5
2A1
100
AcDbEntity
  8
0
100
AcDbLine
 62
7
  6
CONTINUOUS
 10
732.154485006
 20
82.3798625461
 11
731.677472506
 21
82.7046370892
  0
LINE
  5
2A2
100
AcDbEntity
  8
0
100
AcDbLine
 62
7
  6
CONTINUOUS
 10
741.6947340962
 20
87.7386414268
 11
742.1717465962
 21
87.4138669974
  0
LINE
  5
2A3
100
AcDbEntity
  8
0
100
AcDbLine
 62
7
  6
CONTINUOUS
 10
728.1793805361
 20
88.2258030708
 11
727.543364021
 21
88.7129647149
  0
LINE
  5
2A4
100
AcDbEntity
  8
RUNDUNGEN
100
AcDbLine
 62
7
  6
CONTINUOUS
 10
712.4060547775
 20
35.0311276793
 11
708.0468738612
 21
39.4332602159
  0
LINE
  5
2A5
100
AcDbEntity
  8
RUNDUNGEN
100
AcDbLine
 62
7
  6
CONTINUOUS
 10
809.9320856755
 20
-40.0325828804
 11
786.4518263532
 21
-16.3209692733
  0
LINE
  5
2A6
100
AcDbEntity
  8
RUNDUNGEN
100
AcDbLine
 62
7
  6
CONTINUOUS
 10
809.9320856755
 20
-36.4970489745
 11
786.4518263532
 21
-12.7854353674
  0
LINE
  5
2A7
100
AcDbEntity
  8
0
100
AcDbLine
 62
7
  6
CONTINUOUS
 10
788.5756363754
 20
81.8927008452
 11
789.4081260214
 21
81.4055391585
  0
LINE
  5
2A8
100
AcDbEntity
  8
0
100
AcDbLine
 62
7
  6
CONTINUOUS
 10
792.7380827001
 20
85.4652199663
 11
791.905593054
 21
85.9523816103
  0
LINE
  5
2A9
100
AcDbEntity
  8
0
100
AcDbLine
 62
7
  6
CONTINUOUS
 10
792.5715836276
 20
88.2258030708
 11
791.739095887
 21
88.7129647149
  0
LINE
  5
2AA
100
AcDbEntity
  8
0
100
AcDbLine
 62
7
  6
CONTINUOUS
 10
778.4192710778
 20
82.3798625461
 11
777.9197776713
 21
82.7046370892
  0
LINE
  5
2AB
100
AcDbEntity
  8
0
100
AcDbLine
 62
7
  6
CONTINUOUS
 10
789.5746231885
 20
82.2174753314
 11
789.0751297819
 21
82.5422497608
  0
LINE
  5
2AC
100
AcDbEntity
  8
0
100
AcDbLine
 62
7
  6
CONTINUOUS
 10
781.2497333972
 20
87.7386414268
 11
781.7492268038
 21
87.4138669974
  0
LINE
  5
2AD
100
AcDbEntity
  8
0
100
AcDbLine
 62
7
  6
CONTINUOUS
 10
791.739095887
 20
85.1404455369
 11
792.2385892935
 21
84.8156711075
  0
LINE
  5
2AE
100
AcDbEntity
  8
0
100
AcDbLine
 62
7
  6
CONTINUOUS
 10
791.5725968146
 20
87.9010286415
 11
792.0720902211
 21
87.5762542121
  0
LINE
  5
2AF
100
AcDbEntity
  8
0
100
AcDbLine
 62
7
  6
CONTINUOUS
 10
774.2568261822
 20
88.2258030708
 11
773.5908346559
 21
88.7129647149
  0
LINE
  5
2B0
100
AcDbEntity
  8
0
100
AcDbLine
 62
7
  6
CONTINUOUS
 10
730.723447506
 20
82.3798625461
 11
731.3594635661
 21
81.7303136305
  0
LINE
  5
2B1
100
AcDbEntity
  8
0
100
AcDbLine
 62
7
  6
CONTINUOUS
 10
727.3843595511
 20
87.9010286415
 11
727.7023680361
 21
87.5762542121
  0
LINE
  5
2B2
100
AcDbEntity
  8
0
100
AcDbLine
 62
7
  6
CONTINUOUS
 10
751.6285230271
 20
24.8484561649
 11
755.1052492942
 21
20.5903535001
  0
LINE
  5
2B3
100
AcDbEntity
  8
0
100
AcDbLine
 62
7
  6
CONTINUOUS
 10
751.6285230271
 20
25.4141415899
 11
755.1052492942
 21
21.156038925
  0
LINE
  5
2B4
100
AcDbEntity
  8
0
100
AcDbLine
 62
7
  6
CONTINUOUS
 10
756.8788693212
 20
20.5903535001
 11
753.2639606575
 21
25.0176943464
  0
LINE
  5
2B5
100
AcDbEntity
  8
RUNDUNGEN
100
AcDbLine
 62
7
  6
CONTINUOUS
 10
718.764331074
 20
25.3065490091
 11
711.3788693212
 21
37.3079243575
  0
LINE
  5
2B6
100
AcDbEntity
  8
0
100
AcDbLine
 62
7
  6
CONTINUOUS
 10
740.8788693212
 20
172.9057629305
 11
729.1852314952
 21
169.7724621184
  0
LINE
  5
2B7
100
AcDbEntity
  8
0
100
AcDbLine
 62
7
  6
CONTINUOUS
 10
784.5725071471
 20
169.7724621184
 11
772.8788693212
 21
172.9057629305
  0
LINE
  5
2B8
100
AcDbEntity
  8
0
100
AcDbLine
 62
7
  6
CONTINUOUS
 10
776.9207908582
 20
82.3798625461
 11
777.5867823845
 21
81.7303136305
  0
LINE
  5
2B9
100
AcDbEntity
  8
0
100
AcDbLine
 62
7
  6
CONTINUOUS
 10
773.4243370125
 20
87.9010286415
 11
773.7573327757
 21
87.5762542121
  0
LINE
  5
2BA
100
AcDbEntity
  8
0
100
AcDbLine
 62
7
  6
CONTINUOUS
 10
782.7482145695
 20
87.7386414268
 11
782.0822230433
 21
88.3881902855
  0
LINE
  5
2BB
100
AcDbEntity
  8
0
100
AcDbLine
 62
7
  6
CONTINUOUS
 10
792.2385892935
 20
84.8156711075
 11
792.5715836276
 21
84.4908966782
  0
LINE
  5
2BC
100
AcDbEntity
  8
0
100
AcDbLine
 62
7
  6
CONTINUOUS
 10
793.2375761066
 20
84.9780583222
 11
792.7380827001
 21
85.4652199663
  0
LINE
  5
2BD
100
AcDbEntity
  8
0
100
AcDbLine
 62
7
  6
CONTINUOUS
 10
743.1257715962
 20
87.7386414268
 11
742.4897555361
 21
88.3881902855
  0
LINE
  5
2BE
100
AcDbEntity
  8
0
100
AcDbLine
 62
7
  6
CONTINUOUS
 10
728.6563930361
 20
87.5762542121
 11
728.1793805361
 21
88.2258030708
  0
LINE
  5
2BF
100
AcDbEntity
  8
0
100
AcDbLine
 62
7
  6
CONTINUOUS
 10
731.677472506
 20
82.7046370892
 11
731.3594635661
 21
83.1917987332
  0
LINE
  5
2C0
100
AcDbEntity
  8
0
100
AcDbLine
 62
7
  6
CONTINUOUS
 10
591.8788693212
 20
649.8056743575
 11
591.8788693212
 21
439.8056743575
  0
LINE
  5
2C1
100
AcDbEntity
  8
0
100
AcDbLine
 62
7
  6
CONTINUOUS
 10
774.7563191124
 20
87.5762542121
 11
774.2568261822
 21
88.2258030708
  0
LINE
  5
2C2
100
AcDbEntity
  8
0
100
AcDbLine
 62
7
  6
CONTINUOUS
 10
788.0761429689
 20
82.5422497608
 11
788.5756363754
 21
81.8927008452
  0
LINE
  5
2C3
100
AcDbEntity
  8
0
100
AcDbLine
 62
7
  6
CONTINUOUS
 10
742.1717465962
 20
87.4138669974
 11
742.4897555361
 21
86.9267048984
  0
LINE
  5
2C4
100
AcDbEntity
  8
0
100
AcDbLine
 62
7
  6
CONTINUOUS
 10
730.405439021
 20
83.0294115186
 11
730.723447506
 21
82.3798625461
  0
LINE
  5
2C5
100
AcDbEntity
  8
0
100
AcDbLine
 62
7
  6
CONTINUOUS
 10
631.8788693212
 20
649.8056743575
 11
631.8788693212
 21
439.8056743575
  0
LINE
  5
2C6
100
AcDbEntity
  8
0
100
AcDbLine
 62
7
  6
CONTINUOUS
 10
804.8456570822
 20
149.4993121834
 11
784.5725071471
 21
169.7724621184
  0
LINE
  5
2C7
100
AcDbEntity
  8
0
100
AcDbLine
 62
7
  6
CONTINUOUS
 10
793.0710770341
 20
87.5762542121
 11
792.5715836276
 21
88.2258030708
  0
LINE
  5
2C8
100
AcDbEntity
  8
0
100
AcDbLine
 62
7
  6
CONTINUOUS
 10
777.9197776713
 20
82.7046370892
 11
777.5867823845
 21
83.1917987332
  0
LINE
  5
2C9
100
AcDbEntity
  8
0
100
AcDbLine
 62
7
  6
CONTINUOUS
 10
789.0751297819
 20
82.5422497608
 11
788.7421354478
 21
83.0294115186
  0
LINE
  5
2CA
100
AcDbEntity
  8
0
100
AcDbLine
 62
7
  6
CONTINUOUS
 10
792.0720902211
 20
87.5762542121
 11
792.4050864606
 21
87.089092568
  0
LINE
  5
2CB
100
AcDbEntity
  8
0
100
AcDbLine
 62
7
  6
CONTINUOUS
 10
743.4437805361
 20
87.089092568
 11
743.1257715962
 21
87.7386414268
  0
LINE
  5
2CC
100
AcDbEntity
  8
0
100
AcDbLine
 62
7
  6
CONTINUOUS
 10
728.974401521
 20
81.2431519296
 11
727.543364021
 21
84.9780583222
  0
LINE
  5
2CD
100
AcDbEntity
  8
0
100
AcDbLine
 62
7
  6
CONTINUOUS
 10
726.5893387936
 20
84.6532838929
 11
727.8613720511
 21
81.2431519296
  0
LINE
  5
2CE
100
AcDbEntity
  8
0
100
AcDbLine
 62
7
  6
CONTINUOUS
 10
776.5877955715
 20
83.0294115186
 11
776.9207908582
 21
82.3798625461
  0
LINE
  5
2CF
100
AcDbEntity
  8
0
100
AcDbLine
 62
7
  6
CONTINUOUS
 10
775.0893153519
 20
81.2431519296
 11
773.5908346559
 21
84.9780583222
  0
LINE
  5
2D0
100
AcDbEntity
  8
0
100
AcDbLine
 62
7
  6
CONTINUOUS
 10
772.5918478429
 20
84.6532838929
 11
773.9238304191
 21
81.2431519296
  0
LINE
  5
2D1
100
AcDbEntity
  8
0
100
AcDbLine
 62
7
  6
CONTINUOUS
 10
727.7023680361
 20
87.5762542121
 11
727.8613720511
 21
87.089092568
  0
LINE
  5
2D2
100
AcDbEntity
  8
0
100
AcDbLine
 62
7
  6
CONTINUOUS
 10
728.8153970511
 20
87.089092568
 11
728.6563930361
 21
87.5762542121
  0
LINE
  5
2D3
100
AcDbEntity
  8
0
100
AcDbLine
 62
7
  6
CONTINUOUS
 10
701.4915936692
 20
121.8056743575
 11
708.9120815602
 21
94.1120365315
  0
LINE
  5
2D4
100
AcDbEntity
  8
0
100
AcDbLine
 62
7
  6
CONTINUOUS
 10
731.3594635661
 20
83.1917987332
 11
731.200460006
 21
83.841347592
  0
LINE
  5
2D5
100
AcDbEntity
  8
0
100
AcDbLine
 62
7
  6
CONTINUOUS
 10
708.9120815602
 20
78.1265450071
 11
711.3788693212
 21
66.5212210331
  0
LINE
  5
2D6
100
AcDbEntity
  8
RUNDUNGEN
100
AcDbLine
 62
7
  6
CONTINUOUS
 10
688.207831749
 20
45.2249388096
 11
688.207831749
 21
48.7604727155
  0
LINE
  5
2D7
100
AcDbEntity
  8
0
100
AcDbLine
 62
7
  6
CONTINUOUS
 10
787.7431486348
 20
83.3541859479
 11
788.0761429689
 21
82.5422497608
  0
LINE
  5
2D8
100
AcDbEntity
  8
0
100
AcDbLine
 62
7
  6
CONTINUOUS
 10
793.5705704407
 20
84.1661222488
 11
793.2375761066
 21
84.9780583222
  0
LINE
  5
2D9
100
AcDbEntity
  8
0
100
AcDbLine
 62
7
  6
CONTINUOUS
 10
773.7573327757
 20
87.5762542121
 11
773.9238304191
 21
87.089092568
  0
LINE
  5
2DA
100
AcDbEntity
  8
0
100
AcDbLine
 62
7
  6
CONTINUOUS
 10
774.9228172321
 20
87.089092568
 11
774.7563191124
 21
87.5762542121
  0
LINE
  5
2DB
100
AcDbEntity
  8
0
100
AcDbLine
 62
7
  6
CONTINUOUS
 10
781.7492268038
 20
87.4138669974
 11
781.9157249235
 21
86.9267048984
  0
LINE
  5
2DC
100
AcDbEntity
  8
0
100
AcDbLine
 62
7
  6
CONTINUOUS
 10
788.7421354478
 20
83.0294115186
 11
788.5756363754
 21
83.5165731626
  0
LINE
  5
2DD
100
AcDbEntity
  8
0
100
AcDbLine
 62
7
  6
CONTINUOUS
 10
792.5715836276
 20
84.4908966782
 11
792.7380827001
 21
84.0037348067
  0
LINE
  5
2DE
100
AcDbEntity
  8
0
100
AcDbLine
 62
7
  6
CONTINUOUS
 10
793.2375761066
 20
87.089092568
 11
793.0710770341
 21
87.5762542121
  0
LINE
  5
2DF
100
AcDbEntity
  8
0
100
AcDbLine
 62
7
  6
CONTINUOUS
 10
742.4897555361
 20
86.9267048984
 11
742.6487590962
 21
86.2771560397
  0
LINE
  5
2E0
100
AcDbEntity
  8
0
100
AcDbLine
 62
7
  6
CONTINUOUS
 10
730.2464345511
 20
83.841347592
 11
730.405439021
 21
83.0294115186
  0
LINE
  5
2E1
100
AcDbEntity
  8
0
100
AcDbLine
 62
7
  6
CONTINUOUS
 10
743.6027840962
 20
86.2771560397
 11
743.4437805361
 21
87.089092568
  0
LINE
  5
2E2
100
AcDbEntity
  8
RUNDUNGEN
100
AcDbLine
 62
7
  6
CONTINUOUS
 10
702.3788693212
 20
-52.8073303871
 11
702.3788693212
 21
-39.7416872759
  0
LINE
  5
2E3
100
AcDbEntity
  8
RUNDUNGEN
100
AcDbLine
 62
7
  6
CONTINUOUS
 10
705.0332051487
 20
27.007558134
 11
705.0332051487
 21
30.54309204
  0
LINE
  5
2E4
100
AcDbEntity
  8
0
100
AcDbLine
 62
7
  6
CONTINUOUS
 10
708.9120815602
 20
78.1265450071
 11
708.9120815602
 21
94.1120365315
  0
LINE
  5
2E5
100
AcDbEntity
  8
RUNDUNGEN
100
AcDbLine
 62
7
  6
CONTINUOUS
 10
711.3788693212
 20
37.3079243575
 11
711.3788693212
 21
88.8056743575
  0
LINE
  5
2E6
100
AcDbEntity
  8
RUNDUNGEN
100
AcDbLine
 62
7
  6
CONTINUOUS
 10
714.7288693212
 20
-57.8984992116
 11
714.7288693212
 21
-50.6860100435
  0
LINE
  5
2E7
100
AcDbEntity
  8
0
100
AcDbLine
 62
7
  6
CONTINUOUS
 10
722.9322430361
 20
88.8753519296
 11
722.9322430361
 21
81.2431519296
  0
LINE
  5
2E8
100
AcDbEntity
  8
0
100
AcDbLine
 62
7
  6
CONTINUOUS
 10
723.8862680361
 20
81.2431519296
 11
723.8862680361
 21
84.6532838929
  0
LINE
  5
2E9
100
AcDbEntity
  8
0
100
AcDbLine
 62
7
  6
CONTINUOUS
 10
723.8862680361
 20
85.627607181
 11
723.8862680361
 21
88.0634158562
  0
LINE
  5
2EA
100
AcDbEntity
  8
0
100
AcDbLine
 62
7
  6
CONTINUOUS
 10
727.8613720511
 20
87.089092568
 11
727.8613720511
 21
86.6019304691
  0
LINE
  5
2EB
100
AcDbEntity
  8
0
100
AcDbLine
 62
7
  6
CONTINUOUS
 10
728.8153970511
 20
86.4395432544
 11
728.8153970511
 21
87.089092568
  0
LINE
  5
2EC
100
AcDbEntity
  8
0
100
AcDbLine
 62
7
  6
CONTINUOUS
 10
777.5867823845
 20
83.1917987332
 11
777.4202842648
 21
83.841347592
  0
LINE
  5
2ED
100
AcDbEntity
  8
0
100
AcDbLine
 62
7
  6
CONTINUOUS
 10
776.4212974517
 20
83.841347592
 11
776.5877955715
 21
83.0294115186
  0
LINE
  5
2EE
100
AcDbEntity
  8
0
100
AcDbLine
 62
7
  6
CONTINUOUS
 10
782.9147117366
 20
86.9267048984
 11
782.7482145695
 21
87.7386414268
  0
LINE
  5
2EF
100
AcDbEntity
  8
0
100
AcDbLine
 62
7
  6
CONTINUOUS
 10
730.2464345511
 20
88.8753519296
 11
730.2464345511
 21
83.841347592
  0
LINE
  5
2F0
100
AcDbEntity
  8
0
100
AcDbLine
 62
7
  6
CONTINUOUS
 10
731.200460006
 20
83.841347592
 11
731.200460006
 21
88.8753519296
  0
LINE
  5
2F1
100
AcDbEntity
  8
BEZUGSACHSEN
100
AcDbLine
 62
7
  6
CONTINUOUS
 10
731.4887898051
 20
52.8353063037
 11
731.4887898051
 21
54.9426743575
  0
LINE
  5
2F2
100
AcDbEntity
  8
0
100
AcDbLine
 62
7
  6
CONTINUOUS
 10
733.5392409447
 20
28.7362236194
 11
733.5392409447
 21
21.26917601
  0
LINE
  5
2F3
100
AcDbEntity
  8
0
100
AcDbLine
 62
7
  6
CONTINUOUS
 10
735.016560006
 20
88.8753519296
 11
735.016560006
 21
83.841347592
  0
LINE
  5
2F4
100
AcDbEntity
  8
0
100
AcDbLine
 62
7
  6
CONTINUOUS
 10
735.970585006
 20
83.841347592
 11
735.970585006
 21
88.8753519296
  0
LINE
  5
2F5
100
AcDbEntity
  8
0
100
AcDbLine
 62
7
  6
CONTINUOUS
 10
736.6592409447
 20
22.2874097749
 11
736.6592409447
 21
24.8895627297
  0
LINE
  5
2F6
100
AcDbEntity
  8
0
100
AcDbLine
 62
7
  6
CONTINUOUS
 10
736.6592409447
 20
25.6815223246
 11
736.6592409447
 21
28.2836752794
  0
LINE
  5
2F7
100
AcDbEntity
  8
0
100
AcDbLine
 62
7
  6
CONTINUOUS
 10
737.2426180361
 20
88.8753519296
 11
737.2426180361
 21
81.2431519296
  0
LINE
  5
2F8
100
AcDbEntity
  8
0
100
AcDbLine
 62
7
  6
CONTINUOUS
 10
737.3792409447
 20
27.412519725
 11
737.3792409447
 21
25.9869924541
  0
LINE
  5
2F9
100
AcDbEntity
  8
0
100
AcDbLine
 62
7
  6
CONTINUOUS
 10
737.3792409447
 20
24.0184071753
 11
737.3792409447
 21
22.5928799044
  0
LINE
  5
2FA
100
AcDbEntity
  8
0
100
AcDbLine
 62
7
  6
CONTINUOUS
 10
737.9792409447
 20
23.9505249243
 11
737.9792409447
 21
24.1541716773
  0
LINE
  5
2FB
100
AcDbEntity
  8
0
100
AcDbLine
 62
7
  6
CONTINUOUS
 10
737.9792409447
 20
24.6632885597
 11
737.9792409447
 21
25.3421110697
  0
LINE
  5
2FC
100
AcDbEntity
  8
0
100
AcDbLine
 62
7
  6
CONTINUOUS
 10
737.9792409447
 20
25.8512279521
 11
737.9792409447
 21
26.62056013
  0
LINE
  5
2FD
100
AcDbEntity
  8
0
100
AcDbLine
 62
7
  6
CONTINUOUS
 10
738.1966430361
 20
82.2174753314
 11
738.1966430361
 21
87.9010286415
  0
LINE
  5
2FE
100
AcDbEntity
  8
0
100
AcDbLine
 62
7
  6
CONTINUOUS
 10
738.6992409447
 20
26.62056013
 11
738.6992409447
 21
25.8512279521
  0
LINE
  5
2FF
100
AcDbEntity
  8
0
100
AcDbLine
 62
7
  6
CONTINUOUS
 10
738.6992409447
 20
25.3421110697
 11
738.6992409447
 21
24.6632885597
  0
LINE
  5
300
100
AcDbEntity
  8
0
100
AcDbLine
 62
7
  6
CONTINUOUS
 10
738.6992409447
 20
24.1541716773
 11
738.6992409447
 21
23.9505249243
  0
LINE
  5
301
100
AcDbEntity
  8
0
100
AcDbLine
 62
7
  6
CONTINUOUS
 10
739.2992409447
 20
22.5928799044
 11
739.2992409447
 21
24.0184071753
  0
LINE
  5
302
100
AcDbEntity
  8
0
100
AcDbLine
 62
7
  6
CONTINUOUS
 10
739.2992409447
 20
25.9869924541
 11
739.2992409447
 21
27.412519725
  0
LINE
  5
303
100
AcDbEntity
  8
0
100
AcDbLine
 62
7
  6
CONTINUOUS
 10
740.0192409447
 20
28.2836752794
 11
740.0192409447
 21
25.6815223246
  0
LINE
  5
304
100
AcDbEntity
  8
0
100
AcDbLine
 62
7
  6
CONTINUOUS
 10
740.0192409447
 20
24.8895627297
 11
740.0192409447
 21
22.2874097749
  0
LINE
  5
305
100
AcDbEntity
  8
0
100
AcDbLine
 62
7
  6
CONTINUOUS
 10
740.8788693212
 20
330.8056743575
 11
740.8788693212
 21
128.8056743575
  0
LINE
  5
306
100
AcDbEntity
  8
0
100
AcDbLine
 62
7
  6
CONTINUOUS
 10
742.6487590962
 20
86.2771560397
 11
742.6487590962
 21
83.841347592
  0
LINE
  5
307
100
AcDbEntity
  8
0
100
AcDbLine
 62
7
  6
CONTINUOUS
 10
743.1392409447
 20
21.26917601
 11
743.1392409447
 21
28.7362236194
  0
LINE
  5
308
100
AcDbEntity
  8
0
100
AcDbLine
 62
7
  6
CONTINUOUS
 10
743.6027840962
 20
83.841347592
 11
743.6027840962
 21
86.2771560397
  0
LINE
  5
309
100
AcDbEntity
  8
0
100
AcDbLine
 62
7
  6
CONTINUOUS
 10
746.2525230271
 20
29.4150461293
 11
746.2525230271
 21
28.3854986559
  0
LINE
  5
30A
100
AcDbEntity
  8
0
100
AcDbLine
 62
7
  6
CONTINUOUS
 10
746.2525230271
 20
27.435147142
 11
746.2525230271
 21
20.5903535001
  0
LINE
  5
30B
100
AcDbEntity
  8
0
100
AcDbLine
 62
7
  6
CONTINUOUS
 10
747.6288693212
 20
51.8651743575
 11
747.6288693212
 21
33.5144349391
  0
LINE
  5
30C
100
AcDbEntity
  8
KONSTRUKTIONSELEMENTE
100
AcDbLine
 62
7
  6
CONTINUOUS
 10
747.6288693212
 20
51.8651743575
 11
747.6288693212
 21
75.0556743575
  0
LINE
  5
30D
100
AcDbEntity
  8
0
100
AcDbLine
 62
7
  6
CONTINUOUS
 10
747.7885230271
 20
20.5903535001
 11
747.7885230271
 21
25.4141415899
  0
LINE
  5
30E
100
AcDbEntity
  8
0
100
AcDbLine
 62
7
  6
CONTINUOUS
 10
747.7885230271
 20
25.9345721808
 11
747.7885230271
 21
27.435147142
  0
LINE
  5
30F
100
AcDbEntity
  8
KONSTRUKTIONSELEMENTE
100
AcDbLine
 62
7
  6
CONTINUOUS
 10
748.8788693212
 20
63.0098743575
 11
748.8788693212
 21
72.7041232735
  0
LINE
  5
310
100
AcDbEntity
  8
KONSTRUKTIONSELEMENTE
100
AcDbLine
 62
7
  6
CONTINUOUS
 10
748.8788693212
 20
100.2606753759
 11
748.8788693212
 21
103.8168216457
  0
LINE
  5
311
100
AcDbEntity
  8
0
100
AcDbLine
 62
7
  6
CONTINUOUS
 10
751.6285230271
 20
24.8484561649
 11
751.6285230271
 21
25.4141415899
  0
LINE
  5
312
100
AcDbEntity
  8
0
100
AcDbLine
 62
7
  6
CONTINUOUS
 10
753.2639606575
 20
25.0176943464
 11
753.2639606575
 21
25.5833797714
  0
LINE
  5
313
100
AcDbEntity
  8
KONSTRUKTIONSELEMENTE
100
AcDbLine
 62
7
  6
CONTINUOUS
 10
753.3788693212
 20
63.0098743575
 11
753.3788693212
 21
72.7041232735
  0
LINE
  5
314
100
AcDbEntity
  8
KONSTRUKTIONSELEMENTE
100
AcDbLine
 62
7
  6
CONTINUOUS
 10
753.3788693212
 20
99.0772443239
 11
753.3788693212
 21
103.8168216457
  0
LINE
  5
315
100
AcDbEntity
  8
0
100
AcDbLine
 62
7
  6
CONTINUOUS
 10
754.0015897578
 20
27.7257208433
 11
754.0015897578
 21
27.1600354184
  0
LINE
  5
316
100
AcDbEntity
  8
KONSTRUKTIONSELEMENTE
100
AcDbLine
 62
7
  6
CONTINUOUS
 10
754.3788693212
 20
63.0098743575
 11
754.3788693212
 21
63.7485516305
  0
LINE
  5
317
100
AcDbEntity
  8
KONSTRUKTIONSELEMENTE
100
AcDbLine
 62
7
  6
CONTINUOUS
 10
754.3788693212
 20
102.4590312343
 11
754.3788693212
 21
113.0101868924
  0
LINE
  5
318
100
AcDbEntity
  8
KONSTRUKTIONSELEMENTE
100
AcDbLine
 62
7
  6
CONTINUOUS
 10
754.6288693212
 20
71.9530627889
 11
754.6288693212
 21
84.0155933036
  0
LINE
  5
319
100
AcDbEntity
  8
0
100
AcDbLine
 62
7
  6
CONTINUOUS
 10
755.1052492942
 20
20.5903535001
 11
755.1052492942
 21
21.156038925
  0
LINE
  5
31A
100
AcDbEntity
  8
0
100
AcDbLine
 62
7
  6
CONTINUOUS
 10
757.7725230271
 20
29.4150461293
 11
757.7725230271
 21
23.831544775
  0
LINE
  5
31B
100
AcDbEntity
  8
KONSTRUKTIONSELEMENTE
100
AcDbLine
 62
7
  6
CONTINUOUS
 10
759.1288693212
 20
71.9530627889
 11
759.1288693212
 21
84.0155933036
  0
LINE
  5
31C
100
AcDbEntity
  8
0
100
AcDbLine
 62
7
  6
CONTINUOUS
 10
759.3085230271
 20
23.831544775
 11
759.3085230271
 21
29.4150461293
  0
LINE
  5
31D
100
AcDbEntity
  8
KONSTRUKTIONSELEMENTE
100
AcDbLine
 62
7
  6
CONTINUOUS
 10
759.3788693212
 20
63.0098743575
 11
759.3788693212
 21
63.7485516305
  0
LINE
  5
31E
100
AcDbEntity
  8
KONSTRUKTIONSELEMENTE
100
AcDbLine
 62
7
  6
CONTINUOUS
 10
759.3788693212
 20
102.4590312343
 11
759.3788693212
 21
113.0101868924
  0
LINE
  5
31F
100
AcDbEntity
  8
KONSTRUKTIONSELEMENTE
100
AcDbLine
 62
7
  6
CONTINUOUS
 10
760.3788693212
 20
103.8168216457
 11
760.3788693212
 21
99.0772443239
  0
LINE
  5
320
100
AcDbEntity
  8
KONSTRUKTIONSELEMENTE
100
AcDbLine
 62
7
  6
CONTINUOUS
 10
760.3788693212
 20
72.7041232735
 11
760.3788693212
 21
63.0098743575
  0
LINE
  5
321
100
AcDbEntity
  8
0
100
AcDbLine
 62
7
  6
CONTINUOUS
 10
812.2661449731
 20
121.8056743575
 11
804.8456570822
 21
149.4993121834
  0
LINE
  5
322
100
AcDbEntity
  8
0
100
AcDbLine
 62
7
  6
CONTINUOUS
 10
787.5766495623
 20
84.4908966782
 11
787.7431486348
 21
83.3541859479
  0
LINE
  5
323
100
AcDbEntity
  8
KONSTRUKTIONSELEMENTE
100
AcDbLine
 62
7
  6
CONTINUOUS
 10
764.8788693212
 20
103.8168216457
 11
764.8788693212
 21
100.2606753759
  0
LINE
  5
324
100
AcDbEntity
  8
KONSTRUKTIONSELEMENTE
100
AcDbLine
 62
7
  6
CONTINUOUS
 10
764.8788693212
 20
72.7041232735
 11
764.8788693212
 21
63.0098743575
  0
LINE
  5
325
100
AcDbEntity
  8
0
100
AcDbLine
 62
7
  6
CONTINUOUS
 10
765.3471396041
 20
29.4150461293
 11
765.3471396041
 21
23.831544775
  0
LINE
  5
326
100
AcDbEntity
  8
0
100
AcDbLine
 62
7
  6
CONTINUOUS
 10
766.1288693212
 20
33.5144349391
 11
766.1288693212
 21
51.8651743575
  0
LINE
  5
327
100
AcDbEntity
  8
KONSTRUKTIONSELEMENTE
100
AcDbLine
 62
7
  6
CONTINUOUS
 10
766.1288693212
 20
51.8651743575
 11
766.1288693212
 21
75.0556743575
  0
LINE
  5
328
100
AcDbEntity
  8
0
100
AcDbLine
 62
7
  6
CONTINUOUS
 10
766.4314293212
 20
88.8753519296
 11
766.4314293212
 21
81.2431519296
  0
LINE
  5
329
100
AcDbEntity
  8
0
100
AcDbLine
 62
7
  6
CONTINUOUS
 10
766.8831396041
 20
23.831544775
 11
766.8831396041
 21
29.4150461293
  0
LINE
  5
32A
100
AcDbEntity
  8
0
100
AcDbLine
 62
7
  6
CONTINUOUS
 10
767.4304161342
 20
81.2431519296
 11
767.4304161342
 21
88.8753519296
  0
LINE
  5
32B
100
AcDbEntity
  8
0
100
AcDbLine
 62
7
  6
CONTINUOUS
 10
768.7623984722
 20
88.8753519296
 11
768.7623984722
 21
81.2431519296
  0
LINE
  5
32C
100
AcDbEntity
  8
0
100
AcDbLine
 62
7
  6
CONTINUOUS
 10
769.7613852853
 20
81.2431519296
 11
769.7613852853
 21
84.6532838929
  0
LINE
  5
32D
100
AcDbEntity
  8
0
100
AcDbLine
 62
7
  6
CONTINUOUS
 10
769.7613852853
 20
85.627607181
 11
769.7613852853
 21
88.0634158562
  0
LINE
  5
32E
100
AcDbEntity
  8
0
100
AcDbLine
 62
7
  6
CONTINUOUS
 10
770.2431396041
 20
29.4150461293
 11
770.2431396041
 21
28.3289301134
  0
LINE
  5
32F
100
AcDbEntity
  8
0
100
AcDbLine
 62
7
  6
CONTINUOUS
 10
770.2431396041
 20
27.3785785995
 11
770.2431396041
 21
20.5903535001
  0
LINE
  5
330
100
AcDbEntity
  8
0
100
AcDbLine
 62
7
  6
CONTINUOUS
 10
771.7791396041
 20
21.72172435
 11
771.7791396041
 21
27.3785785995
  0
LINE
  5
331
100
AcDbEntity
  8
0
100
AcDbLine
 62
7
  6
CONTINUOUS
 10
772.8788693212
 20
330.8056743575
 11
772.8788693212
 21
128.8056743575
  0
LINE
  5
332
100
AcDbEntity
  8
0
100
AcDbLine
 62
7
  6
CONTINUOUS
 10
773.9238304191
 20
87.089092568
 11
773.9238304191
 21
86.6019304691
  0
LINE
  5
333
100
AcDbEntity
  8
0
100
AcDbLine
 62
7
  6
CONTINUOUS
 10
774.9228172321
 20
86.4395432544
 11
774.9228172321
 21
87.089092568
  0
LINE
  5
334
100
AcDbEntity
  8
0
100
AcDbLine
 62
7
  6
CONTINUOUS
 10
776.4212974517
 20
86.2771560397
 11
776.4212974517
 21
83.841347592
  0
LINE
  5
335
100
AcDbEntity
  8
0
100
AcDbLine
 62
7
  6
CONTINUOUS
 10
777.4202842648
 20
83.841347592
 11
777.4202842648
 21
86.2771560397
  0
LINE
  5
336
100
AcDbEntity
  8
0
100
AcDbLine
 62
7
  6
CONTINUOUS
 10
778.3913216087
 20
25.5910126566
 11
778.3913216087
 21
25.0253272317
  0
LINE
  5
337
100
AcDbEntity
  8
0
100
AcDbLine
 62
7
  6
CONTINUOUS
 10
780.4172447039
 20
85.4652199663
 11
780.4172447039
 21
84.4908966782
  0
LINE
  5
338
100
AcDbEntity
  8
0
100
AcDbLine
 62
7
  6
CONTINUOUS
 10
781.9157249235
 20
84.4908966782
 11
781.9157249235
 21
83.1917987332
  0
LINE
  5
339
100
AcDbEntity
  8
KONSTRUKTIONSELEMENTE
100
AcDbLine
 62
7
  6
CONTINUOUS
 10
782.2689488372
 20
51.8651743575
 11
782.2689488372
 21
54.9426743575
  0
LINE
  5
33A
100
AcDbEntity
  8
0
100
AcDbLine
 62
7
  6
CONTINUOUS
 10
782.9147117366
 20
83.0294115186
 11
782.9147117366
 21
85.4652199663
  0
LINE
  5
33B
100
AcDbEntity
  8
0
100
AcDbLine
 62
7
  6
CONTINUOUS
 10
784.2466947891
 20
87.7386414268
 11
784.2466947891
 21
86.4395432544
  0
LINE
  5
33C
100
AcDbEntity
  8
0
100
AcDbLine
 62
7
  6
CONTINUOUS
 10
785.2456816022
 20
87.5762542121
 11
785.2456816022
 21
81.2431519296
  0
LINE
  5
33D
100
AcDbEntity
  8
0
100
AcDbLine
 62
7
  6
CONTINUOUS
 10
786.2446684152
 20
81.2431519296
 11
786.2446684152
 21
88.8753519296
  0
LINE
  5
33E
100
AcDbEntity
  8
0
100
AcDbLine
 62
7
  6
CONTINUOUS
 10
787.5766495623
 20
85.627607181
 11
787.5766495623
 21
84.4908966782
  0
LINE
  5
33F
100
AcDbEntity
  8
0
100
AcDbLine
 62
7
  6
CONTINUOUS
 10
788.4091392084
 20
85.3028327516
 11
788.4091392084
 21
85.627607181
  0
LINE
  5
340
100
AcDbEntity
  8
0
100
AcDbLine
 62
7
  6
CONTINUOUS
 10
788.5756363754
 20
83.5165731626
 11
788.5756363754
 21
84.0037348067
  0
LINE
  5
341
100
AcDbEntity
  8
0
100
AcDbLine
 62
7
  6
CONTINUOUS
 10
708.9120815602
 20
149.4993121834
 11
701.4915936692
 21
121.8056743575
  0
LINE
  5
342
100
AcDbEntity
  8
0
100
AcDbLine
 62
7
  6
CONTINUOUS
 10
792.7380827001
 20
84.0037348067
 11
792.7380827001
 21
83.5165731626
  0
LINE
  5
343
100
AcDbEntity
  8
0
100
AcDbLine
 62
7
  6
CONTINUOUS
 10
793.5705704407
 20
83.3541859479
 11
793.5705704407
 21
84.1661222488
  0
LINE
  5
344
100
AcDbEntity
  8
RUNDUNGEN
100
AcDbLine
 62
7
  6
CONTINUOUS
 10
799.0288693212
 20
-50.6860100435
 11
799.0288693212
 21
-57.8984992116
  0
LINE
  5
345
100
AcDbEntity
  8
RUNDUNGEN
100
AcDbLine
 62
7
  6
CONTINUOUS
 10
802.3788693212
 20
37.3079243575
 11
802.3788693212
 21
88.8056743575
  0
LINE
  5
346
100
AcDbEntity
  8
0
100
AcDbLine
 62
7
  6
CONTINUOUS
 10
804.8456570822
 20
78.1265450071
 11
804.8456570822
 21
94.1120365315
  0
LINE
  5
347
100
AcDbEntity
  8
RUNDUNGEN
100
AcDbLine
 62
7
  6
CONTINUOUS
 10
811.3788693212
 20
-52.8073303871
 11
811.3788693212
 21
-39.7416872759
  0
LINE
  5
348
100
AcDbEntity
  8
0
100
AcDbLine
 62
7
  6
CONTINUOUS
 10
735.8115805361
 20
83.0294115186
 11
735.970585006
 21
83.841347592
  0
LINE
  5
349
100
AcDbEntity
  8
0
100
AcDbLine
 62
7
  6
CONTINUOUS
 10
743.4437805361
 20
83.0294115186
 11
743.6027840962
 21
83.841347592
  0
LINE
  5
34A
100
AcDbEntity
  8
0
100
AcDbLine
 62
7
  6
CONTINUOUS
 10
735.016560006
 20
83.841347592
 11
734.8575555361
 21
83.1917987332
  0
LINE
  5
34B
100
AcDbEntity
  8
0
100
AcDbLine
 62
7
  6
CONTINUOUS
 10
742.6487590962
 20
83.841347592
 11
742.4897555361
 21
83.1917987332
  0
LINE
  5
34C
100
AcDbEntity
  8
0
100
AcDbLine
 62
7
  6
CONTINUOUS
 10
727.8613720511
 20
86.6019304691
 11
727.7023680361
 21
86.114768825
  0
LINE
  5
34D
100
AcDbEntity
  8
0
100
AcDbLine
 62
7
  6
CONTINUOUS
 10
728.6563930361
 20
85.9523816103
 11
728.8153970511
 21
86.4395432544
  0
LINE
  5
34E
100
AcDbEntity
  8
RUNDUNGEN
100
AcDbLine
 62
7
  6
CONTINUOUS
 10
827.7099135368
 20
46.1800037868
 11
827.7099135368
 21
49.7155376927
  0
LINE
  5
34F
100
AcDbEntity
  8
0
100
AcDbLine
 62
7
  6
CONTINUOUS
 10
787.7431486348
 20
86.7643176838
 11
787.5766495623
 21
85.627607181
  0
LINE
  5
350
100
AcDbEntity
  8
0
100
AcDbLine
 62
7
  6
CONTINUOUS
 10
788.4091392084
 20
85.627607181
 11
788.5756363754
 21
86.6019304691
  0
LINE
  5
351
100
AcDbEntity
  8
0
100
AcDbLine
 62
7
  6
CONTINUOUS
 10
776.5877955715
 20
87.089092568
 11
776.4212974517
 21
86.2771560397
  0
LINE
  5
352
100
AcDbEntity
  8
0
100
AcDbLine
 62
7
  6
CONTINUOUS
 10
777.4202842648
 20
86.2771560397
 11
777.5867823845
 21
86.9267048984
  0
LINE
  5
353
100
AcDbEntity
  8
0
100
AcDbLine
 62
7
  6
CONTINUOUS
 10
881.8788693212
 20
439.8056743575
 11
881.8788693212
 21
649.8056743575
  0
LINE
  5
354
100
AcDbEntity
  8
0
100
AcDbLine
 62
7
  6
CONTINUOUS
 10
804.8456570822
 20
78.1265450071
 11
802.3788693212
 21
66.5212210331
  0
LINE
  5
355
100
AcDbEntity
  8
0
100
AcDbLine
 62
7
  6
CONTINUOUS
 10
782.7482145695
 20
82.3798625461
 11
782.9147117366
 21
83.0294115186
  0
LINE
  5
356
100
AcDbEntity
  8
0
100
AcDbLine
 62
7
  6
CONTINUOUS
 10
804.8456570822
 20
94.1120365315
 11
812.2661449731
 21
121.8056743575
  0
LINE
  5
357
100
AcDbEntity
  8
0
100
AcDbLine
 62
7
  6
CONTINUOUS
 10
773.9238304191
 20
86.6019304691
 11
773.7573327757
 21
86.114768825
  0
LINE
  5
358
100
AcDbEntity
  8
0
100
AcDbLine
 62
7
  6
CONTINUOUS
 10
774.7563191124
 20
85.9523816103
 11
774.9228172321
 21
86.4395432544
  0
LINE
  5
359
100
AcDbEntity
  8
0
100
AcDbLine
 62
7
  6
CONTINUOUS
 10
781.9157249235
 20
83.1917987332
 11
781.7492268038
 21
82.7046370892
  0
LINE
  5
35A
100
AcDbEntity
  8
0
100
AcDbLine
 62
7
  6
CONTINUOUS
 10
788.5756363754
 20
86.6019304691
 11
788.7421354478
 21
87.089092568
  0
LINE
  5
35B
100
AcDbEntity
  8
0
100
AcDbLine
 62
7
  6
CONTINUOUS
 10
788.5756363754
 20
84.0037348067
 11
788.7421354478
 21
84.4908966782
  0
LINE
  5
35C
100
AcDbEntity
  8
0
100
AcDbLine
 62
7
  6
CONTINUOUS
 10
735.493572506
 20
82.3798625461
 11
735.8115805361
 21
83.0294115186
  0
LINE
  5
35D
100
AcDbEntity
  8
0
100
AcDbLine
 62
7
  6
CONTINUOUS
 10
743.1257715962
 20
82.3798625461
 11
743.4437805361
 21
83.0294115186
  0
LINE
  5
35E
100
AcDbEntity
  8
0
100
AcDbLine
 62
7
  6
CONTINUOUS
 10
729.1852314952
 20
169.7724621184
 11
708.9120815602
 21
149.4993121834
  0
LINE
  5
35F
100
AcDbEntity
  8
0
100
AcDbLine
 62
7
  6
CONTINUOUS
 10
792.7380827001
 20
83.5165731626
 11
792.5715836276
 21
83.0294115186
  0
LINE
  5
360
100
AcDbEntity
  8
0
100
AcDbLine
 62
7
  6
CONTINUOUS
 10
788.0761429689
 20
87.5762542121
 11
787.7431486348
 21
86.7643176838
  0
LINE
  5
361
100
AcDbEntity
  8
0
100
AcDbLine
 62
7
  6
CONTINUOUS
 10
793.2375761066
 20
82.5422497608
 11
793.5705704407
 21
83.3541859479
  0
LINE
  5
362
100
AcDbEntity
  8
0
100
AcDbLine
 62
7
  6
CONTINUOUS
 10
776.9207908582
 20
87.7386414268
 11
776.5877955715
 21
87.089092568
  0
LINE
  5
363
100
AcDbEntity
  8
0
100
AcDbLine
 62
7
  6
CONTINUOUS
 10
734.8575555361
 20
83.1917987332
 11
734.539547506
 21
82.7046370892
  0
LINE
  5
364
100
AcDbEntity
  8
0
100
AcDbLine
 62
7
  6
CONTINUOUS
 10
742.4897555361
 20
83.1917987332
 11
742.1717465962
 21
82.7046370892
  0
LINE
  5
365
100
AcDbEntity
  8
0
100
AcDbLine
 62
7
  6
CONTINUOUS
 10
728.1793805361
 20
85.3028327516
 11
728.6563930361
 21
85.9523816103
  0
LINE
  5
366
100
AcDbEntity
  8
0
100
AcDbLine
 62
7
  6
CONTINUOUS
 10
921.8788693212
 20
439.8056743575
 11
921.8788693212
 21
649.8056743575
  0
LINE
  5
367
100
AcDbEntity
  8
0
100
AcDbLine
 62
7
  6
CONTINUOUS
 10
777.5867823845
 20
86.9267048984
 11
777.9197776713
 21
87.4138669974
  0
LINE
  5
368
100
AcDbEntity
  8
0
100
AcDbLine
 62
7
  6
CONTINUOUS
 10
788.7421354478
 20
87.089092568
 11
789.0751297819
 21
87.5762542121
  0
LINE
  5
369
100
AcDbEntity
  8
0
100
AcDbLine
 62
7
  6
CONTINUOUS
 10
727.7023680361
 20
86.114768825
 11
727.3843595511
 21
85.7899943957
  0
LINE
  5
36A
100
AcDbEntity
  8
RUNDUNGEN
100
AcDbLine
 62
7
  6
CONTINUOUS
 10
802.3788693212
 20
37.3079243575
 11
794.9934075683
 21
25.3065490091
  0
LINE
  5
36B
100
AcDbEntity
  8
0
100
AcDbLine
 62
7
  6
CONTINUOUS
 10
792.5715836276
 20
83.0294115186
 11
792.2385892935
 21
82.5422497608
  0
LINE
  5
36C
100
AcDbEntity
  8
0
100
AcDbLine
 62
7
  6
CONTINUOUS
 10
774.2568261822
 20
85.3028327516
 11
774.7563191124
 21
85.9523816103
  0
LINE
  5
36D
100
AcDbEntity
  8
0
100
AcDbLine
 62
7
  6
CONTINUOUS
 10
788.5756363754
 20
88.2258030708
 11
788.0761429689
 21
87.5762542121
  0
LINE
  5
36E
100
AcDbEntity
  8
0
100
AcDbLine
 62
7
  6
CONTINUOUS
 10
792.7380827001
 20
81.8927008452
 11
793.2375761066
 21
82.5422497608
  0
LINE
  5
36F
100
AcDbEntity
  8
0
100
AcDbLine
 62
7
  6
CONTINUOUS
 10
785.2456816022
 20
88.8753519296
 11
784.2466947891
 21
87.7386414268
  0
LINE
  5
370
100
AcDbEntity
  8
0
100
AcDbLine
 62
7
  6
CONTINUOUS
 10
784.2466947891
 20
86.4395432544
 11
785.2456816022
 21
87.5762542121
  0
LINE
  5
371
100
AcDbEntity
  8
0
100
AcDbLine
 62
7
  6
CONTINUOUS
 10
734.8575555361
 20
81.7303136305
 11
735.493572506
 21
82.3798625461
  0
LINE
  5
372
100
AcDbEntity
  8
0
100
AcDbLine
 62
7
  6
CONTINUOUS
 10
742.4897555361
 20
81.7303136305
 11
743.1257715962
 21
82.3798625461
  0
LINE
  5
373
100
AcDbEntity
  8
0
100
AcDbLine
 62
7
  6
CONTINUOUS
 10
773.7573327757
 20
86.114768825
 11
773.4243370125
 21
85.7899943957
  0
LINE
  5
374
100
AcDbEntity
  8
0
100
AcDbLine
 62
7
  6
CONTINUOUS
 10
777.5867823845
 20
88.3881902855
 11
776.9207908582
 21
87.7386414268
  0
LINE
  5
375
100
AcDbEntity
  8
0
100
AcDbLine
 62
7
  6
CONTINUOUS
 10
782.0822230433
 20
81.7303136305
 11
782.7482145695
 21
82.3798625461
  0
LINE
  5
376
100
AcDbEntity
  8
0
100
AcDbLine
 62
7
  6
CONTINUOUS
 10
788.7421354478
 20
84.4908966782
 11
789.0751297819
 21
84.8156711075
  0
LINE
  5
377
100
AcDbEntity
  8
0
100
AcDbLine
 62
7
  6
CONTINUOUS
 10
734.539547506
 20
82.7046370892
 11
734.062535006
 21
82.3798625461
  0
LINE
  5
378
100
AcDbEntity
  8
0
100
AcDbLine
 62
7
  6
CONTINUOUS
 10
742.1717465962
 20
82.7046370892
 11
741.6947340962
 21
82.3798625461
  0
LINE
  5
379
100
AcDbEntity
  8
0
100
AcDbLine
 62
7
  6
CONTINUOUS
 10
727.543364021
 20
84.9780583222
 11
728.1793805361
 21
85.3028327516
  0
LINE
  5
37A
100
AcDbEntity
  8
RUNDUNGEN
100
AcDbLine
 62
7
  6
CONTINUOUS
 10
727.3059122892
 20
-12.7854353674
 11
703.8256529669
 21
-36.4970489745
  0
LINE
  5
37B
100
AcDbEntity
  8
RUNDUNGEN
100
AcDbLine
 62
7
  6
CONTINUOUS
 10
727.3059122892
 20
-16.3209692733
 11
703.8256529669
 21
-40.0325828804
  0
LINE
  5
37C
100
AcDbEntity
  8
RUNDUNGEN
100
AcDbLine
 62
7
  6
CONTINUOUS
 10
802.3788693212
 20
46.0761840658
 11
812.3082688393
 21
56.1034193485
  0
LINE
  5
37D
100
AcDbEntity
  8
RUNDUNGEN
100
AcDbLine
 62
7
  6
CONTINUOUS
 10
802.3788693212
 20
42.5406501599
 11
812.3082688393
 21
52.5678854426
  0
LINE
  5
37E
100
AcDbEntity
  8
0
100
AcDbLine
 62
7
  6
CONTINUOUS
 10
777.9197776713
 20
87.4138669974
 11
778.4192710778
 21
87.7386414268
  0
LINE
  5
37F
100
AcDbEntity
  8
0
100
AcDbLine
 62
7
  6
CONTINUOUS
 10
789.0751297819
 20
87.5762542121
 11
789.5746231885
 21
87.9010286415
  0
LINE
  5
380
100
AcDbEntity
  8
0
100
AcDbLine
 62
7
  6
CONTINUOUS
 10
781.7492268038
 20
82.7046370892
 11
781.2497333972
 21
82.3798625461
  0
LINE
  5
381
100
AcDbEntity
  8
0
100
AcDbLine
 62
7
  6
CONTINUOUS
 10
789.4081260214
 20
85.9523816103
 11
788.4091392084
 21
85.3028327516
  0
LINE
  5
382
100
AcDbEntity
  8
0
100
AcDbLine
 62
7
  6
CONTINUOUS
 10
789.0751297819
 20
84.8156711075
 11
789.5746231885
 21
85.1404455369
  0
LINE
  5
383
100
AcDbEntity
  8
0
100
AcDbLine
 62
7
  6
CONTINUOUS
 10
792.2385892935
 20
82.5422497608
 11
791.739095887
 21
82.2174753314
  0
LINE
  5
384
100
AcDbEntity
  8
0
100
AcDbLine
 62
7
  6
CONTINUOUS
 10
789.4081260214
 20
88.7129647149
 11
788.5756363754
 21
88.2258030708
  0
LINE
  5
385
100
AcDbEntity
  8
0
100
AcDbLine
 62
7
  6
CONTINUOUS
 10
791.905593054
 20
81.4055391585
 11
792.7380827001
 21
81.8927008452
  0
LINE
  5
386
100
AcDbEntity
  8
0
100
AcDbLine
 62
7
  6
CONTINUOUS
 10
734.2215385661
 20
81.4055391585
 11
734.8575555361
 21
81.7303136305
  0
LINE
  5
387
100
AcDbEntity
  8
0
100
AcDbLine
 62
7
  6
CONTINUOUS
 10
741.853739476
 20
81.4055391585
 11
742.4897555361
 21
81.7303136305
  0
LINE
  5
388
100
AcDbEntity
  8
RUNDUNGEN
100
AcDbLine
 62
7
  6
CONTINUOUS
 10
693.2575243468
 20
54.2054560136
 11
691.6192202582
 21
53.3942964383
  0
LINE
  5
389
100
AcDbEntity
  8
RUNDUNGEN
100
AcDbLine
 62
7
  6
CONTINUOUS
 10
693.2575243468
 20
50.6699221077
 11
691.6192202582
 21
49.8587625323
  0
LINE
  5
38A
100
AcDbEntity
  8
RUNDUNGEN
100
AcDbLine
 62
7
  6
CONTINUOUS
 10
702.4759599387
 20
40.1278529265
 11
697.1514716508
 21
37.4915843067
  0
LINE
  5
38B
100
AcDbEntity
  8
0
100
AcDbLine
 62
7
  6
CONTINUOUS
 10
778.2527729581
 20
88.7129647149
 11
777.5867823845
 21
88.3881902855
  0
LINE
  5
38C
100
AcDbEntity
  8
0
100
AcDbLine
 62
7
  6
CONTINUOUS
 10
773.5908346559
 20
84.9780583222
 11
774.2568261822
 21
85.3028327516
  0
LINE
  5
38D
100
AcDbEntity
  8
0
100
AcDbLine
 62
7
  6
CONTINUOUS
 10
781.416231517
 20
81.4055391585
 11
782.0822230433
 21
81.7303136305
  0
LINE
  5
38E
100
AcDbEntity
  8
0
100
AcDbLine
 62
7
  6
CONTINUOUS
 10
727.3843595511
 20
85.7899943957
 11
726.9073470511
 21
85.627607181
  0
LINE
  5
38F
100
AcDbEntity
  8
0
100
AcDbLine
 62
7
  6
CONTINUOUS
 10
773.4243370125
 20
85.7899943957
 11
772.924843606
 21
85.627607181
  0
LINE
  5
390
100
AcDbEntity
  8
RUNDUNGEN
100
AcDbLine
 62
7
  6
CONTINUOUS
 10
740.3312984204
 20
-42.6169398459
 11
748.6873488783
 21
-34.1785560521
  0
LINE
  5
391
100
AcDbEntity
  8
RUNDUNGEN
100
AcDbLine
 62
7
  6
CONTINUOUS
 10
786.4518263532
 20
3.9580201103
 11
827.2577936475
 21
45.1660543176
  0
LINE
  5
392
100
AcDbEntity
  8
RUNDUNGEN
100
AcDbLine
 62
7
  6
CONTINUOUS
 10
706.0992640579
 20
31.9911619533
 11
711.4237523457
 21
34.6274305732
  0
LINE
  5
393
100
AcDbEntity
  8
RUNDUNGEN
100
AcDbLine
 62
7
  6
CONTINUOUS
 10
706.0992640579
 20
28.4556280474
 11
711.4237523457
 21
31.0918966673
  0
LINE
  5
394
100
AcDbEntity
  8
0
100
AcDbLine
 62
7
  6
CONTINUOUS
 10
789.5746231885
 20
87.9010286415
 11
790.074116595
 21
88.0634158562
  0
LINE
  5
395
100
AcDbEntity
  8
0
100
AcDbLine
 62
7
  6
CONTINUOUS
 10
789.5746231885
 20
85.1404455369
 11
790.074116595
 21
85.3028327516
  0
LINE
  5
396
100
AcDbEntity
  8
0
100
AcDbLine
 62
7
  6
CONTINUOUS
 10
791.739095887
 20
82.2174753314
 11
791.2396024805
 21
82.0550881167
  0
LINE
  5
397
100
AcDbEntity
  8
0
100
AcDbLine
 62
7
  6
CONTINUOUS
 10
303.1686458781
 20
25.3065490091
 11
305.3602458781
 21
25.3065490091
  0
LINE
  5
398
100
AcDbEntity
  8
0
100
AcDbLine
 62
7
  6
CONTINUOUS
 10
292.4946300529
 20
37.3079243575
 11
316.0342617034
 21
37.3079243575
  0
LINE
  5
399
100
AcDbEntity
  8
0
100
AcDbLine
 62
7
  6
CONTINUOUS
 10
300.2636958781
 20
66.5212210331
 11
308.2651958781
 21
66.5212210331
  0
LINE
  5
39A
100
AcDbEntity
  8
0
100
AcDbLine
 62
7
  6
CONTINUOUS
 10
308.2651958781
 20
78.1265450071
 11
300.2636958781
 21
78.1265450071
  0
LINE
  5
39B
100
AcDbEntity
  8
0
100
AcDbLine
 62
7
  6
CONTINUOUS
 10
309.7007988382
 20
94.1120365315
 11
298.8280929181
 21
94.1120365315
  0
LINE
  5
39C
100
AcDbEntity
  8
0
100
AcDbLine
 62
7
  6
CONTINUOUS
 10
308.5298596994
 20
121.8056743575
 11
299.9990320568
 21
121.8056743575
  0
LINE
  5
39D
100
AcDbEntity
  8
0
100
AcDbLine
 62
7
  6
CONTINUOUS
 10
308.5298596994
 20
149.4993121834
 11
299.9990320568
 21
149.4993121834
  0
LINE
  5
39E
100
AcDbEntity
  8
0
100
AcDbLine
 62
7
  6
CONTINUOUS
 10
322.2644458781
 20
77.1604883945
 11
327.7644458781
 21
69.3056743575
  0
LINE
  5
39F
100
AcDbEntity
  8
0
100
AcDbLine
 62
7
  6
CONTINUOUS
 10
308.5298596994
 20
169.7724621184
 11
299.9990320568
 21
169.7724621184
  0
LINE
  5
3A0
100
AcDbEntity
  8
0
100
AcDbLine
 62
7
  6
CONTINUOUS
 10
299.9990320568
 20
177.1929500094
 11
308.5298596994
 21
177.1929500094
  0
LINE
  5
3A1
100
AcDbEntity
  8
KONSTRUKTIONSELEMENTE
100
AcDbLine
 62
7
  6
CONTINUOUS
 10
431.4729558136
 20
41.5914249013
 11
423.0583851175
 21
50.0059955975
  0
LINE
  5
3A2
100
AcDbEntity
  8
KONSTRUKTIONSELEMENTE
100
AcDbLine
 62
7
  6
CONTINUOUS
 10
370.308219241
 20
102.756161474
 11
361.8936485448
 21
111.1707321701
  0
LINE
  5
3A3
100
AcDbEntity
  8
KONSTRUKTIONSELEMENTE
100
AcDbLine
 62
7
  6
CONTINUOUS
 10
403.2593952443
 20
71.9970164924
 11
392.6527935265
 21
82.6036182102
  0
LINE
  5
3A4
100
AcDbEntity
  8
KONSTRUKTIONSELEMENTE
100
AcDbLine
 62
7
  6
CONTINUOUS
 10
435.0084897195
 20
45.1269588073
 11
426.5939190234
 21
53.5415295034
  0
LINE
  5
3A5
100
AcDbEntity
  8
KONSTRUKTIONSELEMENTE
100
AcDbLine
 62
7
  6
CONTINUOUS
 10
373.8437531469
 20
106.2916953799
 11
365.4291824508
 21
114.706266076
  0
LINE
  5
3A6
100
AcDbEntity
  8
KONSTRUKTIONSELEMENTE
100
AcDbLine
 62
7
  6
CONTINUOUS
 10
325.1240959231
 20
155.789170063
 11
366.136289232
 21
114.7769767541
  0
LINE
  5
3A7
100
AcDbEntity
  8
KONSTRUKTIONSELEMENTE
100
AcDbLine
 62
7
  6
CONTINUOUS
 10
406.4413757596
 20
75.1789970077
 11
395.8347740418
 21
85.7855987255
  0
LINE
  5
3A8
100
AcDbEntity
  8
RUNDUNGEN
100
AcDbLine
 62
7
  6
CONTINUOUS
 10
541.4987709662
 20
-58.4641846366
 11
429.5511446661
 21
53.4834416636
  0
LINE
  5
3A9
100
AcDbEntity
  8
KONSTRUKTIONSELEMENTE
100
AcDbLine
 62
7
  6
CONTINUOUS
 10
377.0964443404
 20
106.2916953799
 11
395.8051293155
 21
87.5830104047
  0
LINE
  5
3AA
100
AcDbEntity
  8
KONSTRUKTIONSELEMENTE
100
AcDbLine
 62
7
  6
CONTINUOUS
 10
408.2091427126
 20
75.1789970077
 11
426.9178276877
 21
56.4703120325
  0
LINE
  5
3AB
100
AcDbEntity
  8
KONSTRUKTIONSELEMENTE
100
AcDbLine
 62
7
  6
CONTINUOUS
 10
380.2784248557
 20
109.4736758952
 11
398.9871098309
 21
90.7649909201
  0
LINE
  5
3AC
100
AcDbEntity
  8
KONSTRUKTIONSELEMENTE
100
AcDbLine
 62
7
  6
CONTINUOUS
 10
411.3911232279
 20
78.360977523
 11
430.0998082031
 21
59.6522925479
  0
LINE
  5
3AD
100
AcDbEntity
  8
RUNDUNGEN
100
AcDbLine
 62
7
  6
CONTINUOUS
 10
433.0866641817
 20
57.0189899599
 11
545.0343048722
 21
-54.9286507306
  0
LINE
  5
3AE
100
AcDbEntity
  8
KONSTRUKTIONSELEMENTE
100
AcDbLine
 62
7
  6
CONTINUOUS
 10
400.7845215101
 20
90.7353461938
 11
411.3911232279
 21
80.128744476
  0
LINE
  5
3AF
100
AcDbEntity
  8
KONSTRUKTIONSELEMENTE
100
AcDbLine
 62
7
  6
CONTINUOUS
 10
330.7809501726
 20
161.4460243125
 11
371.7453390372
 21
120.4816354479
  0
LINE
  5
3B0
100
AcDbEntity
  8
KONSTRUKTIONSELEMENTE
100
AcDbLine
 62
7
  6
CONTINUOUS
 10
371.8638541596
 20
121.1409377848
 11
375.8943628123
 21
117.1104291321
  0
LINE
  5
3B1
100
AcDbEntity
  8
KONSTRUKTIONSELEMENTE
100
AcDbLine
 62
7
  6
CONTINUOUS
 10
376.2479162029
 20
116.7568757415
 11
380.2784248557
 21
112.7263670887
  0
LINE
  5
3B2
100
AcDbEntity
  8
KONSTRUKTIONSELEMENTE
100
AcDbLine
 62
7
  6
CONTINUOUS
 10
433.0285907322
 20
59.9762012122
 11
437.059099385
 21
55.9456925594
  0
LINE
  5
3B3
100
AcDbEntity
  8
KONSTRUKTIONSELEMENTE
100
AcDbLine
 62
7
  6
CONTINUOUS
 10
437.4126527756
 20
55.5921391688
 11
441.4431614283
 21
51.5616305161
  0
LINE
  5
3B4
100
AcDbEntity
  8
KONSTRUKTIONSELEMENTE
100
AcDbLine
 62
7
  6
CONTINUOUS
 10
403.9665020254
 20
93.9173267091
 11
414.5731037432
 21
83.3107249913
  0
LINE
  5
3B5
100
AcDbEntity
  8
KONSTRUKTIONSELEMENTE
100
AcDbLine
 62
7
  6
CONTINUOUS
 10
375.3993880655
 20
124.6764716908
 11
379.4298967183
 21
120.645963038
  0
LINE
  5
3B6
100
AcDbEntity
  8
KONSTRUKTIONSELEMENTE
100
AcDbLine
 62
7
  6
CONTINUOUS
 10
379.7834501089
 20
120.2924096474
 11
383.8139587616
 21
116.2619009946
  0
LINE
  5
3B7
100
AcDbEntity
  8
KONSTRUKTIONSELEMENTE
100
AcDbLine
 62
7
  6
CONTINUOUS
 10
436.5641246381
 20
63.5117351181
 11
440.5946332909
 21
59.4812264654
  0
LINE
  5
3B8
100
AcDbEntity
  8
KONSTRUKTIONSELEMENTE
100
AcDbLine
 62
7
  6
CONTINUOUS
 10
440.9481866815
 20
59.1276730748
 11
444.9786953343
 21
55.097164422
  0
LINE
  5
3B9
100
AcDbEntity
  8
0
100
AcDbLine
 62
7
  6
CONTINUOUS
 10
234.7644458781
 20
277.3056743575
 11
234.7644458781
 21
182.3056743575
  0
LINE
  5
3BA
100
AcDbEntity
  8
0
100
AcDbLine
 62
7
  6
CONTINUOUS
 10
315.2806816486
 20
161.5640931547
 11
308.5298596994
 21
177.1929500094
  0
LINE
  5
3BB
100
AcDbEntity
  8
0
100
AcDbLine
 62
7
  6
CONTINUOUS
 10
266.7644458781
 20
277.3056743575
 11
266.7644458781
 21
182.3056743575
  0
LINE
  5
3BC
100
AcDbEntity
  8
RUNDUNGEN
100
AcDbLine
 62
7
  6
CONTINUOUS
 10
300.2636958781
 20
66.5212210331
 11
298.2624044504
 21
88.8056743575
  0
LINE
  5
3BD
100
AcDbEntity
  8
0
100
AcDbLine
 62
7
  6
CONTINUOUS
 10
300.2636958781
 20
78.1265450071
 11
298.8280929181
 21
94.1120365315
  0
LINE
  5
3BE
100
AcDbEntity
  8
RUNDUNGEN
100
AcDbLine
 62
7
  6
CONTINUOUS
 10
280.7644458781
 20
47.7098743575
 11
280.7644458781
 21
69.3056743575
  0
LINE
  5
3BF
100
AcDbEntity
  8
0
100
AcDbLine
 62
7
  6
CONTINUOUS
 10
284.2644458781
 20
294.8056743575
 11
284.2644458781
 21
794.8056743575
  0
LINE
  5
3C0
100
AcDbEntity
  8
RUNDUNGEN
100
AcDbLine
 62
7
  6
CONTINUOUS
 10
286.2644458781
 20
77.1604883945
 11
286.2644458781
 21
91.3056743575
  0
LINE
  5
3C1
100
AcDbEntity
  8
BEZUGSACHSEN
100
AcDbLine
 62
7
  6
CONTINUOUS
 10
292.2644458781
 20
156.8056743575
 11
292.2644458781
 21
114.5287651788
  0
LINE
  5
3C2
100
AcDbEntity
  8
RUNDUNGEN
100
AcDbLine
 62
7
  6
CONTINUOUS
 10
292.2644458781
 20
114.5284632588
 11
292.2644458781
 21
98.6541435858
  0
LINE
  5
3C3
100
AcDbEntity
  8
KONSTRUKTIONSELEMENTE
100
AcDbLine
 62
7
  6
CONTINUOUS
 10
292.2644458781
 20
98.6541435858
 11
292.2644458781
 21
114.5287651788
  0
LINE
  5
3C4
100
AcDbEntity
  8
0
100
AcDbLine
 62
7
  6
CONTINUOUS
 10
300.2636958781
 20
78.1265450071
 11
300.2636958781
 21
66.5212210331
  0
LINE
  5
3C5
100
AcDbEntity
  8
0
100
AcDbLine
 62
7
  6
CONTINUOUS
 10
309.3133471427
 20
110.6671339161
 11
309.7007988382
 21
94.1120365315
  0
LINE
  5
3C6
100
AcDbEntity
  8
0
100
AcDbLine
 62
7
  6
CONTINUOUS
 10
308.2651958781
 20
78.1265450071
 11
308.2651958781
 21
66.5212210331
  0
LINE
  5
3C7
100
AcDbEntity
  8
BEZUGSACHSEN
100
AcDbLine
 62
7
  6
CONTINUOUS
 10
316.2644458781
 20
156.8056743575
 11
316.2644458781
 21
114.5287651788
  0
LINE
  5
3C8
100
AcDbEntity
  8
0
100
AcDbLine
 62
7
  6
CONTINUOUS
 10
316.2644458781
 20
114.5287651788
 11
316.2644458781
 21
98.6541435858
  0
LINE
  5
3C9
100
AcDbEntity
  8
0
100
AcDbLine
 62
7
  6
CONTINUOUS
 10
322.2644458781
 20
77.1604883945
 11
322.2644458781
 21
91.3056743575
  0
LINE
  5
3CA
100
AcDbEntity
  8
0
100
AcDbLine
 62
7
  6
CONTINUOUS
 10
324.2644458781
 20
294.8056743575
 11
324.2644458781
 21
794.8056743575
  0
LINE
  5
3CB
100
AcDbEntity
  8
0
100
AcDbLine
 62
7
  6
CONTINUOUS
 10
327.7644458781
 20
69.3056743575
 11
327.7644458781
 21
47.7098743575
  0
LINE
  5
3CC
100
AcDbEntity
  8
0
100
AcDbLine
 62
7
  6
CONTINUOUS
 10
299.2155446135
 20
110.6671339161
 11
298.8280929181
 21
94.1120365315
  0
LINE
  5
3CD
100
AcDbEntity
  8
0
100
AcDbLine
 62
7
  6
CONTINUOUS
 10
341.7644458781
 20
182.3056743575
 11
341.7644458781
 21
277.3056743575
  0
LINE
  5
3CE
100
AcDbEntity
  8
0
100
AcDbLine
 62
7
  6
CONTINUOUS
 10
308.2651958781
 20
78.1265450071
 11
309.7007988382
 21
94.1120365315
  0
LINE
  5
3CF
100
AcDbEntity
  8
0
100
AcDbLine
 62
7
  6
CONTINUOUS
 10
308.2651958781
 20
66.5212210331
 11
310.2664873059
 21
88.8056743575
  0
LINE
  5
3D0
100
AcDbEntity
  8
0
100
AcDbLine
 62
7
  6
CONTINUOUS
 10
373.7644458781
 20
182.3056743575
 11
373.7644458781
 21
277.3056743575
  0
LINE
  5
3D1
100
AcDbEntity
  8
KONSTRUKTIONSELEMENTE
100
AcDbLine
 62
7
  6
CONTINUOUS
 10
299.9990320568
 20
177.1929500094
 11
293.2482101077
 21
161.5640931547
  0
LINE
  5
3D2
100
AcDbEntity
  8
RUNDUNGEN
100
AcDbLine
 62
7
  6
CONTINUOUS
 10
286.2644458781
 20
77.1604883945
 11
280.7644458781
 21
69.3056743575
  0
LINE
  5
3D3
100
AcDbEntity
  8
KONSTRUKTIONSELEMENTE
100
AcDbLine
 62
7
  6
CONTINUOUS
 10
379.4298967183
 20
120.645963038
 11
375.8943628123
 21
117.1104291321
  0
LINE
  5
3D4
100
AcDbEntity
  8
KONSTRUKTIONSELEMENTE
100
AcDbLine
 62
7
  6
CONTINUOUS
 10
379.7834501089
 20
120.2924096474
 11
376.2479162029
 21
116.7568757415
  0
LINE
  5
3D5
100
AcDbEntity
  8
RUNDUNGEN
100
AcDbLine
 62
7
  6
CONTINUOUS
 10
429.5513302734
 20
53.4832560563
 11
433.0868641793
 21
57.0187899622
  0
LINE
  5
3D6
100
AcDbEntity
  8
RUNDUNGEN
100
AcDbLine
 62
7
  6
CONTINUOUS
 10
433.2484173092
 20
56.8572368323
 11
429.7128834033
 21
53.3217029264
  0
LINE
  5
3D7
100
AcDbEntity
  8
KONSTRUKTIONSELEMENTE
100
AcDbLine
 62
7
  6
CONTINUOUS
 10
440.5946332909
 20
59.4812264654
 11
437.059099385
 21
55.9456925594
  0
LINE
  5
3D8
100
AcDbEntity
  8
KONSTRUKTIONSELEMENTE
100
AcDbLine
 62
7
  6
CONTINUOUS
 10
440.9481866815
 20
59.1276730748
 11
437.4126527756
 21
55.5921391688
  0
LINE
  5
3D9
100
AcDbEntity
  8
RUNDUNGEN
100
AcDbLine
 62
7
  6
CONTINUOUS
 10
541.4987709662
 20
-58.4641846366
 11
545.0343048722
 21
-54.9286507306
  0
ARC
  5
3DA
100
AcDbEntity
  8
RUNDUNGEN
100
AcDbCircle
 62
7
  6
CONTINUOUS
 10
721.3788693212
 20
88.8056743575
 40
10.0
100
AcDbArc
 50
98.3778284426
 51
180.0
  0
ARC
  5
3DB
100
AcDbEntity
  8
RUNDUNGEN
100
AcDbCircle
 62
7
  6
CONTINUOUS
 10
721.0918686096
 20
90.0192535195
 40
8.7654812861
100
AcDbArc
 50
88.1236775842
 51
89.7802372716
  0
ARC
  5
3DC
100
AcDbEntity
  8
RUNDUNGEN
100
AcDbCircle
 62
7
  6
CONTINUOUS
 10
721.0949273992
 20
90.719609828
 40
8.0651184057
100
AcDbArc
 50
89.7828835577
 51
98.3632568979
  0
ARC
  5
3DD
100
AcDbEntity
  8
RUNDUNGEN
100
AcDbCircle
 62
7
  6
CONTINUOUS
 10
718.8788693212
 20
32.8056743575
 40
7.5
100
AcDbArc
 50
269.1249582297
 51
270.0
  0
ARC
  5
3DE
100
AcDbEntity
  8
RUNDUNGEN
100
AcDbCircle
 62
7
  6
CONTINUOUS
 10
710.015449995
 20
37.71019879
 40
3.3795221866
100
AcDbArc
 50
307.7882030539
 51
311.5825901982
  0
CIRCLE
  5
3DF
100
AcDbEntity
  8
BEZUGSACHSEN
100
AcDbCircle
 62
7
  6
CONTINUOUS
 10
728.5788693212
 20
52.1056743575
 40
3.0
  0
ARC
  5
3E0
100
AcDbEntity
  8
0
100
AcDbCircle
 62
7
  6
CONTINUOUS
 10
739.5388832442
 20
24.5618384469
 40
0.6671356336
100
AcDbArc
 50
78.8903114984
 51
89.9692795104
  0
ARC
  5
3E1
100
AcDbEntity
  8
KONSTRUKTIONSELEMENTE
100
AcDbCircle
 62
7
  6
CONTINUOUS
 10
756.8788693212
 20
-23.3489256425
 40
57.6108
100
AcDbArc
 50
57.6179865928
 51
80.7605878645
  0
ARC
  5
3E2
100
AcDbEntity
  8
KONSTRUKTIONSELEMENTE
100
AcDbCircle
 62
7
  6
CONTINUOUS
 10
756.8788693212
 20
-23.3489256425
 40
57.6108
100
AcDbArc
 50
99.2394121355
 51
122.3820134072
  0
ARC
  5
3E3
100
AcDbEntity
  8
BEZUGSACHSEN
100
AcDbCircle
 62
7
  6
CONTINUOUS
 10
756.8788693212
 20
121.8056743575
 40
23.0
100
AcDbArc
 50
134.1060203689
 51
45.8939796311
  0
ARC
  5
3E4
100
AcDbEntity
  8
0
100
AcDbCircle
 62
7
  6
CONTINUOUS
 10
756.8788693212
 20
128.8056743575
 40
16.0
100
AcDbArc
 50
180.0
 51
360.0
  0
ARC
  5
3E5
100
AcDbEntity
  8
RUNDUNGEN
100
AcDbCircle
 62
7
  6
CONTINUOUS
 10
792.3788693212
 20
88.8056743575
 40
10.0
100
AcDbArc
 50
0.0
 51
81.6221715574
  0
ARC
  5
3E6
100
AcDbEntity
  8
KONSTRUKTIONSELEMENTE
100
AcDbCircle
 62
7
  6
CONTINUOUS
 10
756.8788693212
 20
75.0556743575
 40
9.25
100
AcDbArc
 50
0.0
 51
180.0
  0
ARC
  5
3E7
100
AcDbEntity
  8
RUNDUNGEN
100
AcDbCircle
 62
7
  6
CONTINUOUS
 10
792.6658432745
 20
90.020630759
 40
8.7641039541
100
AcDbArc
 50
90.219622331
 51
91.8621277479
  0
ARC
  5
3E8
100
AcDbEntity
  8
RUNDUNGEN
100
AcDbCircle
 62
7
  6
CONTINUOUS
 10
792.6628112431
 20
90.719609828
 40
8.0651184057
100
AcDbArc
 50
81.6367431021
 51
90.2171164423
  0
ARC
  5
3E9
100
AcDbEntity
  8
RUNDUNGEN
100
AcDbCircle
 62
7
  6
CONTINUOUS
 10
794.8788693212
 20
32.8056743575
 40
7.5
100
AcDbArc
 50
270.0
 51
270.8750417703
  0
ARC
  5
3EA
100
AcDbEntity
  8
0
100
AcDbCircle
 62
7
  6
CONTINUOUS
 10
776.8193217861
 20
25.5726606958
 40
3.4067389929
100
AcDbArc
 50
350.5636876714
 51
355.3957076167
  0
ARC
  5
3EB
100
AcDbEntity
  8
KONSTRUKTIONSELEMENTE
100
AcDbCircle
 62
7
  6
CONTINUOUS
 10
756.8788693212
 20
41.2942946617
 40
2.5
100
AcDbArc
 50
200.7781638084
 51
339.2218361916
  0
ARC
  5
3EC
100
AcDbEntity
  8
KONSTRUKTIONSELEMENTE
100
AcDbCircle
 62
7
  6
CONTINUOUS
 10
756.8788693212
 20
63.8088653578
 40
2.5
100
AcDbArc
 50
0.0
 51
180.0
  0
ARC
  5
3ED
100
AcDbEntity
  8
KONSTRUKTIONSELEMENTE
100
AcDbCircle
 62
7
  6
CONTINUOUS
 10
756.8788693212
 20
102.4590312343
 40
2.5
100
AcDbArc
 50
180.0
 51
360.0
  0
ARC
  5
3EE
100
AcDbEntity
  8
KONSTRUKTIONSELEMENTE
100
AcDbCircle
 62
7
  6
CONTINUOUS
 10
756.8788693212
 20
71.9038707418
 40
2.25
100
AcDbArc
 50
180.0
 51
360.0
  0
ARC
  5
3EF
100
AcDbEntity
  8
0
100
AcDbCircle
 62
7
  6
CONTINUOUS
 10
756.8788693212
 20
439.8056743575
 40
165.0
100
AcDbArc
 50
180.0
 51
264.4350519223
  0
ARC
  5
3F0
100
AcDbEntity
  8
0
100
AcDbCircle
 62
7
  6
CONTINUOUS
 10
756.8788693212
 20
439.8056743575
 40
165.0
100
AcDbArc
 50
275.5649480777
 51
360.0
  0
ARC
  5
3F1
100
AcDbEntity
  8
0
100
AcDbCircle
 62
7
  6
CONTINUOUS
 10
756.8788693212
 20
649.8056743575
 40
165.0
100
AcDbArc
 50
0.0
 51
180.0
  0
ARC
  5
3F2
100
AcDbEntity
  8
0
100
AcDbCircle
 62
7
  6
CONTINUOUS
 10
756.8788693212
 20
439.8056743575
 40
125.0
100
AcDbArc
 50
180.0
 51
262.645659501
  0
ARC
  5
3F3
100
AcDbEntity
  8
0
100
AcDbCircle
 62
7
  6
CONTINUOUS
 10
756.8788693212
 20
439.8056743575
 40
125.0
100
AcDbArc
 50
277.354340499
 51
360.0
  0
ARC
  5
3F4
100
AcDbEntity
  8
0
100
AcDbCircle
 62
7
  6
CONTINUOUS
 10
756.8788693212
 20
649.8056743575
 40
125.0
100
AcDbArc
 50
0.0
 51
180.0
  0
ARC
  5
3F5
100
AcDbEntity
  8
0
100
AcDbCircle
 62
7
  6
CONTINUOUS
 10
756.8788693212
 20
330.8056743575
 40
16.0
100
AcDbArc
 50
0.0
 51
180.0
  0
ARC
  5
3F6
100
AcDbEntity
  8
0
100
AcDbCircle
 62
7
  6
CONTINUOUS
 10
187.6441585044
 20
107.7057213469
 40
121.7052235046
100
AcDbArc
 50
1.3942966853
 51
6.6528451095
  0
ARC
  5
3F7
100
AcDbEntity
  8
0
100
AcDbCircle
 62
7
  6
CONTINUOUS
 10
305.3602458781
 20
47.7098743575
 40
22.4042
100
AcDbArc
 50
274.1512750662
 51
360.0
  0
ARC
  5
3F8
100
AcDbEntity
  8
RUNDUNGEN
100
AcDbCircle
 62
7
  6
CONTINUOUS
 10
303.1686458781
 20
47.7098743575
 40
22.4042
100
AcDbArc
 50
180.0
 51
270.0
  0
ARC
  5
3F9
100
AcDbEntity
  8
0
100
AcDbCircle
 62
7
  6
CONTINUOUS
 10
305.3602707745
 20
47.479327932
 40
22.1727789228
100
AcDbArc
 50
269.9999356663
 51
271.6737752871
  0
ARC
  5
3FA
100
AcDbEntity
  8
0
100
AcDbCircle
 62
7
  6
CONTINUOUS
 10
305.362742385
 20
47.4073831298
 40
22.1007926276
100
AcDbArc
 50
271.6728183024
 51
274.0189318338
  0
ARC
  5
3FB
100
AcDbEntity
  8
0
100
AcDbCircle
 62
7
  6
CONTINUOUS
 10
305.3770580202
 20
47.2078654666
 40
21.9007622641
100
AcDbArc
 50
274.018154784
 51
276.3081521079
  0
ARC
  5
3FC
100
AcDbEntity
  8
0
100
AcDbCircle
 62
7
  6
CONTINUOUS
 10
305.4095352031
 20
46.9146712263
 40
21.6057747634
100
AcDbArc
 50
276.3079781114
 51
278.357363097
  0
ARC
  5
3FD
100
AcDbEntity
  8
0
100
AcDbCircle
 62
7
  6
CONTINUOUS
 10
305.475319392
 20
46.4736197254
 40
21.1598453912
100
AcDbArc
 50
278.3547090063
 51
280.9149596664
  0
ARC
  5
3FE
100
AcDbEntity
  8
0
100
AcDbCircle
 62
7
  6
CONTINUOUS
 10
305.5530466488
 20
46.0622407203
 40
20.7411907793
100
AcDbArc
 50
280.9193083902
 51
282.1226539058
  0
ARC
  5
3FF
100
AcDbEntity
  8
BEZUGSACHSEN
100
AcDbCircle
 62
7
  6
CONTINUOUS
 10
304.2644458781
 20
156.8056743575
 40
12.0
100
AcDbArc
 50
156.638263733
 51
180.0
  0
ARC
  5
400
100
AcDbEntity
  8
BEZUGSACHSEN
100
AcDbCircle
 62
7
  6
CONTINUOUS
 10
304.2644458781
 20
156.8056743575
 40
12.0
100
AcDbArc
 50
0.0
 51
23.361736267
  0
CIRCLE
  5
401
100
AcDbEntity
  8
BEZUGSACHSEN
100
AcDbCircle
 62
7
  6
CONTINUOUS
 10
304.2644458781
 20
51.7098743575
 40
11.375
  0
ARC
  5
402
100
AcDbEntity
  8
RUNDUNGEN
100
AcDbCircle
 62
7
  6
CONTINUOUS
 10
293.7644458781
 20
91.3056743575
 40
7.5
100
AcDbArc
 50
94.7323577466
 51
180.0
  0
ARC
  5
403
100
AcDbEntity
  8
RUNDUNGEN
100
AcDbCircle
 62
7
  6
CONTINUOUS
 10
293.2593136792
 20
97.3813686884
 40
1.4033455673
100
AcDbArc
 50
90.453341244
 51
94.6442838435
  0
ARC
  5
404
100
AcDbEntity
  8
0
100
AcDbCircle
 62
7
  6
CONTINUOUS
 10
304.2644458781
 20
182.3056743575
 40
69.5
100
AcDbArc
 50
180.0
 51
260.0541796324
  0
ARC
  5
405
100
AcDbEntity
  8
0
100
AcDbCircle
 62
7
  6
CONTINUOUS
 10
304.2644458781
 20
182.3056743575
 40
69.5
100
AcDbArc
 50
279.9458203676
 51
311.6996755655
  0
ARC
  5
406
100
AcDbEntity
  8
0
100
AcDbCircle
 62
7
  6
CONTINUOUS
 10
304.2644458781
 20
182.3056743575
 40
69.5
100
AcDbArc
 50
318.3003244345
 51
360.0
  0
ARC
  5
407
100
AcDbEntity
  8
0
100
AcDbCircle
 62
7
  6
CONTINUOUS
 10
304.2644458781
 20
277.3056743575
 40
69.5
100
AcDbArc
 50
0.0
 51
73.2716259089
  0
ARC
  5
408
100
AcDbEntity
  8
0
100
AcDbCircle
 62
7
  6
CONTINUOUS
 10
304.2644458781
 20
277.3056743575
 40
69.5
100
AcDbArc
 50
106.7283740911
 51
180.0
  0
ARC
  5
409
100
AcDbEntity
  8
0
100
AcDbCircle
 62
7
  6
CONTINUOUS
 10
304.2644458781
 20
182.3056743575
 40
37.5
100
AcDbArc
 50
180.0
 51
251.3323530059
  0
ARC
  5
40A
100
AcDbEntity
  8
0
100
AcDbCircle
 62
7
  6
CONTINUOUS
 10
304.2644458781
 20
182.3056743575
 40
37.5
100
AcDbArc
 50
288.6676469941
 51
308.8764187189
  0
ARC
  5
40B
100
AcDbEntity
  8
0
100
AcDbCircle
 62
7
  6
CONTINUOUS
 10
304.2644458781
 20
182.3056743575
 40
37.5
100
AcDbArc
 50
321.1235812811
 51
360.0
  0
ARC
  5
40C
100
AcDbEntity
  8
0
100
AcDbCircle
 62
7
  6
CONTINUOUS
 10
304.2644458781
 20
277.3056743575
 40
37.5
100
AcDbArc
 50
0.0
 51
57.7598082045
  0
ARC
  5
40D
100
AcDbEntity
  8
0
100
AcDbCircle
 62
7
  6
CONTINUOUS
 10
304.2644458781
 20
277.3056743575
 40
37.5
100
AcDbArc
 50
122.2401917955
 51
180.0
  0
ARC
  5
40E
100
AcDbEntity
  8
0
100
AcDbCircle
 62
7
  6
CONTINUOUS
 10
304.2644458781
 20
294.8056743575
 40
20.0
100
AcDbArc
 50
180.0
 51
360.0
  0
ARC
  5
40F
100
AcDbEntity
  8
0
100
AcDbCircle
 62
7
  6
CONTINUOUS
 10
304.2644458781
 20
794.8056743575
 40
20.0
100
AcDbArc
 50
0.0
 51
180.0
  0
ARC
  5
410
100
AcDbEntity
  8
0
100
AcDbCircle
 62
7
  6
CONTINUOUS
 10
314.7644458781
 20
91.3056743575
 40
7.5
100
AcDbArc
 50
0.0
 51
85.2676422534
  0
ARC
  5
411
100
AcDbEntity
  8
0
100
AcDbCircle
 62
7
  6
CONTINUOUS
 10
315.2695780771
 20
97.3813686884
 40
1.4033455673
100
AcDbArc
 50
85.3557161565
 51
89.546658756
  0
ARC
  5
412
100
AcDbEntity
  8
KONSTRUKTIONSELEMENTE
100
AcDbCircle
 62
7
  6
CONTINUOUS
 10
368.6465183052
 20
117.9236019304
 40
9.55
100
AcDbArc
 50
159.7697649129
 51
225.0
  0
ARC
  5
413
100
AcDbEntity
  8
KONSTRUKTIONSELEMENTE
100
AcDbCircle
 62
7
  6
CONTINUOUS
 10
368.6465183052
 20
117.9236019304
 40
9.55
100
AcDbArc
 50
45.0
 51
110.2302350871
  0
ARC
  5
414
100
AcDbEntity
  8
KONSTRUKTIONSELEMENTE
100
AcDbCircle
 62
7
  6
CONTINUOUS
 10
368.6465183052
 20
117.9236019304
 40
4.55
100
AcDbArc
 50
196.8037408542
 51
225.0
  0
ARC
  5
415
100
AcDbEntity
  8
KONSTRUKTIONSELEMENTE
100
AcDbCircle
 62
7
  6
CONTINUOUS
 10
368.6465183052
 20
117.9236019304
 40
4.55
100
AcDbArc
 50
45.0
 51
73.1962591458
  0
ARC
  5
416
100
AcDbEntity
  8
KONSTRUKTIONSELEMENTE
100
AcDbCircle
 62
7
  6
CONTINUOUS
 10
327.9525230479
 20
158.6175971877
 40
4.0
100
AcDbArc
 50
45.0
 51
225.0
  0
ARC
  5
417
100
AcDbEntity
  8
KONSTRUKTIONSELEMENTE
100
AcDbCircle
 62
7
  6
CONTINUOUS
 10
368.9647163567
 20
117.6054038789
 40
4.0
100
AcDbArc
 50
225.0
 51
45.0
  0
ARC
  5
418
100
AcDbEntity
  8
KONSTRUKTIONSELEMENTE
100
AcDbCircle
 62
7
  6
CONTINUOUS
 10
438.2258255739
 20
48.3442946617
 40
9.55
100
AcDbArc
 50
330.1951355235
 51
45.0
  0
ARC
  5
419
100
AcDbEntity
  8
KONSTRUKTIONSELEMENTE
100
AcDbCircle
 62
7
  6
CONTINUOUS
 10
438.2258255739
 20
48.3442946617
 40
9.55
100
AcDbArc
 50
225.0
 51
299.8048644765
  0
ARC
  5
41A
100
AcDbEntity
  8
KONSTRUKTIONSELEMENTE
100
AcDbCircle
 62
7
  6
CONTINUOUS
 10
429.8112548778
 20
56.7588653578
 40
9.55
100
AcDbArc
 50
148.6297070454
 51
225.0
  0
ARC
  5
41B
100
AcDbEntity
  8
KONSTRUKTIONSELEMENTE
100
AcDbCircle
 62
7
  6
CONTINUOUS
 10
429.8112548778
 20
56.7588653578
 40
9.55
100
AcDbArc
 50
45.0
 51
121.3702929546
  0
ARC
  5
41C
100
AcDbEntity
  8
KONSTRUKTIONSELEMENTE
100
AcDbCircle
 62
7
  6
CONTINUOUS
 10
408.9162494937
 20
77.6538707418
 40
8.0
100
AcDbArc
 50
331.3642958278
 51
45.0
  0
ARC
  5
41D
100
AcDbEntity
  8
KONSTRUKTIONSELEMENTE
100
AcDbCircle
 62
7
  6
CONTINUOUS
 10
408.9162494937
 20
77.6538707418
 40
8.0
100
AcDbArc
 50
225.0
 51
298.6357041722
  0
ARC
  5
41E
100
AcDbEntity
  8
KONSTRUKTIONSELEMENTE
100
AcDbCircle
 62
7
  6
CONTINUOUS
 10
398.309647776
 20
88.2604724596
 40
8.0
100
AcDbArc
 50
151.3642958278
 51
225.0
  0
ARC
  5
41F
100
AcDbEntity
  8
KONSTRUKTIONSELEMENTE
100
AcDbCircle
 62
7
  6
CONTINUOUS
 10
398.309647776
 20
88.2604724596
 40
8.0
100
AcDbArc
 50
45.0
 51
118.6357041722
  0
ARC
  5
420
100
AcDbEntity
  8
KONSTRUKTIONSELEMENTE
100
AcDbCircle
 62
7
  6
CONTINUOUS
 10
438.2258255739
 20
48.3442946617
 40
4.55
100
AcDbArc
 50
348.3583327703
 51
45.0
  0
ARC
  5
421
100
AcDbEntity
  8
KONSTRUKTIONSELEMENTE
100
AcDbCircle
 62
7
  6
CONTINUOUS
 10
438.2258255739
 20
48.3442946617
 40
4.55
100
AcDbArc
 50
225.0
 51
281.6416672297
  0
ARC
  5
422
100
AcDbEntity
  8
KONSTRUKTIONSELEMENTE
100
AcDbCircle
 62
7
  6
CONTINUOUS
 10
429.8112548778
 20
56.7588653578
 40
4.55
100
AcDbArc
 50
164.6522021471
 51
225.0
  0
ARC
  5
423
100
AcDbEntity
  8
KONSTRUKTIONSELEMENTE
100
AcDbCircle
 62
7
  6
CONTINUOUS
 10
429.8112548778
 20
56.7588653578
 40
4.55
100
AcDbArc
 50
45.0
 51
105.3477978529
  0
ARC
  5
424
100
AcDbEntity
  8
KONSTRUKTIONSELEMENTE
100
AcDbCircle
 62
7
  6
CONTINUOUS
 10
408.9162494937
 20
77.6538707418
 40
3.5
100
AcDbArc
 50
355.1538775079
 51
45.0
  0
ARC
  5
425
100
AcDbEntity
  8
KONSTRUKTIONSELEMENTE
100
AcDbCircle
 62
7
  6
CONTINUOUS
 10
408.9162494937
 20
77.6538707418
 40
3.5
100
AcDbArc
 50
225.0
 51
274.8461224921
  0
ARC
  5
426
100
AcDbEntity
  8
KONSTRUKTIONSELEMENTE
100
AcDbCircle
 62
7
  6
CONTINUOUS
 10
398.309647776
 20
88.2604724596
 40
3.5
100
AcDbArc
 50
175.1538775079
 51
225.0
  0
ARC
  5
427
100
AcDbEntity
  8
KONSTRUKTIONSELEMENTE
100
AcDbCircle
 62
7
  6
CONTINUOUS
 10
398.309647776
 20
88.2604724596
 40
3.5
100
AcDbArc
 50
45.0
 51
94.8461224921
  0
ARC
  5
428
100
AcDbEntity
  8
KONSTRUKTIONSELEMENTE
100
AcDbCircle
 62
7
  6
CONTINUOUS
 10
409.8001329702
 20
76.7699872654
 40
2.25
100
AcDbArc
 50
45.0
 51
225.0
  0
ARC
  5
429
100
AcDbEntity
  8
KONSTRUKTIONSELEMENTE
100
AcDbCircle
 62
7
  6
CONTINUOUS
 10
428.5384626717
 20
58.0316575639
 40
2.25
100
AcDbArc
 50
225.0
 51
45.0
  0
ARC
  5
42A
100
AcDbEntity
  8
KONSTRUKTIONSELEMENTE
100
AcDbCircle
 62
7
  6
CONTINUOUS
 10
397.4257642995
 20
89.1443559361
 40
2.25
100
AcDbArc
 50
225.0
 51
45.0
  0
ARC
  5
42B
100
AcDbEntity
  8
0
100
AcDbCircle
 62
7
  6
CONTINUOUS
 10
420.8847332518
 20
107.7057213469
 40
121.7052235046
100
AcDbArc
 50
173.3471548905
 51
178.6057033147
  0
ARC
  5
42C
100
AcDbEntity
  8
KONSTRUKTIONSELEMENTE
100
AcDbCircle
 62
7
  6
CONTINUOUS
 10
377.0610890013
 20
109.5090312343
 40
9.55
100
AcDbArc
 50
328.6297070454
 51
45.0
  0
ARC
  5
42D
100
AcDbEntity
  8
KONSTRUKTIONSELEMENTE
100
AcDbCircle
 62
7
  6
CONTINUOUS
 10
377.0610890013
 20
109.5090312343
 40
9.55
100
AcDbArc
 50
225.0
 51
301.3702929546
  0
ARC
  5
42E
100
AcDbEntity
  8
KONSTRUKTIONSELEMENTE
100
AcDbCircle
 62
7
  6
CONTINUOUS
 10
377.0610890013
 20
109.5090312343
 40
4.55
100
AcDbArc
 50
344.6522021471
 51
45.0
  0
ARC
  5
42F
100
AcDbEntity
  8
KONSTRUKTIONSELEMENTE
100
AcDbCircle
 62
7
  6
CONTINUOUS
 10
377.0610890013
 20
109.5090312343
 40
4.55
100
AcDbArc
 50
225.0
 51
285.3477978529
  0
ARC
  5
430
100
AcDbEntity
  8
KONSTRUKTIONSELEMENTE
100
AcDbCircle
 62
7
  6
CONTINUOUS
 10
378.687434598
 20
107.8826856376
 40
2.25
100
AcDbArc
 50
45.0
 51
225.0
  0
SPLINE
  5
431
100
AcDbEntity
  8
KONSTRUKTIONSELEMENTE
100
AcDbSpline
 62
7
  6
CONTINUOUS
 70
0
 71
3
 72
13
 73
9
 74
0
 42
0.0000001
 43
0.0000001
 44
0.0000000001
 40
0.0
 40
0.0
 40
0.0
 40
0.0
 40
0.1194785188
 40
0.2392741704
 40
0.3602835725
 40
0.4830059608
 40
0.7355440041
 40
1.0
 40
1.0
 40
1.0
 40
1.0
 10
748.8788693212
 20
72.7041232735
 30
0.0
 10
748.8788693212
 20
73.0627628848
 30
0.0
 10
748.9549648043
 20
73.7832695138
 30
0.0
 10
749.290541032
 20
74.8187652695
 30
0.0
 10
749.8265254972
 20
75.7770849486
 30
0.0
 10
750.7842210629
 20
76.9274647095
 30
0.0
 10
752.3705397057
 20
78.0668072288
 30
0.0
 10
753.8505931481
 20
78.5943332491
 30
0.0
 10
754.6247570007
 20
78.7698893942
 30
0.0
  0
SPLINE
  5
432
100
AcDbEntity
  8
KONSTRUKTIONSELEMENTE
100
AcDbSpline
 62
7
  6
CONTINUOUS
 70
0
 71
3
 72
13
 73
9
 74
0
 42
0.0000001
 43
0.0000001
 44
0.0000000001
 40
0.0
 40
0.0
 40
0.0
 40
0.0
 40
0.2644681654
 40
0.5169944072
 40
0.6397129492
 40
0.760706397
 40
0.8805228501
 40
1.0
 40
1.0
 40
1.0
 40
1.0
 10
759.1310401
 20
78.7703206065
 30
0.0
 10
759.9054374265
 20
78.5948405023
 30
0.0
 10
761.3859282741
 20
78.0675197736
 30
0.0
 10
762.9727786811
 20
76.9281673102
 30
0.0
 10
763.9307506405
 20
75.7777247613
 30
0.0
 10
764.4670673982
 20
74.8193029748
 30
0.0
 10
764.8026817348
 20
73.7835495623
 30
0.0
 10
764.8788693212
 20
73.0628375439
 30
0.0
 10
764.8788693212
 20
72.7041232735
 30
0.0
  0
SPLINE
  5
433
100
AcDbEntity
  8
KONSTRUKTIONSELEMENTE
100
AcDbSpline
 62
7
  6
CONTINUOUS
 70
0
 71
3
 72
10
 73
6
 74
0
 42
0.0000001
 43
0.0000001
 44
0.0000000001
 40
0.0
 40
0.0
 40
0.0
 40
0.0
 40
0.3116645009
 40
0.6060899939
 40
1.0
 40
1.0
 40
1.0
 40
1.0
 10
753.3788693212
 20
72.7041232735
 30
0.0
 10
753.3788693212
 20
72.90127812
 30
0.0
 10
753.5663978777
 20
73.2726043147
 30
0.0
 10
754.0237171473
 20
73.7064774044
 30
0.0
 10
754.4021184596
 20
73.9338874379
 30
0.0
 10
754.6268774329
 20
74.0414755689
 30
0.0
  0
SPLINE
  5
434
100
AcDbEntity
  8
KONSTRUKTIONSELEMENTE
100
AcDbSpline
 62
7
  6
CONTINUOUS
 70
0
 71
3
 72
10
 73
6
 74
0
 42
0.0000001
 43
0.0000001
 44
0.0000000001
 40
0.0
 40
0.0
 40
0.0
 40
0.0
 40
0.3939255147
 40
0.6883533687
 40
1.0
 40
1.0
 40
1.0
 40
1.0
 10
759.1306185567
 20
74.0415874969
 30
0.0
 10
759.3554264626
 20
73.9339975963
 30
0.0
 10
759.7338889843
 20
73.706552028
 30
0.0
 10
760.191330502
 20
73.2726742846
 30
0.0
 10
760.3788693212
 20
72.9012945774
 30
0.0
 10
760.3788693212
 20
72.7041232735
 30
0.0
  0
SPLINE
  5
435
100
AcDbEntity
  8
KONSTRUKTIONSELEMENTE
100
AcDbSpline
 62
7
  6
CONTINUOUS
 70
0
 71
3
 72
13
 73
9
 74
0
 42
0.0000001
 43
0.0000001
 44
0.0000000001
 40
0.0
 40
0.0
 40
0.0
 40
0.0
 40
0.1197290731
 40
0.2397365246
 40
0.3609040964
 40
0.4836831257
 40
0.7359942557
 40
1.0
 40
1.0
 40
1.0
 40
1.0
 10
748.8788693212
 20
103.8168216457
 30
0.0
 10
748.8788693212
 20
104.1660353479
 30
0.0
 10
748.950972943
 20
104.8673763839
 30
0.0
 10
749.2692582777
 20
105.877594632
 30
0.0
 10
749.7786418194
 20
106.8161728507
 30
0.0
 10
750.6904423479
 20
107.9489473574
 30
0.0
 10
752.2063336135
 20
109.0860907735
 30
0.0
 10
753.6292204636
 20
109.6326364974
 30
0.0
 10
754.3754449852
 20
109.822604988
 30
0.0
  0
SPLINE
  5
436
100
AcDbEntity
  8
KONSTRUKTIONSELEMENTE
100
AcDbSpline
 62
7
  6
CONTINUOUS
 70
0
 71
3
 72
13
 73
9
 74
0
 42
0.0000001
 43
0.0000001
 44
0.0000000001
 40
0.0
 40
0.0
 40
0.0
 40
0.0
 40
0.2640112835
 40
0.5163080567
 40
0.6390830379
 40
0.7602378991
 40
0.8802701562
 40
1.0
 40
1.0
 40
1.0
 40
1.0
 10
759.3831971237
 20
109.8223577984
 30
0.0
 10
760.129336946
 20
109.6323231971
 30
0.0
 10
761.5520133874
 20
109.085756566
 30
0.0
 10
763.0676034545
 20
107.948611225
 30
0.0
 10
763.9791937319
 20
106.8159957164
 30
0.0
 10
764.4885846477
 20
105.8775184298
 30
0.0
 10
764.8067213668
 20
104.8673303267
 30
0.0
 10
764.8788693212
 20
104.1660004432
 30
0.0
 10
764.8788693212
 20
103.8168216457
 30
0.0
  0
SPLINE
  5
437
100
AcDbEntity
  8
KONSTRUKTIONSELEMENTE
100
AcDbSpline
 62
7
  6
CONTINUOUS
 70
0
 71
3
 72
10
 73
6
 74
0
 42
0.0000001
 43
0.0000001
 44
0.0000000001
 40
0.0
 40
0.0
 40
0.0
 40
0.0
 40
0.3192646009
 40
0.6086079864
 40
1.0
 40
1.0
 40
1.0
 40
1.0
 10
753.3788693212
 20
103.8168216457
 30
0.0
 10
753.3788693212
 20
103.9885614209
 30
0.0
 10
753.5208851077
 20
104.3094126359
 30
0.0
 10
753.8866911224
 20
104.7027649753
 30
0.0
 10
754.1899789551
 20
104.9158048886
 30
0.0
 10
754.3725152562
 20
105.020719485
 30
0.0
  0
SPLINE
  5
438
100
AcDbEntity
  8
KONSTRUKTIONSELEMENTE
100
AcDbSpline
 62
7
  6
CONTINUOUS
 70
0
 71
3
 72
10
 73
6
 74
0
 42
0.0000001
 43
0.0000001
 44
0.0000000001
 40
0.0
 40
0.0
 40
0.0
 40
0.0
 40
0.3914026107
 40
0.6807340322
 40
1.0
 40
1.0
 40
1.0
 40
1.0
 10
759.3853149222
 20
105.0206670139
 30
0.0
 10
759.5678421657
 20
104.9157516044
 30
0.0
 10
759.8710817464
 20
104.7026925329
 30
0.0
 10
760.2369024511
 20
104.3093941723
 30
0.0
 10
760.3788693212
 20
103.9885514314
 30
0.0
 10
760.3788693212
 20
103.8168216457
 30
0.0
  0
SPLINE
  5
439
100
AcDbEntity
  8
KONSTRUKTIONSELEMENTE
100
AcDbSpline
 62
7
  6
CONTINUOUS
 70
0
 71
3
 72
9
 73
5
 74
0
 42
0.0000001
 43
0.0000001
 44
0.0000000001
 40
0.0
 40
0.0
 40
0.0
 40
0.0
 40
0.4862946585
 40
1.0
 40
1.0
 40
1.0
 40
1.0
 10
779.8363409998
 20
120.4465316164
 30
0.0
 10
777.4484724553
 20
118.7375186403
 30
0.0
 10
772.0193745051
 20
115.9230413341
 30
0.0
 10
766.1061128231
 20
114.4579069591
 30
0.0
 10
763.0338107872
 20
114.0300611799
 30
0.0
  0
SPLINE
  5
43A
100
AcDbEntity
  8
KONSTRUKTIONSELEMENTE
100
AcDbSpline
 62
7
  6
CONTINUOUS
 70
0
 71
3
 72
9
 73
5
 74
0
 42
0.0000001
 43
0.0000001
 44
0.0000000001
 40
0.0
 40
0.0
 40
0.0
 40
0.0
 40
0.5137072087
 40
1.0
 40
1.0
 40
1.0
 40
1.0
 10
750.7135295952
 20
114.0315044324
 30
0.0
 10
747.6425677412
 20
114.4599247736
 30
0.0
 10
741.7320383357
 20
115.9256689102
 30
0.0
 10
736.3055883284
 20
118.7397717201
 30
0.0
 10
733.9188760297
 20
120.4483325487
 30
0.0
  0
SPLINE
  5
43B
100
AcDbEntity
  8
KONSTRUKTIONSELEMENTE
100
AcDbSpline
 62
7
  6
CONTINUOUS
 70
0
 71
3
 72
9
 73
5
 74
0
 42
0.0000001
 43
0.0000001
 44
0.0000000001
 40
0.0
 40
0.0
 40
0.0
 40
0.0
 40
0.2334728158
 40
1.0
 40
1.0
 40
1.0
 40
1.0
 10
778.4178960711
 20
129.8295257777
 30
0.0
 10
778.0289578032
 20
129.393830482
 30
0.0
 10
776.2677903741
 20
127.6130680506
 30
0.0
 10
774.1690459111
 20
126.1830227186
 30
0.0
 10
772.4778548222
 20
125.2793303892
 30
0.0
  0
SPLINE
  5
43C
100
AcDbEntity
  8
KONSTRUKTIONSELEMENTE
100
AcDbSpline
 62
7
  6
CONTINUOUS
 70
0
 71
3
 72
9
 73
5
 74
0
 42
0.0000001
 43
0.0000001
 44
0.0000000001
 40
0.0
 40
0.0
 40
0.0
 40
0.0
 40
0.2669512994
 40
1.0
 40
1.0
 40
1.0
 40
1.0
 10
741.2755162834
 20
125.2816661364
 30
0.0
 10
740.6872639098
 20
125.5961545081
 30
0.0
 10
738.5303421039
 20
126.856283717
 30
0.0
 10
736.5613591383
 20
128.4615435721
 30
0.0
 10
735.3413643065
 20
129.8278240497
 30
0.0
  0
SPLINE
  5
43D
100
AcDbEntity
  8
0
100
AcDbSpline
 62
7
  6
CONTINUOUS
 70
0
 71
3
 72
11
 73
7
 74
0
 42
0.0000001
 43
0.0000001
 44
0.0000000001
 40
0.0
 40
0.0
 40
0.0
 40
0.0
 40
0.2192989281
 40
0.4548225453
 40
0.7152180566
 40
1.0
 40
1.0
 40
1.0
 40
1.0
 10
780.2258538551
 20
25.0026998147
 30
0.0
 10
780.2258538551
 20
25.4650423822
 30
0.0
 10
780.0179518165
 20
26.4329716031
 30
0.0
 10
779.1503993296
 20
27.7023809611
 30
0.0
 10
777.8331325061
 20
28.7240757131
 30
0.0
 10
776.7653059025
 20
29.1815967427
 30
0.0
 10
776.1915534341
 20
29.3584775868
 30
0.0
  0
SPLINE
  5
43E
100
AcDbEntity
  8
0
100
AcDbSpline
 62
7
  6
CONTINUOUS
 70
0
 71
3
 72
15
 73
11
 74
0
 42
0.0000001
 43
0.0000001
 44
0.0000000001
 40
0.0
 40
0.0
 40
0.0
 40
0.0
 40
0.1047415988
 40
0.222328371
 40
0.3560160977
 40
0.5
 40
0.6439839023
 40
0.777671629
 40
0.8952584012
 40
1.0
 40
1.0
 40
1.0
 40
1.0
 10
759.3085230271
 20
23.831544775
 30
0.0
 10
759.3085230271
 20
23.5486134325
 30
0.0
 10
759.492304025
 20
22.9409413407
 30
0.0
 10
760.1956960577
 20
22.2450572176
 30
0.0
 10
761.1847369417
 20
21.7983073277
 30
0.0
 10
762.3278313156
 20
21.6438172463
 30
0.0
 10
763.4709256894
 20
21.7983073277
 30
0.0
 10
764.4599665735
 20
22.2450572176
 30
0.0
 10
765.1633586062
 20
22.9409413407
 30
0.0
 10
765.3471396041
 20
23.5486134325
 30
0.0
 10
765.3471396041
 20
23.831544775
 30
0.0
  0
SPLINE
  5
43F
100
AcDbEntity
  8
0
100
AcDbSpline
 62
7
  6
CONTINUOUS
 70
0
 71
3
 72
11
 73
7
 74
0
 42
0.0000001
 43
0.0000001
 44
0.0000000001
 40
0.0
 40
0.0
 40
0.0
 40
0.0
 40
0.2094689415
 40
0.4446609502
 40
0.7120169424
 40
1.0
 40
1.0
 40
1.0
 40
1.0
 10
755.457582923
 20
27.1605420959
 30
0.0
 10
755.4575381015
 20
27.4593257845
 30
0.0
 10
755.2632028746
 20
28.1010109574
 30
0.0
 10
754.5201858883
 20
28.8358459349
 30
0.0
 10
753.4764053249
 20
29.3076592844
 30
0.0
 10
752.6792982026
 20
29.4150461293
 30
0.0
 10
752.2685230271
 20
29.4150461293
 30
0.0
  0
SPLINE
  5
440
100
AcDbEntity
  8
0
100
AcDbSpline
 62
7
  6
CONTINUOUS
 70
0
 71
3
 72
9
 73
5
 74
0
 42
0.0000001
 43
0.0000001
 44
0.0000000001
 40
0.0
 40
0.0
 40
0.0
 40
0.0
 40
0.4402133985
 40
1.0
 40
1.0
 40
1.0
 40
1.0
 10
737.9792409447
 20
23.9505249243
 30
0.0
 10
737.9792409447
 20
23.9134381822
 30
0.0
 10
738.0363574077
 20
23.8326774017
 30
0.0
 10
738.1240804962
 20
23.8147604223
 30
0.0
 10
738.1712409447
 20
23.8147604223
 30
0.0
  0
SPLINE
  5
441
100
AcDbEntity
  8
0
100
AcDbSpline
 62
7
  6
CONTINUOUS
 70
0
 71
3
 72
9
 73
5
 74
0
 42
0.0000001
 43
0.0000001
 44
0.0000000001
 40
0.0
 40
0.0
 40
0.0
 40
0.0
 40
0.4402133985
 40
1.0
 40
1.0
 40
1.0
 40
1.0
 10
739.2992409447
 20
24.0184071753
 30
0.0
 10
739.2992409447
 20
24.0554939174
 30
0.0
 10
739.2421244818
 20
24.1362546979
 30
0.0
 10
739.1544013933
 20
24.1541716773
 30
0.0
 10
739.1072409447
 20
24.1541716773
 30
0.0
  0
SPLINE
  5
442
100
AcDbEntity
  8
0
100
AcDbSpline
 62
7
  6
CONTINUOUS
 70
0
 71
3
 72
9
 73
5
 74
0
 42
0.0000001
 43
0.0000001
 44
0.0000000001
 40
0.0
 40
0.0
 40
0.0
 40
0.0
 40
0.4402133985
 40
1.0
 40
1.0
 40
1.0
 40
1.0
 10
739.2992409447
 20
27.412519725
 30
0.0
 10
739.2992409447
 20
27.4496064671
 30
0.0
 10
739.2421244818
 20
27.5303672476
 30
0.0
 10
739.1544013933
 20
27.548284227
 30
0.0
 10
739.1072409447
 20
27.548284227
 30
0.0
  0
SPLINE
  5
443
100
AcDbEntity
  8
0
100
AcDbSpline
 62
7
  6
CONTINUOUS
 70
0
 71
3
 72
11
 73
7
 74
0
 42
0.0000001
 43
0.0000001
 44
0.0000000001
 40
0.0
 40
0.0
 40
0.0
 40
0.0
 40
0.2094668498
 40
0.4446559298
 40
0.7120302568
 40
1.0
 40
1.0
 40
1.0
 40
1.0
 10
736.6592409447
 20
25.6815223246
 30
0.0
 10
736.6592409447
 20
25.636546205
 30
0.0
 10
736.6884496855
 20
25.5399398901
 30
0.0
 10
736.8003003318
 20
25.4293108027
 30
0.0
 10
736.9574163161
 20
25.3582767192
 30
0.0
 10
737.0774089096
 20
25.3421110697
 30
0.0
 10
737.1392409447
 20
25.3421110697
 30
0.0
  0
SPLINE
  5
444
100
AcDbEntity
  8
0
100
AcDbSpline
 62
7
  6
CONTINUOUS
 70
0
 71
3
 72
11
 73
7
 74
0
 42
0.0000001
 43
0.0000001
 44
0.0000000001
 40
0.0
 40
0.0
 40
0.0
 40
0.0
 40
0.2094668498
 40
0.4446559298
 40
0.7120302568
 40
1.0
 40
1.0
 40
1.0
 40
1.0
 10
736.6592409447
 20
22.2874097749
 30
0.0
 10
736.6592409447
 20
22.2424336553
 30
0.0
 10
736.6884496855
 20
22.1458273404
 30
0.0
 10
736.8003003318
 20
22.0351982531
 30
0.0
 10
736.9574163161
 20
21.9641641695
 30
0.0
 10
737.0774089096
 20
21.94799852
 30
0.0
 10
737.1392409447
 20
21.94799852
 30
0.0
  0
SPLINE
  5
445
100
AcDbEntity
  8
0
100
AcDbSpline
 62
7
  6
CONTINUOUS
 70
0
 71
3
 72
9
 73
5
 74
0
 42
0.0000001
 43
0.0000001
 44
0.0000000001
 40
0.0
 40
0.0
 40
0.0
 40
0.0
 40
0.2432035461
 40
1.0
 40
1.0
 40
1.0
 40
1.0
 10
743.1392409447
 20
28.7362236194
 30
0.0
 10
743.1392409447
 20
28.7628598059
 30
0.0
 10
743.1301335821
 20
28.8723858378
 30
0.0
 10
743.0830675763
 20
28.977158535
 30
0.0
 10
743.0346088648
 20
29.0444031922
 30
0.0
  0
SPLINE
  5
446
100
AcDbEntity
  8
0
100
AcDbSpline
 62
7
  6
CONTINUOUS
 70
0
 71
3
 72
9
 73
5
 74
0
 42
0.0000001
 43
0.0000001
 44
0.0000000001
 40
0.0
 40
0.0
 40
0.0
 40
0.0
 40
0.2250156934
 40
1.0
 40
1.0
 40
1.0
 40
1.0
 10
743.0346088648
 20
29.0444031922
 30
0.0
 10
742.9928555635
 20
29.1023429589
 30
0.0
 10
742.7636845401
 20
29.328263818
 30
0.0
 10
742.4252098971
 20
29.4150461293
 30
0.0
 10
742.1792409447
 20
29.4150461293
 30
0.0
  0
SPLINE
  5
447
100
AcDbEntity
  8
RUNDUNGEN
100
AcDbSpline
 62
7
  6
CONTINUOUS
 70
0
 71
3
 72
10
 73
6
 74
0
 42
0.0000001
 43
0.0000001
 44
0.0000000001
 40
0.0
 40
0.0
 40
0.0
 40
0.0
 40
0.2265435213
 40
0.4650408122
 40
1.0
 40
1.0
 40
1.0
 40
1.0
 10
705.033225136
 20
30.5440803498
 30
0.0
 10
705.0333150274
 20
30.6860886346
 30
0.0
 10
705.0850713575
 20
30.9797407726
 30
0.0
 10
705.3899745091
 20
31.5369354879
 30
0.0
 10
705.7987444894
 20
31.8423682542
 30
0.0
 10
706.0992640579
 20
31.9911619533
 30
0.0
  0
SPLINE
  5
448
100
AcDbEntity
  8
RUNDUNGEN
100
AcDbSpline
 62
7
  6
CONTINUOUS
 70
0
 71
3
 72
9
 73
5
 74
0
 42
0.0000001
 43
0.0000001
 44
0.0000000001
 40
0.0
 40
0.0
 40
0.0
 40
0.0
 40
0.4805183102
 40
1.0
 40
1.0
 40
1.0
 40
1.0
 10
705.0332229811
 20
27.0084759425
 30
0.0
 10
705.0331199667
 20
26.8269979135
 30
0.0
 10
705.1193581636
 20
26.4457645402
 30
0.0
 10
705.3472771135
 20
26.1330167949
 30
0.0
 10
705.485325038
 20
25.9936086648
 30
0.0
  0
SPLINE
  5
449
100
AcDbEntity
  8
RUNDUNGEN
100
AcDbSpline
 62
7
  6
CONTINUOUS
 70
0
 71
3
 72
11
 73
7
 74
0
 42
0.0000001
 43
0.0000001
 44
0.0000000001
 40
0.0
 40
0.0
 40
0.0
 40
0.0
 40
0.2256919297
 40
0.4632773963
 40
0.7205986282
 40
1.0
 40
1.0
 40
1.0
 40
1.0
 10
688.2078356307
 20
48.7594504439
 30
0.0
 10
688.2077478996
 20
49.214185405
 30
0.0
 10
688.372194611
 20
50.1543364487
 30
0.0
 10
689.0794995066
 20
51.4468839524
 30
0.0
 10
690.1880660481
 20
52.5682585979
 30
0.0
 10
691.114720641
 20
53.1445078318
 30
0.0
 10
691.6192202582
 20
53.3942964383
 30
0.0
  0
SPLINE
  5
44A
100
AcDbEntity
  8
RUNDUNGEN
100
AcDbSpline
 62
7
  6
CONTINUOUS
 70
0
 71
3
 72
9
 73
5
 74
0
 42
0.0000001
 43
0.0000001
 44
0.0000000001
 40
0.0
 40
0.0
 40
0.0
 40
0.0
 40
0.4805188659
 40
1.0
 40
1.0
 40
1.0
 40
1.0
 10
688.2078356307
 20
45.223916538
 30
0.0
 10
688.2079475503
 20
44.643805184
 30
0.0
 10
688.4847671732
 20
43.4254877172
 30
0.0
 10
689.2133334437
 20
42.4259304721
 30
0.0
 10
689.6546153947
 20
41.9803005082
 30
0.0
  0
SPLINE
  5
44B
100
AcDbEntity
  8
RUNDUNGEN
100
AcDbSpline
 62
7
  6
CONTINUOUS
 70
0
 71
3
 72
11
 73
7
 74
0
 42
0.0000001
 43
0.0000001
 44
0.0000000001
 40
0.0
 40
0.0
 40
0.0
 40
0.0
 40
0.2377805486
 40
0.4809056598
 40
0.733919361
 40
1.0
 40
1.0
 40
1.0
 40
1.0
 10
781.9306274604
 20
-6.1814738561
 30
0.0
 10
781.9306274913
 20
-5.2798430108
 30
0.0
 10
782.1306437498
 20
-3.4504923161
 30
0.0
 10
783.0175099265
 20
-0.7926075456
 30
0.0
 10
784.4640869647
 20
1.7292443464
 30
0.0
 10
785.7419034864
 20
3.2411022741
 30
0.0
 10
786.4518263532
 20
3.9580201103
 30
0.0
  0
SPLINE
  5
44C
100
AcDbEntity
  8
RUNDUNGEN
100
AcDbSpline
 62
7
  6
CONTINUOUS
 70
0
 71
3
 72
9
 73
5
 74
0
 42
0.0000001
 43
0.0000001
 44
0.0000000001
 40
0.0
 40
0.0
 40
0.0
 40
0.0
 40
0.4817888018
 40
1.0
 40
1.0
 40
1.0
 40
1.0
 10
782.0561257788
 20
-4.414821373
 30
0.0
 10
782.2726668575
 20
-5.9376748577
 30
0.0
 10
783.3174040541
 20
-9.0322511288
 30
0.0
 10
785.2876992037
 20
-11.6098379101
 30
0.0
 10
786.4518263532
 20
-12.7854353674
 30
0.0
  0
SPLINE
  5
44D
100
AcDbEntity
  8
RUNDUNGEN
100
AcDbSpline
 62
7
  6
CONTINUOUS
 70
0
 71
3
 72
9
 73
5
 74
0
 42
0.0000001
 43
0.0000001
 44
0.0000000001
 40
0.0
 40
0.0
 40
0.0
 40
0.0
 40
0.4805364547
 40
1.0
 40
1.0
 40
1.0
 40
1.0
 10
702.3788693212
 20
-39.7416872759
 30
0.0
 10
702.3788693212
 20
-39.1613940516
 30
0.0
 10
702.6554951571
 20
-37.9426569393
 30
0.0
 10
703.3842637803
 20
-36.9427872305
 30
0.0
 10
703.8256529669
 20
-36.4970489745
 30
0.0
  0
SPLINE
  5
44E
100
AcDbEntity
  8
RUNDUNGEN
100
AcDbSpline
 62
7
  6
CONTINUOUS
 70
0
 71
3
 72
9
 73
5
 74
0
 42
0.0000001
 43
0.0000001
 44
0.0000000001
 40
0.0
 40
0.0
 40
0.0
 40
0.0
 40
0.5194633901
 40
1.0
 40
1.0
 40
1.0
 40
1.0
 10
809.9320856755
 20
-36.4970489745
 30
0.0
 10
810.3734747299
 20
-36.9427870971
 30
0.0
 10
811.1022433856
 20
-37.9426567453
 30
0.0
 10
811.3788693212
 20
-39.1613938644
 30
0.0
 10
811.3788693212
 20
-39.7416872759
 30
0.0
  0
SPLINE
  5
44F
100
AcDbEntity
  8
RUNDUNGEN
100
AcDbSpline
 62
7
  6
CONTINUOUS
 70
0
 71
3
 72
10
 73
6
 74
0
 42
0.0000001
 43
0.0000001
 44
0.0000000001
 40
0.0
 40
0.0
 40
0.0
 40
0.0
 40
0.5349738501
 40
0.7734707915
 40
1.0
 40
1.0
 40
1.0
 40
1.0
 10
826.6438546277
 20
51.1636076061
 30
0.0
 10
826.9443879478
 20
51.0148070982
 30
0.0
 10
827.3531747002
 20
50.7093594165
 30
0.0
 10
827.6580636394
 20
50.1521430019
 30
0.0
 10
827.7098107312
 20
49.8584934793
 30
0.0
 10
827.7098954535
 20
49.7164915574
 30
0.0
  0
SPLINE
  5
450
100
AcDbEntity
  8
RUNDUNGEN
100
AcDbSpline
 62
7
  6
CONTINUOUS
 70
0
 71
3
 72
10
 73
6
 74
0
 42
0.0000001
 43
0.0000001
 44
0.0000000001
 40
0.0
 40
0.0
 40
0.0
 40
0.0
 40
0.480919227
 40
0.7459271703
 40
1.0
 40
1.0
 40
1.0
 40
1.0
 10
812.3082688393
 20
56.1034193485
 30
0.0
 10
812.7233982831
 20
56.522639121
 30
0.0
 10
813.6593635903
 20
56.8825026942
 30
0.0
 10
814.8875267704
 20
56.8608736191
 30
0.0
 10
815.5107622472
 20
56.6758409885
 30
0.0
 10
815.7900900409
 20
56.5375397927
 30
0.0
  0
SPLINE
  5
451
100
AcDbEntity
  8
RUNDUNGEN
100
AcDbSpline
 62
7
  6
CONTINUOUS
 70
0
 71
3
 72
9
 73
5
 74
0
 42
0.0000001
 43
0.0000001
 44
0.0000000001
 40
0.0
 40
0.0
 40
0.0
 40
0.0
 40
0.2416885815
 40
1.0
 40
1.0
 40
1.0
 40
1.0
 10
693.2575243468
 20
54.2054560136
 30
0.0
 10
694.5890713312
 20
54.8647335518
 30
0.0
 10
700.3449345791
 20
57.0764261108
 30
0.0
 10
706.7937313668
 20
57.3620025454
 30
0.0
 10
711.3796683874
 20
56.5241511597
 30
0.0
  0
SPLINE
  5
452
100
AcDbEntity
  8
0
100
AcDbSpline
 62
7
  6
CONTINUOUS
 70
0
 71
3
 72
11
 73
7
 74
0
 42
0.0000001
 43
0.0000001
 44
0.0000000001
 40
0.0
 40
0.0
 40
0.0
 40
0.0
 40
0.2880052506
 40
0.5553344723
 40
0.7905070702
 40
1.0
 40
1.0
 40
1.0
 40
1.0
 10
734.4992409447
 20
29.4150461293
 30
0.0
 10
734.3755624927
 20
29.4150461293
 30
0.0
 10
734.1355690222
 20
29.3827394901
 30
0.0
 10
733.8214039942
 20
29.2405874412
 30
0.0
 10
733.5976453054
 20
29.0194176099
 30
0.0
 10
733.5392409447
 20
28.8261864281
 30
0.0
 10
733.5392409447
 20
28.7362236194
 30
0.0
  0
SPLINE
  5
453
100
AcDbEntity
  8
0
100
AcDbSpline
 62
7
  6
CONTINUOUS
 70
0
 71
3
 72
11
 73
7
 74
0
 42
0.0000001
 43
0.0000001
 44
0.0000000001
 40
0.0
 40
0.0
 40
0.0
 40
0.0
 40
0.2879697432
 40
0.5553440702
 40
0.7905331502
 40
1.0
 40
1.0
 40
1.0
 40
1.0
 10
739.5392409447
 20
25.3421110697
 30
0.0
 10
739.6010729799
 20
25.3421110697
 30
0.0
 10
739.7210655734
 20
25.3582767192
 30
0.0
 10
739.8781815577
 20
25.4293108027
 30
0.0
 10
739.990032204
 20
25.5399398901
 30
0.0
 10
740.0192409447
 20
25.636546205
 30
0.0
 10
740.0192409447
 20
25.6815223246
 30
0.0
  0
SPLINE
  5
454
100
AcDbEntity
  8
0
100
AcDbSpline
 62
7
  6
CONTINUOUS
 70
0
 71
3
 72
11
 73
7
 74
0
 42
0.0000001
 43
0.0000001
 44
0.0000000001
 40
0.0
 40
0.0
 40
0.0
 40
0.0
 40
0.2879697432
 40
0.5553440702
 40
0.7905331502
 40
1.0
 40
1.0
 40
1.0
 40
1.0
 10
739.5392409447
 20
21.94799852
 30
0.0
 10
739.6010729799
 20
21.94799852
 30
0.0
 10
739.7210655734
 20
21.9641641695
 30
0.0
 10
739.8781815577
 20
22.0351982531
 30
0.0
 10
739.990032204
 20
22.1458273404
 30
0.0
 10
740.0192409447
 20
22.2424336553
 30
0.0
 10
740.0192409447
 20
22.2874097749
 30
0.0
  0
SPLINE
  5
455
100
AcDbEntity
  8
0
100
AcDbSpline
 62
7
  6
CONTINUOUS
 70
0
 71
3
 72
9
 73
5
 74
0
 42
0.0000001
 43
0.0000001
 44
0.0000000001
 40
0.0
 40
0.0
 40
0.0
 40
0.0
 40
0.5597866015
 40
1.0
 40
1.0
 40
1.0
 40
1.0
 10
737.5712409447
 20
27.548284227
 30
0.0
 10
737.5240804962
 20
27.548284227
 30
0.0
 10
737.4363574077
 20
27.5303672476
 30
0.0
 10
737.3792409447
 20
27.4496064671
 30
0.0
 10
737.3792409447
 20
27.412519725
 30
0.0
  0
SPLINE
  5
456
100
AcDbEntity
  8
0
100
AcDbSpline
 62
7
  6
CONTINUOUS
 70
0
 71
3
 72
9
 73
5
 74
0
 42
0.0000001
 43
0.0000001
 44
0.0000000001
 40
0.0
 40
0.0
 40
0.0
 40
0.0
 40
0.5597866015
 40
1.0
 40
1.0
 40
1.0
 40
1.0
 10
737.5712409447
 20
24.1541716773
 30
0.0
 10
737.5240804962
 20
24.1541716773
 30
0.0
 10
737.4363574077
 20
24.1362546979
 30
0.0
 10
737.3792409447
 20
24.0554939174
 30
0.0
 10
737.3792409447
 20
24.0184071753
 30
0.0
  0
SPLINE
  5
457
100
AcDbEntity
  8
0
100
AcDbSpline
 62
7
  6
CONTINUOUS
 70
0
 71
3
 72
9
 73
5
 74
0
 42
0.0000001
 43
0.0000001
 44
0.0000000001
 40
0.0
 40
0.0
 40
0.0
 40
0.0
 40
0.5597866015
 40
1.0
 40
1.0
 40
1.0
 40
1.0
 10
738.5072409447
 20
23.8147604223
 30
0.0
 10
738.5544013933
 20
23.8147604223
 30
0.0
 10
738.6421244818
 20
23.8326774017
 30
0.0
 10
738.6992409447
 20
23.9134381822
 30
0.0
 10
738.6992409447
 20
23.9505249243
 30
0.0
  0
SPLINE
  5
458
100
AcDbEntity
  8
0
100
AcDbSpline
 62
7
  6
CONTINUOUS
 70
0
 71
3
 72
11
 73
7
 74
0
 42
0.0000001
 43
0.0000001
 44
0.0000000001
 40
0.0
 40
0.0
 40
0.0
 40
0.0
 40
0.2880001164
 40
0.5553425139
 40
0.7905343079
 40
1.0
 40
1.0
 40
1.0
 40
1.0
 10
752.2685230271
 20
25.9345721808
 30
0.0
 10
752.4917928584
 20
25.9345721808
 30
0.0
 10
752.9250364062
 20
25.9929322127
 30
0.0
 10
753.492275107
 20
26.2494522798
 30
0.0
 10
753.8961369696
 20
26.6488338794
 30
0.0
 10
754.001559842
 20
26.9976487835
 30
0.0
 10
754.001559842
 20
27.1600354184
 30
0.0
  0
SPLINE
  5
459
100
AcDbEntity
  8
0
100
AcDbSpline
 62
7
  6
CONTINUOUS
 70
0
 71
3
 72
8
 73
4
 74
0
 42
0.0000001
 43
0.0000001
 44
0.0000000001
 40
0.0
 40
0.0
 40
0.0
 40
0.0
 40
1.0
 40
1.0
 40
1.0
 40
1.0
 10
776.1915534341
 20
29.3584775868
 30
0.0
 10
776.0680191765
 20
29.3965616822
 30
0.0
 10
775.9371583751
 20
29.4150461293
 30
0.0
 10
775.8078869122
 20
29.4150461293
 30
0.0
  0
SPLINE
  5
45A
100
AcDbEntity
  8
0
100
AcDbSpline
 62
7
  6
CONTINUOUS
 70
0
 71
3
 72
11
 73
7
 74
0
 42
0.0000001
 43
0.0000001
 44
0.0000000001
 40
0.0
 40
0.0
 40
0.0
 40
0.0
 40
0.2779817175
 40
0.5346952233
 40
0.772857858
 40
1.0
 40
1.0
 40
1.0
 40
1.0
 10
776.1333837922
 20
21.7916636389
 30
0.0
 10
776.4698716581
 20
21.9738720531
 30
0.0
 10
777.0863723546
 20
22.3875575434
 30
0.0
 10
777.8189877207
 20
23.173869855
 30
0.0
 10
778.2836995193
 20
24.0678883379
 30
0.0
 10
778.3912928231
 20
24.7126562323
 30
0.0
 10
778.3912928231
 20
25.0253272317
 30
0.0
  0
SPLINE
  5
45B
100
AcDbEntity
  8
0
100
AcDbSpline
 62
7
  6
CONTINUOUS
 70
0
 71
3
 72
9
 73
5
 74
0
 42
0.0000001
 43
0.0000001
 44
0.0000000001
 40
0.0
 40
0.0
 40
0.0
 40
0.0
 40
0.2591205677
 40
1.0
 40
1.0
 40
1.0
 40
1.0
 10
775.8415452769
 20
21.72172435
 30
0.0
 10
775.8676088702
 20
21.72172435
 30
0.0
 10
775.9680146105
 20
21.7274767817
 30
0.0
 10
776.06785333
 20
21.7561788479
 30
0.0
 10
776.1333837922
 20
21.7916636389
 30
0.0
  0
SPLINE
  5
45C
100
AcDbEntity
  8
RUNDUNGEN
100
AcDbSpline
 62
7
  6
CONTINUOUS
 70
0
 71
3
 72
11
 73
7
 74
0
 42
0.0000001
 43
0.0000001
 44
0.0000000001
 40
0.0
 40
0.0
 40
0.0
 40
0.0
 40
0.2880068215
 40
0.5553366529
 40
0.7905059061
 40
1.0
 40
1.0
 40
1.0
 40
1.0
 10
713.9288693212
 20
-58.4641846366
 30
0.0
 10
714.0319352737
 20
-58.4641846366
 30
0.0
 10
714.2319303659
 20
-58.4372614121
 30
0.0
 10
714.4937349925
 20
-58.3188026807
 30
0.0
 10
714.6801986713
 20
-58.1344936272
 30
0.0
 10
714.7288693212
 20
-57.9734686454
 30
0.0
 10
714.7288693212
 20
-57.8984992116
 30
0.0
  0
SPLINE
  5
45D
100
AcDbEntity
  8
RUNDUNGEN
100
AcDbSpline
 62
7
  6
CONTINUOUS
 70
0
 71
3
 72
13
 73
9
 74
0
 42
0.0000001
 43
0.0000001
 44
0.0000000001
 40
0.0
 40
0.0
 40
0.0
 40
0.0
 40
0.1034546555
 40
0.2106690395
 40
0.3244963599
 40
0.4464318111
 40
0.7129511617
 40
1.0
 40
1.0
 40
1.0
 40
1.0
 10
702.3788693212
 20
-52.8073303871
 30
0.0
 10
702.3788693212
 20
-53.1787427973
 30
0.0
 10
702.4866544631
 20
-53.9389230706
 30
0.0
 10
702.9583160795
 20
-55.0175924272
 30
0.0
 10
703.7149106231
 20
-56.0027428717
 30
0.0
 10
705.0978085972
 20
-57.1771682602
 30
0.0
 10
707.3508334891
 20
-58.195847511
 30
0.0
 10
709.3483356983
 20
-58.4641846366
 30
0.0
 10
710.3788693212
 20
-58.4641846366
 30
0.0
  0
SPLINE
  5
45E
100
AcDbEntity
  8
RUNDUNGEN
100
AcDbSpline
 62
7
  6
CONTINUOUS
 70
0
 71
3
 72
10
 73
6
 74
0
 42
0.0000001
 43
0.0000001
 44
0.0000000001
 40
0.0
 40
0.0
 40
0.0
 40
0.0
 40
0.4808964971
 40
0.7459158261
 40
1.0
 40
1.0
 40
1.0
 40
1.0
 10
693.6696504492
 20
37.9257047508
 30
0.0
 10
694.0847605594
 20
37.5065045025
 30
0.0
 10
695.0206996615
 20
37.1466340788
 30
0.0
 10
696.2488656695
 20
37.1682407072
 30
0.0
 10
696.8721311924
 20
37.3532768403
 30
0.0
 10
697.1514716508
 20
37.4915843067
 30
0.0
  0
SPLINE
  5
45F
100
AcDbEntity
  8
RUNDUNGEN
100
AcDbSpline
 62
7
  6
CONTINUOUS
 70
0
 71
3
 72
9
 73
5
 74
0
 42
0.0000001
 43
0.0000001
 44
0.0000000001
 40
0.0
 40
0.0
 40
0.0
 40
0.0
 40
0.5194816315
 40
1.0
 40
1.0
 40
1.0
 40
1.0
 10
827.2577936475
 20
45.1660543176
 30
0.0
 10
827.3958531236
 20
45.305474113
 30
0.0
 10
827.6237888246
 20
45.6182521494
 30
0.0
 10
827.7100122276
 20
45.999525831
 30
0.0
 10
827.7098933859
 20
46.1810190785
 30
0.0
  0
SPLINE
  5
460
100
AcDbEntity
  8
RUNDUNGEN
100
AcDbSpline
 62
7
  6
CONTINUOUS
 70
0
 71
3
 72
13
 73
9
 74
0
 42
0.0000001
 43
0.0000001
 44
0.0000000001
 40
0.0
 40
0.0
 40
0.0
 40
0.0
 40
0.2870490624
 40
0.5535683755
 40
0.6755038246
 40
0.7893311355
 40
0.8965454157
 40
1.0
 40
1.0
 40
1.0
 40
1.0
 10
803.3788693212
 20
-58.4641846366
 30
0.0
 10
804.4094037482
 20
-58.4641846366
 30
0.0
 10
806.4069066743
 20
-58.1958472554
 30
0.0
 10
808.6599318969
 20
-57.1771671165
 30
0.0
 10
810.0428294239
 20
-56.002741453
 30
0.0
 10
810.7994232875
 20
-55.0175910152
 30
0.0
 10
811.2710844071
 20
-53.9389221944
 30
0.0
 10
811.3788693212
 20
-53.1787425418
 30
0.0
 10
811.3788693212
 20
-52.8073303871
 30
0.0
  0
SPLINE
  5
461
100
AcDbEntity
  8
RUNDUNGEN
100
AcDbSpline
 62
7
  6
CONTINUOUS
 70
0
 71
3
 72
11
 73
7
 74
0
 42
0.0000001
 43
0.0000001
 44
0.0000000001
 40
0.0
 40
0.0
 40
0.0
 40
0.0
 40
0.2094942263
 40
0.444667264
 40
0.7119932261
 40
1.0
 40
1.0
 40
1.0
 40
1.0
 10
799.0288693212
 20
-57.8984992116
 30
0.0
 10
799.0288693212
 20
-57.9734686865
 30
0.0
 10
799.0775409059
 20
-58.1344949048
 30
0.0
 10
799.2640050796
 20
-58.3188035931
 30
0.0
 10
799.5258096501
 20
-58.4372619641
 30
0.0
 10
799.7258033943
 20
-58.4641846366
 30
0.0
 10
799.8288693212
 20
-58.4641846366
 30
0.0
  0
SPLINE
  5
462
100
AcDbEntity
  8
RUNDUNGEN
100
AcDbSpline
 62
7
  6
CONTINUOUS
 70
0
 71
3
 72
9
 73
5
 74
0
 42
0.0000001
 43
0.0000001
 44
0.0000000001
 40
0.0
 40
0.0
 40
0.0
 40
0.0
 40
0.4729729907
 40
1.0
 40
1.0
 40
1.0
 40
1.0
 10
773.4264402219
 20
-42.6169398459
 30
0.0
 10
774.215530697
 20
-43.4138053399
 30
0.0
 10
776.3422454379
 20
-44.6470023127
 30
0.0
 10
778.7300368322
 20
-45.029155794
 30
0.0
 10
779.9796565763
 20
-45.029155794
 30
0.0
  0
SPLINE
  5
463
100
AcDbEntity
  8
RUNDUNGEN
100
AcDbSpline
 62
7
  6
CONTINUOUS
 70
0
 71
3
 72
9
 73
5
 74
0
 42
0.0000001
 43
0.0000001
 44
0.0000000001
 40
0.0
 40
0.0
 40
0.0
 40
0.0
 40
0.5270273161
 40
1.0
 40
1.0
 40
1.0
 40
1.0
 10
733.7780820661
 20
-45.029155794
 30
0.0
 10
735.0277025392
 20
-45.029155794
 30
0.0
 10
737.4154940087
 20
-44.6470020818
 30
0.0
 10
739.5422084562
 20
-43.413804824
 30
0.0
 10
740.3312984204
 20
-42.6169398459
 30
0.0
  0
SPLINE
  5
464
100
AcDbEntity
  8
RUNDUNGEN
100
AcDbSpline
 62
7
  6
CONTINUOUS
 70
0
 71
3
 72
13
 73
9
 74
0
 42
0.0000001
 43
0.0000001
 44
0.0000000001
 40
0.0
 40
0.0
 40
0.0
 40
0.0
 40
0.1034546555
 40
0.2106690395
 40
0.3244963599
 40
0.4464318111
 40
0.7129511617
 40
1.0
 40
1.0
 40
1.0
 40
1.0
 10
714.7288693212
 20
-50.6860100435
 30
0.0
 10
714.7288693212
 20
-50.3145976332
 30
0.0
 10
714.8366544631
 20
-49.55441736
 30
0.0
 10
715.3083160795
 20
-48.4757480034
 30
0.0
 10
716.0649106231
 20
-47.4905975589
 30
0.0
 10
717.4478085972
 20
-46.3161721704
 30
0.0
 10
719.7008334891
 20
-45.2974929196
 30
0.0
 10
721.6983356983
 20
-45.029155794
 30
0.0
 10
722.7288693212
 20
-45.029155794
 30
0.0
  0
SPLINE
  5
465
100
AcDbEntity
  8
RUNDUNGEN
100
AcDbSpline
 62
7
  6
CONTINUOUS
 70
0
 71
3
 72
13
 73
9
 74
0
 42
0.0000001
 43
0.0000001
 44
0.0000000001
 40
0.0
 40
0.0
 40
0.0
 40
0.0
 40
0.2870490624
 40
0.5535683755
 40
0.6755038246
 40
0.7893311355
 40
0.8965454157
 40
1.0
 40
1.0
 40
1.0
 40
1.0
 10
791.0288693212
 20
-45.029155794
 30
0.0
 10
792.0594037482
 20
-45.029155794
 30
0.0
 10
794.0569066743
 20
-45.2974931751
 30
0.0
 10
796.3099318969
 20
-46.3161733141
 30
0.0
 10
797.6928294239
 20
-47.4905989776
 30
0.0
 10
798.4494232875
 20
-48.4757494154
 30
0.0
 10
798.9210844071
 20
-49.5544182362
 30
0.0
 10
799.0288693212
 20
-50.3145978888
 30
0.0
 10
799.0288693212
 20
-50.6860100435
 30
0.0
  0
SPLINE
  5
466
100
AcDbEntity
  8
RUNDUNGEN
100
AcDbSpline
 62
7
  6
CONTINUOUS
 70
0
 71
3
 72
13
 73
9
 74
0
 42
0.0000001
 43
0.0000001
 44
0.0000000001
 40
0.0
 40
0.0
 40
0.0
 40
0.0
 40
0.2360077452
 40
0.3661261418
 40
0.5000000756
 40
0.6338740402
 40
0.7639924068
 40
1.0
 40
1.0
 40
1.0
 40
1.0
 10
748.6873488783
 20
-34.1785560521
 30
0.0
 10
749.6737089114
 20
-33.1824772755
 30
0.0
 10
751.6333095839
 20
-32.0475158127
 30
0.0
 10
754.5110385782
 20
-31.2962322577
 30
0.0
 10
756.878870896
 20
-31.0958672765
 30
0.0
 10
759.2467029957
 20
-31.2962327352
 30
0.0
 10
762.1244309766
 20
-32.0475166783
 30
0.0
 10
764.0840303662
 20
-33.1824779169
 30
0.0
 10
765.0703897641
 20
-34.1785560521
 30
0.0
  0
SPLINE
  5
467
100
AcDbEntity
  8
RUNDUNGEN
100
AcDbSpline
 62
7
  6
CONTINUOUS
 70
0
 71
3
 72
9
 73
5
 74
0
 42
0.0000001
 43
0.0000001
 44
0.0000000001
 40
0.0
 40
0.0
 40
0.0
 40
0.0
 40
0.5182111224
 40
1.0
 40
1.0
 40
1.0
 40
1.0
 10
727.3059122892
 20
-12.7854353674
 30
0.0
 10
728.4700347544
 20
-11.6098426404
 30
0.0
 10
730.44032327
 20
-9.0322672405
 30
0.0
 10
731.4850627267
 20
-5.9377058465
 30
0.0
 10
731.7016075418
 20
-4.4148586732
 30
0.0
  0
SPLINE
  5
468
100
AcDbEntity
  8
RUNDUNGEN
100
AcDbSpline
 62
7
  6
CONTINUOUS
 70
0
 71
3
 72
11
 73
7
 74
0
 42
0.0000001
 43
0.0000001
 44
0.0000000001
 40
0.0
 40
0.0
 40
0.0
 40
0.0
 40
0.2660806618
 40
0.5190943778
 40
0.7622194713
 40
1.0
 40
1.0
 40
1.0
 40
1.0
 10
727.3059122892
 20
3.9580201103
 30
0.0
 10
728.0158353069
 20
3.2411021217
 30
0.0
 10
729.293652041
 20
1.729243852
 30
0.0
 10
730.7402291923
 20
-0.7926084938
 30
0.0
 10
731.6270952002
 20
-3.450493618
 30
0.0
 10
731.8271112128
 20
-5.2798444228
 30
0.0
 10
731.8271111819
 20
-6.1814753069
 30
0.0
  0
SPLINE
  5
469
100
AcDbEntity
  8
RUNDUNGEN
100
AcDbSpline
 62
7
  6
CONTINUOUS
 70
0
 71
3
 72
10
 73
6
 74
0
 42
0.0000001
 43
0.0000001
 44
0.0000000001
 40
0.0
 40
0.0
 40
0.0
 40
0.0
 40
0.2540843695
 40
0.5191023225
 40
1.0
 40
1.0
 40
1.0
 40
1.0
 10
702.4759599387
 20
40.1278529265
 30
0.0
 10
702.9229049994
 20
40.3491450348
 30
0.0
 10
703.920127666
 20
40.6452018498
 30
0.0
 10
705.8851928754
 20
40.6797739972
 30
0.0
 10
707.3826960794
 20
40.1039822345
 30
0.0
 10
708.0468738612
 20
39.4332602159
 30
0.0
  0
SPLINE
  5
46A
100
AcDbEntity
  8
RUNDUNGEN
100
AcDbSpline
 62
7
  6
CONTINUOUS
 70
0
 71
3
 72
9
 73
5
 74
0
 42
0.0000001
 43
0.0000001
 44
0.0000000001
 40
0.0
 40
0.0
 40
0.0
 40
0.0
 40
0.5194825986
 40
1.0
 40
1.0
 40
1.0
 40
1.0
 10
712.4060547775
 20
35.0311276793
 30
0.0
 10
712.626949772
 20
34.8080561754
 30
0.0
 10
712.9916455481
 20
34.3076125283
 30
0.0
 10
713.1296042735
 20
33.697576797
 30
0.0
 10
713.1294146725
 20
33.4071889456
 30
0.0
  0
SPLINE
  5
46B
100
AcDbEntity
  8
RUNDUNGEN
100
AcDbSpline
 62
7
  6
CONTINUOUS
 70
0
 71
3
 72
9
 73
5
 74
0
 42
0.0000001
 43
0.0000001
 44
0.0000000001
 40
0.0
 40
0.0
 40
0.0
 40
0.0
 40
0.2563152072
 40
1.0
 40
1.0
 40
1.0
 40
1.0
 10
711.4237523457
 20
34.6274305732
 30
0.0
 10
711.4835404861
 20
34.6570329668
 30
0.0
 10
711.7140490493
 20
34.7779426637
 30
0.0
 10
711.9332991657
 20
34.9207633648
 30
0.0
 10
712.0862331248
 20
35.0394259732
 30
0.0
  0
SPLINE
  5
46C
100
AcDbEntity
  8
0
100
AcDbSpline
 62
7
  6
CONTINUOUS
 70
0
 71
3
 72
11
 73
7
 74
0
 42
0.0000001
 43
0.0000001
 44
0.0000000001
 40
0.0
 40
0.0
 40
0.0
 40
0.0
 40
0.2094656921
 40
0.4446574861
 40
0.7119998836
 40
1.0
 40
1.0
 40
1.0
 40
1.0
 10
754.001559842
 20
27.1600354184
 30
0.0
 10
754.001559842
 20
27.3224220532
 30
0.0
 10
753.8961369696
 20
27.6712369573
 30
0.0
 10
753.492275107
 20
28.070618557
 30
0.0
 10
752.9250364062
 20
28.327138624
 30
0.0
 10
752.4917928584
 20
28.3854986559
 30
0.0
 10
752.2685230271
 20
28.3854986559
 30
0.0
  0
SPLINE
  5
46D
100
AcDbEntity
  8
0
100
AcDbSpline
 62
7
  6
CONTINUOUS
 70
0
 71
3
 72
9
 73
5
 74
0
 42
0.0000001
 43
0.0000001
 44
0.0000000001
 40
0.0
 40
0.0
 40
0.0
 40
0.0
 40
0.4402133985
 40
1.0
 40
1.0
 40
1.0
 40
1.0
 10
737.3792409447
 20
25.9869924541
 30
0.0
 10
737.3792409447
 20
25.949905712
 30
0.0
 10
737.4363574077
 20
25.8691449315
 30
0.0
 10
737.5240804962
 20
25.8512279521
 30
0.0
 10
737.5712409447
 20
25.8512279521
 30
0.0
  0
SPLINE
  5
46E
100
AcDbEntity
  8
0
100
AcDbSpline
 62
7
  6
CONTINUOUS
 70
0
 71
3
 72
11
 73
7
 74
0
 42
0.0000001
 43
0.0000001
 44
0.0000000001
 40
0.0
 40
0.0
 40
0.0
 40
0.0
 40
0.2094929298
 40
0.4446655277
 40
0.7119947494
 40
1.0
 40
1.0
 40
1.0
 40
1.0
 10
733.5392409447
 20
21.26917601
 30
0.0
 10
733.5392409447
 20
21.1792132013
 30
0.0
 10
733.5976453054
 20
20.9859820195
 30
0.0
 10
733.8214039942
 20
20.7648121882
 30
0.0
 10
734.1355690222
 20
20.6226601392
 30
0.0
 10
734.3755624927
 20
20.5903535001
 30
0.0
 10
734.4992409447
 20
20.5903535001
 30
0.0
  0
SPLINE
  5
46F
100
AcDbEntity
  8
0
100
AcDbSpline
 62
7
  6
CONTINUOUS
 70
0
 71
3
 72
11
 73
7
 74
0
 42
0.0000001
 43
0.0000001
 44
0.0000000001
 40
0.0
 40
0.0
 40
0.0
 40
0.0
 40
0.2094668498
 40
0.4446559298
 40
0.7120302568
 40
1.0
 40
1.0
 40
1.0
 40
1.0
 10
740.0192409447
 20
24.3238773048
 30
0.0
 10
740.0192409447
 20
24.3688534244
 30
0.0
 10
739.990032204
 20
24.4654597392
 30
0.0
 10
739.8781815577
 20
24.5760888266
 30
0.0
 10
739.7210655734
 20
24.6471229102
 30
0.0
 10
739.6010729799
 20
24.6632885597
 30
0.0
 10
739.5392409447
 20
24.6632885597
 30
0.0
  0
SPLINE
  5
470
100
AcDbEntity
  8
0
100
AcDbSpline
 62
7
  6
CONTINUOUS
 70
0
 71
3
 72
9
 73
5
 74
0
 42
0.0000001
 43
0.0000001
 44
0.0000000001
 40
0.0
 40
0.0
 40
0.0
 40
0.0
 40
0.7407738242
 40
1.0
 40
1.0
 40
1.0
 40
1.0
 10
733.5392409447
 20
21.834861435
 30
0.0
 10
733.5392409447
 20
21.7677926164
 30
0.0
 10
733.5594698109
 20
21.6761125589
 30
0.0
 10
733.600467148
 20
21.5953464665
 30
0.0
 10
733.6123165935
 20
21.5750873069
 30
0.0
  0
SPLINE
  5
471
100
AcDbEntity
  8
0
100
AcDbSpline
 62
7
  6
CONTINUOUS
 70
0
 71
3
 72
9
 73
5
 74
0
 42
0.0000001
 43
0.0000001
 44
0.0000000001
 40
0.0
 40
0.0
 40
0.0
 40
0.0
 40
0.461013727
 40
1.0
 40
1.0
 40
1.0
 40
1.0
 10
733.6123165935
 20
21.5750873069
 30
0.0
 10
733.6908469726
 20
21.4408228406
 30
0.0
 10
733.976220295
 20
21.2198785051
 30
0.0
 10
734.3173892333
 20
21.156038925
 30
0.0
 10
734.4992409447
 20
21.156038925
 30
0.0
  0
SPLINE
  5
472
100
AcDbEntity
  8
0
100
AcDbSpline
 62
7
  6
CONTINUOUS
 70
0
 71
3
 72
11
 73
7
 74
0
 42
0.0000001
 43
0.0000001
 44
0.0000000001
 40
0.0
 40
0.0
 40
0.0
 40
0.0
 40
0.2880052506
 40
0.5553344723
 40
0.7905070702
 40
1.0
 40
1.0
 40
1.0
 40
1.0
 10
742.1792409447
 20
20.5903535001
 30
0.0
 10
742.3029193968
 20
20.5903535001
 30
0.0
 10
742.5429128672
 20
20.6226601392
 30
0.0
 10
742.8570778953
 20
20.7648121882
 30
0.0
 10
743.080836584
 20
20.9859820195
 30
0.0
 10
743.1392409447
 20
21.1792132013
 30
0.0
 10
743.1392409447
 20
21.26917601
 30
0.0
  0
SPLINE
  5
473
100
AcDbEntity
  8
0
100
AcDbSpline
 62
7
  6
CONTINUOUS
 70
0
 71
3
 72
11
 73
7
 74
0
 42
0.0000001
 43
0.0000001
 44
0.0000000001
 40
0.0
 40
0.0
 40
0.0
 40
0.0
 40
0.2879697432
 40
0.5553440702
 40
0.7905331502
 40
1.0
 40
1.0
 40
1.0
 40
1.0
 10
737.1392409447
 20
24.6632885597
 30
0.0
 10
737.0774089096
 20
24.6632885597
 30
0.0
 10
736.9574163161
 20
24.6471229102
 30
0.0
 10
736.8003003318
 20
24.5760888266
 30
0.0
 10
736.6884496855
 20
24.4654597392
 30
0.0
 10
736.6592409447
 20
24.3688534244
 30
0.0
 10
736.6592409447
 20
24.3238773048
 30
0.0
  0
SPLINE
  5
474
100
AcDbEntity
  8
0
100
AcDbSpline
 62
7
  6
CONTINUOUS
 70
0
 71
3
 72
11
 73
7
 74
0
 42
0.0000001
 43
0.0000001
 44
0.0000000001
 40
0.0
 40
0.0
 40
0.0
 40
0.0
 40
0.2879697432
 40
0.5553440702
 40
0.7905331502
 40
1.0
 40
1.0
 40
1.0
 40
1.0
 10
737.1392409447
 20
28.0574011094
 30
0.0
 10
737.0774089096
 20
28.0574011094
 30
0.0
 10
736.9574163161
 20
28.0412354599
 30
0.0
 10
736.8003003318
 20
27.9702013763
 30
0.0
 10
736.6884496855
 20
27.8595722889
 30
0.0
 10
736.6592409447
 20
27.7629659741
 30
0.0
 10
736.6592409447
 20
27.7179898545
 30
0.0
  0
SPLINE
  5
475
100
AcDbEntity
  8
RUNDUNGEN
100
AcDbSpline
 62
7
  6
CONTINUOUS
 70
0
 71
3
 72
11
 73
7
 74
0
 42
0.0000001
 43
0.0000001
 44
0.0000000001
 40
0.0
 40
0.0
 40
0.0
 40
0.0
 40
0.2377805486
 40
0.4809056598
 40
0.733919361
 40
1.0
 40
1.0
 40
1.0
 40
1.0
 10
731.8271111819
 20
-6.1814753069
 30
0.0
 10
731.8271111511
 20
-7.0831061522
 30
0.0
 10
731.6270948925
 20
-8.9124568469
 30
0.0
 10
730.7402287158
 20
-11.5703416173
 30
0.0
 10
729.2936516776
 20
-14.0921935094
 30
0.0
 10
728.015835156
 20
-15.604051437
 30
0.0
 10
727.3059122892
 20
-16.3209692733
 30
0.0
  0
SPLINE
  5
476
100
AcDbEntity
  8
0
100
AcDbSpline
 62
7
  6
CONTINUOUS
 70
0
 71
3
 72
9
 73
5
 74
0
 42
0.0000001
 43
0.0000001
 44
0.0000000001
 40
0.0
 40
0.0
 40
0.0
 40
0.0
 40
0.5597866015
 40
1.0
 40
1.0
 40
1.0
 40
1.0
 10
738.1712409447
 20
26.1906392071
 30
0.0
 10
738.1240804962
 20
26.1906392071
 30
0.0
 10
738.0363574077
 20
26.1727222277
 30
0.0
 10
737.9792409447
 20
26.0919614472
 30
0.0
 10
737.9792409447
 20
26.0548747051
 30
0.0
  0
SPLINE
  5
477
100
AcDbEntity
  8
RUNDUNGEN
100
AcDbSpline
 62
7
  6
CONTINUOUS
 70
0
 71
3
 72
9
 73
5
 74
0
 42
0.0000001
 43
0.0000001
 44
0.0000000001
 40
0.0
 40
0.0
 40
0.0
 40
0.0
 40
0.4805366099
 40
1.0
 40
1.0
 40
1.0
 40
1.0
 10
811.3788693212
 20
-43.2772211818
 30
0.0
 10
811.3788693212
 20
-42.6969277703
 30
0.0
 10
811.1022433856
 20
-41.4781906513
 30
0.0
 10
810.3734747299
 20
-40.478321003
 30
0.0
 10
809.9320856755
 20
-40.0325828804
 30
0.0
  0
SPLINE
  5
478
100
AcDbEntity
  8
0
100
AcDbSpline
 62
7
  6
CONTINUOUS
 70
0
 71
3
 72
9
 73
5
 74
0
 42
0.0000001
 43
0.0000001
 44
0.0000000001
 40
0.0
 40
0.0
 40
0.0
 40
0.0
 40
0.5597866015
 40
1.0
 40
1.0
 40
1.0
 40
1.0
 10
739.1072409447
 20
25.8512279521
 30
0.0
 10
739.1544013933
 20
25.8512279521
 30
0.0
 10
739.2421244818
 20
25.8691449315
 30
0.0
 10
739.2992409447
 20
25.949905712
 30
0.0
 10
739.2992409447
 20
25.9869924541
 30
0.0
  0
SPLINE
  5
479
100
AcDbEntity
  8
0
100
AcDbSpline
 62
7
  6
CONTINUOUS
 70
0
 71
3
 72
9
 73
5
 74
0
 42
0.0000001
 43
0.0000001
 44
0.0000000001
 40
0.0
 40
0.0
 40
0.0
 40
0.0
 40
0.5597866015
 40
1.0
 40
1.0
 40
1.0
 40
1.0
 10
739.1072409447
 20
22.4571154024
 30
0.0
 10
739.1544013933
 20
22.4571154024
 30
0.0
 10
739.2421244818
 20
22.4750323818
 30
0.0
 10
739.2992409447
 20
22.5557931623
 30
0.0
 10
739.2992409447
 20
22.5928799044
 30
0.0
  0
SPLINE
  5
47A
100
AcDbEntity
  8
0
100
AcDbSpline
 62
7
  6
CONTINUOUS
 70
0
 71
3
 72
11
 73
7
 74
0
 42
0.0000001
 43
0.0000001
 44
0.0000000001
 40
0.0
 40
0.0
 40
0.0
 40
0.0
 40
0.2865059912
 40
0.5484241175
 40
0.7833822346
 40
1.0
 40
1.0
 40
1.0
 40
1.0
 10
753.2639606575
 20
25.0176943464
 30
0.0
 10
753.5698548545
 20
25.0887611338
 30
0.0
 10
754.1433473009
 20
25.2909708977
 30
0.0
 10
754.8605664001
 20
25.7840969207
 30
0.0
 10
755.3407503228
 20
26.4229814044
 30
0.0
 10
755.4576185415
 20
26.9231060198
 30
0.0
 10
755.457582923
 20
27.1605420959
 30
0.0
  0
SPLINE
  5
47B
100
AcDbEntity
  8
RUNDUNGEN
100
AcDbSpline
 62
7
  6
CONTINUOUS
 70
0
 71
3
 72
10
 73
6
 74
0
 42
0.0000001
 43
0.0000001
 44
0.0000000001
 40
0.0
 40
0.0
 40
0.0
 40
0.0
 40
0.2265441733
 40
0.4650409605
 40
1.0
 40
1.0
 40
1.0
 40
1.0
 10
827.7098933859
 20
46.1810190785
 30
0.0
 10
827.7098004001
 20
46.3230257813
 30
0.0
 10
827.658039132
 20
46.6166726686
 30
0.0
 10
827.3531339433
 20
47.1738555954
 30
0.0
 10
826.9443699044
 20
47.479282126
 30
0.0
 10
826.6438546277
 20
47.6280737001
 30
0.0
  0
SPLINE
  5
47C
100
AcDbEntity
  8
0
100
AcDbSpline
 62
7
  6
CONTINUOUS
 70
0
 71
3
 72
8
 73
4
 74
0
 42
0.0000001
 43
0.0000001
 44
0.0000000001
 40
0.0
 40
0.0
 40
0.0
 40
0.0
 40
1.0
 40
1.0
 40
1.0
 40
1.0
 10
775.8078869122
 20
20.5903535001
 30
0.0
 10
775.9371583751
 20
20.5903535001
 30
0.0
 10
776.0680191765
 20
20.6088379472
 30
0.0
 10
776.1915534341
 20
20.6469220426
 30
0.0
  0
SPLINE
  5
47D
100
AcDbEntity
  8
0
100
AcDbSpline
 62
7
  6
CONTINUOUS
 70
0
 71
3
 72
11
 73
7
 74
0
 42
0.0000001
 43
0.0000001
 44
0.0000000001
 40
0.0
 40
0.0
 40
0.0
 40
0.0
 40
0.2847819434
 40
0.5451774547
 40
0.7807010719
 40
1.0
 40
1.0
 40
1.0
 40
1.0
 10
776.1915534341
 20
20.6469220426
 30
0.0
 10
776.7653059025
 20
20.8238028867
 30
0.0
 10
777.8331325061
 20
21.2813239163
 30
0.0
 10
779.1503993296
 20
22.3030186682
 30
0.0
 10
780.0179518165
 20
23.5724280262
 30
0.0
 10
780.2258538551
 20
24.5403572472
 30
0.0
 10
780.2258538551
 20
25.0026998147
 30
0.0
  0
SPLINE
  5
47E
100
AcDbEntity
  8
0
100
AcDbSpline
 62
7
  6
CONTINUOUS
 70
0
 71
3
 72
9
 73
5
 74
0
 42
0.0000001
 43
0.0000001
 44
0.0000000001
 40
0.0
 40
0.0
 40
0.0
 40
0.0
 40
0.239729366
 40
1.0
 40
1.0
 40
1.0
 40
1.0
 10
776.1333837922
 20
28.2589908245
 30
0.0
 10
776.11217354
 20
28.2704761908
 30
0.0
 10
776.0202826593
 20
28.3119677807
 30
0.0
 10
775.9180396556
 20
28.3289301134
 30
0.0
 10
775.8415452769
 20
28.3289301134
 30
0.0
  0
SPLINE
  5
47F
100
AcDbEntity
  8
0
100
AcDbSpline
 62
7
  6
CONTINUOUS
 70
0
 71
3
 72
9
 73
5
 74
0
 42
0.0000001
 43
0.0000001
 44
0.0000000001
 40
0.0
 40
0.0
 40
0.0
 40
0.0
 40
0.4402133985
 40
1.0
 40
1.0
 40
1.0
 40
1.0
 10
737.3792409447
 20
26.5526778791
 30
0.0
 10
737.3792409447
 20
26.5155911369
 30
0.0
 10
737.4363574077
 20
26.4348303564
 30
0.0
 10
737.5240804962
 20
26.4169133771
 30
0.0
 10
737.5712409447
 20
26.4169133771
 30
0.0
  0
SPLINE
  5
480
100
AcDbEntity
  8
0
100
AcDbSpline
 62
7
  6
CONTINUOUS
 70
0
 71
3
 72
11
 73
7
 74
0
 42
0.0000001
 43
0.0000001
 44
0.0000000001
 40
0.0
 40
0.0
 40
0.0
 40
0.0
 40
0.2094668498
 40
0.4446559298
 40
0.7120302568
 40
1.0
 40
1.0
 40
1.0
 40
1.0
 10
740.0192409447
 20
27.7179898545
 30
0.0
 10
740.0192409447
 20
27.7629659741
 30
0.0
 10
739.990032204
 20
27.8595722889
 30
0.0
 10
739.8781815577
 20
27.9702013763
 30
0.0
 10
739.7210655734
 20
28.0412354599
 30
0.0
 10
739.6010729799
 20
28.0574011094
 30
0.0
 10
739.5392409447
 20
28.0574011094
 30
0.0
  0
SPLINE
  5
481
100
AcDbEntity
  8
BEZUGSACHSEN
100
AcDbSpline
 62
7
  6
CONTINUOUS
 70
0
 71
3
 72
15
 73
11
 74
0
 42
0.0000001
 43
0.0000001
 44
0.0000000001
 40
0.0
 40
0.0
 40
0.0
 40
0.0
 40
0.1084868148
 40
0.2293910952
 40
0.3614748234
 40
0.5
 40
0.6385251766
 40
0.7706089048
 40
0.8915131852
 40
1.0
 40
1.0
 40
1.0
 40
1.0
 10
751.1879874772
 20
40.4092847563
 30
0.0
 10
751.3946963288
 20
39.9717322845
 30
0.0
 10
752.0314282759
 20
39.1363059176
 30
0.0
 10
753.384483146
 20
38.2221711813
 30
0.0
 10
755.0499514094
 20
37.6419726543
 30
0.0
 10
756.8788693212
 20
37.4437813096
 30
0.0
 10
758.707787233
 20
37.6419726543
 30
0.0
 10
760.3732554963
 20
38.2221711813
 30
0.0
 10
761.7263103665
 20
39.1363059176
 30
0.0
 10
762.3630423136
 20
39.9717322845
 30
0.0
 10
762.5697511652
 20
40.4092847563
 30
0.0
  0
SPLINE
  5
482
100
AcDbEntity
  8
0
100
AcDbSpline
 62
7
  6
CONTINUOUS
 70
0
 71
3
 72
11
 73
7
 74
0
 42
0.0000001
 43
0.0000001
 44
0.0000000001
 40
0.0
 40
0.0
 40
0.0
 40
0.0
 40
0.227142142
 40
0.4653047767
 40
0.7220182825
 40
1.0
 40
1.0
 40
1.0
 40
1.0
 10
778.3912928231
 20
25.0253272317
 30
0.0
 10
778.3912928231
 20
25.3379982311
 30
0.0
 10
778.2836995193
 20
25.9827661255
 30
0.0
 10
777.8189877207
 20
26.8767846084
 30
0.0
 10
777.0863723546
 20
27.66309692
 30
0.0
 10
776.4698716581
 20
28.0767824103
 30
0.0
 10
776.1333837922
 20
28.2589908245
 30
0.0
  0
SPLINE
  5
483
100
AcDbEntity
  8
0
100
AcDbSpline
 62
7
  6
CONTINUOUS
 70
0
 71
3
 72
17
 73
13
 74
0
 42
0.0000001
 43
0.0000001
 44
0.0000000001
 40
0.0
 40
0.0
 40
0.0
 40
0.0
 40
0.0517921087
 40
0.1054769531
 40
0.2228492041
 40
0.356284866
 40
0.5
 40
0.643715134
 40
0.7771507959
 40
0.8945230469
 40
0.9482078913
 40
1.0
 40
1.0
 40
1.0
 40
1.0
 10
757.7725230271
 20
23.831544775
 30
0.0
 10
757.7725230271
 20
23.6200739599
 30
0.0
 10
757.8339811487
 20
23.1872117623
 30
0.0
 10
758.2019979089
 20
22.3447097432
 30
0.0
 10
759.110898023
 20
21.4351831212
 30
0.0
 10
760.6032357498
 20
20.7648064322
 30
0.0
 10
762.3278313156
 20
20.5304174488
 30
0.0
 10
764.0524268814
 20
20.7648064322
 30
0.0
 10
765.5447646082
 20
21.4351831212
 30
0.0
 10
766.4536647223
 20
22.3447097432
 30
0.0
 10
766.8216814824
 20
23.1872117623
 30
0.0
 10
766.8831396041
 20
23.6200739599
 30
0.0
 10
766.8831396041
 20
23.831544775
 30
0.0
  0
SPLINE
  5
484
100
AcDbEntity
  8
RUNDUNGEN
100
AcDbSpline
 62
7
  6
CONTINUOUS
 70
0
 71
3
 72
9
 73
5
 74
0
 42
0.0000001
 43
0.0000001
 44
0.0000000001
 40
0.0
 40
0.0
 40
0.0
 40
0.0
 40
0.5194635453
 40
1.0
 40
1.0
 40
1.0
 40
1.0
 10
703.8256529669
 20
-40.0325828804
 30
0.0
 10
703.3842637803
 20
-40.4783211365
 30
0.0
 10
702.6554951571
 20
-41.4781908452
 30
0.0
 10
702.3788693212
 20
-42.6969279576
 30
0.0
 10
702.3788693212
 20
-43.2772211818
 30
0.0
  0
SPLINE
  5
485
100
AcDbEntity
  8
RUNDUNGEN
100
AcDbSpline
 62
7
  6
CONTINUOUS
 70
0
 71
3
 72
10
 73
6
 74
0
 42
0.0000001
 43
0.0000001
 44
0.0000000001
 40
0.0
 40
0.0
 40
0.0
 40
0.0
 40
0.534974248
 40
0.7734715769
 40
1.0
 40
1.0
 40
1.0
 40
1.0
 10
706.0992640579
 20
28.4556280474
 30
0.0
 10
705.7987248869
 20
28.3068246427
 30
0.0
 10
705.3899300073
 20
28.0013687766
 30
0.0
 10
705.0850442294
 20
27.4441364016
 30
0.0
 10
705.0333035884
 20
27.1504800333
 30
0.0
 10
705.0332229811
 20
27.0084759425
 30
0.0
  0
SPLINE
  5
486
100
AcDbEntity
  8
0
100
AcDbSpline
 62
7
  6
CONTINUOUS
 70
0
 71
3
 72
9
 73
5
 74
0
 42
0.0000001
 43
0.0000001
 44
0.0000000001
 40
0.0
 40
0.0
 40
0.0
 40
0.0
 40
0.4402133985
 40
1.0
 40
1.0
 40
1.0
 40
1.0
 10
737.3792409447
 20
22.5928799044
 30
0.0
 10
737.3792409447
 20
22.5557931623
 30
0.0
 10
737.4363574077
 20
22.4750323818
 30
0.0
 10
737.5240804962
 20
22.4571154024
 30
0.0
 10
737.5712409447
 20
22.4571154024
 30
0.0
  0
SPLINE
  5
487
100
AcDbEntity
  8
RUNDUNGEN
100
AcDbSpline
 62
7
  6
CONTINUOUS
 70
0
 71
3
 72
11
 73
7
 74
0
 42
0.0000001
 43
0.0000001
 44
0.0000000001
 40
0.0
 40
0.0
 40
0.0
 40
0.0
 40
0.2794013718
 40
0.5367226037
 40
0.7743080703
 40
1.0
 40
1.0
 40
1.0
 40
1.0
 10
691.6192202582
 20
49.8587625323
 30
0.0
 10
691.114720641
 20
49.6089739258
 30
0.0
 10
690.1880660481
 20
49.0327246919
 30
0.0
 10
689.0794995066
 20
47.9113500465
 30
0.0
 10
688.372194611
 20
46.6188025428
 30
0.0
 10
688.2077478996
 20
45.6786514991
 30
0.0
 10
688.2078356307
 20
45.223916538
 30
0.0
  0
SPLINE
  5
488
100
AcDbEntity
  8
RUNDUNGEN
100
AcDbSpline
 62
7
  6
CONTINUOUS
 70
0
 71
3
 72
9
 73
5
 74
0
 42
0.0000001
 43
0.0000001
 44
0.0000000001
 40
0.0
 40
0.0
 40
0.0
 40
0.0
 40
0.2558234887
 40
1.0
 40
1.0
 40
1.0
 40
1.0
 10
711.3792185513
 20
52.9886992251
 30
0.0
 10
709.8326985967
 20
53.2712214632
 30
0.0
 10
703.7175632326
 20
53.8986120904
 30
0.0
 10
697.3558795037
 20
52.6991058544
 30
0.0
 10
693.2575243468
 20
50.6699221077
 30
0.0
  0
SPLINE
  5
489
100
AcDbEntity
  8
RUNDUNGEN
100
AcDbSpline
 62
7
  6
CONTINUOUS
 70
0
 71
3
 72
10
 73
6
 74
0
 42
0.0000001
 43
0.0000001
 44
0.0000000001
 40
0.0
 40
0.0
 40
0.0
 40
0.0
 40
0.2540840942
 40
0.5191023916
 40
1.0
 40
1.0
 40
1.0
 40
1.0
 10
815.7900900409
 20
53.0020058868
 30
0.0
 10
815.5107496792
 20
53.1403133052
 30
0.0
 10
814.8874855356
 20
53.3253491534
 30
0.0
 10
813.6593197107
 20
53.3469564602
 30
0.0
 10
812.7233798952
 20
52.9870866459
 30
0.0
 10
812.3082688393
 20
52.5678854426
 30
0.0
  0
SPLINE
  5
48A
100
AcDbEntity
  8
0
100
AcDbSpline
 62
7
  6
CONTINUOUS
 70
0
 71
3
 72
9
 73
5
 74
0
 42
0.0000001
 43
0.0000001
 44
0.0000000001
 40
0.0
 40
0.0
 40
0.0
 40
0.0
 40
0.4402133985
 40
1.0
 40
1.0
 40
1.0
 40
1.0
 10
737.3792409447
 20
23.1585653294
 30
0.0
 10
737.3792409447
 20
23.1214785872
 30
0.0
 10
737.4363574077
 20
23.0407178068
 30
0.0
 10
737.5240804962
 20
23.0228008274
 30
0.0
 10
737.5712409447
 20
23.0228008274
 30
0.0
  0
SPLINE
  5
48B
100
AcDbEntity
  8
0
100
AcDbSpline
 62
7
  6
CONTINUOUS
 70
0
 71
3
 72
8
 73
4
 74
0
 42
0.0000001
 43
0.0000001
 44
0.0000000001
 40
0.0
 40
0.0
 40
0.0
 40
0.0
 40
1.0
 40
1.0
 40
1.0
 40
1.0
 10
775.8078869122
 20
21.156038925
 30
0.0
 10
775.9371583751
 20
21.156038925
 30
0.0
 10
776.0680191765
 20
21.1745233721
 30
0.0
 10
776.1915534341
 20
21.2126074675
 30
0.0
  0
SPLINE
  5
48C
100
AcDbEntity
  8
0
100
AcDbSpline
 62
7
  6
CONTINUOUS
 70
0
 71
3
 72
11
 73
7
 74
0
 42
0.0000001
 43
0.0000001
 44
0.0000000001
 40
0.0
 40
0.0
 40
0.0
 40
0.0
 40
0.2816347582
 40
0.5420479832
 40
0.7798483853
 40
1.0
 40
1.0
 40
1.0
 40
1.0
 10
776.1915534341
 20
21.2126074675
 30
0.0
 10
776.7097536779
 20
21.3723622426
 30
0.0
 10
777.6814119351
 20
21.7772407149
 30
0.0
 10
778.9148867516
 20
22.6591651231
 30
0.0
 10
779.7985009641
 20
23.7484255772
 30
0.0
 10
780.1105088516
 20
24.5959650313
 30
0.0
 10
780.1799623283
 20
25.0141217875
 30
0.0
  0
SPLINE
  5
48D
100
AcDbEntity
  8
0
100
AcDbSpline
 62
7
  6
CONTINUOUS
 70
0
 71
3
 72
9
 73
5
 74
0
 42
0.0000001
 43
0.0000001
 44
0.0000000001
 40
0.0
 40
0.0
 40
0.0
 40
0.0
 40
0.2591205677
 40
1.0
 40
1.0
 40
1.0
 40
1.0
 10
775.8415452769
 20
28.8946155383
 30
0.0
 10
775.8676088702
 20
28.8946155383
 30
0.0
 10
775.9680146105
 20
28.8888631066
 30
0.0
 10
776.06785333
 20
28.8601610404
 30
0.0
 10
776.1333837922
 20
28.8246762494
 30
0.0
  0
SPLINE
  5
48E
100
AcDbEntity
  8
0
100
AcDbSpline
 62
7
  6
CONTINUOUS
 70
0
 71
3
 72
11
 73
7
 74
0
 42
0.0000001
 43
0.0000001
 44
0.0000000001
 40
0.0
 40
0.0
 40
0.0
 40
0.0
 40
0.2779697373
 40
0.5346991835
 40
0.7728568778
 40
1.0
 40
1.0
 40
1.0
 40
1.0
 10
776.1333837922
 20
28.8246762494
 30
0.0
 10
776.469858362
 20
28.6424750351
 30
0.0
 10
777.0863516785
 20
28.2287720219
 30
0.0
 10
777.8190157143
 20
27.4424969881
 30
0.0
 10
778.2837097969
 20
26.5484457526
 30
0.0
 10
778.3913216087
 20
25.9036861256
 30
0.0
 10
778.3913216087
 20
25.5910126566
 30
0.0
  0
SPLINE
  5
48F
100
AcDbEntity
  8
0
100
AcDbSpline
 62
7
  6
CONTINUOUS
 70
0
 71
3
 72
9
 73
5
 74
0
 42
0.0000001
 43
0.0000001
 44
0.0000000001
 40
0.0
 40
0.0
 40
0.0
 40
0.0
 40
0.5403772208
 40
1.0
 40
1.0
 40
1.0
 40
1.0
 10
753.2639606575
 20
25.5833797714
 30
0.0
 10
753.7328769328
 20
25.6923206193
 30
0.0
 10
754.5801084132
 20
26.0377680891
 30
0.0
 10
755.1996469587
 20
26.7530432495
 30
0.0
 10
755.3463065974
 20
27.135340388
 30
0.0
  0
SPLINE
  5
490
100
AcDbEntity
  8
0
100
AcDbSpline
 62
7
  6
CONTINUOUS
 70
0
 71
3
 72
8
 73
4
 74
0
 42
0.0000001
 43
0.0000001
 44
0.0000000001
 40
0.0
 40
0.0
 40
0.0
 40
0.0
 40
1.0
 40
1.0
 40
1.0
 40
1.0
 10
755.3463065974
 20
27.135340388
 30
0.0
 10
755.3830202419
 20
27.2310417096
 30
0.0
 10
755.4114856484
 20
27.3303954932
 30
0.0
 10
755.4302655631
 20
27.4311623005
 30
0.0
  0
SPLINE
  5
491
100
AcDbEntity
  8
0
100
AcDbSpline
 62
7
  6
CONTINUOUS
 70
0
 71
3
 72
11
 73
7
 74
0
 42
0.0000001
 43
0.0000001
 44
0.0000000001
 40
0.0
 40
0.0
 40
0.0
 40
0.0
 40
0.2880066977
 40
0.5553334191
 40
0.790532629
 40
1.0
 40
1.0
 40
1.0
 40
1.0
 10
752.2685230271
 20
28.9511840808
 30
0.0
 10
752.4917971102
 20
28.9511840808
 30
0.0
 10
752.9250395225
 20
28.892846801
 30
0.0
 10
753.4922484797
 20
28.6362659878
 30
0.0
 10
753.8961090322
 20
28.2369181463
 30
0.0
 10
754.0015897578
 20
27.8881081613
 30
0.0
 10
754.0015897578
 20
27.7257208433
 30
0.0
  0
SPLINE
  5
492
100
AcDbEntity
  8
0
100
AcDbSpline
 62
7
  6
CONTINUOUS
 70
0
 71
3
 72
9
 73
5
 74
0
 42
0.0000001
 43
0.0000001
 44
0.0000000001
 40
0.0
 40
0.0
 40
0.0
 40
0.0
 40
0.5597866015
 40
1.0
 40
1.0
 40
1.0
 40
1.0
 10
739.1072409447
 20
23.0228008274
 30
0.0
 10
739.1544013933
 20
23.0228008274
 30
0.0
 10
739.2421244818
 20
23.0407178068
 30
0.0
 10
739.2992409447
 20
23.1214785872
 30
0.0
 10
739.2992409447
 20
23.1585653294
 30
0.0
  0
SPLINE
  5
493
100
AcDbEntity
  8
0
100
AcDbSpline
 62
7
  6
CONTINUOUS
 70
0
 71
3
 72
9
 73
5
 74
0
 42
0.0000001
 43
0.0000001
 44
0.0000000001
 40
0.0
 40
0.0
 40
0.0
 40
0.0
 40
0.4402133985
 40
1.0
 40
1.0
 40
1.0
 40
1.0
 10
737.9792409447
 20
26.62056013
 30
0.0
 10
737.9792409447
 20
26.6576468722
 30
0.0
 10
738.0363574077
 20
26.7384076527
 30
0.0
 10
738.1240804962
 20
26.756324632
 30
0.0
 10
738.1712409447
 20
26.756324632
 30
0.0
  0
SPLINE
  5
494
100
AcDbEntity
  8
0
100
AcDbSpline
 62
7
  6
CONTINUOUS
 70
0
 71
3
 72
9
 73
5
 74
0
 42
0.0000001
 43
0.0000001
 44
0.0000000001
 40
0.0
 40
0.0
 40
0.0
 40
0.0
 40
0.5597866015
 40
1.0
 40
1.0
 40
1.0
 40
1.0
 10
738.5072409447
 20
26.756324632
 30
0.0
 10
738.5544013933
 20
26.756324632
 30
0.0
 10
738.6421244818
 20
26.7384076527
 30
0.0
 10
738.6992409447
 20
26.6576468722
 30
0.0
 10
738.6992409447
 20
26.62056013
 30
0.0
  0
SPLINE
  5
495
100
AcDbEntity
  8
0
100
AcDbSpline
 62
7
  6
CONTINUOUS
 70
0
 71
3
 72
9
 73
5
 74
0
 42
0.0000001
 43
0.0000001
 44
0.0000000001
 40
0.0
 40
0.0
 40
0.0
 40
0.0
 40
0.5597866015
 40
1.0
 40
1.0
 40
1.0
 40
1.0
 10
739.1072409447
 20
26.4169133771
 30
0.0
 10
739.1544013933
 20
26.4169133771
 30
0.0
 10
739.2421244818
 20
26.4348303564
 30
0.0
 10
739.2992409447
 20
26.5155911369
 30
0.0
 10
739.2992409447
 20
26.5526778791
 30
0.0
  0
SPLINE
  5
496
100
AcDbEntity
  8
0
100
AcDbSpline
 62
7
  6
CONTINUOUS
 70
0
 71
3
 72
11
 73
7
 74
0
 42
0.0000001
 43
0.0000001
 44
0.0000000001
 40
0.0
 40
0.0
 40
0.0
 40
0.0
 40
0.2876567391
 40
0.555407049
 40
0.7907201247
 40
1.0
 40
1.0
 40
1.0
 40
1.0
 10
739.5392409447
 20
28.6230865344
 30
0.0
 10
739.600996825
 20
28.6230865344
 30
0.0
 10
739.720896363
 20
28.6066757663
 30
0.0
 10
739.8783058636
 20
28.536094544
 30
0.0
 10
739.9897841633
 20
28.4250571777
 30
0.0
 10
740.0192409447
 20
28.3286047428
 30
0.0
 10
740.0192409447
 20
28.2836752794
 30
0.0
  0
SPLINE
  5
497
100
AcDbEntity
  8
0
100
AcDbSpline
 62
7
  6
CONTINUOUS
 70
0
 71
3
 72
8
 73
4
 74
0
 42
0.0000001
 43
0.0000001
 44
0.0000000001
 40
0.0
 40
0.0
 40
0.0
 40
0.0
 40
1.0
 40
1.0
 40
1.0
 40
1.0
 10
739.6674322062
 20
25.2164720223
 30
0.0
 10
739.7055608752
 20
25.208988033
 30
0.0
 10
739.7432423495
 20
25.198127046
 30
0.0
 10
739.7792409447
 20
25.1835014988
 30
0.0
  0
SPLINE
  5
498
100
AcDbEntity
  8
0
100
AcDbSpline
 62
7
  6
CONTINUOUS
 70
0
 71
3
 72
9
 73
5
 74
0
 42
0.0000001
 43
0.0000001
 44
0.0000000001
 40
0.0
 40
0.0
 40
0.0
 40
0.0
 40
0.5424756321
 40
1.0
 40
1.0
 40
1.0
 40
1.0
 10
739.7792409447
 20
25.1835014988
 30
0.0
 10
739.8456920019
 20
25.1565036934
 30
0.0
 10
739.9628760591
 20
25.0830090986
 30
0.0
 10
740.0192409447
 20
24.9500565255
 30
0.0
 10
740.0192409447
 20
24.8895627297
 30
0.0
  0
SPLINE
  5
499
100
AcDbEntity
  8
0
100
AcDbSpline
 62
7
  6
CONTINUOUS
 70
0
 71
3
 72
9
 73
5
 74
0
 42
0.0000001
 43
0.0000001
 44
0.0000000001
 40
0.0
 40
0.0
 40
0.0
 40
0.0
 40
0.4575243679
 40
1.0
 40
1.0
 40
1.0
 40
1.0
 10
736.6592409447
 20
24.8895627297
 30
0.0
 10
736.6592409447
 20
24.9500565255
 30
0.0
 10
736.7156058304
 20
25.0830090986
 30
0.0
 10
736.8327898876
 20
25.1565036934
 30
0.0
 10
736.8992409447
 20
25.1835014988
 30
0.0
  0
SPLINE
  5
49A
100
AcDbEntity
  8
0
100
AcDbSpline
 62
7
  6
CONTINUOUS
 70
0
 71
3
 72
8
 73
4
 74
0
 42
0.0000001
 43
0.0000001
 44
0.0000000001
 40
0.0
 40
0.0
 40
0.0
 40
0.0
 40
1.0
 40
1.0
 40
1.0
 40
1.0
 10
736.8992409447
 20
25.1835014988
 30
0.0
 10
736.9746760705
 20
25.2141493612
 30
0.0
 10
737.05781767
 20
25.2289739847
 30
0.0
 10
737.1392409447
 20
25.2289739847
 30
0.0
  0
SPLINE
  5
49B
100
AcDbEntity
  8
0
100
AcDbSpline
 62
7
  6
CONTINUOUS
 70
0
 71
3
 72
11
 73
7
 74
0
 42
0.0000001
 43
0.0000001
 44
0.0000000001
 40
0.0
 40
0.0
 40
0.0
 40
0.0
 40
0.2092798753
 40
0.444592951
 40
0.7123432609
 40
1.0
 40
1.0
 40
1.0
 40
1.0
 10
736.6592409447
 20
28.2836752794
 30
0.0
 10
736.6592409447
 20
28.3286047428
 30
0.0
 10
736.6886977261
 20
28.4250571777
 30
0.0
 10
736.8001760259
 20
28.536094544
 30
0.0
 10
736.9575855265
 20
28.6066757663
 30
0.0
 10
737.0774850645
 20
28.6230865344
 30
0.0
 10
737.1392409447
 20
28.6230865344
 30
0.0
  0
SPLINE
  5
49C
100
AcDbEntity
  8
RUNDUNGEN
100
AcDbSpline
 62
7
  6
CONTINUOUS
 70
0
 71
3
 72
11
 73
7
 74
0
 42
0.0000001
 43
0.0000001
 44
0.0000000001
 40
0.0
 40
0.0
 40
0.0
 40
0.0
 40
0.2660806618
 40
0.5190943778
 40
0.7622194713
 40
1.0
 40
1.0
 40
1.0
 40
1.0
 10
786.4518263532
 20
-16.3209692733
 30
0.0
 10
785.7419033355
 20
-15.6040512846
 30
0.0
 10
784.4640866014
 20
-14.092193015
 30
0.0
 10
783.0175094501
 20
-11.5703406692
 30
0.0
 10
782.1306434422
 20
-8.9124555449
 30
0.0
 10
781.9306274295
 20
-7.0831047402
 30
0.0
 10
781.9306274604
 20
-6.1814738561
 30
0.0
  0
SPLINE
  5
49D
100
AcDbEntity
  8
0
100
AcDbSpline
 62
7
  6
CONTINUOUS
 70
0
 71
3
 72
9
 73
5
 74
0
 42
0.0000001
 43
0.0000001
 44
0.0000000001
 40
0.0
 40
0.0
 40
0.0
 40
0.0
 40
0.5
 40
1.0
 40
1.0
 40
1.0
 40
1.0
 10
757.8063101756
 20
24.0061786283
 30
0.0
 10
758.1094476173
 20
22.2541616606
 30
0.0
 10
762.3278313156
 20
20.0981784743
 30
0.0
 10
766.5462150139
 20
22.2541616606
 30
0.0
 10
766.8493524556
 20
24.0061786283
 30
0.0
  0
SPLINE
  5
49E
100
AcDbEntity
  8
RUNDUNGEN
100
AcDbSpline
 62
7
  6
CONTINUOUS
 70
0
 71
3
 72
11
 73
7
 74
0
 42
0.0000001
 43
0.0000001
 44
0.0000000001
 40
0.0
 40
0.0
 40
0.0
 40
0.0
 40
0.2256927635
 40
0.4632951072
 40
0.7206222905
 40
1.0
 40
1.0
 40
1.0
 40
1.0
 10
713.1294146725
 20
33.4071889456
 30
0.0
 10
713.1292663219
 20
33.1799791721
 30
0.0
 10
713.0466360724
 20
32.7103013026
 30
0.0
 10
712.6928597062
 20
32.0646901851
 30
0.0
 10
712.1388089438
 20
31.5045659643
 30
0.0
 10
711.6758049581
 20
31.2166933344
 30
0.0
 10
711.4237523457
 20
31.0918966673
 30
0.0
  0
SPLINE
  5
49F
100
AcDbEntity
  8
0
100
AcDbSpline
 62
7
  6
CONTINUOUS
 70
0
 71
3
 72
9
 73
5
 74
0
 42
0.0000001
 43
0.0000001
 44
0.0000000001
 40
0.0
 40
0.0
 40
0.0
 40
0.0
 40
0.4402133985
 40
1.0
 40
1.0
 40
1.0
 40
1.0
 10
738.6992409447
 20
26.0548747051
 30
0.0
 10
738.6992409447
 20
26.0919614472
 30
0.0
 10
738.6421244818
 20
26.1727222277
 30
0.0
 10
738.5544013933
 20
26.1906392071
 30
0.0
 10
738.5072409447
 20
26.1906392071
 30
0.0
  0
SPLINE
  5
4A0
100
AcDbEntity
  8
0
100
AcDbSpline
 62
7
  6
CONTINUOUS
 70
0
 71
3
 72
9
 73
5
 74
0
 42
0.0000001
 43
0.0000001
 44
0.0000000001
 40
0.0
 40
0.0
 40
0.0
 40
0.0
 40
0.538986273
 40
1.0
 40
1.0
 40
1.0
 40
1.0
 10
742.1792409447
 20
21.156038925
 30
0.0
 10
742.3610926562
 20
21.156038925
 30
0.0
 10
742.7022615945
 20
21.2198785051
 30
0.0
 10
742.9876349169
 20
21.4408228406
 30
0.0
 10
743.066165296
 20
21.5750873069
 30
0.0
  0
SPLINE
  5
4A1
100
AcDbEntity
  8
0
100
AcDbSpline
 62
7
  6
CONTINUOUS
 70
0
 71
3
 72
9
 73
5
 74
0
 42
0.0000001
 43
0.0000001
 44
0.0000000001
 40
0.0
 40
0.0
 40
0.0
 40
0.0
 40
0.2592261758
 40
1.0
 40
1.0
 40
1.0
 40
1.0
 10
743.066165296
 20
21.5750873069
 30
0.0
 10
743.0780147415
 20
21.5953464665
 30
0.0
 10
743.1190120786
 20
21.6761125589
 30
0.0
 10
743.1392409447
 20
21.7677926164
 30
0.0
 10
743.1392409447
 20
21.834861435
 30
0.0
  0
SPLINE
  5
4A2
100
AcDbEntity
  8
BEZUGSACHSEN
100
AcDbSpline
 62
7
  6
CONTINUOUS
 70
0
 71
3
 72
8
 73
4
 74
0
 42
0.0000001
 43
0.0000001
 44
0.0000000001
 40
0.0
 40
0.0
 40
0.0
 40
0.0
 40
1.0
 40
1.0
 40
1.0
 40
1.0
 10
730.7593842663
 20
47.7098743575
 30
0.0
 10
731.1575548672
 20
48.8730569573
 30
0.0
 10
731.419141323
 20
50.0997493306
 30
0.0
 10
731.4762841555
 20
51.3278650763
 30
0.0
  0
SPLINE
  5
4A3
100
AcDbEntity
  8
KONSTRUKTIONSELEMENTE
100
AcDbSpline
 62
7
  6
CONTINUOUS
 70
0
 71
3
 72
15
 73
11
 74
0
 42
0.0000001
 43
0.0000001
 44
0.0000000001
 40
0.0
 40
0.0
 40
0.0
 40
0.0
 40
0.0625069549
 40
0.1250215132
 40
0.2497860046
 40
0.3747509967
 40
0.4997970344
 40
0.6248763317
 40
0.749970676
 40
1.0
 40
1.0
 40
1.0
 40
1.0
 10
731.4887898051
 20
54.9426743575
 30
0.0
 10
731.4887898051
 20
55.4000007121
 30
0.0
 10
731.585677399
 20
56.317380851
 30
0.0
 10
732.1347353678
 20
58.0705418557
 30
0.0
 10
733.3581307871
 20
60.0399079357
 30
0.0
 10
735.2915800165
 20
62.0018880033
 30
0.0
 10
737.4985926161
 20
63.6466721554
 30
0.0
 10
739.8804162274
 20
65.0219106657
 30
0.0
 10
743.2141815015
 20
66.5408564516
 30
0.0
 10
745.8482278547
 20
67.3618720487
 30
0.0
 10
747.6288693212
 20
67.781055243
 30
0.0
  0
SPLINE
  5
4A4
100
AcDbEntity
  8
RUNDUNGEN
100
AcDbSpline
 62
7
  6
CONTINUOUS
 70
0
 71
3
 72
15
 73
11
 74
0
 42
0.0000001
 43
0.0000001
 44
0.0000000001
 40
0.0
 40
0.0
 40
0.0
 40
0.0
 40
0.0570233419
 40
0.1293586796
 40
0.2242107455
 40
0.3430879243
 40
0.4844660151
 40
0.6447708672
 40
0.8187803679
 40
1.0
 40
1.0
 40
1.0
 40
1.0
 10
711.3788693212
 20
66.9409334409
 30
0.0
 10
711.3788693212
 20
67.0981152184
 30
0.0
 10
711.504863636
 20
67.4548235638
 30
0.0
 10
711.9603697808
 20
67.8887673314
 30
0.0
 10
712.6477361756
 20
68.2831067111
 30
0.0
 10
713.566016354
 20
68.6306804097
 30
0.0
 10
714.6900627148
 20
68.920646048
 30
0.0
 10
715.9843418421
 20
69.1390765148
 30
0.0
 10
717.399873517
 20
69.2750890702
 30
0.0
 10
718.3793471439
 20
69.3056743575
 30
0.0
 10
718.8788693212
 20
69.3056743575
 30
0.0
  0
SPLINE
  5
4A5
100
AcDbEntity
  8
RUNDUNGEN
100
AcDbSpline
 62
7
  6
CONTINUOUS
 70
0
 71
3
 72
15
 73
11
 74
0
 42
0.0000001
 43
0.0000001
 44
0.0000000001
 40
0.0
 40
0.0
 40
0.0
 40
0.0
 40
0.0570233419
 40
0.1293586796
 40
0.2242107455
 40
0.3430879243
 40
0.4844660151
 40
0.6447708672
 40
0.8187803679
 40
1.0
 40
1.0
 40
1.0
 40
1.0
 10
802.3788693212
 20
66.9409334409
 30
0.0
 10
802.3788693212
 20
67.0981152184
 30
0.0
 10
802.2528750064
 20
67.4548235638
 30
0.0
 10
801.7973688616
 20
67.8887673314
 30
0.0
 10
801.1100024667
 20
68.2831067111
 30
0.0
 10
800.1917222883
 20
68.6306804097
 30
0.0
 10
799.0676759275
 20
68.920646048
 30
0.0
 10
797.7733968003
 20
69.1390765148
 30
0.0
 10
796.3578651254
 20
69.2750890702
 30
0.0
 10
795.3783914984
 20
69.3056743575
 30
0.0
 10
794.8788693212
 20
69.3056743575
 30
0.0
  0
SPLINE
  5
4A6
100
AcDbEntity
  8
RUNDUNGEN
100
AcDbSpline
 62
7
  6
CONTINUOUS
 70
0
 71
3
 72
15
 73
11
 74
0
 42
0.0000001
 43
0.0000001
 44
0.0000000001
 40
0.0
 40
0.0
 40
0.0
 40
0.0
 40
0.0570233419
 40
0.1293586796
 40
0.2242107455
 40
0.3430879243
 40
0.4844660151
 40
0.6447708672
 40
0.8187803679
 40
1.0
 40
1.0
 40
1.0
 40
1.0
 10
802.3788693212
 20
74.7957474779
 30
0.0
 10
802.3788693212
 20
74.9529292555
 30
0.0
 10
802.2528750064
 20
75.3096376009
 30
0.0
 10
801.7973688616
 20
75.7435813685
 30
0.0
 10
801.1100024667
 20
76.1379207482
 30
0.0
 10
800.1917222883
 20
76.4854944468
 30
0.0
 10
799.0676759275
 20
76.775460085
 30
0.0
 10
797.7733968003
 20
76.9938905519
 30
0.0
 10
796.3578651254
 20
77.1299031073
 30
0.0
 10
795.3783914984
 20
77.1604883945
 30
0.0
 10
794.8788693212
 20
77.1604883945
 30
0.0
  0
SPLINE
  5
4A7
100
AcDbEntity
  8
RUNDUNGEN
100
AcDbSpline
 62
7
  6
CONTINUOUS
 70
0
 71
3
 72
9
 73
5
 74
0
 42
0.0000001
 43
0.0000001
 44
0.0000000001
 40
0.0
 40
0.0
 40
0.0
 40
0.0
 40
0.4924952808
 40
1.0
 40
1.0
 40
1.0
 40
1.0
 10
738.9042459002
 20
98.8056743575
 30
0.0
 10
737.5456633718
 20
98.8056743575
 30
0.0
 10
734.7880192639
 20
98.7175185507
 30
0.0
 10
732.0299207775
 20
98.6541435858
 30
0.0
 10
730.6299336679
 20
98.6541435858
 30
0.0
  0
SPLINE
  5
4A8
100
AcDbEntity
  8
RUNDUNGEN
100
AcDbSpline
 62
7
  6
CONTINUOUS
 70
0
 71
3
 72
15
 73
11
 74
0
 42
0.0000001
 43
0.0000001
 44
0.0000000001
 40
0.0
 40
0.0
 40
0.0
 40
0.0
 40
0.0570233419
 40
0.1293586796
 40
0.2242107455
 40
0.3430879243
 40
0.4844660151
 40
0.6447708672
 40
0.8187803679
 40
1.0
 40
1.0
 40
1.0
 40
1.0
 10
711.3788693212
 20
74.7957474779
 30
0.0
 10
711.3788693212
 20
74.9529292555
 30
0.0
 10
711.504863636
 20
75.3096376009
 30
0.0
 10
711.9603697808
 20
75.7435813685
 30
0.0
 10
712.6477361756
 20
76.1379207482
 30
0.0
 10
713.566016354
 20
76.4854944468
 30
0.0
 10
714.6900627148
 20
76.775460085
 30
0.0
 10
715.9843418421
 20
76.9938905519
 30
0.0
 10
717.399873517
 20
77.1299031073
 30
0.0
 10
718.3793471439
 20
77.1604883945
 30
0.0
 10
718.8788693212
 20
77.1604883945
 30
0.0
  0
SPLINE
  5
4A9
100
AcDbEntity
  8
KONSTRUKTIONSELEMENTE
100
AcDbSpline
 62
7
  6
CONTINUOUS
 70
0
 71
3
 72
21
 73
17
 74
0
 42
0.0000001
 43
0.0000001
 44
0.0000000001
 40
0.0
 40
0.0
 40
0.0
 40
0.0
 40
0.1925459405
 40
0.3785037623
 40
0.5509386307
 40
0.7029185681
 40
0.7692074395
 40
0.8280570951
 40
0.8788329079
 40
0.9209998828
 40
0.9541446639
 40
0.9780054346
 40
0.9864621013
 40
0.9926832447
 40
0.9969235195
 40
1.0
 40
1.0
 40
1.0
 40
1.0
 10
730.7593842663
 20
47.7098743575
 30
0.0
 10
730.2796826581
 20
46.3085138286
 30
0.0
 10
729.3992940774
 20
43.5320212795
 30
0.0
 10
728.2724205346
 20
39.4455570794
 30
0.0
 10
727.3535973756
 20
35.6278206105
 30
0.0
 10
726.7388410759
 20
32.685262984
 30
0.0
 10
726.3555540637
 20
30.5881330477
 30
0.0
 10
726.1364032297
 20
29.252652625
 30
0.0
 10
725.9721562801
 20
28.0964792971
 30
0.0
 10
725.8621311338
 20
27.1325816831
 30
0.0
 10
725.8065566884
 20
26.371495055
 30
0.0
 10
725.801053386
 20
25.8672680074
 30
0.0
 10
725.8320591784
 20
25.571404542
 30
0.0
 10
725.8667139304
 20
25.4303426951
 30
0.0
 10
725.9133761079
 20
25.3335872115
 30
0.0
 10
725.9694061787
 20
25.3056743575
 30
0.0
 10
725.9930724958
 20
25.3056743575
 30
0.0
  0
SPLINE
  5
4AA
100
AcDbEntity
  8
KONSTRUKTIONSELEMENTE
100
AcDbSpline
 62
7
  6
CONTINUOUS
 70
0
 71
3
 72
21
 73
17
 74
0
 42
0.0000001
 43
0.0000001
 44
0.0000000001
 40
0.0
 40
0.0
 40
0.0
 40
0.0
 40
0.0030764805
 40
0.0073167553
 40
0.0135378987
 40
0.0219945654
 40
0.0458553361
 40
0.0790001172
 40
0.1211670921
 40
0.1719429049
 40
0.2307925605
 40
0.2970814319
 40
0.4490613693
 40
0.6214962377
 40
0.8074540595
 40
1.0
 40
1.0
 40
1.0
 40
1.0
 10
787.7646661466
 20
25.3056743575
 30
0.0
 10
787.7883324636
 20
25.3056743575
 30
0.0
 10
787.8443625344
 20
25.3335872115
 30
0.0
 10
787.8910247119
 20
25.4303426951
 30
0.0
 10
787.9256794639
 20
25.571404542
 30
0.0
 10
787.9566852563
 20
25.8672680074
 30
0.0
 10
787.951181954
 20
26.371495055
 30
0.0
 10
787.8956075085
 20
27.1325816831
 30
0.0
 10
787.7855823623
 20
28.0964792971
 30
0.0
 10
787.6213354126
 20
29.252652625
 30
0.0
 10
787.4021845787
 20
30.5881330477
 30
0.0
 10
787.0188975665
 20
32.685262984
 30
0.0
 10
786.4041412667
 20
35.6278206105
 30
0.0
 10
785.4853181077
 20
39.4455570794
 30
0.0
 10
784.358444565
 20
43.5320212795
 30
0.0
 10
783.4780559842
 20
46.3085138286
 30
0.0
 10
782.998354376
 20
47.7098743575
 30
0.0
  0
SPLINE
  5
4AB
100
AcDbEntity
  8
KONSTRUKTIONSELEMENTE
100
AcDbSpline
 62
7
  6
CONTINUOUS
 70
0
 71
3
 72
9
 73
5
 74
0
 42
0.0000001
 43
0.0000001
 44
0.0000000001
 40
0.0
 40
0.0
 40
0.0
 40
0.0
 40
0.4999249095
 40
1.0
 40
1.0
 40
1.0
 40
1.0
 10
782.2689488372
 20
51.8651743575
 30
0.0
 10
782.2689488372
 20
51.1596975841
 30
0.0
 10
782.4011379025
 20
49.7457783145
 30
0.0
 10
782.7698084654
 20
48.3775294429
 30
0.0
 10
782.998354376
 20
47.7098743575
 30
0.0
  0
SPLINE
  5
4AC
100
AcDbEntity
  8
KONSTRUKTIONSELEMENTE
100
AcDbSpline
 62
7
  6
CONTINUOUS
 70
0
 71
3
 72
15
 73
11
 74
0
 42
0.0000001
 43
0.0000001
 44
0.0000000001
 40
0.0
 40
0.0
 40
0.0
 40
0.0
 40
0.2500292008
 40
0.3751239827
 40
0.5002037128
 40
0.6252500758
 40
0.750215003
 40
0.8749789827
 40
0.9374933993
 40
1.0
 40
1.0
 40
1.0
 40
1.0
 10
766.1288693212
 20
67.781055243
 30
0.0
 10
767.9095099052
 20
67.3618722564
 30
0.0
 10
770.5435584718
 20
66.5408562793
 30
0.0
 10
773.8773289927
 20
65.0219085886
 30
0.0
 10
776.2591587751
 20
63.6466631804
 30
0.0
 10
778.466174074
 20
62.001874083
 30
0.0
 10
780.3996192184
 20
60.0398926135
 30
0.0
 10
781.6230095339
 20
58.0705295226
 30
0.0
 10
782.172061547
 20
56.3173744736
 30
0.0
 10
782.2689488372
 20
55.3999981191
 30
0.0
 10
782.2689488372
 20
54.9426743575
 30
0.0
  0
SPLINE
  5
4AD
100
AcDbEntity
  8
RUNDUNGEN
100
AcDbSpline
 62
7
  6
CONTINUOUS
 70
0
 71
3
 72
9
 73
5
 74
0
 42
0.0000001
 43
0.0000001
 44
0.0000000001
 40
0.0
 40
0.0
 40
0.0
 40
0.0
 40
0.5075045585
 40
1.0
 40
1.0
 40
1.0
 40
1.0
 10
783.1278049744
 20
98.6541435858
 30
0.0
 10
781.7278133361
 20
98.6541435858
 30
0.0
 10
778.9697050652
 20
98.7175193473
 30
0.0
 10
776.2120511419
 20
98.8056743575
 30
0.0
 10
774.8534633452
 20
98.8056743575
 30
0.0
  0
SPLINE
  5
4AE
100
AcDbEntity
  8
RUNDUNGEN
100
AcDbSpline
 62
7
  6
CONTINUOUS
 70
0
 71
3
 72
9
 73
5
 74
0
 42
0.0000001
 43
0.0000001
 44
0.0000000001
 40
0.0
 40
0.0
 40
0.0
 40
0.0
 40
0.4911624891
 40
1.0
 40
1.0
 40
1.0
 40
1.0
 10
792.3810578432
 20
98.7801065063
 30
0.0
 10
791.6212745432
 20
98.7553044717
 30
0.0
 10
790.0750937205
 20
98.6858039519
 30
0.0
 10
788.5273245694
 20
98.6541435858
 30
0.0
 10
787.7397803632
 20
98.6541435858
 30
0.0
  0
SPLINE
  5
4AF
100
AcDbEntity
  8
RUNDUNGEN
100
AcDbSpline
 62
7
  6
CONTINUOUS
 70
0
 71
3
 72
9
 73
5
 74
0
 42
0.0000001
 43
0.0000001
 44
0.0000000001
 40
0.0
 40
0.0
 40
0.0
 40
0.0
 40
0.5088285907
 40
1.0
 40
1.0
 40
1.0
 40
1.0
 10
726.0179575452
 20
98.6541435858
 30
0.0
 10
725.2307986378
 20
98.6541435952
 30
0.0
 10
723.6837594156
 20
98.6857719466
 30
0.0
 10
722.1383073232
 20
98.7552232333
 30
0.0
 10
721.3788693212
 20
98.7800350354
 30
0.0
  0
LINE
  5
4B0
100
AcDbEntity
  8
0
100
AcDbLine
 62
7
  6
CONTINUOUS
 10
320.2644458781
 20
66.9409334409
 11
327.7644458781
 21
69.3056743575
  0
LINE
  5
4B1
100
AcDbEntity
  8
0
100
AcDbLine
 62
7
  6
CONTINUOUS
 10
314.7644458781
 20
74.7957474779
 11
322.2644458781
 21
77.1604883945
  0
SPLINE
  5
4B2
100
AcDbEntity
  8
0
100
AcDbSpline
 62
7
  6
CONTINUOUS
 70
0
 71
3
 72
9
 73
5
 74
0
 42
0.0000001
 43
0.0000001
 44
0.0000000001
 40
0.0
 40
0.0
 40
0.0
 40
0.0
 40
0.2443167337
 40
1.0
 40
1.0
 40
1.0
 40
1.0
 10
315.2806816486
 20
98.7846703281
 30
0.0
 10
315.2379508913
 20
98.7850494596
 30
0.0
 10
315.0630094565
 20
98.7788809769
 30
0.0
 10
314.8896607648
 20
98.7412831198
 30
0.0
 10
314.7644458781
 20
98.698962239
 30
0.0
  0
SPLINE
  5
4B3
100
AcDbEntity
  8
0
100
AcDbSpline
 62
7
  6
CONTINUOUS
 70
0
 71
3
 72
11
 73
7
 74
0
 42
0.0000001
 43
0.0000001
 44
0.0000000001
 40
0.0
 40
0.0
 40
0.0
 40
0.0
 40
0.2552284564
 40
0.5000000008
 40
0.7447715449
 40
1.0
 40
1.0
 40
1.0
 40
1.0
 10
299.9990320568
 20
169.7724621184
 30
0.0
 10
299.7413584776
 20
170.3690033272
 30
0.0
 10
299.3309359503
 20
171.5834526002
 30
0.0
 10
299.1118647198
 20
173.4827060692
 30
0.0
 10
299.3309359544
 20
175.3819595343
 30
0.0
 10
299.7413584788
 20
176.5964088035
 30
0.0
 10
299.9990320568
 20
177.1929500094
 30
0.0
  0
SPLINE
  5
4B4
100
AcDbEntity
  8
0
100
AcDbSpline
 62
7
  6
CONTINUOUS
 70
0
 71
3
 72
9
 73
5
 74
0
 42
0.0000001
 43
0.0000001
 44
0.0000000001
 40
0.0
 40
0.0
 40
0.0
 40
0.0
 40
0.5000000009
 40
1.0
 40
1.0
 40
1.0
 40
1.0
 10
299.9990320568
 20
149.4993121834
 30
0.0
 10
299.4696743556
 20
152.8474904035
 30
0.0
 10
298.8980520021
 20
159.6358871569
 30
0.0
 10
299.4696743574
 20
166.4242839098
 30
0.0
 10
299.9990320568
 20
169.7724621184
 30
0.0
  0
SPLINE
  5
4B5
100
AcDbEntity
  8
0
100
AcDbSpline
 62
7
  6
CONTINUOUS
 70
0
 71
3
 72
9
 73
5
 74
0
 42
0.0000001
 43
0.0000001
 44
0.0000000001
 40
0.0
 40
0.0
 40
0.0
 40
0.0
 40
0.5000000009
 40
1.0
 40
1.0
 40
1.0
 40
1.0
 10
299.9990320568
 20
121.8056743575
 30
0.0
 10
299.4674474373
 20
126.3986116299
 30
0.0
 10
298.9002789204
 20
135.6524932785
 30
0.0
 10
299.4674474392
 20
144.9063749267
 30
0.0
 10
299.9990320568
 20
149.4993121834
 30
0.0
  0
SPLINE
  5
4B6
100
AcDbEntity
  8
0
100
AcDbSpline
 62
7
  6
CONTINUOUS
 70
0
 71
3
 72
11
 73
7
 74
0
 42
0.0000001
 43
0.0000001
 44
0.0000000001
 40
0.0
 40
0.0
 40
0.0
 40
0.0
 40
0.2552284564
 40
0.5000000008
 40
0.7447715449
 40
1.0
 40
1.0
 40
1.0
 40
1.0
 10
308.5298596994
 20
169.7724621184
 30
0.0
 10
308.7875332787
 20
170.3690033272
 30
0.0
 10
309.197955806
 20
171.5834526002
 30
0.0
 10
309.4170270365
 20
173.4827060692
 30
0.0
 10
309.1979558019
 20
175.3819595343
 30
0.0
 10
308.7875332775
 20
176.5964088035
 30
0.0
 10
308.5298596994
 20
177.1929500094
 30
0.0
  0
SPLINE
  5
4B7
100
AcDbEntity
  8
0
100
AcDbSpline
 62
7
  6
CONTINUOUS
 70
0
 71
3
 72
9
 73
5
 74
0
 42
0.0000001
 43
0.0000001
 44
0.0000000001
 40
0.0
 40
0.0
 40
0.0
 40
0.0
 40
0.5000000009
 40
1.0
 40
1.0
 40
1.0
 40
1.0
 10
308.5298596994
 20
149.4993121834
 30
0.0
 10
309.0592174006
 20
152.8474904035
 30
0.0
 10
309.6308397542
 20
159.6358871569
 30
0.0
 10
309.0592173988
 20
166.4242839098
 30
0.0
 10
308.5298596994
 20
169.7724621184
 30
0.0
  0
SPLINE
  5
4B8
100
AcDbEntity
  8
0
100
AcDbSpline
 62
7
  6
CONTINUOUS
 70
0
 71
3
 72
9
 73
5
 74
0
 42
0.0000001
 43
0.0000001
 44
0.0000000001
 40
0.0
 40
0.0
 40
0.0
 40
0.0
 40
0.5000000009
 40
1.0
 40
1.0
 40
1.0
 40
1.0
 10
308.5298596994
 20
121.8056743575
 30
0.0
 10
309.0614443189
 20
126.3986116299
 30
0.0
 10
309.6286128359
 20
135.6524932785
 30
0.0
 10
309.0614443171
 20
144.9063749267
 30
0.0
 10
308.5298596994
 20
149.4993121834
 30
0.0
  0
LINE
  5
4B9
100
AcDbEntity
  8
RUNDUNGEN
100
AcDbLine
 62
7
  6
CONTINUOUS
 10
288.2644458781
 20
66.9409334409
 11
280.7644458781
 21
69.3056743575
  0
LINE
  5
4BA
100
AcDbEntity
  8
RUNDUNGEN
100
AcDbLine
 62
7
  6
CONTINUOUS
 10
293.7644458781
 20
74.7957474779
 11
286.2644458781
 21
77.1604883945
  0
SPLINE
  5
4BB
100
AcDbEntity
  8
RUNDUNGEN
100
AcDbSpline
 62
7
  6
CONTINUOUS
 70
0
 71
3
 72
9
 73
5
 74
0
 42
0.0000001
 43
0.0000001
 44
0.0000000001
 40
0.0
 40
0.0
 40
0.0
 40
0.0
 40
0.2443167337
 40
1.0
 40
1.0
 40
1.0
 40
1.0
 10
293.2482101077
 20
98.7846703281
 30
0.0
 10
293.290940865
 20
98.7850494596
 30
0.0
 10
293.4658822998
 20
98.7788809769
 30
0.0
 10
293.6392309914
 20
98.7412831198
 30
0.0
 10
293.7644458781
 20
98.698962239
 30
0.0
  0
SPLINE
  5
4BC
100
AcDbEntity
  8
RUNDUNGEN
100
AcDbSpline
 62
7
  6
CONTINUOUS
 70
0
 71
3
 72
21
 73
17
 74
0
 42
0.0000001
 43
0.0000001
 44
0.0000000001
 40
0.0
 40
0.0
 40
0.0
 40
0.0
 40
0.066036151
 40
0.0984821376
 40
0.1299149817
 40
0.1600761741
 40
0.1891672127
 40
0.2456450605
 40
0.3024737083
 40
0.3606070687
 40
0.4202283992
 40
0.4812668158
 40
0.6067591655
 40
0.7359301577
 40
0.867406379
 40
1.0
 40
1.0
 40
1.0
 40
1.0
 10
292.4946300529
 20
37.3079243575
 30
0.0
 10
291.9611416665
 20
37.3079243575
 30
0.0
 10
291.1560040386
 20
37.2391571656
 30
0.0
 10
290.162300827
 20
36.8809657988
 30
0.0
 10
289.5176498737
 20
36.4637676129
 30
0.0
 10
289.0228367626
 20
35.9111523219
 30
0.0
 10
288.6007366503
 20
35.0657495208
 30
0.0
 10
288.4768983631
 20
33.8857543593
 30
0.0
 10
288.8055496436
 20
32.5231699687
 30
0.0
 10
289.4550845237
 20
31.2598035156
 30
0.0
 10
290.3434891555
 20
30.1127128533
 30
0.0
 10
291.7842443526
 20
28.7338890952
 30
0.0
 10
293.9427208259
 20
27.3325818283
 30
0.0
 10
296.8489238034
 20
26.1588140843
 30
0.0
 10
299.9608275889
 20
25.4605664846
 30
0.0
 10
302.0974575083
 20
25.3065490091
 30
0.0
 10
303.1686458781
 20
25.3065490091
 30
0.0
  0
SPLINE
  5
4BD
100
AcDbEntity
  8
0
100
AcDbSpline
 62
7
  6
CONTINUOUS
 70
0
 71
3
 72
18
 73
14
 74
0
 42
0.0000001
 43
0.0000001
 44
0.0000000001
 40
0.0
 40
0.0
 40
0.0
 40
0.0
 40
0.067101088
 40
0.1326697821
 40
0.194528537
 40
0.2529241622
 40
0.3101769339
 40
0.3678539412
 40
0.4861397177
 40
0.6094052526
 40
0.7367985608
 40
0.867315357
 40
1.0
 40
1.0
 40
1.0
 40
1.0
 10
316.0342617034
 20
37.3079243575
 30
0.0
 10
316.4736874853
 20
37.3079243575
 30
0.0
 10
317.3456336496
 20
37.2460526671
 30
0.0
 10
318.5752110605
 20
36.8327776277
 30
0.0
 10
319.5170011257
 20
35.998225719
 30
0.0
 10
319.9759435744
 20
34.8930499512
 30
0.0
 10
320.0106425085
 20
33.7404931733
 30
0.0
 10
319.6499277528
 20
32.2432056507
 30
0.0
 10
318.6247834878
 20
30.5265230345
 30
0.0
 10
316.8799384219
 20
28.8311250265
 30
0.0
 10
314.7733103602
 20
27.4667167367
 30
0.0
 10
312.4231146429
 20
26.4348855824
 30
0.0
 10
310.7583362966
 20
25.9660691669
 30
0.0
 10
309.9088034793
 20
25.7835726827
 30
0.0
  0
ELLIPSE
  5
4BE
100
AcDbEntity
  8
0
100
AcDbEllipse
 62
7
  6
CONTINUOUS
 10
314.4915565825
 20
88.8056743575
 30
0.0
 11
1.0897843695
 21
9.989598968
 31
0.0
 40
0.418407714
 41
0.1918339244
 42
1.6164095607
  0
ELLIPSE
  5
4BF
100
AcDbEntity
  8
RUNDUNGEN
100
AcDbEllipse
 62
7
  6
CONTINUOUS
 10
294.0373351738
 20
88.8056743575
 30
0.0
 11
-1.0897843695
 21
9.989598968
 31
0.0
 40
0.418407714
 41
-1.6164095607
 42
-0.1918339244
  0
ENDSEC
  0
SECTION
  2
OBJECTS
  0
DICTIONARY
  5
C
100
AcDbDictionary
280
0
281
1
  3
ACAD_GROUP
350
D
  3
ACAD_MLINESTYLE
350
17
  3
ACAD_LAYOUT
350
1A
  3
ACAD_PLOTSETTINGS
350
19
  3
ACAD_PLOTSTYLENAME
350
E
  0
DICTIONARY
  5
D
102
{ACAD_REACTORS
330
C
102
}
100
AcDbDictionary
280
0
281
1
  0
ACDBDICTIONARYWDFLT
  5
E
102
{ACAD_REACTORS
330
C
102
}
100
AcDbDictionary
281
1
  3
Normal
350
F
100
AcDbDictionaryWithDefault
340
F
  0
DICTIONARY
  5
17
102
{ACAD_REACTORS
330
C
102
}
100
AcDbDictionary
280
0
281
1
  3
Standard
350
18
  0
DICTIONARY
  5
19
102
{ACAD_REACTORS
330
C
102
}
100
AcDbDictionary
281
1
  0
DICTIONARY
  5
1A
102
{ACAD_REACTORS
330
C
102
}
100
AcDbDictionary
281
1
  3
Model
350
4C0
  3
Layout1
350
4C1
  0
ACDBPLACEHOLDER
  5
F
102
{ACAD_REACTORS
330
E
102
}
  0
MLINESTYLE
  5
18
102
{ACAD_REACTORS
330
17
102
}
100
AcDbMlineStyle
  2
STANDARD
 70
0
  3

 62
256
 51
90.0
 52
90.0
 71
2
 49
0.5
 62
256
  6
BYLAYER
 49
-0.5
 62
256
  6
BYLAYER
  0
LAYOUT
  5
4C0
102
{ACAD_REACTORS
330
1A
102
}
100
AcDbPlotSettings
  1

  2
none_device
  4
ISO_A0_(1189.00_x_841.00_MM)
  6

 40
0.0
 41
0.0
 42
0.0
 43
0.0
 44
1189.0
 45
841.0
 46
0.0
 47
0.0
 48
0.0
 49
0.0
140
0.0
141
0.0
142
1.0
143
1.0
 70
1024
 72
1
 73
0
 74
0
  7

 75
0
147
1.0
148
0.0
149
0.0
100
AcDbLayout
  1
Model
 70
0
 71
0
 10
0.0
 20
0.0
 11
1189.0
 21
841.0
 12
0.0
 22
0.0
 32
0.0
 14
0.0
 24
0.0
 34
0.0
 15
0.0
 25
0.0
 35
0.0
146
0.0
 13
0.0
 23
0.0
 33
0.0
 16
1.0
 26
0.0
 36
0.0
 17
0.0
 27
1.0
 37
0.0
 76
0
330
20A
345
0
346
0
  0
LAYOUT
  5
4C1
102
{ACAD_REACTORS
330
1A
102
}
100
AcDbPlotSettings
  1

  2
none_device
  4
ISO_A0_(1189.00_x_841.00_MM)
  6

 40
0.0
 41
0.0
 42
0.0
 43
0.0
 44
1189.0
 45
841.0
 46
0.0
 47
0.0
 48
0.0
 49
0.0
140
0.0
141
0.0
142
1.0
143
1.0
 70
0
 72
1
 73
0
 74
0
  7

 75
0
147
1.0
148
0.0
149
0.0
100
AcDbLayout
  1
Layout1
 70
0
 71
1
 10
0.0
 20
0.0
 11
1189.0
 21
841.0
 12
0.0
 22
0.0
 32
0.0
 14
0.0
 24
0.0
 34
0.0
 15
0.0
 25
0.0
 35
0.0
146
0.0
 13
0.0
 23
0.0
 33
0.0
 16
1.0
 26
0.0
 36
0.0
 17
0.0
 27
1.0
 37
0.0
 76
0
330
20B
345
0
346
0
  0
ENDSEC
  0
EOF
