999
DXF file: ISAK-RG-1-13_250_7903192_M34585-P-11.dxf
999
Pro/ENGINEER 2010140 by Parametric Technology Corporation
  0
SECTION
  2
HEADER
  9
$ACADVER
  1
AC1015
  9
$DWGCODEPAGE
  3
ANSI_1252
  9
$EXTMAX
 10
1189.0
 20
841.0
 30
0.0
  9
$EXTMIN
 10
0.0
 20
0.0
 30
0.0
  9
$LIMMIN
 10
0.0
 20
0.0
  9
$LIMMAX
 10
1189.0
 20
841.0
  9
$VIEWCTR
 10
594.5
 20
420.5
  9
$VIEWSIZE
 40
841.0
  9
$CLAYER
  8
0
  9
$LTSCALE
 40
65.395
  9
$CELTYPE
  6
BYLAYER
  9
$DIMSCALE
 40
1.0
  9
$DIMASZ
 40
3.5
  9
$DIMEXO
 40
7.43125
  9
$DIMDLI
 40
45.182
  9
$DIMEXE
 40
21.402
  9
$DIMCEN
 40
10.701
  9
$DIMLFAC
 40
1.0
  9
$DIMBLK
  1
_FILLED
  9
$DIMTXT
 40
3.5
  9
$DIMTOL
 70
1
  9
$DIMLIM
 70
0
  9
$DIMTFAC
 40
1.0
  9
$DIMTP
 40
0.005
  9
$DIMTM
 40
0.005
  9
$PDMODE
 70
3
  9
$PDSIZE
 40
0.3125
  9
$HANDSEED
  5
4C3
  9
$TILEMODE
 70
1
  9
$MEASUREMENT
 70
1
  9
$INSUNITS
 70
4
  0
ENDSEC
  0
SECTION
  2
CLASSES
  0
CLASS
  1
ACDBDICTIONARYWDFLT
  2
AcDbDictionaryWithDefault
  3
AutoCAD 2000
 90
0
280
0
281
0
  0
CLASS
  1
ACDBPLACEHOLDER
  2
AcDbPlaceHolder
  3
AutoCAD 2000
 90
0
280
0
281
0
  0
CLASS
  1
LAYOUT
  2
AcDbLayout
  3
AutoCAD 2000
 90
0
280
0
281
0
  0
ENDSEC
  0
SECTION
  2
TABLES
  0
TABLE
  2
VPORT
  5
8
100
AcDbSymbolTable
 70
2
  0
VPORT
  5
1F4
100
AcDbSymbolTableRecord
100
AcDbViewportTableRecord
  2
*ACTIVE
 70
0
 10
0.0
 20
0.0
 11
1.0
 21
1.0
 12
594.5
 22
420.5
 13
0.0
 23
0.0
 14
1.0
 24
1.0
 15
0.0
 25
0.0
 16
0.0
 26
0.0
 36
1.0
 17
0.0
 27
0.0
 37
0.0
 40
841.0
 41
1.4137931034
 42
50.0
 43
0.0
 44
0.0
 50
0.0
 51
0.0
 71
0
 72
100
 73
1
 74
1
 75
0
 76
0
 77
0
 78
0
  0
ENDTAB
  0
TABLE
  2
LTYPE
  5
5
100
AcDbSymbolTable
 70
6
  0
LTYPE
  5
14
100
AcDbSymbolTableRecord
100
AcDbLinetypeTableRecord
  2
BYBLOCK
 70
0
  3

 72
65
 73
0
 40
0.0
  0
LTYPE
  5
15
100
AcDbSymbolTableRecord
100
AcDbLinetypeTableRecord
  2
BYLAYER
 70
0
  3

 72
65
 73
0
 40
0.0
  0
LTYPE
  5
16
100
AcDbSymbolTableRecord
100
AcDbLinetypeTableRecord
  2
CONTINUOUS
 70
64
  3
Solid line
 72
65
 73
0
 40
0.0
  0
LTYPE
  5
1F5
100
AcDbSymbolTableRecord
100
AcDbLinetypeTableRecord
  2
CENTER
 70
64
  3
____ _ ____ _ ____ _ ____ _ ____ _ ____ _ ____
 72
65
 73
4
 40
0.6
 49
0.375
 74
0
 49
-0.075
 74
0
 49
0.075
 74
0
 49
-0.075
 74
0
  0
LTYPE
  5
1F6
100
AcDbSymbolTableRecord
100
AcDbLinetypeTableRecord
  2
HIDDEN
 70
64
  3
- - - - - - - - - - - - - - - - - - - -
 72
65
 73
2
 40
0.2
 49
0.1
 74
0
 49
-0.1
 74
0
  0
LTYPE
  5
1F7
100
AcDbSymbolTableRecord
100
AcDbLinetypeTableRecord
  2
PHANTOM
 70
64
  3
_____ _ _ _____ _ _ _____ _ _ _____
 72
65
 73
6
 40
0.8
 49
0.45
 74
0
 49
-0.05
 74
0
 49
0.1
 74
0
 49
-0.05
 74
0
 49
0.1
 74
0
 49
-0.05
 74
0
  0
LTYPE
  5
1F8
100
AcDbSymbolTableRecord
100
AcDbLinetypeTableRecord
  2
DOT
 70
64
  3
. . . . . . . . . . . . . . . . . . . .
 72
65
 73
2
 40
0.2
 49
0.1
 74
0
 49
-0.1
 74
0
  0
LTYPE
  5
1F9
100
AcDbSymbolTableRecord
100
AcDbLinetypeTableRecord
  2
DASHED
 70
64
  3
- - - - - - - - - - - - - - - - - - - -
 72
65
 73
2
 40
0.2
 49
0.1
 74
0
 49
-0.1
 74
0
  0
ENDTAB
  0
TABLE
  2
LAYER
  5
2
100
AcDbSymbolTable
 70
36
  0
LAYER
  5
10
100
AcDbSymbolTableRecord
100
AcDbLayerTableRecord
  2
0
 70
0
 62
7
  6
CONTINUOUS
370
-3
390
F
  0
LAYER
  5
1FA
100
AcDbSymbolTableRecord
100
AcDbLayerTableRecord
  2
DEFAULT_1
 70
0
 62
7
  6
CENTER
370
-3
390
F
  0
LAYER
  5
1FB
100
AcDbSymbolTableRecord
100
AcDbLayerTableRecord
  2
DEFAULT_2
 70
0
 62
8
  6
HIDDEN
370
-3
390
F
  0
LAYER
  5
1FC
100
AcDbSymbolTableRecord
100
AcDbLayerTableRecord
  2
DEFAULT_3
 70
0
 62
7
  6
PHANTOM
370
-3
390
F
  0
LAYER
  5
1FD
100
AcDbSymbolTableRecord
100
AcDbLayerTableRecord
  2
BEZUGSACHSEN
 70
0
 62
7
  6
CONTINUOUS
370
-3
390
F
  0
LAYER
  5
1FE
100
AcDbSymbolTableRecord
100
AcDbLayerTableRecord
  2
BEZUGSEBENEN
 70
0
 62
7
  6
CONTINUOUS
370
-3
390
F
  0
LAYER
  5
1FF
100
AcDbSymbolTableRecord
100
AcDbLayerTableRecord
  2
BG_STARTBEZUEGE
 70
0
 62
7
  6
CONTINUOUS
370
-3
390
F
  0
LAYER
  5
200
100
AcDbSymbolTableRecord
100
AcDbLayerTableRecord
  2
FASEN
 70
0
 62
7
  6
CONTINUOUS
370
-3
390
F
  0
LAYER
  5
201
100
AcDbSymbolTableRecord
100
AcDbLayerTableRecord
  2
HILFEN
 70
0
 62
7
  6
CONTINUOUS
370
-3
390
F
  0
LAYER
  5
202
100
AcDbSymbolTableRecord
100
AcDbLayerTableRecord
  2
KONSTRUKTIONSELEMENTE
 70
0
 62
7
  6
CONTINUOUS
370
-3
390
F
  0
LAYER
  5
203
100
AcDbSymbolTableRecord
100
AcDbLayerTableRecord
  2
NORM
 70
0
 62
7
  6
CONTINUOUS
370
-3
390
F
  0
LAYER
  5
204
100
AcDbSymbolTableRecord
100
AcDbLayerTableRecord
  2
PLATZIERUNG
 70
0
 62
7
  6
CONTINUOUS
370
-3
390
F
  0
LAYER
  5
205
100
AcDbSymbolTableRecord
100
AcDbLayerTableRecord
  2
RUNDUNGEN
 70
0
 62
7
  6
CONTINUOUS
370
-3
390
F
  0
LAYER
  5
206
100
AcDbSymbolTableRecord
100
AcDbLayerTableRecord
  2
TEIL_STARTBEZUEGE
 70
0
 62
7
  6
CONTINUOUS
370
-3
390
F
  0
LAYER
  5
207
100
AcDbSymbolTableRecord
100
AcDbLayerTableRecord
  2
T_STARTBEZUEGE
 70
0
 62
7
  6
CONTINUOUS
370
-3
390
F
  0
ENDTAB
  0
TABLE
  2
STYLE
  5
3
100
AcDbSymbolTable
 70
1
  0
STYLE
  5
11
100
AcDbSymbolTableRecord
100
AcDbTextStyleTableRecord
  2
STANDARD
 70
0
 40
0.0
 41
0.7
 50
0.0
 71
0
 42
0.2
  3
txt
  4

  0
STYLE
  5
208
100
AcDbSymbolTableRecord
100
AcDbTextStyleTableRecord
  2
TEXTSTYLE_1
 70
0
 40
0.0
 41
0.8
 50
0.0
 71
0
 42
0.2
  3
gdt
  4

  0
ENDTAB
  0
TABLE
  2
VIEW
  5
6
100
AcDbSymbolTable
 70
0
  0
ENDTAB
  0
TABLE
  2
UCS
  5
7
100
AcDbSymbolTable
 70
0
  0
ENDTAB
  0
TABLE
  2
APPID
  5
9
100
AcDbSymbolTable
 70
1
  0
APPID
  5
209
100
AcDbSymbolTableRecord
100
AcDbRegAppTableRecord
  2
ACAD
 70
0
  0
ENDTAB
  0
TABLE
  2
BLOCK_RECORD
  5
1
100
AcDbSymbolTable
 70
0
  0
BLOCK_RECORD
  5
20A
100
AcDbSymbolTableRecord
100
AcDbBlockTableRecord
  2
*Model_Space
  0
BLOCK_RECORD
  5
20B
100
AcDbSymbolTableRecord
100
AcDbBlockTableRecord
  2
*Paper_Space
  0
ENDTAB
  0
TABLE
  2
DIMSTYLE
  5
A
100
AcDbSymbolTable
 70
1
100
AcDbDimStyleTable
 71
0
  0
DIMSTYLE
105
20C
100
AcDbSymbolTableRecord
100
AcDbDimStyleTableRecord
  2
STANDARD
 70
0
  3

  4

 40
1.0
 41
3.5
 42
0.0625
 43
0.38
 44
0.18
 45
0.0
 46
0.0
 47
0.005
 48
0.005
140
3.5
141
0.09
142
0.0
143
25.4
144
1.0
145
0.0
146
1.0
147
0.09
 71
1.0
 72
0.0
 73
0
 74
0
 75
0
 76
0
 77
1
 78
8
170
0
171
2
172
0
173
0
174
0
175
0
176
0
177
0
178
5
270
2
271
3
272
3
273
2
274
2
275
0
280
0
281
0
282
0
283
1
284
8
285
0
286
0
287
3
288
0
340
11
  0
ENDTAB
  0
ENDSEC
  0
SECTION
  2
BLOCKS
  0
BLOCK
  5
20
100
AcDbEntity
  8
0
100
AcDbBlockBegin
  2
*Model_Space
 70
0
 10
0.0
 20
0.0
 30
0.0
  3
*Model_Space
  1

  0
ENDBLK
  5
21
100
AcDbEntity
  8
0
100
AcDbBlockEnd
  0
BLOCK
  5
1C
100
AcDbEntity
  8
0
100
AcDbBlockBegin
  2
*Paper_Space
 70
0
 10
0.0
 20
0.0
 30
0.0
  3
*Paper_Space
  1

  0
ENDBLK
  5
1D
100
AcDbEntity
  8
0
100
AcDbBlockEnd
  0
ENDSEC
  0
SECTION
  2
ENTITIES
  0
MTEXT
  5
20D
100
AcDbEntity
  8
0
100
AcDbMText
 62
5
  6
CONTINUOUS
  7
STANDARD
 71
1
 72
1
 10
622.0489168176
 20
532.9269182722
 30
0.0
 11
0.0
 21
1.0
 31
0.0
 44
0.9
  1
RUD
 40
11.0
 41
29.3333333333
  0
MTEXT
  5
20E
100
AcDbEntity
  8
0
100
AcDbMText
 62
5
  6
CONTINUOUS
  7
STANDARD
 71
1
 72
1
 10
907.2445558485
 20
496.1466100255
 30
0.0
 11
0.0
 21
1.0
 31
0.0
 44
0.9
  1
ISAK-RG 1-13/250
 40
11.0
 41
131.4761904762
  0
MTEXT
  5
20F
100
AcDbEntity
  8
0
100
AcDbMText
 62
5
  6
CONTINUOUS
  7
STANDARD
 71
1
 72
1
 10
210.6845109961
 20
460.2192990464
 30
0.0
 11
0.0
 21
1.0
 31
0.0
 44
0.9
  1
RUD ISAK-RG 1-13/250
 40
11.0
 41
167.3571428571
  0
LINE
  5
210
100
AcDbEntity
  8
0
100
AcDbLine
 62
7
  6
CONTINUOUS
 10
0.0
 20
0.0
 11
0.0
 21
841.0
  0
LINE
  5
211
100
AcDbEntity
  8
0
100
AcDbLine
 62
7
  6
CONTINUOUS
 10
0.0
 20
0.0
 11
1189.0
 21
0.0
  0
LINE
  5
212
100
AcDbEntity
  8
0
100
AcDbLine
 62
7
  6
CONTINUOUS
 10
0.0
 20
841.0
 11
1189.0
 21
841.0
  0
LINE
  5
213
100
AcDbEntity
  8
0
100
AcDbLine
 62
7
  6
CONTINUOUS
 10
1189.0
 20
0.0
 11
1189.0
 21
841.0
  0
LINE
  5
214
100
AcDbEntity
  8
RUNDUNGEN
100
AcDbLine
 62
7
  6
CONTINUOUS
 10
732.474786692
 20
10.519496645
 11
735.974786692
 21
10.519496645
  0
LINE
  5
215
100
AcDbEntity
  8
RUNDUNGEN
100
AcDbLine
 62
7
  6
CONTINUOUS
 10
804.974786692
 20
10.519496645
 11
808.474786692
 21
10.519496645
  0
LINE
  5
216
100
AcDbEntity
  8
RUNDUNGEN
100
AcDbLine
 62
7
  6
CONTINUOUS
 10
742.474786692
 20
21.1260983628
 11
751.3302024802
 21
21.1260983628
  0
LINE
  5
217
100
AcDbEntity
  8
RUNDUNGEN
100
AcDbLine
 62
7
  6
CONTINUOUS
 10
789.6193709039
 20
21.1260983628
 11
798.474786692
 21
21.1260983628
  0
LINE
  5
218
100
AcDbEntity
  8
0
100
AcDbLine
 62
7
  6
CONTINUOUS
 10
752.2913386362
 20
74.4419496642
 11
758.5313386362
 21
74.4419496642
  0
LINE
  5
219
100
AcDbEntity
  8
0
100
AcDbLine
 62
7
  6
CONTINUOUS
 10
761.8408803281
 20
74.4419496642
 11
763.0888803281
 21
74.4419496642
  0
LINE
  5
21A
100
AcDbEntity
  8
0
100
AcDbLine
 62
7
  6
CONTINUOUS
 10
769.0337204201
 20
74.4419496642
 11
770.474786692
 21
74.4419496642
  0
LINE
  5
21B
100
AcDbEntity
  8
0
100
AcDbLine
 62
7
  6
CONTINUOUS
 10
781.3332562969
 20
74.4419496642
 11
785.8546134848
 21
74.4419496642
  0
LINE
  5
21C
100
AcDbEntity
  8
0
100
AcDbLine
 62
7
  6
CONTINUOUS
 10
752.2913386362
 20
74.901569072
 11
758.5313386362
 21
74.901569072
  0
LINE
  5
21D
100
AcDbEntity
  8
0
100
AcDbLine
 62
7
  6
CONTINUOUS
 10
761.8408803281
 20
74.901569072
 11
763.0888803281
 21
74.901569072
  0
LINE
  5
21E
100
AcDbEntity
  8
0
100
AcDbLine
 62
7
  6
CONTINUOUS
 10
769.0337204201
 20
74.901569072
 11
770.099509017
 21
74.901569072
  0
LINE
  5
21F
100
AcDbEntity
  8
0
100
AcDbLine
 62
7
  6
CONTINUOUS
 10
781.3332562969
 20
74.901569072
 11
785.8546134848
 21
74.901569072
  0
LINE
  5
220
100
AcDbEntity
  8
0
100
AcDbLine
 62
7
  6
CONTINUOUS
 10
785.8819609061
 20
75.3611884798
 11
782.5812562969
 21
75.3611884798
  0
LINE
  5
221
100
AcDbEntity
  8
0
100
AcDbLine
 62
7
  6
CONTINUOUS
 10
756.3863386362
 20
75.5450362429
 11
754.4363386362
 21
75.5450362429
  0
LINE
  5
222
100
AcDbEntity
  8
0
100
AcDbLine
 62
7
  6
CONTINUOUS
 10
754.7873386362
 20
75.9586937099
 11
756.0353386362
 21
75.9586937099
  0
LINE
  5
223
100
AcDbEntity
  8
0
100
AcDbLine
 62
7
  6
CONTINUOUS
 10
754.7873386362
 20
76.4183131177
 11
756.0353386362
 21
76.4183131177
  0
LINE
  5
224
100
AcDbEntity
  8
0
100
AcDbLine
 62
7
  6
CONTINUOUS
 10
755.5478386362
 20
77.0617802885
 11
755.2748386362
 21
77.0617802885
  0
LINE
  5
225
100
AcDbEntity
  8
0
100
AcDbLine
 62
7
  6
CONTINUOUS
 10
756.0353386362
 20
77.3375519332
 11
755.7038386362
 21
77.3375519332
  0
LINE
  5
226
100
AcDbEntity
  8
0
100
AcDbLine
 62
7
  6
CONTINUOUS
 10
755.1188386362
 20
77.3375519332
 11
754.7873386362
 21
77.3375519332
  0
LINE
  5
227
100
AcDbEntity
  8
0
100
AcDbLine
 62
7
  6
CONTINUOUS
 10
754.4363386362
 20
77.7512094002
 11
755.1188386362
 21
77.7512094002
  0
LINE
  5
228
100
AcDbEntity
  8
0
100
AcDbLine
 62
7
  6
CONTINUOUS
 10
755.7038386362
 20
77.7512094002
 11
756.3863386362
 21
77.7512094002
  0
LINE
  5
229
100
AcDbEntity
  8
0
100
AcDbLine
 62
7
  6
CONTINUOUS
 10
763.0888803281
 20
77.9016580794
 11
766.2088803281
 21
77.9016580794
  0
LINE
  5
22A
100
AcDbEntity
  8
0
100
AcDbLine
 62
7
  6
CONTINUOUS
 10
754.4363386362
 20
78.210828808
 11
755.1188386362
 21
78.210828808
  0
LINE
  5
22B
100
AcDbEntity
  8
0
100
AcDbLine
 62
7
  6
CONTINUOUS
 10
755.7038386362
 20
78.210828808
 11
756.3863386362
 21
78.210828808
  0
LINE
  5
22C
100
AcDbEntity
  8
0
100
AcDbLine
 62
7
  6
CONTINUOUS
 10
756.3863386362
 20
78.3027526895
 11
755.7038386362
 21
78.3027526895
  0
LINE
  5
22D
100
AcDbEntity
  8
0
100
AcDbLine
 62
7
  6
CONTINUOUS
 10
755.1188386362
 20
78.3027526895
 11
754.4363386362
 21
78.3027526895
  0
LINE
  5
22E
100
AcDbEntity
  8
0
100
AcDbLine
 62
7
  6
CONTINUOUS
 10
763.0888803281
 20
78.3612774872
 11
766.2088803281
 21
78.3612774872
  0
LINE
  5
22F
100
AcDbEntity
  8
0
100
AcDbLine
 62
7
  6
CONTINUOUS
 10
754.7873386362
 20
78.7164101565
 11
755.1188386362
 21
78.7164101565
  0
LINE
  5
230
100
AcDbEntity
  8
0
100
AcDbLine
 62
7
  6
CONTINUOUS
 10
755.7038386362
 20
78.7164101565
 11
756.0353386362
 21
78.7164101565
  0
LINE
  5
231
100
AcDbEntity
  8
0
100
AcDbLine
 62
7
  6
CONTINUOUS
 10
766.7288803281
 20
78.7841273423
 11
763.0888803281
 21
78.7841273423
  0
LINE
  5
232
100
AcDbEntity
  8
0
100
AcDbLine
 62
7
  6
CONTINUOUS
 10
755.2748386362
 20
78.9921818012
 11
755.5478386362
 21
78.9921818012
  0
LINE
  5
233
100
AcDbEntity
  8
0
100
AcDbLine
 62
7
  6
CONTINUOUS
 10
754.7873386362
 20
79.1760295643
 11
755.1188386362
 21
79.1760295643
  0
LINE
  5
234
100
AcDbEntity
  8
0
100
AcDbLine
 62
7
  6
CONTINUOUS
 10
755.7038386362
 20
79.1760295643
 11
756.0353386362
 21
79.1760295643
  0
LINE
  5
235
100
AcDbEntity
  8
0
100
AcDbLine
 62
7
  6
CONTINUOUS
 10
755.2748386362
 20
79.4518012089
 11
755.5478386362
 21
79.4518012089
  0
LINE
  5
236
100
AcDbEntity
  8
0
100
AcDbLine
 62
7
  6
CONTINUOUS
 10
782.5812562969
 20
79.9573825575
 11
781.3332562969
 21
79.9573825575
  0
LINE
  5
237
100
AcDbEntity
  8
0
100
AcDbLine
 62
7
  6
CONTINUOUS
 10
763.0888803281
 20
80.0033444983
 11
761.8408803281
 21
80.0033444983
  0
LINE
  5
238
100
AcDbEntity
  8
0
100
AcDbLine
 62
7
  6
CONTINUOUS
 10
756.0353386362
 20
80.0952683798
 11
754.7873386362
 21
80.0952683798
  0
LINE
  5
239
100
AcDbEntity
  8
0
100
AcDbLine
 62
7
  6
CONTINUOUS
 10
754.4363386362
 20
80.5089258468
 11
756.3863386362
 21
80.5089258468
  0
LINE
  5
23A
100
AcDbEntity
  8
0
100
AcDbLine
 62
7
  6
CONTINUOUS
 10
781.3332562969
 20
80.7295431626
 11
785.8819609061
 21
80.7295431626
  0
LINE
  5
23B
100
AcDbEntity
  8
0
100
AcDbLine
 62
7
  6
CONTINUOUS
 10
761.8408803281
 20
80.7755051033
 11
766.7288803281
 21
80.7755051033
  0
LINE
  5
23C
100
AcDbEntity
  8
0
100
AcDbLine
 62
7
  6
CONTINUOUS
 10
754.4363386362
 20
80.9685452546
 11
756.3863386362
 21
80.9685452546
  0
LINE
  5
23D
100
AcDbEntity
  8
0
100
AcDbLine
 62
7
  6
CONTINUOUS
 10
781.3332562969
 20
81.1891625703
 11
785.8819609061
 21
81.1891625703
  0
LINE
  5
23E
100
AcDbEntity
  8
0
100
AcDbLine
 62
7
  6
CONTINUOUS
 10
761.8408803281
 20
81.2351245111
 11
766.7288803281
 21
81.2351245111
  0
LINE
  5
23F
100
AcDbEntity
  8
0
100
AcDbLine
 62
7
  6
CONTINUOUS
 10
785.8546134848
 20
81.6120124255
 11
781.3332562969
 21
81.6120124255
  0
LINE
  5
240
100
AcDbEntity
  8
0
100
AcDbLine
 62
7
  6
CONTINUOUS
 10
778.6032562969
 20
81.6120124255
 11
777.3552562969
 21
81.6120124255
  0
LINE
  5
241
100
AcDbEntity
  8
0
100
AcDbLine
 62
7
  6
CONTINUOUS
 10
772.4488803281
 20
81.6120124255
 11
771.2008803281
 21
81.6120124255
  0
LINE
  5
242
100
AcDbEntity
  8
0
100
AcDbLine
 62
7
  6
CONTINUOUS
 10
766.7288803281
 20
81.6120124255
 11
761.8408803281
 21
81.6120124255
  0
LINE
  5
243
100
AcDbEntity
  8
0
100
AcDbLine
 62
7
  6
CONTINUOUS
 10
758.5313386362
 20
81.6120124255
 11
752.2913386362
 21
81.6120124255
  0
LINE
  5
244
100
AcDbEntity
  8
RUNDUNGEN
100
AcDbLine
 62
7
  6
CONTINUOUS
 10
801.474786692
 20
92.2979776103
 11
796.251316731
 21
92.2979776103
  0
LINE
  5
245
100
AcDbEntity
  8
0
100
AcDbLine
 62
7
  6
CONTINUOUS
 10
796.251316731
 20
92.2979776103
 11
796.1930445811
 21
92.2979776103
  0
LINE
  5
246
100
AcDbEntity
  8
0
100
AcDbLine
 62
7
  6
CONTINUOUS
 10
744.756528803
 20
92.2979776103
 11
744.698256653
 21
92.2979776103
  0
LINE
  5
247
100
AcDbEntity
  8
RUNDUNGEN
100
AcDbLine
 62
7
  6
CONTINUOUS
 10
744.698256653
 20
92.2979776103
 11
739.474786692
 21
92.2979776103
  0
LINE
  5
248
100
AcDbEntity
  8
BEZUGSACHSEN
100
AcDbLine
 62
7
  6
CONTINUOUS
 10
763.074786692
 20
104.5229776103
 11
777.874786692
 21
104.5229776103
  0
LINE
  5
249
100
AcDbEntity
  8
BEZUGSACHSEN
100
AcDbLine
 62
7
  6
CONTINUOUS
 10
763.074786692
 20
109.388612808
 11
777.874786692
 21
109.388612808
  0
LINE
  5
24A
100
AcDbEntity
  8
BEZUGSACHSEN
100
AcDbLine
 62
7
  6
CONTINUOUS
 10
763.074786692
 20
118.0073424127
 11
777.874786692
 21
118.0073424127
  0
LINE
  5
24B
100
AcDbEntity
  8
BEZUGSACHSEN
100
AcDbLine
 62
7
  6
CONTINUOUS
 10
763.074786692
 20
122.8729776103
 11
777.874786692
 21
122.8729776103
  0
LINE
  5
24C
100
AcDbEntity
  8
RUNDUNGEN
100
AcDbLine
 62
7
  6
CONTINUOUS
 10
739.474786692
 20
128.2979776103
 11
763.074786692
 21
128.2979776103
  0
LINE
  5
24D
100
AcDbEntity
  8
RUNDUNGEN
100
AcDbLine
 62
7
  6
CONTINUOUS
 10
777.874786692
 20
128.2979776103
 11
801.474786692
 21
128.2979776103
  0
LINE
  5
24E
100
AcDbEntity
  8
0
100
AcDbLine
 62
7
  6
CONTINUOUS
 10
758.1399895962
 20
139.4545074143
 11
757.6233234222
 21
139.3225925364
  0
LINE
  5
24F
100
AcDbEntity
  8
0
100
AcDbLine
 62
7
  6
CONTINUOUS
 10
751.9399903353
 20
139.4545074143
 11
751.4233234222
 21
139.3225925364
  0
LINE
  5
250
100
AcDbEntity
  8
0
100
AcDbLine
 62
7
  6
CONTINUOUS
 10
798.3876487223
 20
138.5311031767
 11
798.9286646229
 21
138.6630180661
  0
LINE
  5
251
100
AcDbEntity
  8
0
100
AcDbLine
 62
7
  6
CONTINUOUS
 10
790.272401701
 20
139.4545074143
 11
789.7313858005
 21
139.3225925364
  0
LINE
  5
252
100
AcDbEntity
  8
0
100
AcDbLine
 62
7
  6
CONTINUOUS
 10
787.9730821889
 20
143.8076990314
 11
788.5140988634
 21
143.9396139093
  0
LINE
  5
253
100
AcDbEntity
  8
0
100
AcDbLine
 62
7
  6
CONTINUOUS
 10
757.6233234222
 20
138.5311031767
 11
758.2691572483
 21
138.6630180661
  0
LINE
  5
254
100
AcDbEntity
  8
0
100
AcDbLine
 62
7
  6
CONTINUOUS
 10
751.4233234222
 20
138.5311031767
 11
752.0691565092
 21
138.6630180661
  0
LINE
  5
255
100
AcDbEntity
  8
0
100
AcDbLine
 62
7
  6
CONTINUOUS
 10
798.9286646229
 20
139.3225925364
 11
798.2523935863
 21
139.1906776585
  0
LINE
  5
256
100
AcDbEntity
  8
0
100
AcDbLine
 62
7
  6
CONTINUOUS
 10
789.7313858005
 20
138.5311031767
 11
790.4076560631
 21
138.6630180661
  0
LINE
  5
257
100
AcDbEntity
  8
0
100
AcDbLine
 62
7
  6
CONTINUOUS
 10
796.899853061
 20
143.9396139093
 11
797.5761240976
 21
144.0715287872
  0
LINE
  5
258
100
AcDbEntity
  8
0
100
AcDbLine
 62
7
  6
CONTINUOUS
 10
788.5140988634
 20
144.7311031767
 11
787.8378278268
 21
144.5991882988
  0
LINE
  5
259
100
AcDbEntity
  8
0
100
AcDbLine
 62
7
  6
CONTINUOUS
 10
797.7113776858
 20
144.7311031767
 11
796.7645994729
 21
144.5991882988
  0
LINE
  5
25A
100
AcDbEntity
  8
RUNDUNGEN
100
AcDbLine
 62
7
  6
CONTINUOUS
 10
801.474786692
 20
136.1527916474
 11
776.2274127254
 21
136.1527916474
  0
LINE
  5
25B
100
AcDbEntity
  8
RUNDUNGEN
100
AcDbLine
 62
7
  6
CONTINUOUS
 10
764.7221606586
 20
136.1527916474
 11
739.474786692
 21
136.1527916474
  0
LINE
  5
25C
100
AcDbEntity
  8
0
100
AcDbLine
 62
7
  6
CONTINUOUS
 10
742.8983234222
 20
138.5311031767
 11
743.6733234222
 21
138.5311031767
  0
LINE
  5
25D
100
AcDbEntity
  8
0
100
AcDbLine
 62
7
  6
CONTINUOUS
 10
746.9024899657
 20
138.5311031767
 11
747.8066568788
 21
138.5311031767
  0
LINE
  5
25E
100
AcDbEntity
  8
0
100
AcDbLine
 62
7
  6
CONTINUOUS
 10
750.9066565092
 20
138.5311031767
 11
751.4233234222
 21
138.5311031767
  0
LINE
  5
25F
100
AcDbEntity
  8
0
100
AcDbLine
 62
7
  6
CONTINUOUS
 10
754.5233234222
 20
138.5311031767
 11
757.6233234222
 21
138.5311031767
  0
LINE
  5
260
100
AcDbEntity
  8
0
100
AcDbLine
 62
7
  6
CONTINUOUS
 10
778.234786692
 20
138.5311031767
 11
779.0463113168
 21
138.5311031767
  0
LINE
  5
261
100
AcDbEntity
  8
0
100
AcDbLine
 62
7
  6
CONTINUOUS
 10
780.1283440853
 20
138.5311031767
 11
780.93986871
 21
138.5311031767
  0
LINE
  5
262
100
AcDbEntity
  8
0
100
AcDbLine
 62
7
  6
CONTINUOUS
 10
784.3212213776
 20
138.5311031767
 11
785.2680003644
 21
138.5311031767
  0
LINE
  5
263
100
AcDbEntity
  8
0
100
AcDbLine
 62
7
  6
CONTINUOUS
 10
788.5140988634
 20
138.5311031767
 11
789.7313858005
 21
138.5311031767
  0
LINE
  5
264
100
AcDbEntity
  8
0
100
AcDbLine
 62
7
  6
CONTINUOUS
 10
793.5185009739
 20
138.5311031767
 11
794.3300255986
 21
138.5311031767
  0
LINE
  5
265
100
AcDbEntity
  8
0
100
AcDbLine
 62
7
  6
CONTINUOUS
 10
797.3056153734
 20
138.5311031767
 11
798.3876487223
 21
138.5311031767
  0
LINE
  5
266
100
AcDbEntity
  8
0
100
AcDbLine
 62
7
  6
CONTINUOUS
 10
798.2523935863
 20
139.1906776585
 11
797.4408689616
 21
139.1906776585
  0
LINE
  5
267
100
AcDbEntity
  8
0
100
AcDbLine
 62
7
  6
CONTINUOUS
 10
789.7313858005
 20
139.3225925364
 11
788.5140988634
 21
139.3225925364
  0
LINE
  5
268
100
AcDbEntity
  8
0
100
AcDbLine
 62
7
  6
CONTINUOUS
 10
757.6233234222
 20
139.3225925364
 11
755.2983234222
 21
139.3225925364
  0
LINE
  5
269
100
AcDbEntity
  8
0
100
AcDbLine
 62
7
  6
CONTINUOUS
 10
751.4233234222
 20
139.3225925364
 11
750.9066565092
 21
139.3225925364
  0
LINE
  5
26A
100
AcDbEntity
  8
0
100
AcDbLine
 62
7
  6
CONTINUOUS
 10
796.0883284363
 20
139.9821670182
 11
795.4120573997
 21
139.9821670182
  0
LINE
  5
26B
100
AcDbEntity
  8
0
100
AcDbLine
 62
7
  6
CONTINUOUS
 10
789.5961314384
 20
141.169401104
 11
790.8134183755
 21
141.169401104
  0
LINE
  5
26C
100
AcDbEntity
  8
0
100
AcDbLine
 62
7
  6
CONTINUOUS
 10
743.6733234222
 20
141.3013159819
 11
745.869156694
 21
141.3013159819
  0
LINE
  5
26D
100
AcDbEntity
  8
0
100
AcDbLine
 62
7
  6
CONTINUOUS
 10
780.93986871
 20
141.3013159819
 11
783.2391884156
 21
141.3013159819
  0
LINE
  5
26E
100
AcDbEntity
  8
0
100
AcDbLine
 62
7
  6
CONTINUOUS
 10
797.5761240976
 20
141.4332308598
 11
798.1171399981
 21
141.4332308598
  0
LINE
  5
26F
100
AcDbEntity
  8
0
100
AcDbLine
 62
7
  6
CONTINUOUS
 10
798.1171399981
 20
141.9608903714
 11
797.5761240976
 21
141.9608903714
  0
LINE
  5
270
100
AcDbEntity
  8
0
100
AcDbLine
 62
7
  6
CONTINUOUS
 10
791.6249430002
 20
141.9608903714
 11
789.5961314384
 21
141.9608903714
  0
LINE
  5
271
100
AcDbEntity
  8
0
100
AcDbLine
 62
7
  6
CONTINUOUS
 10
783.5096967528
 20
142.0928052493
 11
780.93986871
 21
142.0928052493
  0
LINE
  5
272
100
AcDbEntity
  8
0
100
AcDbLine
 62
7
  6
CONTINUOUS
 10
746.1274899657
 20
142.0928052493
 11
743.6733234222
 21
142.0928052493
  0
LINE
  5
273
100
AcDbEntity
  8
0
100
AcDbLine
 62
7
  6
CONTINUOUS
 10
790.8134183755
 20
143.1481242724
 11
791.6249430002
 21
143.1481242724
  0
LINE
  5
274
100
AcDbEntity
  8
0
100
AcDbLine
 62
7
  6
CONTINUOUS
 10
795.5473125357
 20
143.2800395198
 11
796.2235820245
 21
143.2800395198
  0
LINE
  5
275
100
AcDbEntity
  8
0
100
AcDbLine
 62
7
  6
CONTINUOUS
 10
755.2983234222
 20
143.9396139093
 11
757.6233234222
 21
143.9396139093
  0
LINE
  5
276
100
AcDbEntity
  8
0
100
AcDbLine
 62
7
  6
CONTINUOUS
 10
788.5140988634
 20
143.9396139093
 11
789.7313858005
 21
143.9396139093
  0
LINE
  5
277
100
AcDbEntity
  8
0
100
AcDbLine
 62
7
  6
CONTINUOUS
 10
743.6733234222
 20
144.0715287872
 11
746.1274899657
 21
144.0715287872
  0
LINE
  5
278
100
AcDbEntity
  8
0
100
AcDbLine
 62
7
  6
CONTINUOUS
 10
780.93986871
 20
144.0715287872
 11
783.5096967528
 21
144.0715287872
  0
LINE
  5
279
100
AcDbEntity
  8
0
100
AcDbLine
 62
7
  6
CONTINUOUS
 10
797.5761240976
 20
144.0715287872
 11
798.1171399981
 21
144.0715287872
  0
LINE
  5
27A
100
AcDbEntity
  8
0
100
AcDbLine
 62
7
  6
CONTINUOUS
 10
797.98188641
 20
144.7311031767
 11
797.7113776858
 21
144.7311031767
  0
LINE
  5
27B
100
AcDbEntity
  8
0
100
AcDbLine
 62
7
  6
CONTINUOUS
 10
794.3300255986
 20
144.7311031767
 11
793.5185009739
 21
144.7311031767
  0
LINE
  5
27C
100
AcDbEntity
  8
0
100
AcDbLine
 62
7
  6
CONTINUOUS
 10
789.7313858005
 20
144.7311031767
 11
788.5140988634
 21
144.7311031767
  0
LINE
  5
27D
100
AcDbEntity
  8
0
100
AcDbLine
 62
7
  6
CONTINUOUS
 10
783.3744427777
 20
144.7311031767
 11
780.1283440853
 21
144.7311031767
  0
LINE
  5
27E
100
AcDbEntity
  8
0
100
AcDbLine
 62
7
  6
CONTINUOUS
 10
779.0463113168
 20
144.7311031767
 11
778.234786692
 21
144.7311031767
  0
LINE
  5
27F
100
AcDbEntity
  8
0
100
AcDbLine
 62
7
  6
CONTINUOUS
 10
757.6233234222
 20
144.7311031767
 11
754.5233234222
 21
144.7311031767
  0
LINE
  5
280
100
AcDbEntity
  8
0
100
AcDbLine
 62
7
  6
CONTINUOUS
 10
753.4899903353
 20
144.7311031767
 11
752.7149903353
 21
144.7311031767
  0
LINE
  5
281
100
AcDbEntity
  8
0
100
AcDbLine
 62
7
  6
CONTINUOUS
 10
749.6149903353
 20
144.7311031767
 11
748.8399899657
 21
144.7311031767
  0
LINE
  5
282
100
AcDbEntity
  8
0
100
AcDbLine
 62
7
  6
CONTINUOUS
 10
745.9983234222
 20
144.7311031767
 11
742.8983234222
 21
144.7311031767
  0
LINE
  5
283
100
AcDbEntity
  8
RUNDUNGEN
100
AcDbLine
 62
7
  6
CONTINUOUS
 10
795.6110879871
 20
152.6074526297
 11
791.323390385
 21
152.6074526297
  0
LINE
  5
284
100
AcDbEntity
  8
RUNDUNGEN
100
AcDbLine
 62
7
  6
CONTINUOUS
 10
749.6261829991
 20
152.6074526297
 11
745.3384847701
 21
152.6074526297
  0
LINE
  5
285
100
AcDbEntity
  8
RUNDUNGEN
100
AcDbLine
 62
7
  6
CONTINUOUS
 10
757.0179899501
 20
152.7979776103
 11
783.9315834339
 21
152.7979776103
  0
LINE
  5
286
100
AcDbEntity
  8
0
100
AcDbLine
 62
7
  6
CONTINUOUS
 10
798.9286646229
 20
144.5991882988
 11
797.98188641
 21
144.7311031767
  0
LINE
  5
287
100
AcDbEntity
  8
0
100
AcDbLine
 62
7
  6
CONTINUOUS
 10
798.1171399981
 20
141.4332308598
 11
798.9286646229
 21
141.3013159819
  0
LINE
  5
288
100
AcDbEntity
  8
0
100
AcDbLine
 62
7
  6
CONTINUOUS
 10
787.8378278268
 20
138.6630180661
 11
788.5140988634
 21
138.5311031767
  0
LINE
  5
289
100
AcDbEntity
  8
0
100
AcDbLine
 62
7
  6
CONTINUOUS
 10
797.4408689616
 20
139.1906776585
 11
796.7645994729
 21
139.3225925364
  0
LINE
  5
28A
100
AcDbEntity
  8
0
100
AcDbLine
 62
7
  6
CONTINUOUS
 10
784.0507130403
 20
144.5991882988
 11
783.3744427777
 21
144.7311031767
  0
LINE
  5
28B
100
AcDbEntity
  8
0
100
AcDbLine
 62
7
  6
CONTINUOUS
 10
790.4076560631
 20
144.5991882988
 11
789.7313858005
 21
144.7311031767
  0
LINE
  5
28C
100
AcDbEntity
  8
0
100
AcDbLine
 62
7
  6
CONTINUOUS
 10
798.1171399981
 20
144.0715287872
 11
798.7934110347
 21
143.9396139093
  0
LINE
  5
28D
100
AcDbEntity
  8
0
100
AcDbLine
 62
7
  6
CONTINUOUS
 10
750.2608234222
 20
138.6630180661
 11
750.9066565092
 21
138.5311031767
  0
LINE
  5
28E
100
AcDbEntity
  8
0
100
AcDbLine
 62
7
  6
CONTINUOUS
 10
746.6441568788
 20
144.5991882988
 11
745.9983234222
 21
144.7311031767
  0
LINE
  5
28F
100
AcDbEntity
  8
0
100
AcDbLine
 62
7
  6
CONTINUOUS
 10
758.2691572483
 20
144.5991882988
 11
757.6233234222
 21
144.7311031767
  0
LINE
  5
290
100
AcDbEntity
  8
0
100
AcDbLine
 62
7
  6
CONTINUOUS
 10
788.5140988634
 20
139.3225925364
 11
787.9730821889
 21
139.4545074143
  0
LINE
  5
291
100
AcDbEntity
  8
0
100
AcDbLine
 62
7
  6
CONTINUOUS
 10
796.7645994729
 20
138.6630180661
 11
797.3056153734
 21
138.5311031767
  0
LINE
  5
292
100
AcDbEntity
  8
0
100
AcDbLine
 62
7
  6
CONTINUOUS
 10
789.7313858005
 20
143.9396139093
 11
790.272401701
 21
143.8076990314
  0
LINE
  5
293
100
AcDbEntity
  8
0
100
AcDbLine
 62
7
  6
CONTINUOUS
 10
750.9066565092
 20
139.3225925364
 11
750.3899903353
 21
139.4545074143
  0
LINE
  5
294
100
AcDbEntity
  8
0
100
AcDbLine
 62
7
  6
CONTINUOUS
 10
757.6233234222
 20
143.9396139093
 11
758.1399895962
 21
143.8076990314
  0
LINE
  5
295
100
AcDbEntity
  8
0
100
AcDbLine
 62
7
  6
CONTINUOUS
 10
746.1274899657
 20
144.0715287872
 11
746.5149899657
 21
143.9396139093
  0
LINE
  5
296
100
AcDbEntity
  8
RUNDUNGEN
100
AcDbLine
 62
7
  6
CONTINUOUS
 10
798.8208475314
 20
88.3512257878
 11
781.946315419
 21
96.7061694138
  0
LINE
  5
297
100
AcDbEntity
  8
RUNDUNGEN
100
AcDbLine
 62
7
  6
CONTINUOUS
 10
797.9903081226
 20
92.2979776103
 11
798.8208475314
 21
91.8867596937
  0
LINE
  5
298
100
AcDbEntity
  8
RUNDUNGEN
100
AcDbLine
 62
7
  6
CONTINUOUS
 10
827.134435755
 20
96.7258217131
 11
820.2535585829
 21
100.1326919296
  0
LINE
  5
299
100
AcDbEntity
  8
RUNDUNGEN
100
AcDbLine
 62
7
  6
CONTINUOUS
 10
827.134435755
 20
100.261355619
 11
820.2535585829
 21
103.6682258355
  0
LINE
  5
29A
100
AcDbEntity
  8
RUNDUNGEN
100
AcDbLine
 62
7
  6
CONTINUOUS
 10
715.6182921586
 20
92.4392943457
 11
719.0884295985
 21
88.9349651554
  0
LINE
  5
29B
100
AcDbEntity
  8
RUNDUNGEN
100
AcDbLine
 62
7
  6
CONTINUOUS
 10
728.4377255111
 20
79.4935493204
 11
746.5722661487
 21
61.1803265131
  0
LINE
  5
29C
100
AcDbEntity
  8
RUNDUNGEN
100
AcDbLine
 62
7
  6
CONTINUOUS
 10
777.0280030463
 20
30.4245049728
 11
784.294882616
 21
23.0860238206
  0
LINE
  5
29D
100
AcDbEntity
  8
RUNDUNGEN
100
AcDbLine
 62
7
  6
CONTINUOUS
 10
734.0562245071
 20
86.7641225107
 11
730.6721235326
 21
90.1815675062
  0
LINE
  5
29E
100
AcDbEntity
  8
0
100
AcDbLine
 62
7
  6
CONTINUOUS
 10
783.5096967528
 20
144.0715287872
 11
783.9154590652
 21
143.9396139093
  0
LINE
  5
29F
100
AcDbEntity
  8
0
100
AcDbLine
 62
7
  6
CONTINUOUS
 10
799.8754428358
 20
141.4332308598
 11
799.1991733471
 21
141.6970606156
  0
LINE
  5
2A0
100
AcDbEntity
  8
0
100
AcDbLine
 62
7
  6
CONTINUOUS
 10
787.2968119263
 20
138.9268478565
 11
787.8378278268
 21
138.6630180661
  0
LINE
  5
2A1
100
AcDbEntity
  8
0
100
AcDbLine
 62
7
  6
CONTINUOUS
 10
796.2235820245
 20
138.9268478565
 11
796.7645994729
 21
138.6630180661
  0
LINE
  5
2A2
100
AcDbEntity
  8
0
100
AcDbLine
 62
7
  6
CONTINUOUS
 10
796.7645994729
 20
139.3225925364
 11
796.4940907487
 21
139.4545074143
  0
LINE
  5
2A3
100
AcDbEntity
  8
0
100
AcDbLine
 62
7
  6
CONTINUOUS
 10
790.9486727376
 20
144.335358543
 11
790.4076560631
 21
144.5991882988
  0
LINE
  5
2A4
100
AcDbEntity
  8
0
100
AcDbLine
 62
7
  6
CONTINUOUS
 10
799.4696805234
 20
144.335358543
 11
798.9286646229
 21
144.5991882988
  0
LINE
  5
2A5
100
AcDbEntity
  8
0
100
AcDbLine
 62
7
  6
CONTINUOUS
 10
749.7441565092
 20
138.9268478565
 11
750.2608234222
 21
138.6630180661
  0
LINE
  5
2A6
100
AcDbEntity
  8
0
100
AcDbLine
 62
7
  6
CONTINUOUS
 10
758.7858234222
 20
144.335358543
 11
758.2691572483
 21
144.5991882988
  0
LINE
  5
2A7
100
AcDbEntity
  8
0
100
AcDbLine
 62
7
  6
CONTINUOUS
 10
750.3899903353
 20
139.4545074143
 11
750.0024903353
 21
139.7183372625
  0
LINE
  5
2A8
100
AcDbEntity
  8
0
100
AcDbLine
 62
7
  6
CONTINUOUS
 10
758.1399895962
 20
143.8076990314
 11
758.5274895962
 21
143.5438692756
  0
LINE
  5
2A9
100
AcDbEntity
  8
0
100
AcDbLine
 62
7
  6
CONTINUOUS
 10
747.1608234222
 20
144.2034436651
 11
746.6441568788
 21
144.5991882988
  0
LINE
  5
2AA
100
AcDbEntity
  8
RUNDUNGEN
100
AcDbLine
 62
7
  6
CONTINUOUS
 10
813.3896989578
 20
25.7574115244
 11
794.3773072354
 21
44.9571350062
  0
LINE
  5
2AB
100
AcDbEntity
  8
RUNDUNGEN
100
AcDbLine
 62
7
  6
CONTINUOUS
 10
813.3896989578
 20
29.2929454304
 11
794.3773072354
 21
48.4926689121
  0
LINE
  5
2AC
100
AcDbEntity
  8
0
100
AcDbLine
 62
7
  6
CONTINUOUS
 10
787.9730821889
 20
139.4545074143
 11
787.5673198765
 21
139.7183372625
  0
LINE
  5
2AD
100
AcDbEntity
  8
0
100
AcDbLine
 62
7
  6
CONTINUOUS
 10
795.8178197121
 20
139.1906776585
 11
796.2235820245
 21
138.9268478565
  0
LINE
  5
2AE
100
AcDbEntity
  8
0
100
AcDbLine
 62
7
  6
CONTINUOUS
 10
790.272401701
 20
143.8076990314
 11
790.6781640134
 21
143.5438692756
  0
LINE
  5
2AF
100
AcDbEntity
  8
0
100
AcDbLine
 62
7
  6
CONTINUOUS
 10
798.9286646229
 20
141.3013159819
 11
799.3344269352
 21
141.0374862261
  0
LINE
  5
2B0
100
AcDbEntity
  8
0
100
AcDbLine
 62
7
  6
CONTINUOUS
 10
798.7934110347
 20
143.9396139093
 11
799.1991733471
 21
143.6757841535
  0
LINE
  5
2B1
100
AcDbEntity
  8
0
100
AcDbLine
 62
7
  6
CONTINUOUS
 10
784.5917297148
 20
144.2034436651
 11
784.0507130403
 21
144.5991882988
  0
LINE
  5
2B2
100
AcDbEntity
  8
0
100
AcDbLine
 62
7
  6
CONTINUOUS
 10
749.2274903353
 20
139.4545074143
 11
749.7441565092
 21
138.9268478565
  0
LINE
  5
2B3
100
AcDbEntity
  8
0
100
AcDbLine
 62
7
  6
CONTINUOUS
 10
746.5149899657
 20
143.9396139093
 11
746.7733234222
 21
143.6757841535
  0
LINE
  5
2B4
100
AcDbEntity
  8
0
100
AcDbLine
 62
7
  6
CONTINUOUS
 10
766.2088803281
 20
77.9016580794
 11
769.0337204201
 21
74.4419496642
  0
LINE
  5
2B5
100
AcDbEntity
  8
0
100
AcDbLine
 62
7
  6
CONTINUOUS
 10
766.2088803281
 20
78.3612774872
 11
769.0337204201
 21
74.901569072
  0
LINE
  5
2B6
100
AcDbEntity
  8
0
100
AcDbLine
 62
7
  6
CONTINUOUS
 10
770.474786692
 20
74.4419496642
 11
767.5376734028
 21
78.0391641019
  0
LINE
  5
2B7
100
AcDbEntity
  8
0
100
AcDbLine
 62
7
  6
CONTINUOUS
 10
757.474786692
 20
212.1244586303
 11
748.3198764312
 21
209.6714078191
  0
LINE
  5
2B8
100
AcDbEntity
  8
0
100
AcDbLine
 62
7
  6
CONTINUOUS
 10
792.6296969528
 20
209.6714078191
 11
783.474786692
 21
212.1244586303
  0
LINE
  5
2B9
100
AcDbEntity
  8
0
100
AcDbLine
 62
7
  6
CONTINUOUS
 10
786.7557952518
 20
139.4545074143
 11
787.2968119263
 21
138.9268478565
  0
LINE
  5
2BA
100
AcDbEntity
  8
0
100
AcDbLine
 62
7
  6
CONTINUOUS
 10
783.9154590652
 20
143.9396139093
 11
784.1859674024
 21
143.6757841535
  0
LINE
  5
2BB
100
AcDbEntity
  8
0
100
AcDbLine
 62
7
  6
CONTINUOUS
 10
791.4896894121
 20
143.8076990314
 11
790.9486727376
 21
144.335358543
  0
LINE
  5
2BC
100
AcDbEntity
  8
0
100
AcDbLine
 62
7
  6
CONTINUOUS
 10
796.4940907487
 20
139.4545074143
 11
796.2235820245
 21
139.7183372625
  0
LINE
  5
2BD
100
AcDbEntity
  8
0
100
AcDbLine
 62
7
  6
CONTINUOUS
 10
800.0106979718
 20
143.8076990314
 11
799.4696805234
 21
144.335358543
  0
LINE
  5
2BE
100
AcDbEntity
  8
0
100
AcDbLine
 62
7
  6
CONTINUOUS
 10
759.3024895962
 20
143.8076990314
 11
758.7858234222
 21
144.335358543
  0
LINE
  5
2BF
100
AcDbEntity
  8
0
100
AcDbLine
 62
7
  6
CONTINUOUS
 10
747.5483234222
 20
143.6757841535
 11
747.1608234222
 21
144.2034436651
  0
LINE
  5
2C0
100
AcDbEntity
  8
RUNDUNGEN
100
AcDbLine
 62
7
  6
CONTINUOUS
 10
739.4747866823
 20
92.2979776261
 11
733.474786692
 21
102.0479776103
  0
LINE
  5
2C1
100
AcDbEntity
  8
0
100
AcDbLine
 62
7
  6
CONTINUOUS
 10
609.474786692
 20
664.7979776103
 11
609.474786692
 21
454.7979776103
  0
LINE
  5
2C2
100
AcDbEntity
  8
0
100
AcDbLine
 62
7
  6
CONTINUOUS
 10
784.9974916402
 20
143.6757841535
 11
784.5917297148
 21
144.2034436651
  0
LINE
  5
2C3
100
AcDbEntity
  8
0
100
AcDbLine
 62
7
  6
CONTINUOUS
 10
787.5673198765
 20
139.7183372625
 11
787.2968119263
 21
140.1140818961
  0
LINE
  5
2C4
100
AcDbEntity
  8
0
100
AcDbLine
 62
7
  6
CONTINUOUS
 10
750.0024903353
 20
139.7183372625
 11
749.7441565092
 21
140.1140818961
  0
LINE
  5
2C5
100
AcDbEntity
  8
0
100
AcDbLine
 62
7
  6
CONTINUOUS
 10
758.5274895962
 20
143.5438692756
 11
758.7858234222
 21
143.1481242724
  0
LINE
  5
2C6
100
AcDbEntity
  8
0
100
AcDbLine
 62
7
  6
CONTINUOUS
 10
645.474786692
 20
664.7979776103
 11
645.474786692
 21
454.7979776103
  0
LINE
  5
2C7
100
AcDbEntity
  8
0
100
AcDbLine
 62
7
  6
CONTINUOUS
 10
808.8482169008
 20
193.4528878711
 11
792.6296969528
 21
209.6714078191
  0
LINE
  5
2C8
100
AcDbEntity
  8
0
100
AcDbLine
 62
7
  6
CONTINUOUS
 10
795.5473125357
 20
139.5864222922
 11
795.8178197121
 21
139.1906776585
  0
LINE
  5
2C9
100
AcDbEntity
  8
0
100
AcDbLine
 62
7
  6
CONTINUOUS
 10
800.14595156
 20
141.0374862261
 11
799.8754428358
 21
141.4332308598
  0
LINE
  5
2CA
100
AcDbEntity
  8
0
100
AcDbLine
 62
7
  6
CONTINUOUS
 10
799.1991733471
 20
143.6757841535
 11
799.4696805234
 21
143.2800395198
  0
LINE
  5
2CB
100
AcDbEntity
  8
0
100
AcDbLine
 62
7
  6
CONTINUOUS
 10
748.9691568788
 20
139.9821670182
 11
749.2274903353
 21
139.4545074143
  0
LINE
  5
2CC
100
AcDbEntity
  8
0
100
AcDbLine
 62
7
  6
CONTINUOUS
 10
759.5608234222
 20
143.2800395198
 11
759.3024895962
 21
143.8076990314
  0
LINE
  5
2CD
100
AcDbEntity
  8
0
100
AcDbLine
 62
7
  6
CONTINUOUS
 10
747.8066568788
 20
138.5311031767
 11
746.6441568788
 21
141.5651457377
  0
LINE
  5
2CE
100
AcDbEntity
  8
0
100
AcDbLine
 62
7
  6
CONTINUOUS
 10
745.869156694
 20
141.3013159819
 11
746.9024899657
 21
138.5311031767
  0
LINE
  5
2CF
100
AcDbEntity
  8
0
100
AcDbLine
 62
7
  6
CONTINUOUS
 10
786.4852873015
 20
139.9821670182
 11
786.7557952518
 21
139.4545074143
  0
LINE
  5
2D0
100
AcDbEntity
  8
0
100
AcDbLine
 62
7
  6
CONTINUOUS
 10
796.2235820245
 20
139.7183372625
 11
796.0883284363
 21
139.9821670182
  0
LINE
  5
2D1
100
AcDbEntity
  8
0
100
AcDbLine
 62
7
  6
CONTINUOUS
 10
799.3344269352
 20
141.0374862261
 11
799.6049356594
 21
140.5098265298
  0
LINE
  5
2D2
100
AcDbEntity
  8
0
100
AcDbLine
 62
7
  6
CONTINUOUS
 10
785.2680003644
 20
138.5311031767
 11
784.0507130403
 21
141.5651457377
  0
LINE
  5
2D3
100
AcDbEntity
  8
0
100
AcDbLine
 62
7
  6
CONTINUOUS
 10
783.2391884156
 20
141.3013159819
 11
784.3212213776
 21
138.5311031767
  0
LINE
  5
2D4
100
AcDbEntity
  8
0
100
AcDbLine
 62
7
  6
CONTINUOUS
 10
746.7733234222
 20
143.6757841535
 11
746.9024899657
 21
143.2800395198
  0
LINE
  5
2D5
100
AcDbEntity
  8
0
100
AcDbLine
 62
7
  6
CONTINUOUS
 10
747.6774899657
 20
143.2800395198
 11
747.5483234222
 21
143.6757841535
  0
LINE
  5
2D6
100
AcDbEntity
  8
0
100
AcDbLine
 62
7
  6
CONTINUOUS
 10
726.1649661705
 20
171.2979776103
 11
732.1013564832
 21
149.1430673496
  0
LINE
  5
2D7
100
AcDbEntity
  8
0
100
AcDbLine
 62
7
  6
CONTINUOUS
 10
749.7441565092
 20
140.1140818961
 11
749.6149903353
 21
140.6417414077
  0
LINE
  5
2D8
100
AcDbEntity
  8
0
100
AcDbLine
 62
7
  6
CONTINUOUS
 10
732.1013564832
 20
132.65922821
 11
733.474786692
 21
124.8701184363
  0
LINE
  5
2D9
100
AcDbEntity
  8
RUNDUNGEN
100
AcDbLine
 62
7
  6
CONTINUOUS
 10
714.5332044243
 20
94.8727730718
 11
714.5332044243
 21
98.4083069777
  0
LINE
  5
2DA
100
AcDbEntity
  8
0
100
AcDbLine
 62
7
  6
CONTINUOUS
 10
784.1859674024
 20
143.6757841535
 11
784.3212213776
 21
143.2800395198
  0
LINE
  5
2DB
100
AcDbEntity
  8
0
100
AcDbLine
 62
7
  6
CONTINUOUS
 10
785.1327460023
 20
143.2800395198
 11
784.9974916402
 21
143.6757841535
  0
LINE
  5
2DC
100
AcDbEntity
  8
0
100
AcDbLine
 62
7
  6
CONTINUOUS
 10
790.6781640134
 20
143.5438692756
 11
790.8134183755
 21
143.1481242724
  0
LINE
  5
2DD
100
AcDbEntity
  8
0
100
AcDbLine
 62
7
  6
CONTINUOUS
 10
795.4120573997
 20
139.9821670182
 11
795.5473125357
 21
139.5864222922
  0
LINE
  5
2DE
100
AcDbEntity
  8
0
100
AcDbLine
 62
7
  6
CONTINUOUS
 10
758.7858234222
 20
143.1481242724
 11
758.9149895962
 21
142.6204647608
  0
LINE
  5
2DF
100
AcDbEntity
  8
0
100
AcDbLine
 62
7
  6
CONTINUOUS
 10
748.8399899657
 20
140.6417414077
 11
748.9691568788
 21
139.9821670182
  0
LINE
  5
2E0
100
AcDbEntity
  8
0
100
AcDbLine
 62
7
  6
CONTINUOUS
 10
759.6899895962
 20
142.6204647608
 11
759.5608234222
 21
143.2800395198
  0
LINE
  5
2E1
100
AcDbEntity
  8
RUNDUNGEN
100
AcDbLine
 62
7
  6
CONTINUOUS
 10
726.474786692
 20
14.7621373321
 11
726.474786692
 21
26.8594667043
  0
LINE
  5
2E2
100
AcDbEntity
  8
RUNDUNGEN
100
AcDbLine
 62
7
  6
CONTINUOUS
 10
728.0850719974
 20
80.2844299063
 11
728.0850719974
 21
83.8199638123
  0
LINE
  5
2E3
100
AcDbEntity
  8
0
100
AcDbLine
 62
7
  6
CONTINUOUS
 10
732.1013564832
 20
132.65922821
 11
732.1013564832
 21
149.1430673496
  0
LINE
  5
2E4
100
AcDbEntity
  8
RUNDUNGEN
100
AcDbLine
 62
7
  6
CONTINUOUS
 10
733.474786692
 20
102.0479776103
 11
733.474786692
 21
144.7979776103
  0
LINE
  5
2E5
100
AcDbEntity
  8
RUNDUNGEN
100
AcDbLine
 62
7
  6
CONTINUOUS
 10
736.474786692
 20
10.8730500356
 11
736.474786692
 21
16.8834576757
  0
LINE
  5
2E6
100
AcDbEntity
  8
0
100
AcDbLine
 62
7
  6
CONTINUOUS
 10
742.8983234222
 20
144.7311031767
 11
742.8983234222
 21
138.5311031767
  0
LINE
  5
2E7
100
AcDbEntity
  8
0
100
AcDbLine
 62
7
  6
CONTINUOUS
 10
743.6733234222
 20
138.5311031767
 11
743.6733234222
 21
141.3013159819
  0
LINE
  5
2E8
100
AcDbEntity
  8
0
100
AcDbLine
 62
7
  6
CONTINUOUS
 10
743.6733234222
 20
142.0928052493
 11
743.6733234222
 21
144.0715287872
  0
LINE
  5
2E9
100
AcDbEntity
  8
0
100
AcDbLine
 62
7
  6
CONTINUOUS
 10
787.2968119263
 20
140.1140818961
 11
787.1615575642
 21
140.6417414077
  0
LINE
  5
2EA
100
AcDbEntity
  8
0
100
AcDbLine
 62
7
  6
CONTINUOUS
 10
800.2812051482
 20
140.5098265298
 11
800.14595156
 21
141.0374862261
  0
LINE
  5
2EB
100
AcDbEntity
  8
0
100
AcDbLine
 62
7
  6
CONTINUOUS
 10
800.14595156
 20
143.2800395198
 11
800.0106979718
 21
143.8076990314
  0
LINE
  5
2EC
100
AcDbEntity
  8
0
100
AcDbLine
 62
7
  6
CONTINUOUS
 10
786.3500329394
 20
140.6417414077
 11
786.4852873015
 21
139.9821670182
  0
LINE
  5
2ED
100
AcDbEntity
  8
0
100
AcDbLine
 62
7
  6
CONTINUOUS
 10
791.6249430002
 20
143.1481242724
 11
791.4896894121
 21
143.8076990314
  0
LINE
  5
2EE
100
AcDbEntity
  8
0
100
AcDbLine
 62
7
  6
CONTINUOUS
 10
746.9024899657
 20
143.2800395198
 11
746.9024899657
 21
142.8842945166
  0
LINE
  5
2EF
100
AcDbEntity
  8
0
100
AcDbLine
 62
7
  6
CONTINUOUS
 10
747.6774899657
 20
142.7523796387
 11
747.6774899657
 21
143.2800395198
  0
LINE
  5
2F0
100
AcDbEntity
  8
0
100
AcDbLine
 62
7
  6
CONTINUOUS
 10
748.8399899657
 20
144.7311031767
 11
748.8399899657
 21
140.6417414077
  0
LINE
  5
2F1
100
AcDbEntity
  8
KONSTRUKTIONSELEMENTE
100
AcDbLine
 62
7
  6
CONTINUOUS
 10
749.0346374388
 20
114.2979776103
 11
749.0346374388
 21
116.7979776103
  0
LINE
  5
2F2
100
AcDbEntity
  8
0
100
AcDbLine
 62
7
  6
CONTINUOUS
 10
749.6149903353
 20
140.6417414077
 11
749.6149903353
 21
144.7311031767
  0
LINE
  5
2F3
100
AcDbEntity
  8
0
100
AcDbLine
 62
7
  6
CONTINUOUS
 10
751.5113386362
 20
81.0604691361
 11
751.5113386362
 21
74.9934929536
  0
LINE
  5
2F4
100
AcDbEntity
  8
0
100
AcDbLine
 62
7
  6
CONTINUOUS
 10
752.7149903353
 20
144.7311031767
 11
752.7149903353
 21
140.6417414077
  0
LINE
  5
2F5
100
AcDbEntity
  8
0
100
AcDbLine
 62
7
  6
CONTINUOUS
 10
753.4899903353
 20
140.6417414077
 11
753.4899903353
 21
144.7311031767
  0
LINE
  5
2F6
100
AcDbEntity
  8
0
100
AcDbLine
 62
7
  6
CONTINUOUS
 10
754.0463386362
 20
75.8208078876
 11
754.0463386362
 21
77.9350571633
  0
LINE
  5
2F7
100
AcDbEntity
  8
0
100
AcDbLine
 62
7
  6
CONTINUOUS
 10
754.0463386362
 20
78.5785243342
 11
754.0463386362
 21
80.6927736099
  0
LINE
  5
2F8
100
AcDbEntity
  8
0
100
AcDbLine
 62
7
  6
CONTINUOUS
 10
754.5233234222
 20
144.7311031767
 11
754.5233234222
 21
138.5311031767
  0
LINE
  5
2F9
100
AcDbEntity
  8
0
100
AcDbLine
 62
7
  6
CONTINUOUS
 10
754.6313386362
 20
79.984959722
 11
754.6313386362
 21
78.8267188144
  0
LINE
  5
2FA
100
AcDbEntity
  8
0
100
AcDbLine
 62
7
  6
CONTINUOUS
 10
754.6313386362
 20
77.2272432753
 11
754.6313386362
 21
76.0690023678
  0
LINE
  5
2FB
100
AcDbEntity
  8
0
100
AcDbLine
 62
7
  6
CONTINUOUS
 10
755.1188386362
 20
77.1720889464
 11
755.1188386362
 21
77.3375519332
  0
LINE
  5
2FC
100
AcDbEntity
  8
0
100
AcDbLine
 62
7
  6
CONTINUOUS
 10
755.1188386362
 20
77.7512094002
 11
755.1188386362
 21
78.3027526895
  0
LINE
  5
2FD
100
AcDbEntity
  8
0
100
AcDbLine
 62
7
  6
CONTINUOUS
 10
755.1188386362
 20
78.7164101565
 11
755.1188386362
 21
79.3414925511
  0
LINE
  5
2FE
100
AcDbEntity
  8
0
100
AcDbLine
 62
7
  6
CONTINUOUS
 10
755.2983234222
 20
139.3225925364
 11
755.2983234222
 21
143.9396139093
  0
LINE
  5
2FF
100
AcDbEntity
  8
0
100
AcDbLine
 62
7
  6
CONTINUOUS
 10
755.7038386362
 20
78.3027526895
 11
755.7038386362
 21
77.7512094002
  0
LINE
  5
300
100
AcDbEntity
  8
0
100
AcDbLine
 62
7
  6
CONTINUOUS
 10
755.7038386362
 20
79.3414925511
 11
755.7038386362
 21
78.7164101565
  0
LINE
  5
301
100
AcDbEntity
  8
0
100
AcDbLine
 62
7
  6
CONTINUOUS
 10
755.7038386362
 20
77.3375519332
 11
755.7038386362
 21
77.1720889464
  0
LINE
  5
302
100
AcDbEntity
  8
0
100
AcDbLine
 62
7
  6
CONTINUOUS
 10
756.1913386362
 20
76.0690023678
 11
756.1913386362
 21
77.2272432753
  0
LINE
  5
303
100
AcDbEntity
  8
0
100
AcDbLine
 62
7
  6
CONTINUOUS
 10
756.1913386362
 20
78.8267188144
 11
756.1913386362
 21
79.984959722
  0
LINE
  5
304
100
AcDbEntity
  8
0
100
AcDbLine
 62
7
  6
CONTINUOUS
 10
756.7763386362
 20
80.6927736099
 11
756.7763386362
 21
78.5785243342
  0
LINE
  5
305
100
AcDbEntity
  8
0
100
AcDbLine
 62
7
  6
CONTINUOUS
 10
756.7763386362
 20
77.9350571633
 11
756.7763386362
 21
75.8208078876
  0
LINE
  5
306
100
AcDbEntity
  8
0
100
AcDbLine
 62
7
  6
CONTINUOUS
 10
757.474786692
 20
342.7395786866
 11
757.474786692
 21
176.8563765341
  0
LINE
  5
307
100
AcDbEntity
  8
0
100
AcDbLine
 62
7
  6
CONTINUOUS
 10
758.9149895962
 20
142.6204647608
 11
758.9149895962
 21
140.6417414077
  0
LINE
  5
308
100
AcDbEntity
  8
0
100
AcDbLine
 62
7
  6
CONTINUOUS
 10
759.3113386362
 20
74.9934929536
 11
759.3113386362
 21
81.0604691361
  0
LINE
  5
309
100
AcDbEntity
  8
0
100
AcDbLine
 62
7
  6
CONTINUOUS
 10
759.6899895962
 20
140.6417414077
 11
759.6899895962
 21
142.6204647608
  0
LINE
  5
30A
100
AcDbEntity
  8
0
100
AcDbLine
 62
7
  6
CONTINUOUS
 10
761.8408803281
 20
81.6120124255
 11
761.8408803281
 21
80.7755051033
  0
LINE
  5
30B
100
AcDbEntity
  8
0
100
AcDbLine
 62
7
  6
CONTINUOUS
 10
761.8408803281
 20
80.0033444983
 11
761.8408803281
 21
74.4419496642
  0
LINE
  5
30C
100
AcDbEntity
  8
0
100
AcDbLine
 62
7
  6
CONTINUOUS
 10
763.074786692
 20
114.2979776103
 11
763.074786692
 21
99.4092316509
  0
LINE
  5
30D
100
AcDbEntity
  8
KONSTRUKTIONSELEMENTE
100
AcDbLine
 62
7
  6
CONTINUOUS
 10
763.074786692
 20
114.2979776103
 11
763.074786692
 21
131.4979776103
  0
LINE
  5
30E
100
AcDbEntity
  8
0
100
AcDbLine
 62
7
  6
CONTINUOUS
 10
763.0888803281
 20
74.4419496642
 11
763.0888803281
 21
78.3612774872
  0
LINE
  5
30F
100
AcDbEntity
  8
0
100
AcDbLine
 62
7
  6
CONTINUOUS
 10
763.0888803281
 20
78.7841273423
 11
763.0888803281
 21
80.0033444983
  0
LINE
  5
310
100
AcDbEntity
  8
0
100
AcDbLine
 62
7
  6
CONTINUOUS
 10
766.2088803281
 20
77.9016580794
 11
766.2088803281
 21
78.3612774872
  0
LINE
  5
311
100
AcDbEntity
  8
KONSTRUKTIONSELEMENTE
100
AcDbLine
 62
7
  6
CONTINUOUS
 10
766.974786692
 20
122.8729776103
 11
766.974786692
 21
123.3030282442
  0
LINE
  5
312
100
AcDbEntity
  8
KONSTRUKTIONSELEMENTE
100
AcDbLine
 62
7
  6
CONTINUOUS
 10
766.974786692
 20
153.1462767242
 11
766.974786692
 21
154.4157266164
  0
LINE
  5
313
100
AcDbEntity
  8
0
100
AcDbLine
 62
7
  6
CONTINUOUS
 10
767.5376734028
 20
78.0391641019
 11
767.5376734028
 21
78.4987835097
  0
LINE
  5
314
100
AcDbEntity
  8
KONSTRUKTIONSELEMENTE
100
AcDbLine
 62
7
  6
CONTINUOUS
 10
767.974786692
 20
91.8931996324
 11
767.974786692
 21
104.5229776103
  0
LINE
  5
315
100
AcDbEntity
  8
KONSTRUKTIONSELEMENTE
100
AcDbLine
 62
7
  6
CONTINUOUS
 10
767.974786692
 20
153.057936205
 11
767.974786692
 21
164.0475550081
  0
LINE
  5
316
100
AcDbEntity
  8
0
100
AcDbLine
 62
7
  6
CONTINUOUS
 10
768.1369970468
 20
80.2394356306
 11
768.1369970468
 21
79.7798162228
  0
LINE
  5
317
100
AcDbEntity
  8
KONSTRUKTIONSELEMENTE
100
AcDbLine
 62
7
  6
CONTINUOUS
 10
768.224786692
 20
122.8729776103
 11
768.224786692
 21
138.5434613405
  0
LINE
  5
318
100
AcDbEntity
  8
0
100
AcDbLine
 62
7
  6
CONTINUOUS
 10
769.0337204201
 20
74.4419496642
 11
769.0337204201
 21
74.901569072
  0
LINE
  5
319
100
AcDbEntity
  8
0
100
AcDbLine
 62
7
  6
CONTINUOUS
 10
771.2008803281
 20
81.6120124255
 11
771.2008803281
 21
77.0754175751
  0
LINE
  5
31A
100
AcDbEntity
  8
0
100
AcDbLine
 62
7
  6
CONTINUOUS
 10
772.4488803281
 20
77.0754175751
 11
772.4488803281
 21
81.6120124255
  0
LINE
  5
31B
100
AcDbEntity
  8
KONSTRUKTIONSELEMENTE
100
AcDbLine
 62
7
  6
CONTINUOUS
 10
772.724786692
 20
122.8729776103
 11
772.724786692
 21
138.5434613405
  0
LINE
  5
31C
100
AcDbEntity
  8
KONSTRUKTIONSELEMENTE
100
AcDbLine
 62
7
  6
CONTINUOUS
 10
772.974786692
 20
91.8931996324
 11
772.974786692
 21
104.5229776103
  0
LINE
  5
31D
100
AcDbEntity
  8
KONSTRUKTIONSELEMENTE
100
AcDbLine
 62
7
  6
CONTINUOUS
 10
772.974786692
 20
153.057936205
 11
772.974786692
 21
164.0475550081
  0
LINE
  5
31E
100
AcDbEntity
  8
KONSTRUKTIONSELEMENTE
100
AcDbLine
 62
7
  6
CONTINUOUS
 10
773.974786692
 20
154.4157266164
 11
773.974786692
 21
153.1462767242
  0
LINE
  5
31F
100
AcDbEntity
  8
KONSTRUKTIONSELEMENTE
100
AcDbLine
 62
7
  6
CONTINUOUS
 10
773.974786692
 20
123.3030282442
 11
773.974786692
 21
122.8729776103
  0
LINE
  5
320
100
AcDbEntity
  8
0
100
AcDbLine
 62
7
  6
CONTINUOUS
 10
814.7846072136
 20
171.2979776103
 11
808.8482169008
 21
193.4528878711
  0
LINE
  5
321
100
AcDbEntity
  8
0
100
AcDbLine
 62
7
  6
CONTINUOUS
 10
777.3552562969
 20
81.6120124255
 11
777.3552562969
 21
77.0754175751
  0
LINE
  5
322
100
AcDbEntity
  8
0
100
AcDbLine
 62
7
  6
CONTINUOUS
 10
777.874786692
 20
99.4092316509
 11
777.874786692
 21
114.2979776103
  0
LINE
  5
323
100
AcDbEntity
  8
KONSTRUKTIONSELEMENTE
100
AcDbLine
 62
7
  6
CONTINUOUS
 10
777.874786692
 20
114.2979776103
 11
777.874786692
 21
131.4979777312
  0
LINE
  5
324
100
AcDbEntity
  8
0
100
AcDbLine
 62
7
  6
CONTINUOUS
 10
778.234786692
 20
144.7311031767
 11
778.234786692
 21
138.5311031767
  0
LINE
  5
325
100
AcDbEntity
  8
0
100
AcDbLine
 62
7
  6
CONTINUOUS
 10
778.6032562969
 20
77.0754175751
 11
778.6032562969
 21
81.6120124255
  0
LINE
  5
326
100
AcDbEntity
  8
0
100
AcDbLine
 62
7
  6
CONTINUOUS
 10
779.0463113168
 20
138.5311031767
 11
779.0463113168
 21
144.7311031767
  0
LINE
  5
327
100
AcDbEntity
  8
0
100
AcDbLine
 62
7
  6
CONTINUOUS
 10
780.1283440853
 20
144.7311031767
 11
780.1283440853
 21
138.5311031767
  0
LINE
  5
328
100
AcDbEntity
  8
0
100
AcDbLine
 62
7
  6
CONTINUOUS
 10
780.93986871
 20
138.5311031767
 11
780.93986871
 21
141.3013159819
  0
LINE
  5
329
100
AcDbEntity
  8
0
100
AcDbLine
 62
7
  6
CONTINUOUS
 10
780.93986871
 20
142.0928052493
 11
780.93986871
 21
144.0715287872
  0
LINE
  5
32A
100
AcDbEntity
  8
0
100
AcDbLine
 62
7
  6
CONTINUOUS
 10
781.3332562969
 20
81.6120124255
 11
781.3332562969
 21
80.7295431626
  0
LINE
  5
32B
100
AcDbEntity
  8
0
100
AcDbLine
 62
7
  6
CONTINUOUS
 10
781.3332562969
 20
79.9573825575
 11
781.3332562969
 21
74.4419496642
  0
LINE
  5
32C
100
AcDbEntity
  8
0
100
AcDbLine
 62
7
  6
CONTINUOUS
 10
782.5812562969
 20
75.3611884798
 11
782.5812562969
 21
79.9573825575
  0
LINE
  5
32D
100
AcDbEntity
  8
0
100
AcDbLine
 62
7
  6
CONTINUOUS
 10
783.474786692
 20
342.7395786866
 11
783.474786692
 21
176.8563765341
  0
LINE
  5
32E
100
AcDbEntity
  8
0
100
AcDbLine
 62
7
  6
CONTINUOUS
 10
784.3212213776
 20
143.2800395198
 11
784.3212213776
 21
142.8842945166
  0
LINE
  5
32F
100
AcDbEntity
  8
0
100
AcDbLine
 62
7
  6
CONTINUOUS
 10
785.1327460023
 20
142.7523796387
 11
785.1327460023
 21
143.2800395198
  0
LINE
  5
330
100
AcDbEntity
  8
0
100
AcDbLine
 62
7
  6
CONTINUOUS
 10
786.3500329394
 20
142.6204647608
 11
786.3500329394
 21
140.6417414077
  0
LINE
  5
331
100
AcDbEntity
  8
0
100
AcDbLine
 62
7
  6
CONTINUOUS
 10
787.1615575642
 20
140.6417414077
 11
787.1615575642
 21
142.6204647608
  0
LINE
  5
332
100
AcDbEntity
  8
0
100
AcDbLine
 62
7
  6
CONTINUOUS
 10
787.9536541756
 20
78.5049852289
 11
787.9536541756
 21
78.0453658212
  0
LINE
  5
333
100
AcDbEntity
  8
0
100
AcDbLine
 62
7
  6
CONTINUOUS
 10
789.5961314384
 20
141.9608903714
 11
789.5961314384
 21
141.169401104
  0
LINE
  5
334
100
AcDbEntity
  8
0
100
AcDbLine
 62
7
  6
CONTINUOUS
 10
790.8134183755
 20
141.169401104
 11
790.8134183755
 21
140.1140818961
  0
LINE
  5
335
100
AcDbEntity
  8
0
100
AcDbLine
 62
7
  6
CONTINUOUS
 10
791.6249430002
 20
139.9821670182
 11
791.6249430002
 21
141.9608903714
  0
LINE
  5
336
100
AcDbEntity
  8
KONSTRUKTIONSELEMENTE
100
AcDbLine
 62
7
  6
CONTINUOUS
 10
791.9149359452
 20
114.2979776103
 11
791.9149359452
 21
116.7979776103
  0
LINE
  5
337
100
AcDbEntity
  8
0
100
AcDbLine
 62
7
  6
CONTINUOUS
 10
792.7069763492
 20
143.8076990314
 11
792.7069763492
 21
142.7523796387
  0
LINE
  5
338
100
AcDbEntity
  8
0
100
AcDbLine
 62
7
  6
CONTINUOUS
 10
793.5185009739
 20
143.6757841535
 11
793.5185009739
 21
138.5311031767
  0
LINE
  5
339
100
AcDbEntity
  8
0
100
AcDbLine
 62
7
  6
CONTINUOUS
 10
794.3300255986
 20
138.5311031767
 11
794.3300255986
 21
144.7311031767
  0
LINE
  5
33A
100
AcDbEntity
  8
0
100
AcDbLine
 62
7
  6
CONTINUOUS
 10
797.5761240976
 20
141.9608903714
 11
797.5761240976
 21
141.4332308598
  0
LINE
  5
33B
100
AcDbEntity
  8
0
100
AcDbLine
 62
7
  6
CONTINUOUS
 10
799.4696805234
 20
143.2800395198
 11
799.4696805234
 21
143.0162093945
  0
LINE
  5
33C
100
AcDbEntity
  8
0
100
AcDbLine
 62
7
  6
CONTINUOUS
 10
799.6049356594
 20
140.5098265298
 11
799.6049356594
 21
139.9821670182
  0
LINE
  5
33D
100
AcDbEntity
  8
0
100
AcDbLine
 62
7
  6
CONTINUOUS
 10
800.14595156
 20
143.0162093945
 11
800.14595156
 21
143.2800395198
  0
LINE
  5
33E
100
AcDbEntity
  8
0
100
AcDbLine
 62
7
  6
CONTINUOUS
 10
800.2812051482
 20
139.9821670182
 11
800.2812051482
 21
140.5098265298
  0
LINE
  5
33F
100
AcDbEntity
  8
0
100
AcDbLine
 62
7
  6
CONTINUOUS
 10
732.1013564832
 20
193.4528878711
 11
726.1649661705
 21
171.2979776103
  0
LINE
  5
340
100
AcDbEntity
  8
RUNDUNGEN
100
AcDbLine
 62
7
  6
CONTINUOUS
 10
804.474786692
 20
16.8834576757
 11
804.474786692
 21
10.8730500356
  0
LINE
  5
341
100
AcDbEntity
  8
RUNDUNGEN
100
AcDbLine
 62
7
  6
CONTINUOUS
 10
807.474786692
 20
102.0479776103
 11
807.474786692
 21
144.7979776103
  0
LINE
  5
342
100
AcDbEntity
  8
0
100
AcDbLine
 62
7
  6
CONTINUOUS
 10
808.8482169008
 20
132.65922821
 11
808.8482169008
 21
149.1430673496
  0
LINE
  5
343
100
AcDbEntity
  8
RUNDUNGEN
100
AcDbLine
 62
7
  6
CONTINUOUS
 10
814.474786692
 20
14.7621373321
 11
814.474786692
 21
26.8594667043
  0
LINE
  5
344
100
AcDbEntity
  8
RUNDUNGEN
100
AcDbLine
 62
7
  6
CONTINUOUS
 10
827.9872828823
 20
95.5673657824
 11
827.9872828823
 21
99.1028996884
  0
LINE
  5
345
100
AcDbEntity
  8
0
100
AcDbLine
 62
7
  6
CONTINUOUS
 10
753.3608234222
 20
139.9821670182
 11
753.4899903353
 21
140.6417414077
  0
LINE
  5
346
100
AcDbEntity
  8
0
100
AcDbLine
 62
7
  6
CONTINUOUS
 10
759.5608234222
 20
139.9821670182
 11
759.6899895962
 21
140.6417414077
  0
LINE
  5
347
100
AcDbEntity
  8
0
100
AcDbLine
 62
7
  6
CONTINUOUS
 10
752.7149903353
 20
140.6417414077
 11
752.5858234222
 21
140.1140818961
  0
LINE
  5
348
100
AcDbEntity
  8
0
100
AcDbLine
 62
7
  6
CONTINUOUS
 10
758.9149895962
 20
140.6417414077
 11
758.7858234222
 21
140.1140818961
  0
LINE
  5
349
100
AcDbEntity
  8
0
100
AcDbLine
 62
7
  6
CONTINUOUS
 10
808.8482169008
 20
132.65922821
 11
807.474786692
 21
124.8701184363
  0
LINE
  5
34A
100
AcDbEntity
  8
0
100
AcDbLine
 62
7
  6
CONTINUOUS
 10
786.4852873015
 20
143.2800395198
 11
786.3500329394
 21
142.6204647608
  0
LINE
  5
34B
100
AcDbEntity
  8
0
100
AcDbLine
 62
7
  6
CONTINUOUS
 10
787.1615575642
 20
142.6204647608
 11
787.2968119263
 21
143.1481242724
  0
LINE
  5
34C
100
AcDbEntity
  8
0
100
AcDbLine
 62
7
  6
CONTINUOUS
 10
791.4896894121
 20
139.4545074143
 11
791.6249430002
 21
139.9821670182
  0
LINE
  5
34D
100
AcDbEntity
  8
0
100
AcDbLine
 62
7
  6
CONTINUOUS
 10
746.9024899657
 20
142.8842945166
 11
746.7733234222
 21
142.4885498829
  0
LINE
  5
34E
100
AcDbEntity
  8
0
100
AcDbLine
 62
7
  6
CONTINUOUS
 10
747.5483234222
 20
142.3566350051
 11
747.6774899657
 21
142.7523796387
  0
LINE
  5
34F
100
AcDbEntity
  8
0
100
AcDbLine
 62
7
  6
CONTINUOUS
 10
795.6825661239
 20
143.8076990314
 11
795.5473125357
 21
143.2800395198
  0
LINE
  5
350
100
AcDbEntity
  8
0
100
AcDbLine
 62
7
  6
CONTINUOUS
 10
800.0106979718
 20
142.4885498829
 11
800.14595156
 21
143.0162093945
  0
LINE
  5
351
100
AcDbEntity
  8
0
100
AcDbLine
 62
7
  6
CONTINUOUS
 10
808.8482169008
 20
149.1430673496
 11
814.7846072136
 21
171.2979776103
  0
LINE
  5
352
100
AcDbEntity
  8
0
100
AcDbLine
 62
7
  6
CONTINUOUS
 10
784.3212213776
 20
142.8842945166
 11
784.1859674024
 21
142.4885498829
  0
LINE
  5
353
100
AcDbEntity
  8
0
100
AcDbLine
 62
7
  6
CONTINUOUS
 10
784.9974916402
 20
142.3566350051
 11
785.1327460023
 21
142.7523796387
  0
LINE
  5
354
100
AcDbEntity
  8
0
100
AcDbLine
 62
7
  6
CONTINUOUS
 10
790.8134183755
 20
140.1140818961
 11
790.6781640134
 21
139.7183372625
  0
LINE
  5
355
100
AcDbEntity
  8
0
100
AcDbLine
 62
7
  6
CONTINUOUS
 10
800.14595156
 20
139.5864222922
 11
800.2812051482
 21
139.9821670182
  0
LINE
  5
356
100
AcDbEntity
  8
0
100
AcDbLine
 62
7
  6
CONTINUOUS
 10
753.1024903353
 20
139.4545074143
 11
753.3608234222
 21
139.9821670182
  0
LINE
  5
357
100
AcDbEntity
  8
0
100
AcDbLine
 62
7
  6
CONTINUOUS
 10
759.3024895962
 20
139.4545074143
 11
759.5608234222
 21
139.9821670182
  0
LINE
  5
358
100
AcDbEntity
  8
0
100
AcDbLine
 62
7
  6
CONTINUOUS
 10
895.474786692
 20
454.7979776103
 11
895.474786692
 21
664.7979776103
  0
LINE
  5
359
100
AcDbEntity
  8
0
100
AcDbLine
 62
7
  6
CONTINUOUS
 10
786.7557952518
 20
143.8076990314
 11
786.4852873015
 21
143.2800395198
  0
LINE
  5
35A
100
AcDbEntity
  8
0
100
AcDbLine
 62
7
  6
CONTINUOUS
 10
752.5858234222
 20
140.1140818961
 11
752.3274903353
 21
139.7183372625
  0
LINE
  5
35B
100
AcDbEntity
  8
0
100
AcDbLine
 62
7
  6
CONTINUOUS
 10
758.7858234222
 20
140.1140818961
 11
758.5274895962
 21
139.7183372625
  0
LINE
  5
35C
100
AcDbEntity
  8
0
100
AcDbLine
 62
7
  6
CONTINUOUS
 10
747.1608234222
 20
141.8289754935
 11
747.5483234222
 21
142.3566350051
  0
LINE
  5
35D
100
AcDbEntity
  8
0
100
AcDbLine
 62
7
  6
CONTINUOUS
 10
748.3198764312
 20
209.6714078191
 11
732.1013564832
 21
193.4528878711
  0
LINE
  5
35E
100
AcDbEntity
  8
0
100
AcDbLine
 62
7
  6
CONTINUOUS
 10
931.474786692
 20
454.7979776103
 11
931.474786692
 21
664.7979776103
  0
LINE
  5
35F
100
AcDbEntity
  8
0
100
AcDbLine
 62
7
  6
CONTINUOUS
 10
799.4696805234
 20
143.0162093945
 11
799.1991733471
 21
142.4885498829
  0
LINE
  5
360
100
AcDbEntity
  8
0
100
AcDbLine
 62
7
  6
CONTINUOUS
 10
799.6049356594
 20
139.9821670182
 11
799.4696805234
 21
139.7183372625
  0
LINE
  5
361
100
AcDbEntity
  8
0
100
AcDbLine
 62
7
  6
CONTINUOUS
 10
787.2968119263
 20
143.1481242724
 11
787.5673198765
 21
143.5438692756
  0
LINE
  5
362
100
AcDbEntity
  8
0
100
AcDbLine
 62
7
  6
CONTINUOUS
 10
796.2235820245
 20
143.2800395198
 11
796.4940907487
 21
143.6757841535
  0
LINE
  5
363
100
AcDbEntity
  8
0
100
AcDbLine
 62
7
  6
CONTINUOUS
 10
746.7733234222
 20
142.4885498829
 11
746.5149899657
 21
142.2247201272
  0
LINE
  5
364
100
AcDbEntity
  8
RUNDUNGEN
100
AcDbLine
 62
7
  6
CONTINUOUS
 10
807.474786692
 20
102.0479776103
 11
801.474786692
 21
92.2979776103
  0
LINE
  5
365
100
AcDbEntity
  8
0
100
AcDbLine
 62
7
  6
CONTINUOUS
 10
799.7401892476
 20
142.0928052493
 11
800.0106979718
 21
142.4885498829
  0
LINE
  5
366
100
AcDbEntity
  8
0
100
AcDbLine
 62
7
  6
CONTINUOUS
 10
799.8754428358
 20
139.1906776585
 11
800.14595156
 21
139.5864222922
  0
LINE
  5
367
100
AcDbEntity
  8
0
100
AcDbLine
 62
7
  6
CONTINUOUS
 10
784.5917297148
 20
141.8289754935
 11
784.9974916402
 21
142.3566350051
  0
LINE
  5
368
100
AcDbEntity
  8
0
100
AcDbLine
 62
7
  6
CONTINUOUS
 10
793.5185009739
 20
144.7311031767
 11
792.7069763492
 21
143.8076990314
  0
LINE
  5
369
100
AcDbEntity
  8
0
100
AcDbLine
 62
7
  6
CONTINUOUS
 10
792.7069763492
 20
142.7523796387
 11
793.5185009739
 21
143.6757841535
  0
LINE
  5
36A
100
AcDbEntity
  8
0
100
AcDbLine
 62
7
  6
CONTINUOUS
 10
752.5858234222
 20
138.9268478565
 11
753.1024903353
 21
139.4545074143
  0
LINE
  5
36B
100
AcDbEntity
  8
0
100
AcDbLine
 62
7
  6
CONTINUOUS
 10
758.7858234222
 20
138.9268478565
 11
759.3024895962
 21
139.4545074143
  0
LINE
  5
36C
100
AcDbEntity
  8
0
100
AcDbLine
 62
7
  6
CONTINUOUS
 10
784.1859674024
 20
142.4885498829
 11
783.9154590652
 21
142.2247201272
  0
LINE
  5
36D
100
AcDbEntity
  8
0
100
AcDbLine
 62
7
  6
CONTINUOUS
 10
787.2968119263
 20
144.335358543
 11
786.7557952518
 21
143.8076990314
  0
LINE
  5
36E
100
AcDbEntity
  8
0
100
AcDbLine
 62
7
  6
CONTINUOUS
 10
796.2235820245
 20
144.335358543
 11
795.6825661239
 21
143.8076990314
  0
LINE
  5
36F
100
AcDbEntity
  8
0
100
AcDbLine
 62
7
  6
CONTINUOUS
 10
790.9486727376
 20
138.9268478565
 11
791.4896894121
 21
139.4545074143
  0
LINE
  5
370
100
AcDbEntity
  8
0
100
AcDbLine
 62
7
  6
CONTINUOUS
 10
799.1991733471
 20
142.4885498829
 11
798.9286646229
 21
142.2247201272
  0
LINE
  5
371
100
AcDbEntity
  8
0
100
AcDbLine
 62
7
  6
CONTINUOUS
 10
799.4696805234
 20
139.7183372625
 11
799.1991733471
 21
139.4545074143
  0
LINE
  5
372
100
AcDbEntity
  8
0
100
AcDbLine
 62
7
  6
CONTINUOUS
 10
752.3274903353
 20
139.7183372625
 11
751.9399903353
 21
139.4545074143
  0
LINE
  5
373
100
AcDbEntity
  8
0
100
AcDbLine
 62
7
  6
CONTINUOUS
 10
758.5274895962
 20
139.7183372625
 11
758.1399895962
 21
139.4545074143
  0
LINE
  5
374
100
AcDbEntity
  8
0
100
AcDbLine
 62
7
  6
CONTINUOUS
 10
746.6441568788
 20
141.5651457377
 11
747.1608234222
 21
141.8289754935
  0
LINE
  5
375
100
AcDbEntity
  8
RUNDUNGEN
100
AcDbLine
 62
7
  6
CONTINUOUS
 10
746.5722661487
 20
48.4926689121
 11
727.5598744263
 21
29.2929454304
  0
LINE
  5
376
100
AcDbEntity
  8
RUNDUNGEN
100
AcDbLine
 62
7
  6
CONTINUOUS
 10
746.5722661487
 20
44.9571350062
 11
727.5598744263
 21
25.7574115244
  0
LINE
  5
377
100
AcDbEntity
  8
RUNDUNGEN
100
AcDbLine
 62
7
  6
CONTINUOUS
 10
807.1772184152
 20
92.9286487597
 11
817.4681016216
 21
103.3209294802
  0
LINE
  5
378
100
AcDbEntity
  8
RUNDUNGEN
100
AcDbLine
 62
7
  6
CONTINUOUS
 10
807.1772184152
 20
89.3931148538
 11
817.4681016216
 21
99.7853955742
  0
LINE
  5
379
100
AcDbEntity
  8
0
100
AcDbLine
 62
7
  6
CONTINUOUS
 10
799.1991733471
 20
141.6970606156
 11
799.7401892476
 21
142.0928052493
  0
LINE
  5
37A
100
AcDbEntity
  8
0
100
AcDbLine
 62
7
  6
CONTINUOUS
 10
787.5673198765
 20
143.5438692756
 11
787.9730821889
 21
143.8076990314
  0
LINE
  5
37B
100
AcDbEntity
  8
0
100
AcDbLine
 62
7
  6
CONTINUOUS
 10
796.4940907487
 20
143.6757841535
 11
796.899853061
 21
143.9396139093
  0
LINE
  5
37C
100
AcDbEntity
  8
0
100
AcDbLine
 62
7
  6
CONTINUOUS
 10
790.6781640134
 20
139.7183372625
 11
790.272401701
 21
139.4545074143
  0
LINE
  5
37D
100
AcDbEntity
  8
0
100
AcDbLine
 62
7
  6
CONTINUOUS
 10
799.4696805234
 20
138.9268478565
 11
799.8754428358
 21
139.1906776585
  0
LINE
  5
37E
100
AcDbEntity
  8
0
100
AcDbLine
 62
7
  6
CONTINUOUS
 10
752.0691565092
 20
138.6630180661
 11
752.5858234222
 21
138.9268478565
  0
LINE
  5
37F
100
AcDbEntity
  8
0
100
AcDbLine
 62
7
  6
CONTINUOUS
 10
758.2691572483
 20
138.6630180661
 11
758.7858234222
 21
138.9268478565
  0
LINE
  5
380
100
AcDbEntity
  8
RUNDUNGEN
100
AcDbLine
 62
7
  6
CONTINUOUS
 10
718.7300498948
 20
102.6948343451
 11
717.0917458062
 21
101.8836747697
  0
LINE
  5
381
100
AcDbEntity
  8
RUNDUNGEN
100
AcDbLine
 62
7
  6
CONTINUOUS
 10
718.7300498948
 20
99.1593004391
 11
717.0917458062
 21
98.3481408638
  0
LINE
  5
382
100
AcDbEntity
  8
0
100
AcDbLine
 62
7
  6
CONTINUOUS
 10
787.8378278268
 20
144.5991882988
 11
787.2968119263
 21
144.335358543
  0
LINE
  5
383
100
AcDbEntity
  8
0
100
AcDbLine
 62
7
  6
CONTINUOUS
 10
784.0507130403
 20
141.5651457377
 11
784.5917297148
 21
141.8289754935
  0
LINE
  5
384
100
AcDbEntity
  8
0
100
AcDbLine
 62
7
  6
CONTINUOUS
 10
796.7645994729
 20
144.5991882988
 11
796.2235820245
 21
144.335358543
  0
LINE
  5
385
100
AcDbEntity
  8
0
100
AcDbLine
 62
7
  6
CONTINUOUS
 10
790.4076560631
 20
138.6630180661
 11
790.9486727376
 21
138.9268478565
  0
LINE
  5
386
100
AcDbEntity
  8
0
100
AcDbLine
 62
7
  6
CONTINUOUS
 10
799.1991733471
 20
139.4545074143
 11
798.9286646229
 21
139.3225925364
  0
LINE
  5
387
100
AcDbEntity
  8
0
100
AcDbLine
 62
7
  6
CONTINUOUS
 10
798.9286646229
 20
138.6630180661
 11
799.4696805234
 21
138.9268478565
  0
LINE
  5
388
100
AcDbEntity
  8
0
100
AcDbLine
 62
7
  6
CONTINUOUS
 10
746.5149899657
 20
142.2247201272
 11
746.1274899657
 21
142.0928052493
  0
LINE
  5
389
100
AcDbEntity
  8
0
100
AcDbLine
 62
7
  6
CONTINUOUS
 10
783.9154590652
 20
142.2247201272
 11
783.5096967528
 21
142.0928052493
  0
LINE
  5
38A
100
AcDbEntity
  8
RUNDUNGEN
100
AcDbLine
 62
7
  6
CONTINUOUS
 10
756.6546907681
 20
23.0860238206
 11
763.9215703377
 21
30.4245049728
  0
LINE
  5
38B
100
AcDbEntity
  8
RUNDUNGEN
100
AcDbLine
 62
7
  6
CONTINUOUS
 10
794.3773072354
 20
61.1803265131
 11
827.6255869708
 21
94.7562062071
  0
LINE
  5
38C
100
AcDbEntity
  8
RUNDUNGEN
100
AcDbLine
 62
7
  6
CONTINUOUS
 10
726.1457559705
 20
90.7459240836
 11
721.8042501358
 21
88.596351209
  0
LINE
  5
38D
100
AcDbEntity
  8
RUNDUNGEN
100
AcDbLine
 62
7
  6
CONTINUOUS
 10
728.9165979465
 20
84.9494583447
 11
733.2581037813
 21
87.0990312194
  0
LINE
  5
38E
100
AcDbEntity
  8
RUNDUNGEN
100
AcDbLine
 62
7
  6
CONTINUOUS
 10
759.003257965
 20
96.7061694138
 11
753.269193655
 21
93.8671109001
  0
LINE
  5
38F
100
AcDbEntity
  8
RUNDUNGEN
100
AcDbLine
 62
7
  6
CONTINUOUS
 10
728.9165979465
 20
81.4139244388
 11
733.2581037813
 21
83.5634973134
  0
LINE
  5
390
100
AcDbEntity
  8
0
100
AcDbLine
 62
7
  6
CONTINUOUS
 10
798.9286646229
 20
142.2247201272
 11
798.1171399981
 21
141.9608903714
  0
LINE
  5
391
100
AcDbEntity
  8
0
100
AcDbLine
 62
7
  6
CONTINUOUS
 10
215.4291215594
 20
92.2979776103
 11
218.0291215594
 21
92.2979776103
  0
LINE
  5
392
100
AcDbEntity
  8
0
100
AcDbLine
 62
7
  6
CONTINUOUS
 10
206.629263606
 20
102.0479776103
 11
226.8289795128
 21
102.0479776103
  0
LINE
  5
393
100
AcDbEntity
  8
0
100
AcDbLine
 62
7
  6
CONTINUOUS
 10
213.4791215594
 20
124.8701184363
 11
219.9791215594
 21
124.8701184363
  0
LINE
  5
394
100
AcDbEntity
  8
0
100
AcDbLine
 62
7
  6
CONTINUOUS
 10
219.9791215594
 20
132.65922821
 11
213.4791215594
 21
132.65922821
  0
LINE
  5
395
100
AcDbEntity
  8
0
100
AcDbLine
 62
7
  6
CONTINUOUS
 10
221.2090607991
 20
149.1430673496
 11
212.2491823197
 21
149.1430673496
  0
LINE
  5
396
100
AcDbEntity
  8
0
100
AcDbLine
 62
7
  6
CONTINUOUS
 10
220.0608397443
 20
171.2979776103
 11
213.3974033745
 21
171.2979776103
  0
LINE
  5
397
100
AcDbEntity
  8
0
100
AcDbLine
 62
7
  6
CONTINUOUS
 10
220.0608397443
 20
193.4528878711
 11
213.3974033745
 21
193.4528878711
  0
LINE
  5
398
100
AcDbEntity
  8
0
100
AcDbLine
 62
7
  6
CONTINUOUS
 10
220.0608397443
 20
209.6714078191
 11
213.3974033745
 21
209.6714078191
  0
LINE
  5
399
100
AcDbEntity
  8
0
100
AcDbLine
 62
7
  6
CONTINUOUS
 10
213.3974033745
 20
215.6077981319
 11
220.0608397443
 21
215.6077981319
  0
LINE
  5
39A
100
AcDbEntity
  8
KONSTRUKTIONSELEMENTE
100
AcDbLine
 62
7
  6
CONTINUOUS
 10
333.3310297771
 20
92.190329872
 11
324.9164590809
 21
100.6049005681
  0
LINE
  5
39B
100
AcDbEntity
  8
KONSTRUKTIONSELEMENTE
100
AcDbLine
 62
7
  6
CONTINUOUS
 10
272.1662932044
 20
153.3550664447
 11
263.7517225083
 21
161.7696371408
  0
LINE
  5
39C
100
AcDbEntity
  8
KONSTRUKTIONSELEMENTE
100
AcDbLine
 62
7
  6
CONTINUOUS
 10
305.1174692077
 20
122.595921463
 11
294.5108674899
 21
133.2025231808
  0
LINE
  5
39D
100
AcDbEntity
  8
KONSTRUKTIONSELEMENTE
100
AcDbLine
 62
7
  6
CONTINUOUS
 10
336.866563683
 20
95.725863778
 11
328.4519929869
 21
104.1404344741
  0
LINE
  5
39E
100
AcDbEntity
  8
KONSTRUKTIONSELEMENTE
100
AcDbLine
 62
7
  6
CONTINUOUS
 10
275.7018271104
 20
156.8906003506
 11
267.2872564142
 21
165.3051710467
  0
LINE
  5
39F
100
AcDbEntity
  8
0
100
AcDbLine
 62
7
  6
CONTINUOUS
 10
230.7291215594
 20
136.1527916474
 11
236.2291215594
 21
128.2979776103
  0
LINE
  5
3A0
100
AcDbEntity
  8
KONSTRUKTIONSELEMENTE
100
AcDbLine
 62
7
  6
CONTINUOUS
 10
308.2994497231
 20
125.7779019784
 11
297.6928480053
 21
136.3845036962
  0
LINE
  5
3A1
100
AcDbEntity
  8
KONSTRUKTIONSELEMENTE
100
AcDbLine
 62
7
  6
CONTINUOUS
 10
234.7603444797
 20
199.3170072218
 11
267.9943631954
 21
166.082988506
  0
LINE
  5
3A2
100
AcDbEntity
  8
RUNDUNGEN
100
AcDbLine
 62
7
  6
CONTINUOUS
 10
424.9720686188
 20
10.519496645
 11
334.0302943074
 21
101.4612709564
  0
LINE
  5
3A3
100
AcDbEntity
  8
KONSTRUKTIONSELEMENTE
100
AcDbLine
 62
7
  6
CONTINUOUS
 10
278.9545183038
 20
156.8906003506
 11
297.663203279
 21
138.1819153754
  0
LINE
  5
3A4
100
AcDbEntity
  8
KONSTRUKTIONSELEMENTE
100
AcDbLine
 62
7
  6
CONTINUOUS
 10
310.067216676
 20
125.7779019784
 11
328.7759016512
 21
107.0692170032
  0
LINE
  5
3A5
100
AcDbEntity
  8
KONSTRUKTIONSELEMENTE
100
AcDbLine
 62
7
  6
CONTINUOUS
 10
282.1364988192
 20
160.0725808659
 11
300.8451837943
 21
141.3638958908
  0
LINE
  5
3A6
100
AcDbEntity
  8
KONSTRUKTIONSELEMENTE
100
AcDbLine
 62
7
  6
CONTINUOUS
 10
313.2491971914
 20
128.9598824937
 11
331.9578821665
 21
110.2511975185
  0
LINE
  5
3A7
100
AcDbEntity
  8
RUNDUNGEN
100
AcDbLine
 62
7
  6
CONTINUOUS
 10
337.5658164396
 20
104.9968166361
 11
338.635890778
 21
103.9267422976
  0
LINE
  5
3A8
100
AcDbEntity
  8
RUNDUNGEN
100
AcDbLine
 62
7
  6
CONTINUOUS
 10
338.6388255895
 20
103.9238074862
 11
428.5076025248
 21
14.0550305509
  0
LINE
  5
3A9
100
AcDbEntity
  8
KONSTRUKTIONSELEMENTE
100
AcDbLine
 62
7
  6
CONTINUOUS
 10
239.710091948
 20
204.2667546901
 11
272.8976461353
 21
171.0792005027
  0
LINE
  5
3AA
100
AcDbEntity
  8
KONSTRUKTIONSELEMENTE
100
AcDbLine
 62
7
  6
CONTINUOUS
 10
302.6425954736
 20
141.3342511645
 11
313.2491971914
 21
130.7276494467
  0
LINE
  5
3AB
100
AcDbEntity
  8
KONSTRUKTIONSELEMENTE
100
AcDbLine
 62
7
  6
CONTINUOUS
 10
273.721928123
 20
171.7398427555
 11
277.7524367758
 21
167.7093341027
  0
LINE
  5
3AC
100
AcDbEntity
  8
KONSTRUKTIONSELEMENTE
100
AcDbLine
 62
7
  6
CONTINUOUS
 10
278.1059901664
 20
167.3557807122
 11
282.1364988192
 21
163.3252720594
  0
LINE
  5
3AD
100
AcDbEntity
  8
KONSTRUKTIONSELEMENTE
100
AcDbLine
 62
7
  6
CONTINUOUS
 10
334.8866646957
 20
110.5751061829
 11
338.9171733484
 21
106.5445975301
  0
LINE
  5
3AE
100
AcDbEntity
  8
KONSTRUKTIONSELEMENTE
100
AcDbLine
 62
7
  6
CONTINUOUS
 10
339.270726739
 20
106.1910441395
 11
343.3012353918
 21
102.1605354868
  0
LINE
  5
3AF
100
AcDbEntity
  8
KONSTRUKTIONSELEMENTE
100
AcDbLine
 62
7
  6
CONTINUOUS
 10
305.8245759889
 20
144.5162316798
 11
316.4311777067
 21
133.909629962
  0
LINE
  5
3B0
100
AcDbEntity
  8
KONSTRUKTIONSELEMENTE
100
AcDbLine
 62
7
  6
CONTINUOUS
 10
277.257462029
 20
175.2753766614
 11
281.2879706817
 21
171.2448680087
  0
LINE
  5
3B1
100
AcDbEntity
  8
KONSTRUKTIONSELEMENTE
100
AcDbLine
 62
7
  6
CONTINUOUS
 10
281.6415240723
 20
170.8913146181
 11
285.6720327251
 21
166.8608059653
  0
LINE
  5
3B2
100
AcDbEntity
  8
KONSTRUKTIONSELEMENTE
100
AcDbLine
 62
7
  6
CONTINUOUS
 10
338.4221986016
 20
114.1106400888
 11
342.4527072544
 21
110.080131436
  0
LINE
  5
3B3
100
AcDbEntity
  8
KONSTRUKTIONSELEMENTE
100
AcDbLine
 62
7
  6
CONTINUOUS
 10
342.806260645
 20
109.7265780455
 11
346.8367692977
 21
105.6960693927
  0
LINE
  5
3B4
100
AcDbEntity
  8
0
100
AcDbLine
 62
7
  6
CONTINUOUS
 10
225.4574610574
 20
203.0484561941
 11
220.0608397443
 21
215.6077981319
  0
LINE
  5
3B5
100
AcDbEntity
  8
0
100
AcDbLine
 62
7
  6
CONTINUOUS
 10
158.2291215594
 20
297.2979776103
 11
158.2291215594
 21
222.2979776103
  0
LINE
  5
3B6
100
AcDbEntity
  8
RUNDUNGEN
100
AcDbLine
 62
7
  6
CONTINUOUS
 10
213.4791215594
 20
124.8701184363
 11
211.99220727
 21
144.7979776103
  0
LINE
  5
3B7
100
AcDbEntity
  8
0
100
AcDbLine
 62
7
  6
CONTINUOUS
 10
213.4791215594
 20
132.65922821
 11
212.2491823197
 21
149.1430673496
  0
LINE
  5
3B8
100
AcDbEntity
  8
0
100
AcDbLine
 62
7
  6
CONTINUOUS
 10
220.6393446665
 20
163.8374460311
 11
221.2090607991
 21
149.1430673496
  0
LINE
  5
3B9
100
AcDbEntity
  8
0
100
AcDbLine
 62
7
  6
CONTINUOUS
 10
184.2291215594
 20
297.2979776103
 11
184.2291215594
 21
222.2979776103
  0
LINE
  5
3BA
100
AcDbEntity
  8
RUNDUNGEN
100
AcDbLine
 62
7
  6
CONTINUOUS
 10
197.2291215594
 20
110.4979776103
 11
197.2291215594
 21
128.2979776103
  0
LINE
  5
3BB
100
AcDbEntity
  8
0
100
AcDbLine
 62
7
  6
CONTINUOUS
 10
198.7291215594
 20
311.7979776103
 11
198.7291215594
 21
807.7979776103
  0
LINE
  5
3BC
100
AcDbEntity
  8
RUNDUNGEN
100
AcDbLine
 62
7
  6
CONTINUOUS
 10
202.7291215594
 20
136.1527916474
 11
202.7291215594
 21
146.7979776093
  0
LINE
  5
3BD
100
AcDbEntity
  8
BEZUGSACHSEN
100
AcDbLine
 62
7
  6
CONTINUOUS
 10
207.2291215594
 20
199.2979776103
 11
207.2291215594
 21
166.4358286357
  0
LINE
  5
3BE
100
AcDbEntity
  8
RUNDUNGEN
100
AcDbLine
 62
7
  6
CONTINUOUS
 10
207.2291215594
 20
166.4355266469
 11
207.2291215594
 21
152.6074526297
  0
LINE
  5
3BF
100
AcDbEntity
  8
0
100
AcDbLine
 62
7
  6
CONTINUOUS
 10
213.4791215594
 20
132.65922821
 11
213.4791215594
 21
124.8701184363
  0
LINE
  5
3C0
100
AcDbEntity
  8
0
100
AcDbLine
 62
7
  6
CONTINUOUS
 10
219.9791215594
 20
132.65922821
 11
219.9791215594
 21
124.8701184363
  0
LINE
  5
3C1
100
AcDbEntity
  8
BEZUGSACHSEN
100
AcDbLine
 62
7
  6
CONTINUOUS
 10
226.2291215594
 20
199.2979776103
 11
226.2291215594
 21
166.4358286357
  0
LINE
  5
3C2
100
AcDbEntity
  8
0
100
AcDbLine
 62
7
  6
CONTINUOUS
 10
226.2291215594
 20
166.4355266469
 11
226.2291215594
 21
152.6074526297
  0
LINE
  5
3C3
100
AcDbEntity
  8
0
100
AcDbLine
 62
7
  6
CONTINUOUS
 10
230.7291215594
 20
136.1527916474
 11
230.7291215594
 21
146.7979776103
  0
LINE
  5
3C4
100
AcDbEntity
  8
0
100
AcDbLine
 62
7
  6
CONTINUOUS
 10
234.7291215594
 20
311.7979776103
 11
234.7291215594
 21
807.7979776103
  0
LINE
  5
3C5
100
AcDbEntity
  8
0
100
AcDbLine
 62
7
  6
CONTINUOUS
 10
236.2291215594
 20
110.4979776103
 11
236.2291215594
 21
128.2979776103
  0
LINE
  5
3C6
100
AcDbEntity
  8
0
100
AcDbLine
 62
7
  6
CONTINUOUS
 10
212.8188984523
 20
163.8374460311
 11
212.2491823197
 21
149.1430673496
  0
LINE
  5
3C7
100
AcDbEntity
  8
0
100
AcDbLine
 62
7
  6
CONTINUOUS
 10
249.2291215594
 20
222.2979776103
 11
249.2291215594
 21
297.2979776103
  0
LINE
  5
3C8
100
AcDbEntity
  8
0
100
AcDbLine
 62
7
  6
CONTINUOUS
 10
219.9791215594
 20
132.65922821
 11
221.2090607991
 21
149.1430673496
  0
LINE
  5
3C9
100
AcDbEntity
  8
0
100
AcDbLine
 62
7
  6
CONTINUOUS
 10
219.9791215594
 20
124.8701184363
 11
221.4660358488
 21
144.7979776103
  0
LINE
  5
3CA
100
AcDbEntity
  8
0
100
AcDbLine
 62
7
  6
CONTINUOUS
 10
275.2291215594
 20
222.2979776103
 11
275.2291215594
 21
297.2979776103
  0
LINE
  5
3CB
100
AcDbEntity
  8
KONSTRUKTIONSELEMENTE
100
AcDbLine
 62
7
  6
CONTINUOUS
 10
213.3974033745
 20
215.6077981319
 11
208.0007820614
 21
203.0484561941
  0
LINE
  5
3CC
100
AcDbEntity
  8
RUNDUNGEN
100
AcDbLine
 62
7
  6
CONTINUOUS
 10
202.7291215594
 20
136.1527916474
 11
197.2291215594
 21
128.2979776103
  0
LINE
  5
3CD
100
AcDbEntity
  8
KONSTRUKTIONSELEMENTE
100
AcDbLine
 62
7
  6
CONTINUOUS
 10
281.2879706817
 20
171.2448680087
 11
277.7524367758
 21
167.7093341027
  0
LINE
  5
3CE
100
AcDbEntity
  8
KONSTRUKTIONSELEMENTE
100
AcDbLine
 62
7
  6
CONTINUOUS
 10
281.6415240723
 20
170.8913146181
 11
278.1059901664
 21
167.3557807122
  0
LINE
  5
3CF
100
AcDbEntity
  8
KONSTRUKTIONSELEMENTE
100
AcDbLine
 62
7
  6
CONTINUOUS
 10
342.4527072544
 20
110.080131436
 11
338.9171733484
 21
106.5445975301
  0
LINE
  5
3D0
100
AcDbEntity
  8
RUNDUNGEN
100
AcDbLine
 62
7
  6
CONTINUOUS
 10
334.0304461394
 20
101.4611191244
 11
337.5659800454
 21
104.9966530303
  0
LINE
  5
3D1
100
AcDbEntity
  8
KONSTRUKTIONSELEMENTE
100
AcDbLine
 62
7
  6
CONTINUOUS
 10
342.806260645
 20
109.7265780455
 11
339.270726739
 21
106.1910441395
  0
LINE
  5
3D2
100
AcDbEntity
  8
RUNDUNGEN
100
AcDbLine
 62
7
  6
CONTINUOUS
 10
338.6386496085
 20
103.9239834672
 11
335.1031157026
 21
100.3884495612
  0
LINE
  5
3D3
100
AcDbEntity
  8
RUNDUNGEN
100
AcDbLine
 62
7
  6
CONTINUOUS
 10
424.9720686188
 20
10.519496645
 11
428.5076025248
 21
14.0550305509
  0
ARC
  5
3D4
100
AcDbEntity
  8
RUNDUNGEN
100
AcDbCircle
 62
7
  6
CONTINUOUS
 10
741.474786692
 20
144.7979776103
 40
8.0
100
AcDbArc
 50
102.037384222
 51
180.0
  0
ARC
  5
3D5
100
AcDbEntity
  8
RUNDUNGEN
100
AcDbCircle
 62
7
  6
CONTINUOUS
 10
741.1506768056
 20
146.2917750428
 40
6.4714578049
100
AcDbArc
 50
87.1292556972
 51
101.9891141635
  0
ARC
  5
3D6
100
AcDbEntity
  8
RUNDUNGEN
100
AcDbCircle
 62
7
  6
CONTINUOUS
 10
731.7813210639
 20
90.0875369311
 40
3.3334747012
100
AcDbArc
 50
296.2964744357
 51
302.2123623221
  0
CIRCLE
  5
3D7
100
AcDbEntity
  8
BEZUGSACHSEN
100
AcDbCircle
 62
7
  6
CONTINUOUS
 10
745.874786692
 20
113.6979776103
 40
3.0
  0
ARC
  5
3D8
100
AcDbEntity
  8
0
100
AcDbCircle
 62
7
  6
CONTINUOUS
 10
756.3860480045
 20
77.6687811835
 40
0.5420477023
100
AcDbArc
 50
78.8903114983
 51
89.9692795104
  0
ARC
  5
3D9
100
AcDbEntity
  8
KONSTRUKTIONSELEMENTE
100
AcDbCircle
 62
7
  6
CONTINUOUS
 10
770.474786692
 20
53.1979776103
 40
46.8
100
AcDbArc
 50
56.6553646926
 51
80.9022287256
  0
ARC
  5
3DA
100
AcDbEntity
  8
KONSTRUKTIONSELEMENTE
100
AcDbCircle
 62
7
  6
CONTINUOUS
 10
770.474786692
 20
53.1979776103
 40
46.8
100
AcDbArc
 50
99.0977712744
 51
123.3446353074
  0
ARC
  5
3DB
100
AcDbEntity
  8
BEZUGSACHSEN
100
AcDbCircle
 62
7
  6
CONTINUOUS
 10
770.474786692
 20
171.2979776103
 40
18.5
100
AcDbArc
 50
134.6562818467
 51
45.3437181533
  0
ARC
  5
3DC
100
AcDbEntity
  8
0
100
AcDbCircle
 62
7
  6
CONTINUOUS
 10
770.474786692
 20
342.7979776103
 40
13.0
100
AcDbArc
 50
0.0
 51
180.0
  0
ARC
  5
3DD
100
AcDbEntity
  8
0
100
AcDbCircle
 62
7
  6
CONTINUOUS
 10
770.474786692
 20
176.7979776103
 40
13.0
100
AcDbArc
 50
180.0
 51
360.0
  0
ARC
  5
3DE
100
AcDbEntity
  8
KONSTRUKTIONSELEMENTE
100
AcDbCircle
 62
7
  6
CONTINUOUS
 10
770.3320698295
 20
147.0673163113
 40
9.5600220347
100
AcDbArc
 50
250.2472929192
 51
257.2525711218
  0
ARC
  5
3DF
100
AcDbEntity
  8
KONSTRUKTIONSELEMENTE
100
AcDbCircle
 62
7
  6
CONTINUOUS
 10
770.6508789116
 20
146.9522983892
 40
9.4404839019
100
AcDbArc
 50
282.7159617125
 51
289.8017277657
  0
ARC
  5
3E0
100
AcDbEntity
  8
RUNDUNGEN
100
AcDbCircle
 62
7
  6
CONTINUOUS
 10
799.474786692
 20
144.7979776103
 40
8.0
100
AcDbArc
 50
0.0
 51
77.962615778
  0
ARC
  5
3E1
100
AcDbEntity
  8
KONSTRUKTIONSELEMENTE
100
AcDbCircle
 62
7
  6
CONTINUOUS
 10
770.474786692
 20
131.4979776103
 40
7.4
100
AcDbArc
 50
0.0000004677
 51
180.0
  0
ARC
  5
3E2
100
AcDbEntity
  8
BEZUGSACHSEN
100
AcDbCircle
 62
7
  6
CONTINUOUS
 10
770.2110500304
 20
98.1090283048
 40
6.5895200574
100
AcDbArc
 50
249.8584610792
 51
250.1295722555
  0
ARC
  5
3E3
100
AcDbEntity
  8
BEZUGSACHSEN
100
AcDbCircle
 62
7
  6
CONTINUOUS
 10
770.7385233565
 20
98.1090282971
 40
6.5895200492
100
AcDbArc
 50
289.8704277441
 51
290.1415389208
  0
ARC
  5
3E4
100
AcDbEntity
  8
RUNDUNGEN
100
AcDbCircle
 62
7
  6
CONTINUOUS
 10
799.7988976624
 20
146.2917917961
 40
6.4714411919
100
AcDbArc
 50
78.010864413
 51
92.8686453501
  0
ARC
  5
3E5
100
AcDbEntity
  8
0
100
AcDbCircle
 62
7
  6
CONTINUOUS
 10
786.6764043198
 20
78.4900742608
 40
2.7679754318
100
AcDbArc
 50
350.5636876714
 51
355.3957076166
  0
ARC
  5
3E6
100
AcDbEntity
  8
KONSTRUKTIONSELEMENTE
100
AcDbCircle
 62
7
  6
CONTINUOUS
 10
770.474786692
 20
91.8931996324
 40
2.5
100
AcDbArc
 50
180.0
 51
360.0
  0
ARC
  5
3E7
100
AcDbEntity
  8
KONSTRUKTIONSELEMENTE
100
AcDbCircle
 62
7
  6
CONTINUOUS
 10
770.474786692
 20
153.057936205
 40
2.5
100
AcDbArc
 50
358.1688338955
 51
360.0
  0
ARC
  5
3E8
100
AcDbEntity
  8
KONSTRUKTIONSELEMENTE
100
AcDbCircle
 62
7
  6
CONTINUOUS
 10
770.474786692
 20
153.057936205
 40
2.5
100
AcDbArc
 50
180.0
 51
181.8311661045
  0
ARC
  5
3E9
100
AcDbEntity
  8
0
100
AcDbCircle
 62
7
  6
CONTINUOUS
 10
770.474786692
 20
454.7979776103
 40
161.0
100
AcDbArc
 50
180.0
 51
265.3680409811
  0
ARC
  5
3EA
100
AcDbEntity
  8
0
100
AcDbCircle
 62
7
  6
CONTINUOUS
 10
770.474786692
 20
454.7979776103
 40
161.0
100
AcDbArc
 50
274.6319590189
 51
360.0
  0
ARC
  5
3EB
100
AcDbEntity
  8
0
100
AcDbCircle
 62
7
  6
CONTINUOUS
 10
770.474786692
 20
664.7979776103
 40
161.0
100
AcDbArc
 50
0.0
 51
180.0
  0
ARC
  5
3EC
100
AcDbEntity
  8
0
100
AcDbCircle
 62
7
  6
CONTINUOUS
 10
770.474786692
 20
454.7979776103
 40
125.0
100
AcDbArc
 50
180.0
 51
264.0297812168
  0
ARC
  5
3ED
100
AcDbEntity
  8
0
100
AcDbCircle
 62
7
  6
CONTINUOUS
 10
770.474786692
 20
454.7979776103
 40
125.0
100
AcDbArc
 50
275.9702187832
 51
360.0
  0
ARC
  5
3EE
100
AcDbEntity
  8
0
100
AcDbCircle
 62
7
  6
CONTINUOUS
 10
770.474786692
 20
664.7979776103
 40
125.0
100
AcDbArc
 50
0.0
 51
180.0
  0
ARC
  5
3EF
100
AcDbEntity
  8
0
100
AcDbCircle
 62
7
  6
CONTINUOUS
 10
122.0400137482
 20
159.9445466766
 40
98.6761507302
100
AcDbArc
 50
2.2609779608
 51
6.6069414076
  0
ARC
  5
3F0
100
AcDbEntity
  8
0
100
AcDbCircle
 62
7
  6
CONTINUOUS
 10
218.0291215594
 20
110.4979776103
 40
18.2
100
AcDbArc
 50
270.0
 51
360.0
  0
ARC
  5
3F1
100
AcDbEntity
  8
RUNDUNGEN
100
AcDbCircle
 62
7
  6
CONTINUOUS
 10
215.4291215594
 20
110.4979776103
 40
18.2
100
AcDbArc
 50
180.0
 51
270.0
  0
ARC
  5
3F2
100
AcDbEntity
  8
0
100
AcDbCircle
 62
7
  6
CONTINUOUS
 10
218.0294509569
 20
110.4641538186
 40
18.1661762112
100
AcDbArc
 50
269.9989610864
 51
273.3240615168
  0
ARC
  5
3F3
100
AcDbEntity
  8
0
100
AcDbCircle
 62
7
  6
CONTINUOUS
 10
218.0341428819
 20
110.3747056277
 40
18.0766064658
100
AcDbArc
 50
273.3256541448
 51
274.0265161695
  0
ARC
  5
3F4
100
AcDbEntity
  8
0
100
AcDbCircle
 62
7
  6
CONTINUOUS
 10
218.0457868806
 20
110.2244911987
 40
17.925945229
100
AcDbArc
 50
274.0231042362
 51
276.9058832781
  0
ARC
  5
3F5
100
AcDbEntity
  8
0
100
AcDbCircle
 62
7
  6
CONTINUOUS
 10
218.0668960168
 20
110.040191531
 40
17.7404445593
100
AcDbArc
 50
276.9097717271
 51
277.3787475808
  0
ARC
  5
3F6
100
AcDbEntity
  8
BEZUGSACHSEN
100
AcDbCircle
 62
7
  6
CONTINUOUS
 10
216.7291215594
 20
199.2979776103
 40
9.5
100
AcDbArc
 50
156.7472958606
 51
180.0
  0
ARC
  5
3F7
100
AcDbEntity
  8
BEZUGSACHSEN
100
AcDbCircle
 62
7
  6
CONTINUOUS
 10
216.7291215594
 20
199.2979776103
 40
9.5
100
AcDbArc
 50
0.0
 51
23.2527041394
  0
CIRCLE
  5
3F8
100
AcDbEntity
  8
BEZUGSACHSEN
100
AcDbCircle
 62
7
  6
CONTINUOUS
 10
216.7291215594
 20
113.6979776103
 40
9.25
  0
ARC
  5
3F9
100
AcDbEntity
  8
RUNDUNGEN
100
AcDbCircle
 62
7
  6
CONTINUOUS
 10
208.7291215594
 20
146.7979776103
 40
6.0
100
AcDbArc
 50
96.8519886055
 51
179.9999125493
  0
ARC
  5
3FA
100
AcDbEntity
  8
0
100
AcDbCircle
 62
7
  6
CONTINUOUS
 10
224.7291215594
 20
146.7979776103
 40
6.0
100
AcDbArc
 50
0.0
 51
83.1480113945
  0
ARC
  5
3FB
100
AcDbEntity
  8
0
100
AcDbCircle
 62
7
  6
CONTINUOUS
 10
216.7291215594
 20
222.2979776103
 40
58.5
100
AcDbArc
 50
180.0
 51
260.653043499
  0
ARC
  5
3FC
100
AcDbEntity
  8
0
100
AcDbCircle
 62
7
  6
CONTINUOUS
 10
216.7291215594
 20
222.2979776103
 40
58.5
100
AcDbArc
 50
279.346956501
 51
311.569568572
  0
ARC
  5
3FD
100
AcDbEntity
  8
0
100
AcDbCircle
 62
7
  6
CONTINUOUS
 10
216.7291215594
 20
222.2979776103
 40
58.5
100
AcDbArc
 50
318.430431428
 51
360.0
  0
ARC
  5
3FE
100
AcDbEntity
  8
0
100
AcDbCircle
 62
7
  6
CONTINUOUS
 10
216.7291215594
 20
297.2979776103
 40
58.5
100
AcDbArc
 50
0.0
 51
72.0727336624
  0
ARC
  5
3FF
100
AcDbEntity
  8
0
100
AcDbCircle
 62
7
  6
CONTINUOUS
 10
216.7291215594
 20
297.2979776103
 40
58.5
100
AcDbArc
 50
107.9272663376
 51
180.0
  0
ARC
  5
400
100
AcDbEntity
  8
0
100
AcDbCircle
 62
7
  6
CONTINUOUS
 10
216.7291215594
 20
222.2979776103
 40
32.5
100
AcDbArc
 50
180.0
 51
252.9980192948
  0
ARC
  5
401
100
AcDbEntity
  8
0
100
AcDbCircle
 62
7
  6
CONTINUOUS
 10
216.7291215594
 20
222.2979776103
 40
32.5
100
AcDbArc
 50
287.0019807052
 51
308.8171072275
  0
ARC
  5
402
100
AcDbEntity
  8
0
100
AcDbCircle
 62
7
  6
CONTINUOUS
 10
216.7291215594
 20
222.2979776103
 40
32.5
100
AcDbArc
 50
321.1828927725
 51
360.0
  0
ARC
  5
403
100
AcDbEntity
  8
0
100
AcDbCircle
 62
7
  6
CONTINUOUS
 10
216.7291215594
 20
297.2979776103
 40
32.5
100
AcDbArc
 50
0.0
 51
56.3663446066
  0
ARC
  5
404
100
AcDbEntity
  8
0
100
AcDbCircle
 62
7
  6
CONTINUOUS
 10
216.7291215594
 20
297.2979776103
 40
32.5
100
AcDbArc
 50
123.6336553934
 51
180.0
  0
ARC
  5
405
100
AcDbEntity
  8
0
100
AcDbCircle
 62
7
  6
CONTINUOUS
 10
216.7291215594
 20
311.7979776103
 40
18.0
100
AcDbArc
 50
180.0
 51
360.0
  0
ARC
  5
406
100
AcDbEntity
  8
0
100
AcDbCircle
 62
7
  6
CONTINUOUS
 10
216.7291215594
 20
807.7979776103
 40
18.0
100
AcDbArc
 50
0.0
 51
180.0
  0
ARC
  5
407
100
AcDbEntity
  8
KONSTRUKTIONSELEMENTE
100
AcDbCircle
 62
7
  6
CONTINUOUS
 10
278.9191629648
 20
160.107936205
 40
9.55
100
AcDbArc
 50
328.6297070454
 51
45.0
  0
ARC
  5
408
100
AcDbEntity
  8
KONSTRUKTIONSELEMENTE
100
AcDbCircle
 62
7
  6
CONTINUOUS
 10
278.9191629648
 20
160.107936205
 40
9.55
100
AcDbArc
 50
225.0
 51
301.3702929546
  0
ARC
  5
409
100
AcDbEntity
  8
KONSTRUKTIONSELEMENTE
100
AcDbCircle
 62
7
  6
CONTINUOUS
 10
270.5045922686
 20
168.5225069011
 40
9.55
100
AcDbArc
 50
156.5165763377
 51
225.0
  0
ARC
  5
40A
100
AcDbEntity
  8
KONSTRUKTIONSELEMENTE
100
AcDbCircle
 62
7
  6
CONTINUOUS
 10
270.5045922686
 20
168.5225069011
 40
9.55
100
AcDbArc
 50
45.0
 51
113.4834236623
  0
ARC
  5
40B
100
AcDbEntity
  8
KONSTRUKTIONSELEMENTE
100
AcDbCircle
 62
7
  6
CONTINUOUS
 10
278.9191629648
 20
160.107936205
 40
4.55
100
AcDbArc
 50
344.6522021471
 51
45.0
  0
ARC
  5
40C
100
AcDbEntity
  8
KONSTRUKTIONSELEMENTE
100
AcDbCircle
 62
7
  6
CONTINUOUS
 10
278.9191629648
 20
160.107936205
 40
4.55
100
AcDbArc
 50
225.0
 51
285.3477978529
  0
ARC
  5
40D
100
AcDbEntity
  8
KONSTRUKTIONSELEMENTE
100
AcDbCircle
 62
7
  6
CONTINUOUS
 10
270.5045922686
 20
168.5225069011
 40
4.55
100
AcDbArc
 50
185.3186932883
 51
225.0
  0
ARC
  5
40E
100
AcDbEntity
  8
KONSTRUKTIONSELEMENTE
100
AcDbCircle
 62
7
  6
CONTINUOUS
 10
270.5045922686
 20
168.5225069011
 40
4.55
100
AcDbArc
 50
45.0
 51
84.6813067117
  0
ARC
  5
40F
100
AcDbEntity
  8
KONSTRUKTIONSELEMENTE
100
AcDbCircle
 62
7
  6
CONTINUOUS
 10
237.2352182138
 20
201.7918809559
 40
3.5
100
AcDbArc
 50
45.0
 51
225.0
  0
ARC
  5
410
100
AcDbEntity
  8
KONSTRUKTIONSELEMENTE
100
AcDbCircle
 62
7
  6
CONTINUOUS
 10
270.4692369296
 20
168.5578622402
 40
3.5
100
AcDbArc
 50
225.0
 51
45.0
  0
ARC
  5
411
100
AcDbEntity
  8
KONSTRUKTIONSELEMENTE
100
AcDbCircle
 62
7
  6
CONTINUOUS
 10
280.5455085615
 20
158.4815906083
 40
2.25
100
AcDbArc
 50
45.0
 51
225.0
  0
ARC
  5
412
100
AcDbEntity
  8
KONSTRUKTIONSELEMENTE
100
AcDbCircle
 62
7
  6
CONTINUOUS
 10
340.0838995374
 20
98.9431996324
 40
9.55
100
AcDbArc
 50
330.1951355235
 51
45.0
  0
ARC
  5
413
100
AcDbEntity
  8
KONSTRUKTIONSELEMENTE
100
AcDbCircle
 62
7
  6
CONTINUOUS
 10
340.0838995374
 20
98.9431996324
 40
9.55
100
AcDbArc
 50
225.0
 51
299.8048644765
  0
ARC
  5
414
100
AcDbEntity
  8
KONSTRUKTIONSELEMENTE
100
AcDbCircle
 62
7
  6
CONTINUOUS
 10
331.6693288413
 20
107.3577703285
 40
9.55
100
AcDbArc
 50
148.6297070454
 51
225.0
  0
ARC
  5
415
100
AcDbEntity
  8
KONSTRUKTIONSELEMENTE
100
AcDbCircle
 62
7
  6
CONTINUOUS
 10
331.6693288413
 20
107.3577703285
 40
9.55
100
AcDbArc
 50
45.0
 51
121.3702929546
  0
ARC
  5
416
100
AcDbEntity
  8
KONSTRUKTIONSELEMENTE
100
AcDbCircle
 62
7
  6
CONTINUOUS
 10
310.7743234572
 20
128.2527757125
 40
8.0
100
AcDbArc
 50
331.3642958278
 51
45.0
  0
ARC
  5
417
100
AcDbEntity
  8
KONSTRUKTIONSELEMENTE
100
AcDbCircle
 62
7
  6
CONTINUOUS
 10
310.7743234572
 20
128.2527757125
 40
8.0
100
AcDbArc
 50
225.0
 51
298.6357041722
  0
ARC
  5
418
100
AcDbEntity
  8
KONSTRUKTIONSELEMENTE
100
AcDbCircle
 62
7
  6
CONTINUOUS
 10
300.1677217394
 20
138.8593774303
 40
8.0
100
AcDbArc
 50
151.3642958278
 51
225.0
  0
ARC
  5
419
100
AcDbEntity
  8
KONSTRUKTIONSELEMENTE
100
AcDbCircle
 62
7
  6
CONTINUOUS
 10
300.1677217394
 20
138.8593774303
 40
8.0
100
AcDbArc
 50
45.0
 51
118.6357041722
  0
ARC
  5
41A
100
AcDbEntity
  8
KONSTRUKTIONSELEMENTE
100
AcDbCircle
 62
7
  6
CONTINUOUS
 10
340.0838995374
 20
98.9431996324
 40
4.55
100
AcDbArc
 50
348.3583327703
 51
45.0
  0
ARC
  5
41B
100
AcDbEntity
  8
KONSTRUKTIONSELEMENTE
100
AcDbCircle
 62
7
  6
CONTINUOUS
 10
340.0838995374
 20
98.9431996324
 40
4.55
100
AcDbArc
 50
225.0
 51
281.6416672297
  0
ARC
  5
41C
100
AcDbEntity
  8
KONSTRUKTIONSELEMENTE
100
AcDbCircle
 62
7
  6
CONTINUOUS
 10
331.6693288413
 20
107.3577703285
 40
4.55
100
AcDbArc
 50
164.6522021471
 51
225.0
  0
ARC
  5
41D
100
AcDbEntity
  8
KONSTRUKTIONSELEMENTE
100
AcDbCircle
 62
7
  6
CONTINUOUS
 10
331.6693288413
 20
107.3577703285
 40
4.55
100
AcDbArc
 50
45.0
 51
105.3477978529
  0
ARC
  5
41E
100
AcDbEntity
  8
KONSTRUKTIONSELEMENTE
100
AcDbCircle
 62
7
  6
CONTINUOUS
 10
310.7743234572
 20
128.2527757125
 40
3.5
100
AcDbArc
 50
355.1538775079
 51
45.0
  0
ARC
  5
41F
100
AcDbEntity
  8
KONSTRUKTIONSELEMENTE
100
AcDbCircle
 62
7
  6
CONTINUOUS
 10
310.7743234572
 20
128.2527757125
 40
3.5
100
AcDbArc
 50
225.0
 51
274.8461224921
  0
ARC
  5
420
100
AcDbEntity
  8
KONSTRUKTIONSELEMENTE
100
AcDbCircle
 62
7
  6
CONTINUOUS
 10
300.1677217394
 20
138.8593774303
 40
3.5
100
AcDbArc
 50
175.1538775079
 51
225.0
  0
ARC
  5
421
100
AcDbEntity
  8
KONSTRUKTIONSELEMENTE
100
AcDbCircle
 62
7
  6
CONTINUOUS
 10
300.1677217394
 20
138.8593774303
 40
3.5
100
AcDbArc
 50
45.0
 51
94.8461224921
  0
ARC
  5
422
100
AcDbEntity
  8
KONSTRUKTIONSELEMENTE
100
AcDbCircle
 62
7
  6
CONTINUOUS
 10
311.6582069337
 20
127.3688922361
 40
2.25
100
AcDbArc
 50
45.0
 51
225.0
  0
ARC
  5
423
100
AcDbEntity
  8
KONSTRUKTIONSELEMENTE
100
AcDbCircle
 62
7
  6
CONTINUOUS
 10
330.3965366351
 20
108.6305625346
 40
2.25
100
AcDbArc
 50
225.0
 51
45.0
  0
ARC
  5
424
100
AcDbEntity
  8
KONSTRUKTIONSELEMENTE
100
AcDbCircle
 62
7
  6
CONTINUOUS
 10
299.2838382629
 20
139.7432609068
 40
2.25
100
AcDbArc
 50
225.0
 51
45.0
  0
ARC
  5
425
100
AcDbEntity
  8
0
100
AcDbCircle
 62
7
  6
CONTINUOUS
 10
311.4182293706
 20
159.9445466766
 40
98.6761507302
100
AcDbArc
 50
173.3930585924
 51
177.7390220392
  0
SPLINE
  5
426
100
AcDbEntity
  8
KONSTRUKTIONSELEMENTE
100
AcDbSpline
 62
7
  6
CONTINUOUS
 70
0
 71
3
 72
11
 73
7
 74
0
 42
0.0000001
 43
0.0000001
 44
0.0000000001
 40
0.0
 40
0.0
 40
0.0
 40
0.0
 40
0.2390759488
 40
0.4845199689
 40
0.7382329877
 40
1.0
 40
1.0
 40
1.0
 40
1.0
 10
763.0643984803
 20
125.7100000056
 30
0.0
 10
763.3006261497
 20
126.1721749534
 30
0.0
 10
763.9124338044
 20
127.0453695659
 30
0.0
 10
765.1340870506
 20
128.1031732056
 30
0.0
 10
766.5935778946
 20
128.900191227
 30
0.0
 10
767.6664363945
 20
129.2431105289
 30
0.0
 10
768.2206743715
 20
129.3687943649
 30
0.0
  0
SPLINE
  5
427
100
AcDbEntity
  8
KONSTRUKTIONSELEMENTE
100
AcDbSpline
 62
7
  6
CONTINUOUS
 70
0
 71
3
 72
11
 73
7
 74
0
 42
0.0000001
 43
0.0000001
 44
0.0000000001
 40
0.0
 40
0.0
 40
0.0
 40
0.0
 40
0.2617931805
 40
0.5155111137
 40
0.7609431338
 40
1.0
 40
1.0
 40
1.0
 40
1.0
 10
772.7269574708
 20
129.3692255772
 30
0.0
 10
773.281503819
 20
129.2435641788
 30
0.0
 10
774.3549490311
 20
128.9007023107
 30
0.0
 10
775.8151872082
 20
128.103462163
 30
0.0
 10
777.0372695082
 20
127.045209665
 30
0.0
 10
777.6493263303
 20
126.1717125162
 30
0.0
 10
777.8855684278
 20
125.7093464106
 30
0.0
  0
SPLINE
  5
428
100
AcDbEntity
  8
KONSTRUKTIONSELEMENTE
100
AcDbSpline
 62
7
  6
CONTINUOUS
 70
0
 71
3
 72
10
 73
6
 74
0
 42
0.0000001
 43
0.0000001
 44
0.0000000001
 40
0.0
 40
0.0
 40
0.0
 40
0.0
 40
0.3116645009
 40
0.6060899939
 40
1.0
 40
1.0
 40
1.0
 40
1.0
 10
766.974786692
 20
123.3030282442
 30
0.0
 10
766.974786692
 20
123.5001830907
 30
0.0
 10
767.1623152486
 20
123.8715092854
 30
0.0
 10
767.6196345182
 20
124.3053823751
 30
0.0
 10
767.9980358304
 20
124.5327924086
 30
0.0
 10
768.2227948037
 20
124.6403805396
 30
0.0
  0
SPLINE
  5
429
100
AcDbEntity
  8
KONSTRUKTIONSELEMENTE
100
AcDbSpline
 62
7
  6
CONTINUOUS
 70
0
 71
3
 72
10
 73
6
 74
0
 42
0.0000001
 43
0.0000001
 44
0.0000000001
 40
0.0
 40
0.0
 40
0.0
 40
0.0
 40
0.3939255147
 40
0.6883533687
 40
1.0
 40
1.0
 40
1.0
 40
1.0
 10
772.7265359275
 20
124.6404924676
 30
0.0
 10
772.9513438335
 20
124.532902567
 30
0.0
 10
773.3298063551
 20
124.3054569987
 30
0.0
 10
773.7872478728
 20
123.8715792553
 30
0.0
 10
773.974786692
 20
123.5001995481
 30
0.0
 10
773.974786692
 20
123.3030282442
 30
0.0
  0
SPLINE
  5
42A
100
AcDbEntity
  8
KONSTRUKTIONSELEMENTE
100
AcDbSpline
 62
7
  6
CONTINUOUS
 70
0
 71
3
 72
12
 73
8
 74
0
 42
0.0000001
 43
0.0000001
 44
0.0000000001
 40
0.0
 40
0.0
 40
0.0
 40
0.0
 40
0.119660423
 40
0.239791031
 40
0.4831782475
 40
0.7358868616
 40
1.0
 40
1.0
 40
1.0
 40
1.0
 10
762.4790525929
 20
154.6245437244
 30
0.0
 10
762.4929481205
 20
154.9646975739
 30
0.0
 10
762.5893324562
 20
155.6455461805
 30
0.0
 10
763.0455755313
 20
156.9499602898
 30
0.0
 10
764.0838148814
 20
158.4117507745
 30
0.0
 10
765.8528053079
 20
159.7053145462
 30
0.0
 10
767.2431778802
 20
160.2361339736
 30
0.0
 10
767.9713623561
 20
160.4215099587
 30
0.0
  0
SPLINE
  5
42B
100
AcDbEntity
  8
KONSTRUKTIONSELEMENTE
100
AcDbSpline
 62
7
  6
CONTINUOUS
 70
0
 71
3
 72
12
 73
8
 74
0
 42
0.0000001
 43
0.0000001
 44
0.0000000001
 40
0.0
 40
0.0
 40
0.0
 40
0.0
 40
0.2641163723
 40
0.5168081693
 40
0.7601760549
 40
0.8803250158
 40
1.0
 40
1.0
 40
1.0
 40
1.0
 10
772.9791144945
 20
160.4212627691
 30
0.0
 10
773.7072113135
 20
160.2358235464
 30
0.0
 10
775.0973758051
 20
159.7049883004
 30
0.0
 10
776.8659482169
 20
158.4114411929
 30
0.0
 10
777.9041248291
 20
156.9498985028
 30
0.0
 10
778.3602086892
 20
155.6455354434
 30
0.0
 10
778.4566135066
 20
154.964673397
 30
0.0
 10
778.4705181511
 20
154.6245140769
 30
0.0
  0
SPLINE
  5
42C
100
AcDbEntity
  8
KONSTRUKTIONSELEMENTE
100
AcDbSpline
 62
7
  6
CONTINUOUS
 70
0
 71
3
 72
10
 73
6
 74
0
 42
0.0000001
 43
0.0000001
 44
0.0000000001
 40
0.0
 40
0.0
 40
0.0
 40
0.0
 40
0.3192646009
 40
0.6086079864
 40
1.0
 40
1.0
 40
1.0
 40
1.0
 10
766.974786692
 20
154.4157266164
 30
0.0
 10
766.974786692
 20
154.5874663916
 30
0.0
 10
767.1168024786
 20
154.9083176066
 30
0.0
 10
767.4826084932
 20
155.301669946
 30
0.0
 10
767.785896326
 20
155.5147098593
 30
0.0
 10
767.968432627
 20
155.6196244557
 30
0.0
  0
SPLINE
  5
42D
100
AcDbEntity
  8
KONSTRUKTIONSELEMENTE
100
AcDbSpline
 62
7
  6
CONTINUOUS
 70
0
 71
3
 72
10
 73
6
 74
0
 42
0.0000001
 43
0.0000001
 44
0.0000000001
 40
0.0
 40
0.0
 40
0.0
 40
0.0
 40
0.3914026107
 40
0.6807340322
 40
1.0
 40
1.0
 40
1.0
 40
1.0
 10
772.9812322931
 20
155.6195719846
 30
0.0
 10
773.1637595366
 20
155.5146565751
 30
0.0
 10
773.4669991173
 20
155.3015975036
 30
0.0
 10
773.8328198219
 20
154.908299143
 30
0.0
 10
773.974786692
 20
154.5874564021
 30
0.0
 10
773.974786692
 20
154.4157266164
 30
0.0
  0
SPLINE
  5
42E
100
AcDbEntity
  8
KONSTRUKTIONSELEMENTE
100
AcDbSpline
 62
7
  6
CONTINUOUS
 70
0
 71
3
 72
9
 73
5
 74
0
 42
0.0000001
 43
0.0000001
 44
0.0000000001
 40
0.0
 40
0.0
 40
0.0
 40
0.0
 40
0.4878890232
 40
1.0
 40
1.0
 40
1.0
 40
1.0
 10
788.9559397424
 20
170.457317375
 30
0.0
 10
787.2586149603
 20
169.2764139998
 30
0.0
 10
783.4759148461
 20
167.2776210332
 30
0.0
 10
779.3749288726
 20
166.0979180836
 30
0.0
 10
777.2428952431
 20
165.691794998
 30
0.0
  0
SPLINE
  5
42F
100
AcDbEntity
  8
KONSTRUKTIONSELEMENTE
100
AcDbSpline
 62
7
  6
CONTINUOUS
 70
0
 71
3
 72
9
 73
5
 74
0
 42
0.0000001
 43
0.0000001
 44
0.0000000001
 40
0.0
 40
0.0
 40
0.0
 40
0.0
 40
0.5121260224
 40
1.0
 40
1.0
 40
1.0
 40
1.0
 10
763.7281510023
 20
165.6877149809
 30
0.0
 10
761.5921822151
 20
166.0932285417
 30
0.0
 10
757.4835554957
 20
167.2728803834
 30
0.0
 10
753.6939139711
 20
169.2743695614
 30
0.0
 10
751.993753441
 20
170.4572375781
 30
0.0
  0
SPLINE
  5
430
100
AcDbEntity
  8
KONSTRUKTIONSELEMENTE
100
AcDbSpline
 62
7
  6
CONTINUOUS
 70
0
 71
3
 72
9
 73
5
 74
0
 42
0.0000001
 43
0.0000001
 44
0.0000000001
 40
0.0
 40
0.0
 40
0.0
 40
0.0
 40
0.2348418344
 40
1.0
 40
1.0
 40
1.0
 40
1.0
 10
787.5531978736
 20
178.4352104525
 30
0.0
 10
787.2719911568
 20
178.1324563512
 30
0.0
 10
786.0175171199
 20
176.8965000991
 30
0.0
 10
784.5571095306
 20
175.8779373746
 30
0.0
 10
783.3834939053
 20
175.2182905687
 30
0.0
  0
SPLINE
  5
431
100
AcDbEntity
  8
KONSTRUKTIONSELEMENTE
100
AcDbSpline
 62
7
  6
CONTINUOUS
 70
0
 71
3
 72
9
 73
5
 74
0
 42
0.0000001
 43
0.0000001
 44
0.0000000001
 40
0.0
 40
0.0
 40
0.0
 40
0.0
 40
0.2654819976
 40
1.0
 40
1.0
 40
1.0
 40
1.0
 10
757.5659552004
 20
175.2183545866
 30
0.0
 10
757.1587739653
 20
175.4472187696
 30
0.0
 10
755.6555018828
 20
176.36087306
 30
0.0
 10
754.2755189308
 20
177.4886434518
 30
0.0
 10
753.3960555039
 20
178.435552282
 30
0.0
  0
SPLINE
  5
432
100
AcDbEntity
  8
0
100
AcDbSpline
 62
7
  6
CONTINUOUS
 70
0
 71
3
 72
11
 73
7
 74
0
 42
0.0000001
 43
0.0000001
 44
0.0000000001
 40
0.0
 40
0.0
 40
0.0
 40
0.0
 40
0.2192989281
 40
0.4548225453
 40
0.7152180566
 40
1.0
 40
1.0
 40
1.0
 40
1.0
 10
789.4442116259
 20
78.0269810449
 30
0.0
 10
789.4442116259
 20
78.402634381
 30
0.0
 10
789.2752912195
 20
79.189076873
 30
0.0
 10
788.5704048239
 20
80.2204719764
 30
0.0
 10
787.5001255298
 20
81.0505989623
 30
0.0
 10
786.6325164144
 20
81.4223347989
 30
0.0
 10
786.1663425338
 20
81.5660504847
 30
0.0
  0
SPLINE
  5
433
100
AcDbEntity
  8
0
100
AcDbSpline
 62
7
  6
CONTINUOUS
 70
0
 71
3
 72
15
 73
11
 74
0
 42
0.0000001
 43
0.0000001
 44
0.0000000001
 40
0.0
 40
0.0
 40
0.0
 40
0.0
 40
0.1047415988
 40
0.222328371
 40
0.3560160977
 40
0.5
 40
0.6439839023
 40
0.777671629
 40
0.8952584012
 40
1.0
 40
1.0
 40
1.0
 40
1.0
 10
772.4488803281
 20
77.0754175751
 30
0.0
 10
772.4488803281
 20
76.8455358593
 30
0.0
 10
772.5982023889
 20
76.3518022848
 30
0.0
 10
773.1697084154
 20
75.7863964347
 30
0.0
 10
773.9733041337
 20
75.4234121491
 30
0.0
 10
774.9020683125
 20
75.2978889581
 30
0.0
 10
775.8308324912
 20
75.4234121491
 30
0.0
 10
776.6344282096
 20
75.7863964347
 30
0.0
 10
777.2059342361
 20
76.3518022848
 30
0.0
 10
777.3552562969
 20
76.8455358593
 30
0.0
 10
777.3552562969
 20
77.0754175751
 30
0.0
  0
SPLINE
  5
434
100
AcDbEntity
  8
0
100
AcDbSpline
 62
7
  6
CONTINUOUS
 70
0
 71
3
 72
11
 73
7
 74
0
 42
0.0000001
 43
0.0000001
 44
0.0000000001
 40
0.0
 40
0.0
 40
0.0
 40
0.0
 40
0.2094689415
 40
0.4446609502
 40
0.7120169424
 40
1.0
 40
1.0
 40
1.0
 40
1.0
 10
769.3199914935
 20
79.7802278983
 30
0.0
 10
769.3199550761
 20
80.0229896454
 30
0.0
 10
769.1620577042
 20
80.5443588483
 30
0.0
 10
768.5583564028
 20
81.1414122675
 30
0.0
 10
767.710284695
 20
81.524760614
 30
0.0
 10
767.0626351582
 20
81.6120124255
 30
0.0
 10
766.7288803281
 20
81.6120124255
 30
0.0
  0
SPLINE
  5
435
100
AcDbEntity
  8
0
100
AcDbSpline
 62
7
  6
CONTINUOUS
 70
0
 71
3
 72
9
 73
5
 74
0
 42
0.0000001
 43
0.0000001
 44
0.0000000001
 40
0.0
 40
0.0
 40
0.0
 40
0.0
 40
0.4402133985
 40
1.0
 40
1.0
 40
1.0
 40
1.0
 10
755.1188386362
 20
77.1720889464
 30
0.0
 10
755.1188386362
 20
77.1419559684
 30
0.0
 10
755.1652457623
 20
77.0763378343
 30
0.0
 10
755.2365207717
 20
77.0617802885
 30
0.0
 10
755.2748386362
 20
77.0617802885
 30
0.0
  0
SPLINE
  5
436
100
AcDbEntity
  8
0
100
AcDbSpline
 62
7
  6
CONTINUOUS
 70
0
 71
3
 72
9
 73
5
 74
0
 42
0.0000001
 43
0.0000001
 44
0.0000000001
 40
0.0
 40
0.0
 40
0.0
 40
0.0
 40
0.4402133985
 40
1.0
 40
1.0
 40
1.0
 40
1.0
 10
756.1913386362
 20
77.2272432753
 30
0.0
 10
756.1913386362
 20
77.2573762533
 30
0.0
 10
756.14493151
 20
77.3229943875
 30
0.0
 10
756.0736565006
 20
77.3375519332
 30
0.0
 10
756.0353386362
 20
77.3375519332
 30
0.0
  0
SPLINE
  5
437
100
AcDbEntity
  8
0
100
AcDbSpline
 62
7
  6
CONTINUOUS
 70
0
 71
3
 72
9
 73
5
 74
0
 42
0.0000001
 43
0.0000001
 44
0.0000000001
 40
0.0
 40
0.0
 40
0.0
 40
0.0
 40
0.4402133985
 40
1.0
 40
1.0
 40
1.0
 40
1.0
 10
756.1913386362
 20
79.984959722
 30
0.0
 10
756.1913386362
 20
80.0150926999
 30
0.0
 10
756.14493151
 20
80.0807108341
 30
0.0
 10
756.0736565006
 20
80.0952683798
 30
0.0
 10
756.0353386362
 20
80.0952683798
 30
0.0
  0
SPLINE
  5
438
100
AcDbEntity
  8
0
100
AcDbSpline
 62
7
  6
CONTINUOUS
 70
0
 71
3
 72
11
 73
7
 74
0
 42
0.0000001
 43
0.0000001
 44
0.0000000001
 40
0.0
 40
0.0
 40
0.0
 40
0.0
 40
0.2094668498
 40
0.4446559298
 40
0.7120302568
 40
1.0
 40
1.0
 40
1.0
 40
1.0
 10
754.0463386362
 20
78.5785243342
 30
0.0
 10
754.0463386362
 20
78.541981237
 30
0.0
 10
754.0700707381
 20
78.4634886062
 30
0.0
 10
754.1609493882
 20
78.3736024726
 30
0.0
 10
754.2886061254
 20
78.3158872798
 30
0.0
 10
754.3861001076
 20
78.3027526895
 30
0.0
 10
754.4363386362
 20
78.3027526895
 30
0.0
  0
SPLINE
  5
439
100
AcDbEntity
  8
0
100
AcDbSpline
 62
7
  6
CONTINUOUS
 70
0
 71
3
 72
11
 73
7
 74
0
 42
0.0000001
 43
0.0000001
 44
0.0000000001
 40
0.0
 40
0.0
 40
0.0
 40
0.0
 40
0.2094668498
 40
0.4446559298
 40
0.7120302568
 40
1.0
 40
1.0
 40
1.0
 40
1.0
 10
754.0463386362
 20
75.8208078876
 30
0.0
 10
754.0463386362
 20
75.7842647904
 30
0.0
 10
754.0700707381
 20
75.7057721595
 30
0.0
 10
754.1609493882
 20
75.615886026
 30
0.0
 10
754.2886061254
 20
75.5581708331
 30
0.0
 10
754.3861001076
 20
75.5450362429
 30
0.0
 10
754.4363386362
 20
75.5450362429
 30
0.0
  0
SPLINE
  5
43A
100
AcDbEntity
  8
0
100
AcDbSpline
 62
7
  6
CONTINUOUS
 70
0
 71
3
 72
9
 73
5
 74
0
 42
0.0000001
 43
0.0000001
 44
0.0000000001
 40
0.0
 40
0.0
 40
0.0
 40
0.0
 40
0.2432035461
 40
1.0
 40
1.0
 40
1.0
 40
1.0
 10
759.3113386362
 20
81.0604691361
 30
0.0
 10
759.3113386362
 20
81.0821110378
 30
0.0
 10
759.303938904
 20
81.1711009386
 30
0.0
 10
759.2656977744
 20
81.2562287551
 30
0.0
 10
759.2263250712
 20
81.3108650391
 30
0.0
  0
SPLINE
  5
43B
100
AcDbEntity
  8
0
100
AcDbSpline
 62
7
  6
CONTINUOUS
 70
0
 71
3
 72
9
 73
5
 74
0
 42
0.0000001
 43
0.0000001
 44
0.0000000001
 40
0.0
 40
0.0
 40
0.0
 40
0.0
 40
0.2250156934
 40
1.0
 40
1.0
 40
1.0
 40
1.0
 10
759.2263250712
 20
81.3108650391
 30
0.0
 10
759.1924005139
 20
81.3579410995
 30
0.0
 10
759.0061990574
 20
81.5415017976
 30
0.0
 10
758.7311884099
 20
81.6120124255
 30
0.0
 10
758.5313386362
 20
81.6120124255
 30
0.0
  0
SPLINE
  5
43C
100
AcDbEntity
  8
RUNDUNGEN
100
AcDbSpline
 62
7
  6
CONTINUOUS
 70
0
 71
3
 72
10
 73
6
 74
0
 42
0.0000001
 43
0.0000001
 44
0.0000000001
 40
0.0
 40
0.0
 40
0.0
 40
0.0
 40
0.2265435863
 40
0.4650408478
 40
1.0
 40
1.0
 40
1.0
 40
1.0
 10
728.085087592
 20
83.8207320492
 30
0.0
 10
728.0851573968
 20
83.931498738
 30
0.0
 10
728.1255268946
 20
84.1605479459
 30
0.0
 10
728.3633511578
 20
84.5951609629
 30
0.0
 10
728.682192287
 20
84.8333990633
 30
0.0
 10
728.9165979465
 20
84.9494583447
 30
0.0
  0
SPLINE
  5
43D
100
AcDbEntity
  8
RUNDUNGEN
100
AcDbSpline
 62
7
  6
CONTINUOUS
 70
0
 71
3
 72
9
 73
5
 74
0
 42
0.0000001
 43
0.0000001
 44
0.0000000001
 40
0.0
 40
0.0
 40
0.0
 40
0.0
 40
0.4805181646
 40
1.0
 40
1.0
 40
1.0
 40
1.0
 10
728.0850859117
 20
80.2851432994
 30
0.0
 10
728.0850059406
 20
80.1435908693
 30
0.0
 10
728.1522719832
 20
79.846229836
 30
0.0
 10
728.3300483963
 20
79.6022873928
 30
0.0
 10
728.4377255111
 20
79.4935493204
 30
0.0
  0
SPLINE
  5
43E
100
AcDbEntity
  8
RUNDUNGEN
100
AcDbSpline
 62
7
  6
CONTINUOUS
 70
0
 71
3
 72
11
 73
7
 74
0
 42
0.0000001
 43
0.0000001
 44
0.0000000001
 40
0.0
 40
0.0
 40
0.0
 40
0.0
 40
0.2256920307
 40
0.4632775486
 40
0.7205987639
 40
1.0
 40
1.0
 40
1.0
 40
1.0
 10
714.5332073495
 20
98.4075356356
 30
0.0
 10
714.5331410635
 20
98.7485873528
 30
0.0
 10
714.6564753178
 20
99.4537017882
 30
0.0
 10
715.1869540067
 20
100.4231139965
 30
0.0
 10
716.0183794793
 20
101.2641459161
 30
0.0
 10
716.7133708956
 20
101.696333217
 30
0.0
 10
717.0917458062
 20
101.8836747697
 30
0.0
  0
SPLINE
  5
43F
100
AcDbEntity
  8
RUNDUNGEN
100
AcDbSpline
 62
7
  6
CONTINUOUS
 70
0
 71
3
 72
9
 73
5
 74
0
 42
0.0000001
 43
0.0000001
 44
0.0000000001
 40
0.0
 40
0.0
 40
0.0
 40
0.0
 40
0.4805190228
 40
1.0
 40
1.0
 40
1.0
 40
1.0
 10
714.5332073495
 20
94.8720017297
 30
0.0
 10
714.5332919113
 20
94.4369188006
 30
0.0
 10
714.7409074446
 20
93.5231825895
 30
0.0
 10
715.2873313493
 20
92.7735161582
 30
0.0
 10
715.6182921586
 20
92.4392943457
 30
0.0
  0
SPLINE
  5
440
100
AcDbEntity
  8
RUNDUNGEN
100
AcDbSpline
 62
7
  6
CONTINUOUS
 70
0
 71
3
 72
11
 73
7
 74
0
 42
0.0000001
 43
0.0000001
 44
0.0000000001
 40
0.0
 40
0.0
 40
0.0
 40
0.0
 40
0.2377805525
 40
0.4809056656
 40
0.7339193662
 40
1.0
 40
1.0
 40
1.0
 40
1.0
 10
790.7603481212
 20
53.0687313479
 30
0.0
 10
790.7603481462
 20
53.7900360354
 30
0.0
 10
790.9203611582
 20
55.2535166079
 30
0.0
 10
791.6298541161
 20
57.3798244331
 30
0.0
 10
792.7871157446
 20
59.3973059317
 30
0.0
 10
793.8093689534
 20
60.6067922556
 30
0.0
 10
794.3773072354
 20
61.1803265131
 30
0.0
  0
SPLINE
  5
441
100
AcDbEntity
  8
RUNDUNGEN
100
AcDbSpline
 62
7
  6
CONTINUOUS
 70
0
 71
3
 72
9
 73
5
 74
0
 42
0.0000001
 43
0.0000001
 44
0.0000000001
 40
0.0
 40
0.0
 40
0.0
 40
0.0
 40
0.4822746168
 40
1.0
 40
1.0
 40
1.0
 40
1.0
 10
790.9174395291
 20
54.8352722444
 30
0.0
 10
791.1236373121
 20
53.6785629628
 30
0.0
 10
791.9774367887
 20
51.343659711
 30
0.0
 10
793.4898084814
 20
49.3889123157
 30
0.0
 10
794.3773072354
 20
48.4926689121
 30
0.0
  0
SPLINE
  5
442
100
AcDbEntity
  8
RUNDUNGEN
100
AcDbSpline
 62
7
  6
CONTINUOUS
 70
0
 71
3
 72
9
 73
5
 74
0
 42
0.0000001
 43
0.0000001
 44
0.0000000001
 40
0.0
 40
0.0
 40
0.0
 40
0.0
 40
0.4805364501
 40
1.0
 40
1.0
 40
1.0
 40
1.0
 10
726.474786692
 20
26.8594667043
 30
0.0
 10
726.474786692
 20
27.2946866184
 30
0.0
 10
726.6822560668
 20
28.2087394525
 30
0.0
 10
727.2288325335
 20
28.9586417354
 30
0.0
 10
727.5598744263
 20
29.2929454304
 30
0.0
  0
SPLINE
  5
443
100
AcDbEntity
  8
BEZUGSACHSEN
100
AcDbSpline
 62
7
  6
CONTINUOUS
 70
0
 71
3
 72
9
 73
5
 74
0
 42
0.0000001
 43
0.0000001
 44
0.0000000001
 40
0.0
 40
0.0
 40
0.0
 40
0.0
 40
0.4744816413
 40
1.0
 40
1.0
 40
1.0
 40
1.0
 10
765.5776120313
 20
93.6044344674
 30
0.0
 10
765.8494428941
 20
93.228520262
 30
0.0
 10
766.5756124651
 20
92.5439086646
 30
0.0
 10
767.4596346766
 20
92.0994138767
 30
0.0
 10
767.9420118008
 20
91.922491301
 30
0.0
  0
SPLINE
  5
444
100
AcDbEntity
  8
BEZUGSACHSEN
100
AcDbSpline
 62
7
  6
CONTINUOUS
 70
0
 71
3
 72
9
 73
5
 74
0
 42
0.0000001
 43
0.0000001
 44
0.0000000001
 40
0.0
 40
0.0
 40
0.0
 40
0.0
 40
0.5255183587
 40
1.0
 40
1.0
 40
1.0
 40
1.0
 10
773.0075615832
 20
91.922491301
 30
0.0
 10
773.4899387075
 20
92.0994138767
 30
0.0
 10
774.3739609189
 20
92.5439086646
 30
0.0
 10
775.10013049
 20
93.228520262
 30
0.0
 10
775.3719613527
 20
93.6044344674
 30
0.0
  0
SPLINE
  5
445
100
AcDbEntity
  8
BEZUGSACHSEN
100
AcDbSpline
 62
7
  6
CONTINUOUS
 70
0
 71
3
 72
11
 73
7
 74
0
 42
0.0000001
 43
0.0000001
 44
0.0000000001
 40
0.0
 40
0.0
 40
0.0
 40
0.0
 40
0.2211899434
 40
0.4572145773
 40
0.7166495597
 40
1.0
 40
1.0
 40
1.0
 40
1.0
 10
775.974786692
 20
91.8391245283
 30
0.0
 10
775.974786692
 20
92.1972595458
 30
0.0
 10
775.8236096981
 20
92.9440373769
 30
0.0
 10
775.1865174787
 20
93.9389872272
 30
0.0
 10
774.2092870749
 20
94.7601225295
 30
0.0
 10
773.4097294181
 20
95.1460212545
 30
0.0
 10
772.9782629423
 20
95.3019589598
 30
0.0
  0
SPLINE
  5
446
100
AcDbEntity
  8
BEZUGSACHSEN
100
AcDbSpline
 62
7
  6
CONTINUOUS
 70
0
 71
3
 72
11
 73
7
 74
0
 42
0.0000001
 43
0.0000001
 44
0.0000000001
 40
0.0
 40
0.0
 40
0.0
 40
0.0
 40
0.2833504403
 40
0.5427854227
 40
0.7788100566
 40
1.0
 40
1.0
 40
1.0
 40
1.0
 10
767.9713104417
 20
95.3019589598
 30
0.0
 10
767.539843966
 20
95.1460212545
 30
0.0
 10
766.7402863091
 20
94.7601225295
 30
0.0
 10
765.7630559054
 20
93.9389872272
 30
0.0
 10
765.125963686
 20
92.9440373769
 30
0.0
 10
764.974786692
 20
92.1972595458
 30
0.0
 10
764.974786692
 20
91.8391245283
 30
0.0
  0
SPLINE
  5
447
100
AcDbEntity
  8
RUNDUNGEN
100
AcDbSpline
 62
7
  6
CONTINUOUS
 70
0
 71
3
 72
9
 73
5
 74
0
 42
0.0000001
 43
0.0000001
 44
0.0000000001
 40
0.0
 40
0.0
 40
0.0
 40
0.0
 40
0.5194633855
 40
1.0
 40
1.0
 40
1.0
 40
1.0
 10
813.3896989578
 20
29.2929454304
 30
0.0
 10
813.7207407456
 20
28.9586418414
 30
0.0
 10
814.2673172381
 20
28.2087396065
 30
0.0
 10
814.474786692
 20
27.2946867671
 30
0.0
 10
814.474786692
 20
26.8594667043
 30
0.0
  0
SPLINE
  5
448
100
AcDbEntity
  8
RUNDUNGEN
100
AcDbSpline
 62
7
  6
CONTINUOUS
 70
0
 71
3
 72
10
 73
6
 74
0
 42
0.0000001
 43
0.0000001
 44
0.0000000001
 40
0.0
 40
0.0
 40
0.0
 40
0.0
 40
0.5349738236
 40
0.7734707683
 40
1.0
 40
1.0
 40
1.0
 40
1.0
 10
827.134435755
 20
100.261355619
 30
0.0
 10
827.3748624614
 20
100.1423151879
 30
0.0
 10
827.7018919307
 20
99.8979569615
 30
0.0
 10
827.9458030775
 20
99.4521836715
 30
0.0
 10
827.9872006839
 20
99.2172639582
 30
0.0
 10
827.9872684108
 20
99.1036623797
 30
0.0
  0
SPLINE
  5
449
100
AcDbEntity
  8
RUNDUNGEN
100
AcDbSpline
 62
7
  6
CONTINUOUS
 70
0
 71
3
 72
10
 73
6
 74
0
 42
0.0000001
 43
0.0000001
 44
0.0000000001
 40
0.0
 40
0.0
 40
0.0
 40
0.0
 40
0.480919237
 40
0.7459271749
 40
1.0
 40
1.0
 40
1.0
 40
1.0
 10
817.4681016216
 20
103.3209294802
 30
0.0
 10
817.8002051838
 20
103.6563053052
 30
0.0
 10
818.5489774378
 20
103.9441961592
 30
0.0
 10
819.531507983
 20
103.9268929021
 30
0.0
 10
820.030096352
 20
103.7788667901
 30
0.0
 10
820.2535585829
 20
103.6682258355
 30
0.0
  0
SPLINE
  5
44A
100
AcDbEntity
  8
0
100
AcDbSpline
 62
7
  6
CONTINUOUS
 70
0
 71
3
 72
9
 73
5
 74
0
 42
0.0000001
 43
0.0000001
 44
0.0000000001
 40
0.0
 40
0.0
 40
0.0
 40
0.0
 40
0.2469303797
 40
1.0
 40
1.0
 40
1.0
 40
1.0
 10
777.8812851505
 20
101.7938123788
 30
0.0
 10
777.4860379105
 20
101.9052280721
 30
0.0
 10
775.8746550361
 20
102.3176630462
 30
0.0
 10
774.2245680087
 20
102.5768343899
 30
0.0
 10
772.9771515955
 20
102.6881229584
 30
0.0
  0
SPLINE
  5
44B
100
AcDbEntity
  8
0
100
AcDbSpline
 62
7
  6
CONTINUOUS
 70
0
 71
3
 72
9
 73
5
 74
0
 42
0.0000001
 43
0.0000001
 44
0.0000000001
 40
0.0
 40
0.0
 40
0.0
 40
0.0
 40
0.2528805792
 40
1.0
 40
1.0
 40
1.0
 40
1.0
 10
767.9724217886
 20
102.6881229584
 30
0.0
 10
767.5535453033
 20
102.6507527876
 30
0.0
 10
765.900730211
 20
102.4656981666
 30
0.0
 10
764.2641432363
 20
102.1309102778
 30
0.0
 10
763.0682882336
 20
101.7938123788
 30
0.0
  0
SPLINE
  5
44C
100
AcDbEntity
  8
RUNDUNGEN
100
AcDbSpline
 62
7
  6
CONTINUOUS
 70
0
 71
3
 72
9
 73
5
 74
0
 42
0.0000001
 43
0.0000001
 44
0.0000000001
 40
0.0
 40
0.0
 40
0.0
 40
0.0
 40
0.2416515958
 40
1.0
 40
1.0
 40
1.0
 40
1.0
 10
718.7300498948
 20
102.6948343451
 30
0.0
 10
719.8135010314
 20
103.2312742954
 30
0.0
 10
724.4966341132
 20
105.0334516945
 30
0.0
 10
729.7416049886
 20
105.2758501779
 30
0.0
 10
733.4761269316
 20
104.6066292054
 30
0.0
  0
SPLINE
  5
44D
100
AcDbEntity
  8
0
100
AcDbSpline
 62
7
  6
CONTINUOUS
 70
0
 71
3
 72
11
 73
7
 74
0
 42
0.0000001
 43
0.0000001
 44
0.0000000001
 40
0.0
 40
0.0
 40
0.0
 40
0.0
 40
0.2880052506
 40
0.5553344723
 40
0.7905070702
 40
1.0
 40
1.0
 40
1.0
 40
1.0
 10
752.2913386362
 20
81.6120124255
 30
0.0
 10
752.1908498939
 20
81.6120124255
 30
0.0
 10
751.9958551991
 20
81.5857632812
 30
0.0
 10
751.7405961138
 20
81.4702647414
 30
0.0
 10
751.5587921792
 20
81.2905642535
 30
0.0
 10
751.5113386362
 20
81.1335639183
 30
0.0
 10
751.5113386362
 20
81.0604691361
 30
0.0
  0
SPLINE
  5
44E
100
AcDbEntity
  8
0
100
AcDbSpline
 62
7
  6
CONTINUOUS
 70
0
 71
3
 72
11
 73
7
 74
0
 42
0.0000001
 43
0.0000001
 44
0.0000000001
 40
0.0
 40
0.0
 40
0.0
 40
0.0
 40
0.2879697432
 40
0.5553440702
 40
0.7905331502
 40
1.0
 40
1.0
 40
1.0
 40
1.0
 10
756.3863386362
 20
78.3027526895
 30
0.0
 10
756.4365771647
 20
78.3027526895
 30
0.0
 10
756.534071147
 20
78.3158872798
 30
0.0
 10
756.6617278842
 20
78.3736024727
 30
0.0
 10
756.7526065343
 20
78.4634886062
 30
0.0
 10
756.7763386362
 20
78.541981237
 30
0.0
 10
756.7763386362
 20
78.5785243342
 30
0.0
  0
SPLINE
  5
44F
100
AcDbEntity
  8
0
100
AcDbSpline
 62
7
  6
CONTINUOUS
 70
0
 71
3
 72
11
 73
7
 74
0
 42
0.0000001
 43
0.0000001
 44
0.0000000001
 40
0.0
 40
0.0
 40
0.0
 40
0.0
 40
0.2879697432
 40
0.5553440702
 40
0.7905331502
 40
1.0
 40
1.0
 40
1.0
 40
1.0
 10
756.3863386362
 20
75.5450362429
 30
0.0
 10
756.4365771647
 20
75.5450362429
 30
0.0
 10
756.534071147
 20
75.5581708331
 30
0.0
 10
756.6617278842
 20
75.615886026
 30
0.0
 10
756.7526065343
 20
75.7057721595
 30
0.0
 10
756.7763386362
 20
75.7842647904
 30
0.0
 10
756.7763386362
 20
75.8208078876
 30
0.0
  0
SPLINE
  5
450
100
AcDbEntity
  8
0
100
AcDbSpline
 62
7
  6
CONTINUOUS
 70
0
 71
3
 72
9
 73
5
 74
0
 42
0.0000001
 43
0.0000001
 44
0.0000000001
 40
0.0
 40
0.0
 40
0.0
 40
0.0
 40
0.5597866015
 40
1.0
 40
1.0
 40
1.0
 40
1.0
 10
754.7873386362
 20
80.0952683798
 30
0.0
 10
754.7490207717
 20
80.0952683798
 30
0.0
 10
754.6777457623
 20
80.0807108341
 30
0.0
 10
754.6313386362
 20
80.0150926999
 30
0.0
 10
754.6313386362
 20
79.984959722
 30
0.0
  0
SPLINE
  5
451
100
AcDbEntity
  8
0
100
AcDbSpline
 62
7
  6
CONTINUOUS
 70
0
 71
3
 72
9
 73
5
 74
0
 42
0.0000001
 43
0.0000001
 44
0.0000000001
 40
0.0
 40
0.0
 40
0.0
 40
0.0
 40
0.5597866015
 40
1.0
 40
1.0
 40
1.0
 40
1.0
 10
754.7873386362
 20
77.3375519332
 30
0.0
 10
754.7490207717
 20
77.3375519332
 30
0.0
 10
754.6777457623
 20
77.3229943875
 30
0.0
 10
754.6313386362
 20
77.2573762533
 30
0.0
 10
754.6313386362
 20
77.2272432753
 30
0.0
  0
SPLINE
  5
452
100
AcDbEntity
  8
0
100
AcDbSpline
 62
7
  6
CONTINUOUS
 70
0
 71
3
 72
9
 73
5
 74
0
 42
0.0000001
 43
0.0000001
 44
0.0000000001
 40
0.0
 40
0.0
 40
0.0
 40
0.0
 40
0.5597866015
 40
1.0
 40
1.0
 40
1.0
 40
1.0
 10
755.5478386362
 20
77.0617802885
 30
0.0
 10
755.5861565006
 20
77.0617802885
 30
0.0
 10
755.65743151
 20
77.0763378343
 30
0.0
 10
755.7038386362
 20
77.1419559684
 30
0.0
 10
755.7038386362
 20
77.1720889464
 30
0.0
  0
SPLINE
  5
453
100
AcDbEntity
  8
0
100
AcDbSpline
 62
7
  6
CONTINUOUS
 70
0
 71
3
 72
11
 73
7
 74
0
 42
0.0000001
 43
0.0000001
 44
0.0000000001
 40
0.0
 40
0.0
 40
0.0
 40
0.0
 40
0.2880001164
 40
0.5553425139
 40
0.7905343079
 40
1.0
 40
1.0
 40
1.0
 40
1.0
 10
766.7288803281
 20
78.7841273423
 30
0.0
 10
766.910287066
 20
78.7841273423
 30
0.0
 10
767.2622974486
 20
78.8315448682
 30
0.0
 10
767.723178893
 20
79.0399674227
 30
0.0
 10
768.0513166564
 20
79.3644649724
 30
0.0
 10
768.1369727402
 20
79.647877082
 30
0.0
 10
768.1369727402
 20
79.7798162228
 30
0.0
  0
SPLINE
  5
454
100
AcDbEntity
  8
0
100
AcDbSpline
 62
7
  6
CONTINUOUS
 70
0
 71
3
 72
8
 73
4
 74
0
 42
0.0000001
 43
0.0000001
 44
0.0000000001
 40
0.0
 40
0.0
 40
0.0
 40
0.0
 40
1.0
 40
1.0
 40
1.0
 40
1.0
 10
786.1663425338
 20
81.5660504847
 30
0.0
 10
786.0659709495
 20
81.5969938122
 30
0.0
 10
785.9596465483
 20
81.6120124255
 30
0.0
 10
785.8546134848
 20
81.6120124255
 30
0.0
  0
SPLINE
  5
455
100
AcDbEntity
  8
0
100
AcDbSpline
 62
7
  6
CONTINUOUS
 70
0
 71
3
 72
11
 73
7
 74
0
 42
0.0000001
 43
0.0000001
 44
0.0000000001
 40
0.0
 40
0.0
 40
0.0
 40
0.0
 40
0.2779817175
 40
0.5346952233
 40
0.772857858
 40
1.0
 40
1.0
 40
1.0
 40
1.0
 10
786.1190796997
 20
75.418014152
 30
0.0
 10
786.3924760908
 20
75.5660584885
 30
0.0
 10
786.8933829067
 20
75.9021779494
 30
0.0
 10
787.4886328916
 20
76.5410567026
 30
0.0
 10
787.866211228
 20
77.26744672
 30
0.0
 10
787.9536307874
 20
77.7913206342
 30
0.0
 10
787.9536307874
 20
78.0453658212
 30
0.0
  0
SPLINE
  5
456
100
AcDbEntity
  8
0
100
AcDbSpline
 62
7
  6
CONTINUOUS
 70
0
 71
3
 72
9
 73
5
 74
0
 42
0.0000001
 43
0.0000001
 44
0.0000000001
 40
0.0
 40
0.0
 40
0.0
 40
0.0
 40
0.2591205677
 40
1.0
 40
1.0
 40
1.0
 40
1.0
 10
785.8819609061
 20
75.3611884798
 30
0.0
 10
785.9031375756
 20
75.3611884798
 30
0.0
 10
785.9847172396
 20
75.3658623306
 30
0.0
 10
786.0658361992
 20
75.3891827593
 30
0.0
 10
786.1190796997
 20
75.418014152
 30
0.0
  0
SPLINE
  5
457
100
AcDbEntity
  8
RUNDUNGEN
100
AcDbSpline
 62
7
  6
CONTINUOUS
 70
0
 71
3
 72
11
 73
7
 74
0
 42
0.0000001
 43
0.0000001
 44
0.0000000001
 40
0.0
 40
0.0
 40
0.0
 40
0.0
 40
0.287975155
 40
0.5553539353
 40
0.7905396327
 40
1.0
 40
1.0
 40
1.0
 40
1.0
 10
735.974786692
 20
10.519496645
 30
0.0
 10
736.0391962863
 20
10.519496645
 30
0.0
 10
736.1641908235
 20
10.5363366995
 30
0.0
 10
736.3278541812
 20
10.6103324772
 30
0.0
 10
736.4443630685
 20
10.7255718452
 30
0.0
 10
736.474786692
 20
10.8262013508
 30
0.0
 10
736.474786692
 20
10.8730500356
 30
0.0
  0
SPLINE
  5
458
100
AcDbEntity
  8
RUNDUNGEN
100
AcDbSpline
 62
7
  6
CONTINUOUS
 70
0
 71
3
 72
13
 73
9
 74
0
 42
0.0000001
 43
0.0000001
 44
0.0000000001
 40
0.0
 40
0.0
 40
0.0
 40
0.0
 40
0.1034546064
 40
0.2106689685
 40
0.3244963058
 40
0.4464318167
 40
0.7129512659
 40
1.0
 40
1.0
 40
1.0
 40
1.0
 10
726.474786692
 20
14.7621373321
 30
0.0
 10
726.474786692
 20
14.4835781564
 30
0.0
 10
726.5556254525
 20
13.9134431397
 30
0.0
 10
726.9093715313
 20
13.1044412247
 30
0.0
 10
727.476817416
 20
12.3655781858
 30
0.0
 10
728.5139912446
 20
11.4847588007
 30
0.0
 10
730.2037601298
 20
10.7207494259
 30
0.0
 10
731.7018867554
 20
10.519496645
 30
0.0
 10
732.474786692
 20
10.519496645
 30
0.0
  0
SPLINE
  5
459
100
AcDbEntity
  8
RUNDUNGEN
100
AcDbSpline
 62
7
  6
CONTINUOUS
 70
0
 71
3
 72
10
 73
6
 74
0
 42
0.0000001
 43
0.0000001
 44
0.0000000001
 40
0.0
 40
0.0
 40
0.0
 40
0.0
 40
0.4808964563
 40
0.7459158441
 40
1.0
 40
1.0
 40
1.0
 40
1.0
 10
719.0884295985
 20
88.9349651554
 30
0.0
 10
719.4122154577
 20
88.6079889888
 30
0.0
 10
720.1422479579
 20
88.327290053
 30
0.0
 10
721.1002174549
 20
88.3441431699
 30
0.0
 10
721.5863645932
 20
88.4884713926
 30
0.0
 10
721.8042501358
 20
88.596351209
 30
0.0
  0
SPLINE
  5
45A
100
AcDbEntity
  8
RUNDUNGEN
100
AcDbSpline
 62
7
  6
CONTINUOUS
 70
0
 71
3
 72
9
 73
5
 74
0
 42
0.0000001
 43
0.0000001
 44
0.0000000001
 40
0.0
 40
0.0
 40
0.0
 40
0.0
 40
0.5194816466
 40
1.0
 40
1.0
 40
1.0
 40
1.0
 10
827.6255869708
 20
94.7562062071
 30
0.0
 10
827.7360344873
 20
94.8677419784
 30
0.0
 10
827.9183829687
 20
95.1179642227
 30
0.0
 10
827.9873617434
 20
95.4229829419
 30
0.0
 10
827.9872667582
 20
95.5681774465
 30
0.0
  0
SPLINE
  5
45B
100
AcDbEntity
  8
RUNDUNGEN
100
AcDbSpline
 62
7
  6
CONTINUOUS
 70
0
 71
3
 72
13
 73
9
 74
0
 42
0.0000001
 43
0.0000001
 44
0.0000000001
 40
0.0
 40
0.0
 40
0.0
 40
0.0
 40
0.2870489714
 40
0.5535683803
 40
0.6755038887
 40
0.7893312167
 40
0.8965454657
 40
1.0
 40
1.0
 40
1.0
 40
1.0
 10
808.474786692
 20
10.519496645
 30
0.0
 10
809.2476872671
 20
10.519496645
 30
0.0
 10
810.7458144604
 20
10.7207496286
 30
0.0
 10
812.4355836059
 20
11.484759707
 30
0.0
 10
813.4727570803
 20
12.3655793092
 30
0.0
 10
814.0402024222
 20
13.1044423365
 30
0.0
 10
814.3939481082
 20
13.9134438271
 30
0.0
 10
814.474786692
 20
14.4835783508
 30
0.0
 10
814.474786692
 20
14.7621373321
 30
0.0
  0
SPLINE
  5
45C
100
AcDbEntity
  8
RUNDUNGEN
100
AcDbSpline
 62
7
  6
CONTINUOUS
 70
0
 71
3
 72
11
 73
7
 74
0
 42
0.0000001
 43
0.0000001
 44
0.0000000001
 40
0.0
 40
0.0
 40
0.0
 40
0.0
 40
0.2094711443
 40
0.4446658249
 40
0.7120384825
 40
1.0
 40
1.0
 40
1.0
 40
1.0
 10
804.474786692
 20
10.8730500356
 30
0.0
 10
804.474786692
 20
10.8261989564
 30
0.0
 10
804.5052141299
 20
10.7255652439
 30
0.0
 10
804.6217279558
 20
10.6103267101
 30
0.0
 10
804.785390131
 20
10.5363347555
 30
0.0
 10
804.9103801701
 20
10.519496645
 30
0.0
 10
804.974786692
 20
10.519496645
 30
0.0
  0
SPLINE
  5
45D
100
AcDbEntity
  8
RUNDUNGEN
100
AcDbSpline
 62
7
  6
CONTINUOUS
 70
0
 71
3
 72
9
 73
5
 74
0
 42
0.0000001
 43
0.0000001
 44
0.0000000001
 40
0.0
 40
0.0
 40
0.0
 40
0.0
 40
0.4729729907
 40
1.0
 40
1.0
 40
1.0
 40
1.0
 10
784.294882616
 20
23.0860238206
 30
0.0
 10
784.9360186269
 20
22.4385706067
 30
0.0
 10
786.6639743539
 20
21.4365980664
 30
0.0
 10
788.6040548618
 20
21.1260983628
 30
0.0
 10
789.6193709039
 20
21.1260983628
 30
0.0
  0
SPLINE
  5
45E
100
AcDbEntity
  8
RUNDUNGEN
100
AcDbSpline
 62
7
  6
CONTINUOUS
 70
0
 71
3
 72
9
 73
5
 74
0
 42
0.0000001
 43
0.0000001
 44
0.0000000001
 40
0.0
 40
0.0
 40
0.0
 40
0.0
 40
0.5270273161
 40
1.0
 40
1.0
 40
1.0
 40
1.0
 10
751.3302024802
 20
21.1260983628
 30
0.0
 10
752.3455191146
 20
21.1260983628
 30
0.0
 10
754.2855996835
 20
21.4365982539
 30
0.0
 10
756.0135551722
 20
22.4385710259
 30
0.0
 10
756.6546907681
 20
23.0860238206
 30
0.0
  0
SPLINE
  5
45F
100
AcDbEntity
  8
RUNDUNGEN
100
AcDbSpline
 62
7
  6
CONTINUOUS
 70
0
 71
3
 72
13
 73
9
 74
0
 42
0.0000001
 43
0.0000001
 44
0.0000000001
 40
0.0
 40
0.0
 40
0.0
 40
0.0
 40
0.1034546064
 40
0.2106689685
 40
0.3244963058
 40
0.4464318167
 40
0.7129512659
 40
1.0
 40
1.0
 40
1.0
 40
1.0
 10
736.474786692
 20
16.8834576757
 30
0.0
 10
736.474786692
 20
17.1620168514
 30
0.0
 10
736.5556254525
 20
17.7321518681
 30
0.0
 10
736.9093715313
 20
18.541153783
 30
0.0
 10
737.476817416
 20
19.2800168219
 30
0.0
 10
738.5139912446
 20
20.160836207
 30
0.0
 10
740.2037601298
 20
20.9248455818
 30
0.0
 10
741.7018867554
 20
21.1260983628
 30
0.0
 10
742.474786692
 20
21.1260983628
 30
0.0
  0
SPLINE
  5
460
100
AcDbEntity
  8
RUNDUNGEN
100
AcDbSpline
 62
7
  6
CONTINUOUS
 70
0
 71
3
 72
13
 73
9
 74
0
 42
0.0000001
 43
0.0000001
 44
0.0000000001
 40
0.0
 40
0.0
 40
0.0
 40
0.0
 40
0.2870489714
 40
0.5535683803
 40
0.6755038887
 40
0.7893312167
 40
0.8965454657
 40
1.0
 40
1.0
 40
1.0
 40
1.0
 10
798.474786692
 20
21.1260983628
 30
0.0
 10
799.2476872671
 20
21.1260983628
 30
0.0
 10
800.7458144604
 20
20.9248453792
 30
0.0
 10
802.4355836059
 20
20.1608353008
 30
0.0
 10
803.4727570803
 20
19.2800156985
 30
0.0
 10
804.0402024222
 20
18.5411526713
 30
0.0
 10
804.3939481082
 20
17.7321511807
 30
0.0
 10
804.474786692
 20
17.162016657
 30
0.0
 10
804.474786692
 20
16.8834576757
 30
0.0
  0
SPLINE
  5
461
100
AcDbEntity
  8
RUNDUNGEN
100
AcDbSpline
 62
7
  6
CONTINUOUS
 70
0
 71
3
 72
13
 73
9
 74
0
 42
0.0000001
 43
0.0000001
 44
0.0000000001
 40
0.0
 40
0.0
 40
0.0
 40
0.0
 40
0.2360077347
 40
0.3661261322
 40
0.5000000765
 40
0.633874052
 40
0.7639924192
 40
1.0
 40
1.0
 40
1.0
 40
1.0
 10
763.9215703377
 20
30.4245049728
 30
0.0
 10
764.7106583294
 20
31.221367959
 30
0.0
 10
766.2783388111
 20
32.1293371223
 30
0.0
 10
768.5805220051
 20
32.7303639991
 30
0.0
 10
770.4747879673
 20
32.8906560012
 30
0.0
 10
772.3690537531
 20
32.7303636121
 30
0.0
 10
774.6712361267
 20
32.1293364215
 30
0.0
 10
776.2389155692
 20
31.2213674394
 30
0.0
 10
777.0280030463
 20
30.4245049728
 30
0.0
  0
SPLINE
  5
462
100
AcDbEntity
  8
RUNDUNGEN
100
AcDbSpline
 62
7
  6
CONTINUOUS
 70
0
 71
3
 72
9
 73
5
 74
0
 42
0.0000001
 43
0.0000001
 44
0.0000000001
 40
0.0
 40
0.0
 40
0.0
 40
0.0
 40
0.5177253986
 40
1.0
 40
1.0
 40
1.0
 40
1.0
 10
746.5722661487
 20
48.4926689121
 30
0.0
 10
747.4597692828
 20
49.388916739
 30
0.0
 10
748.9721474931
 20
51.3436749298
 30
0.0
 10
749.825945554
 20
53.6785923529
 30
0.0
 10
750.0321402155
 20
54.8353080077
 30
0.0
  0
SPLINE
  5
463
100
AcDbEntity
  8
RUNDUNGEN
100
AcDbSpline
 62
7
  6
CONTINUOUS
 70
0
 71
3
 72
11
 73
7
 74
0
 42
0.0000001
 43
0.0000001
 44
0.0000000001
 40
0.0
 40
0.0
 40
0.0
 40
0.0
 40
0.2660806569
 40
0.5190943725
 40
0.7622194677
 40
1.0
 40
1.0
 40
1.0
 40
1.0
 10
746.5722661487
 20
61.1803265131
 30
0.0
 10
747.1402045529
 20
60.6067921322
 30
0.0
 10
748.162457934
 20
59.3973055309
 30
0.0
 10
749.3197196542
 20
57.3798236644
 30
0.0
 10
750.0292124753
 20
55.2535155521
 30
0.0
 10
750.1892252879
 20
53.7900348903
 30
0.0
 10
750.1892252629
 20
53.0687301714
 30
0.0
  0
SPLINE
  5
464
100
AcDbEntity
  8
RUNDUNGEN
100
AcDbSpline
 62
7
  6
CONTINUOUS
 70
0
 71
3
 72
10
 73
6
 74
0
 42
0.0000001
 43
0.0000001
 44
0.0000000001
 40
0.0
 40
0.0
 40
0.0
 40
0.0
 40
0.2540843695
 40
0.5191023225
 40
1.0
 40
1.0
 40
1.0
 40
1.0
 10
726.1457559705
 20
90.7459240836
 30
0.0
 10
726.5088988324
 20
90.9257239216
 30
0.0
 10
727.319142249
 20
91.1662700838
 30
0.0
 10
728.9157577316
 20
91.1943599536
 30
0.0
 10
730.1324790848
 20
90.7265291463
 30
0.0
 10
730.6721235326
 20
90.1815675062
 30
0.0
  0
SPLINE
  5
465
100
AcDbEntity
  8
RUNDUNGEN
100
AcDbSpline
 62
7
  6
CONTINUOUS
 70
0
 71
3
 72
9
 73
5
 74
0
 42
0.0000001
 43
0.0000001
 44
0.0000000001
 40
0.0
 40
0.0
 40
0.0
 40
0.0
 40
0.5194813996
 40
1.0
 40
1.0
 40
1.0
 40
1.0
 10
734.0562245071
 20
86.7641225107
 30
0.0
 10
734.2356901941
 20
86.5828885232
 30
0.0
 10
734.5319892165
 20
86.1763070418
 30
0.0
 10
734.6440956498
 20
85.6806918954
 30
0.0
 10
734.6439572317
 20
85.444765736
 30
0.0
  0
SPLINE
  5
466
100
AcDbEntity
  8
RUNDUNGEN
100
AcDbSpline
 62
7
  6
CONTINUOUS
 70
0
 71
3
 72
11
 73
7
 74
0
 42
0.0000001
 43
0.0000001
 44
0.0000000001
 40
0.0
 40
0.0
 40
0.0
 40
0.0
 40
0.2524374527
 40
0.5157480209
 40
0.7702932627
 40
1.0
 40
1.0
 40
1.0
 40
1.0
 10
798.8208475314
 20
91.8867596937
 30
0.0
 10
799.4912301571
 20
91.5548388435
 30
0.0
 10
800.9818969898
 20
91.1090471193
 30
0.0
 10
803.2906687951
 20
91.0766764384
 30
0.0
 10
805.4603419996
 20
91.6462784535
 30
0.0
 10
806.6982596062
 20
92.4449707025
 30
0.0
 10
807.1772184152
 20
92.9286487597
 30
0.0
  0
SPLINE
  5
467
100
AcDbEntity
  8
0
100
AcDbSpline
 62
7
  6
CONTINUOUS
 70
0
 71
3
 72
9
 73
5
 74
0
 42
0.0000001
 43
0.0000001
 44
0.0000000001
 40
0.0
 40
0.0
 40
0.0
 40
0.0
 40
0.4402133985
 40
1.0
 40
1.0
 40
1.0
 40
1.0
 10
755.7038386362
 20
78.8818731433
 30
0.0
 10
755.7038386362
 20
78.9120061213
 30
0.0
 10
755.65743151
 20
78.9776242554
 30
0.0
 10
755.5861565006
 20
78.9921818012
 30
0.0
 10
755.5478386362
 20
78.9921818012
 30
0.0
  0
SPLINE
  5
468
100
AcDbEntity
  8
0
100
AcDbSpline
 62
7
  6
CONTINUOUS
 70
0
 71
3
 72
11
 73
7
 74
0
 42
0.0000001
 43
0.0000001
 44
0.0000000001
 40
0.0
 40
0.0
 40
0.0
 40
0.0
 40
0.2094656921
 40
0.4446574861
 40
0.7119998836
 40
1.0
 40
1.0
 40
1.0
 40
1.0
 10
768.1369727402
 20
79.7798162228
 30
0.0
 10
768.1369727402
 20
79.9117553636
 30
0.0
 10
768.0513166564
 20
80.1951674733
 30
0.0
 10
767.723178893
 20
80.519665023
 30
0.0
 10
767.2622974486
 20
80.7280875775
 30
0.0
 10
766.910287066
 20
80.7755051033
 30
0.0
 10
766.7288803281
 20
80.7755051033
 30
0.0
  0
SPLINE
  5
469
100
AcDbEntity
  8
0
100
AcDbSpline
 62
7
  6
CONTINUOUS
 70
0
 71
3
 72
9
 73
5
 74
0
 42
0.0000001
 43
0.0000001
 44
0.0000000001
 40
0.0
 40
0.0
 40
0.0
 40
0.0
 40
0.4402133985
 40
1.0
 40
1.0
 40
1.0
 40
1.0
 10
754.6313386362
 20
78.8267188144
 30
0.0
 10
754.6313386362
 20
78.7965858364
 30
0.0
 10
754.6777457623
 20
78.7309677023
 30
0.0
 10
754.7490207717
 20
78.7164101565
 30
0.0
 10
754.7873386362
 20
78.7164101565
 30
0.0
  0
SPLINE
  5
46A
100
AcDbEntity
  8
0
100
AcDbSpline
 62
7
  6
CONTINUOUS
 70
0
 71
3
 72
11
 73
7
 74
0
 42
0.0000001
 43
0.0000001
 44
0.0000000001
 40
0.0
 40
0.0
 40
0.0
 40
0.0
 40
0.2094929298
 40
0.4446655277
 40
0.7119947494
 40
1.0
 40
1.0
 40
1.0
 40
1.0
 10
751.5113386362
 20
74.9934929536
 30
0.0
 10
751.5113386362
 20
74.9203981715
 30
0.0
 10
751.5587921792
 20
74.7633978363
 30
0.0
 10
751.7405961138
 20
74.5836973483
 30
0.0
 10
751.9958551991
 20
74.4681988086
 30
0.0
 10
752.1908498939
 20
74.4419496642
 30
0.0
 10
752.2913386362
 20
74.4419496642
 30
0.0
  0
SPLINE
  5
46B
100
AcDbEntity
  8
0
100
AcDbSpline
 62
7
  6
CONTINUOUS
 70
0
 71
3
 72
11
 73
7
 74
0
 42
0.0000001
 43
0.0000001
 44
0.0000000001
 40
0.0
 40
0.0
 40
0.0
 40
0.0
 40
0.2094668498
 40
0.4446559298
 40
0.7120302568
 40
1.0
 40
1.0
 40
1.0
 40
1.0
 10
756.7763386362
 20
77.4754377555
 30
0.0
 10
756.7763386362
 20
77.5119808527
 30
0.0
 10
756.7526065343
 20
77.5904734836
 30
0.0
 10
756.6617278842
 20
77.6803596171
 30
0.0
 10
756.534071147
 20
77.7380748099
 30
0.0
 10
756.4365771647
 20
77.7512094002
 30
0.0
 10
756.3863386362
 20
77.7512094002
 30
0.0
  0
SPLINE
  5
46C
100
AcDbEntity
  8
0
100
AcDbSpline
 62
7
  6
CONTINUOUS
 70
0
 71
3
 72
9
 73
5
 74
0
 42
0.0000001
 43
0.0000001
 44
0.0000000001
 40
0.0
 40
0.0
 40
0.0
 40
0.0
 40
0.7407738242
 40
1.0
 40
1.0
 40
1.0
 40
1.0
 10
751.5113386362
 20
75.4531123613
 30
0.0
 10
751.5113386362
 20
75.3986189462
 30
0.0
 10
751.5277745899
 20
75.3241288995
 30
0.0
 10
751.5610849263
 20
75.2585064495
 30
0.0
 10
751.5707126008
 20
75.2420458823
 30
0.0
  0
SPLINE
  5
46D
100
AcDbEntity
  8
0
100
AcDbSpline
 62
7
  6
CONTINUOUS
 70
0
 71
3
 72
9
 73
5
 74
0
 42
0.0000001
 43
0.0000001
 44
0.0000000001
 40
0.0
 40
0.0
 40
0.0
 40
0.0
 40
0.461013727
 40
1.0
 40
1.0
 40
1.0
 40
1.0
 10
751.5707126008
 20
75.2420458823
 30
0.0
 10
751.6345185338
 20
75.1329560034
 30
0.0
 10
751.8663843583
 20
74.9534387308
 30
0.0
 10
752.1435841206
 20
74.901569072
 30
0.0
 10
752.2913386362
 20
74.901569072
 30
0.0
  0
SPLINE
  5
46E
100
AcDbEntity
  8
0
100
AcDbSpline
 62
7
  6
CONTINUOUS
 70
0
 71
3
 72
11
 73
7
 74
0
 42
0.0000001
 43
0.0000001
 44
0.0000000001
 40
0.0
 40
0.0
 40
0.0
 40
0.0
 40
0.2880052506
 40
0.5553344723
 40
0.7905070702
 40
1.0
 40
1.0
 40
1.0
 40
1.0
 10
758.5313386362
 20
74.4419496642
 30
0.0
 10
758.6318273785
 20
74.4419496642
 30
0.0
 10
758.8268220732
 20
74.4681988086
 30
0.0
 10
759.0820811585
 20
74.5836973483
 30
0.0
 10
759.2638850931
 20
74.7633978363
 30
0.0
 10
759.3113386362
 20
74.9203981715
 30
0.0
 10
759.3113386362
 20
74.9934929536
 30
0.0
  0
SPLINE
  5
46F
100
AcDbEntity
  8
RUNDUNGEN
100
AcDbSpline
 62
7
  6
CONTINUOUS
 70
0
 71
3
 72
11
 73
7
 74
0
 42
0.0000001
 43
0.0000001
 44
0.0000000001
 40
0.0
 40
0.0
 40
0.0
 40
0.0
 40
0.2377805525
 40
0.4809056656
 40
0.7339193662
 40
1.0
 40
1.0
 40
1.0
 40
1.0
 10
750.1892252629
 20
53.0687301714
 30
0.0
 10
750.1892252379
 20
52.347425484
 30
0.0
 10
750.0292122258
 20
50.8839449114
 30
0.0
 10
749.319719268
 20
48.7576370862
 30
0.0
 10
748.1624576394
 20
46.7401555877
 30
0.0
 10
747.1402044307
 20
45.5306692637
 30
0.0
 10
746.5722661487
 20
44.9571350062
 30
0.0
  0
SPLINE
  5
470
100
AcDbEntity
  8
0
100
AcDbSpline
 62
7
  6
CONTINUOUS
 70
0
 71
3
 72
11
 73
7
 74
0
 42
0.0000001
 43
0.0000001
 44
0.0000000001
 40
0.0
 40
0.0
 40
0.0
 40
0.0
 40
0.2879697432
 40
0.5553440702
 40
0.7905331502
 40
1.0
 40
1.0
 40
1.0
 40
1.0
 10
754.4363386362
 20
77.7512094002
 30
0.0
 10
754.3861001076
 20
77.7512094002
 30
0.0
 10
754.2886061254
 20
77.7380748099
 30
0.0
 10
754.1609493882
 20
77.6803596171
 30
0.0
 10
754.0700707381
 20
77.5904734836
 30
0.0
 10
754.0463386362
 20
77.5119808527
 30
0.0
 10
754.0463386362
 20
77.4754377555
 30
0.0
  0
SPLINE
  5
471
100
AcDbEntity
  8
0
100
AcDbSpline
 62
7
  6
CONTINUOUS
 70
0
 71
3
 72
11
 73
7
 74
0
 42
0.0000001
 43
0.0000001
 44
0.0000000001
 40
0.0
 40
0.0
 40
0.0
 40
0.0
 40
0.2879697432
 40
0.5553440702
 40
0.7905331502
 40
1.0
 40
1.0
 40
1.0
 40
1.0
 10
754.4363386362
 20
80.5089258468
 30
0.0
 10
754.3861001076
 20
80.5089258468
 30
0.0
 10
754.2886061254
 20
80.4957912566
 30
0.0
 10
754.1609493882
 20
80.4380760637
 30
0.0
 10
754.0700707381
 20
80.3481899302
 30
0.0
 10
754.0463386362
 20
80.2696972993
 30
0.0
 10
754.0463386362
 20
80.2331542022
 30
0.0
  0
SPLINE
  5
472
100
AcDbEntity
  8
0
100
AcDbSpline
 62
7
  6
CONTINUOUS
 70
0
 71
3
 72
9
 73
5
 74
0
 42
0.0000001
 43
0.0000001
 44
0.0000000001
 40
0.0
 40
0.0
 40
0.0
 40
0.0
 40
0.5597866015
 40
1.0
 40
1.0
 40
1.0
 40
1.0
 10
755.2748386362
 20
78.9921818012
 30
0.0
 10
755.2365207717
 20
78.9921818012
 30
0.0
 10
755.1652457623
 20
78.9776242554
 30
0.0
 10
755.1188386362
 20
78.9120061213
 30
0.0
 10
755.1188386362
 20
78.8818731433
 30
0.0
  0
SPLINE
  5
473
100
AcDbEntity
  8
0
100
AcDbSpline
 62
7
  6
CONTINUOUS
 70
0
 71
3
 72
9
 73
5
 74
0
 42
0.0000001
 43
0.0000001
 44
0.0000000001
 40
0.0
 40
0.0
 40
0.0
 40
0.0
 40
0.5597866015
 40
1.0
 40
1.0
 40
1.0
 40
1.0
 10
756.0353386362
 20
78.7164101565
 30
0.0
 10
756.0736565006
 20
78.7164101565
 30
0.0
 10
756.14493151
 20
78.7309677023
 30
0.0
 10
756.1913386362
 20
78.7965858364
 30
0.0
 10
756.1913386362
 20
78.8267188144
 30
0.0
  0
SPLINE
  5
474
100
AcDbEntity
  8
0
100
AcDbSpline
 62
7
  6
CONTINUOUS
 70
0
 71
3
 72
9
 73
5
 74
0
 42
0.0000001
 43
0.0000001
 44
0.0000000001
 40
0.0
 40
0.0
 40
0.0
 40
0.0
 40
0.5597866015
 40
1.0
 40
1.0
 40
1.0
 40
1.0
 10
756.0353386362
 20
75.9586937099
 30
0.0
 10
756.0736565006
 20
75.9586937099
 30
0.0
 10
756.14493151
 20
75.9732512556
 30
0.0
 10
756.1913386362
 20
76.0388693898
 30
0.0
 10
756.1913386362
 20
76.0690023678
 30
0.0
  0
SPLINE
  5
475
100
AcDbEntity
  8
RUNDUNGEN
100
AcDbSpline
 62
7
  6
CONTINUOUS
 70
0
 71
3
 72
9
 73
5
 74
0
 42
0.0000001
 43
0.0000001
 44
0.0000000001
 40
0.0
 40
0.0
 40
0.0
 40
0.0
 40
0.4805366145
 40
1.0
 40
1.0
 40
1.0
 40
1.0
 10
814.474786692
 20
23.3239327984
 30
0.0
 10
814.474786692
 20
23.7591528612
 30
0.0
 10
814.2673172381
 20
24.6732057006
 30
0.0
 10
813.7207407456
 20
25.4231079355
 30
0.0
 10
813.3896989578
 20
25.7574115244
 30
0.0
  0
SPLINE
  5
476
100
AcDbEntity
  8
0
100
AcDbSpline
 62
7
  6
CONTINUOUS
 70
0
 71
3
 72
11
 73
7
 74
0
 42
0.0000001
 43
0.0000001
 44
0.0000000001
 40
0.0
 40
0.0
 40
0.0
 40
0.0
 40
0.2865059912
 40
0.5484241175
 40
0.7833822346
 40
1.0
 40
1.0
 40
1.0
 40
1.0
 10
767.5376734028
 20
78.0391641019
 30
0.0
 10
767.7862124379
 20
78.0969058666
 30
0.0
 10
768.2521750505
 20
78.2612012998
 30
0.0
 10
768.8349155687
 20
78.6618661935
 30
0.0
 10
769.2250650059
 20
79.1809598365
 30
0.0
 10
769.3200204336
 20
79.5873110865
 30
0.0
 10
769.3199914935
 20
79.7802278983
 30
0.0
  0
SPLINE
  5
477
100
AcDbEntity
  8
0
100
AcDbSpline
 62
7
  6
CONTINUOUS
 70
0
 71
3
 72
8
 73
4
 74
0
 42
0.0000001
 43
0.0000001
 44
0.0000000001
 40
0.0
 40
0.0
 40
0.0
 40
0.0
 40
1.0
 40
1.0
 40
1.0
 40
1.0
 10
785.8546134848
 20
74.4419496642
 30
0.0
 10
785.9596465483
 20
74.4419496642
 30
0.0
 10
786.0659709495
 20
74.4569682775
 30
0.0
 10
786.1663425338
 20
74.487911605
 30
0.0
  0
SPLINE
  5
478
100
AcDbEntity
  8
0
100
AcDbSpline
 62
7
  6
CONTINUOUS
 70
0
 71
3
 72
11
 73
7
 74
0
 42
0.0000001
 43
0.0000001
 44
0.0000000001
 40
0.0
 40
0.0
 40
0.0
 40
0.0
 40
0.2847819434
 40
0.5451774547
 40
0.7807010719
 40
1.0
 40
1.0
 40
1.0
 40
1.0
 10
786.1663425338
 20
74.487911605
 30
0.0
 10
786.6325164144
 20
74.6316272908
 30
0.0
 10
787.5001255298
 20
75.0033631274
 30
0.0
 10
788.5704048239
 20
75.8334901134
 30
0.0
 10
789.2752912195
 20
76.8648852167
 30
0.0
 10
789.4442116259
 20
77.6513277087
 30
0.0
 10
789.4442116259
 20
78.0269810449
 30
0.0
  0
SPLINE
  5
479
100
AcDbEntity
  8
0
100
AcDbSpline
 62
7
  6
CONTINUOUS
 70
0
 71
3
 72
9
 73
5
 74
0
 42
0.0000001
 43
0.0000001
 44
0.0000000001
 40
0.0
 40
0.0
 40
0.0
 40
0.0
 40
0.239729366
 40
1.0
 40
1.0
 40
1.0
 40
1.0
 10
786.1190796997
 20
80.6727174903
 30
0.0
 10
786.1018463699
 20
80.6820493505
 30
0.0
 10
786.0271850293
 20
80.7157612673
 30
0.0
 10
785.9441125887
 20
80.7295431626
 30
0.0
 10
785.8819609061
 20
80.7295431626
 30
0.0
  0
SPLINE
  5
47A
100
AcDbEntity
  8
RUNDUNGEN
100
AcDbSpline
 62
7
  6
CONTINUOUS
 70
0
 71
3
 72
10
 73
6
 74
0
 42
0.0000001
 43
0.0000001
 44
0.0000000001
 40
0.0
 40
0.0
 40
0.0
 40
0.0
 40
0.2265442065
 40
0.4650409693
 40
1.0
 40
1.0
 40
1.0
 40
1.0
 10
827.9872667582
 20
95.5681774465
 30
0.0
 10
827.9871924383
 20
95.6817828673
 30
0.0
 10
827.9457835111
 20
95.9167004939
 30
0.0
 10
827.7018594054
 20
96.3624470797
 30
0.0
 10
827.3748480609
 20
96.6067884119
 30
0.0
 10
827.134435755
 20
96.7258217131
 30
0.0
  0
SPLINE
  5
47B
100
AcDbEntity
  8
RUNDUNGEN
100
AcDbSpline
 62
7
  6
CONTINUOUS
 70
0
 71
3
 72
9
 73
5
 74
0
 42
0.0000001
 43
0.0000001
 44
0.0000000001
 40
0.0
 40
0.0
 40
0.0
 40
0.0
 40
0.5194635499
 40
1.0
 40
1.0
 40
1.0
 40
1.0
 10
727.5598744263
 20
25.7574115244
 30
0.0
 10
727.2288325335
 20
25.4231078295
 30
0.0
 10
726.6822560668
 20
24.6732055466
 30
0.0
 10
726.474786692
 20
23.7591527125
 30
0.0
 10
726.474786692
 20
23.3239327984
 30
0.0
  0
SPLINE
  5
47C
100
AcDbEntity
  8
RUNDUNGEN
100
AcDbSpline
 62
7
  6
CONTINUOUS
 70
0
 71
3
 72
10
 73
6
 74
0
 42
0.0000001
 43
0.0000001
 44
0.0000000001
 40
0.0
 40
0.0
 40
0.0
 40
0.0
 40
0.5349741761
 40
0.7734715455
 40
1.0
 40
1.0
 40
1.0
 40
1.0
 10
728.9165979465
 20
81.4139244388
 30
0.0
 10
728.6821770358
 20
81.2978576062
 30
0.0
 10
728.363316534
 20
81.0596014943
 30
0.0
 10
728.1255057524
 20
80.6249591919
 30
0.0
 10
728.0851484883
 20
80.3959066895
 30
0.0
 10
728.0850859117
 20
80.2851432994
 30
0.0
  0
SPLINE
  5
47D
100
AcDbEntity
  8
0
100
AcDbSpline
 62
7
  6
CONTINUOUS
 70
0
 71
3
 72
9
 73
5
 74
0
 42
0.0000001
 43
0.0000001
 44
0.0000000001
 40
0.0
 40
0.0
 40
0.0
 40
0.0
 40
0.4402133985
 40
1.0
 40
1.0
 40
1.0
 40
1.0
 10
754.6313386362
 20
79.2863382222
 30
0.0
 10
754.6313386362
 20
79.2562052442
 30
0.0
 10
754.6777457623
 20
79.19058711
 30
0.0
 10
754.7490207717
 20
79.1760295643
 30
0.0
 10
754.7873386362
 20
79.1760295643
 30
0.0
  0
SPLINE
  5
47E
100
AcDbEntity
  8
0
100
AcDbSpline
 62
7
  6
CONTINUOUS
 70
0
 71
3
 72
11
 73
7
 74
0
 42
0.0000001
 43
0.0000001
 44
0.0000000001
 40
0.0
 40
0.0
 40
0.0
 40
0.0
 40
0.2094668498
 40
0.4446559298
 40
0.7120302568
 40
1.0
 40
1.0
 40
1.0
 40
1.0
 10
756.7763386362
 20
80.2331542022
 30
0.0
 10
756.7763386362
 20
80.2696972993
 30
0.0
 10
756.7526065343
 20
80.3481899302
 30
0.0
 10
756.6617278842
 20
80.4380760637
 30
0.0
 10
756.534071147
 20
80.4957912566
 30
0.0
 10
756.4365771647
 20
80.5089258468
 30
0.0
 10
756.3863386362
 20
80.5089258468
 30
0.0
  0
SPLINE
  5
47F
100
AcDbEntity
  8
BEZUGSACHSEN
100
AcDbSpline
 62
7
  6
CONTINUOUS
 70
0
 71
3
 72
19
 73
15
 74
0
 42
0.0000001
 43
0.0000001
 44
0.0000000001
 40
0.0
 40
0.0
 40
0.0
 40
0.0
 40
0.0517263209
 40
0.1053355973
 40
0.1622490903
 40
0.223216447
 40
0.356475981
 40
0.5
 40
0.643524019
 40
0.776783553
 40
0.8377509097
 40
0.8946644027
 40
0.9482736791
 40
1.0
 40
1.0
 40
1.0
 40
1.0
 10
764.974786692
 20
91.8391245283
 30
0.0
 10
764.974786692
 20
91.5837840025
 30
0.0
 10
765.0489078471
 20
91.0611605603
 30
0.0
 10
765.3731407457
 20
90.3195584178
 30
0.0
 10
765.8933565408
 20
89.642285498
 30
0.0
 10
766.8439640079
 20
88.834860952
 30
0.0
 10
768.3939390331
 20
88.1345395191
 30
0.0
 10
770.474786692
 20
87.8543948129
 30
0.0
 10
772.555634351
 20
88.1345395191
 30
0.0
 10
774.1056093762
 20
88.834860952
 30
0.0
 10
775.0562168433
 20
89.642285498
 30
0.0
 10
775.5764326383
 20
90.3195584178
 30
0.0
 10
775.900665537
 20
91.0611605603
 30
0.0
 10
775.974786692
 20
91.5837840025
 30
0.0
 10
775.974786692
 20
91.8391245283
 30
0.0
  0
SPLINE
  5
480
100
AcDbEntity
  8
RUNDUNGEN
100
AcDbSpline
 62
7
  6
CONTINUOUS
 70
0
 71
3
 72
11
 73
7
 74
0
 42
0.0000001
 43
0.0000001
 44
0.0000000001
 40
0.0
 40
0.0
 40
0.0
 40
0.0
 40
0.2794012361
 40
0.5367224514
 40
0.7743079693
 40
1.0
 40
1.0
 40
1.0
 40
1.0
 10
717.0917458062
 20
98.3481408638
 30
0.0
 10
716.7133708956
 20
98.160799311
 30
0.0
 10
716.0183794793
 20
97.7286120102
 30
0.0
 10
715.1869540067
 20
96.8875800906
 30
0.0
 10
714.6564753178
 20
95.9181678823
 30
0.0
 10
714.5331410635
 20
95.2130534469
 30
0.0
 10
714.5332073495
 20
94.8720017297
 30
0.0
  0
SPLINE
  5
481
100
AcDbEntity
  8
RUNDUNGEN
100
AcDbSpline
 62
7
  6
CONTINUOUS
 70
0
 71
3
 72
9
 73
5
 74
0
 42
0.0000001
 43
0.0000001
 44
0.0000000001
 40
0.0
 40
0.0
 40
0.0
 40
0.0
 40
0.5089429305
 40
1.0
 40
1.0
 40
1.0
 40
1.0
 10
734.1686443542
 20
100.9365574164
 30
0.0
 10
731.5538727875
 20
101.4843999767
 30
0.0
 10
726.2151627023
 20
101.7191066749
 30
0.0
 10
721.0400693457
 20
100.3030407312
 30
0.0
 10
718.7300498948
 20
99.1593004391
 30
0.0
  0
SPLINE
  5
482
100
AcDbEntity
  8
0
100
AcDbSpline
 62
7
  6
CONTINUOUS
 70
0
 71
3
 72
9
 73
5
 74
0
 42
0.0000001
 43
0.0000001
 44
0.0000000001
 40
0.0
 40
0.0
 40
0.0
 40
0.0
 40
0.2415905642
 40
1.0
 40
1.0
 40
1.0
 40
1.0
 10
781.946315419
 20
96.7061694138
 30
0.0
 10
781.273192343
 20
97.0394471199
 30
0.0
 10
778.4159331162
 20
98.2733883563
 30
0.0
 10
775.3257390899
 20
98.9430592295
 30
0.0
 10
772.9771515955
 20
99.1525890524
 30
0.0
  0
SPLINE
  5
483
100
AcDbEntity
  8
0
100
AcDbSpline
 62
7
  6
CONTINUOUS
 70
0
 71
3
 72
9
 73
5
 74
0
 42
0.0000001
 43
0.0000001
 44
0.0000000001
 40
0.0
 40
0.0
 40
0.0
 40
0.0
 40
0.2578604761
 40
1.0
 40
1.0
 40
1.0
 40
1.0
 10
767.9724217886
 20
99.1525890524
 30
0.0
 10
767.1740076559
 20
99.0813583351
 30
0.0
 10
764.0922906671
 20
98.6730305739
 30
0.0
 10
761.0707340356
 20
97.729821264
 30
0.0
 10
759.003257965
 20
96.7061694138
 30
0.0
  0
SPLINE
  5
484
100
AcDbEntity
  8
RUNDUNGEN
100
AcDbSpline
 62
7
  6
CONTINUOUS
 70
0
 71
3
 72
10
 73
6
 74
0
 42
0.0000001
 43
0.0000001
 44
0.0000000001
 40
0.0
 40
0.0
 40
0.0
 40
0.0
 40
0.2540840964
 40
0.5191023951
 40
1.0
 40
1.0
 40
1.0
 40
1.0
 10
820.2535585829
 20
100.1326919296
 30
0.0
 10
820.0300862915
 20
100.2433378653
 30
0.0
 10
819.531474975
 20
100.3913665544
 30
0.0
 10
818.5489423133
 20
100.4086523787
 30
0.0
 10
817.8001904641
 20
100.1207565345
 30
0.0
 10
817.4681016216
 20
99.7853955742
 30
0.0
  0
SPLINE
  5
485
100
AcDbEntity
  8
0
100
AcDbSpline
 62
7
  6
CONTINUOUS
 70
0
 71
3
 72
11
 73
7
 74
0
 42
0.0000001
 43
0.0000001
 44
0.0000000001
 40
0.0
 40
0.0
 40
0.0
 40
0.0
 40
0.227142142
 40
0.4653047767
 40
0.7220182825
 40
1.0
 40
1.0
 40
1.0
 40
1.0
 10
787.9536307874
 20
78.0453658212
 30
0.0
 10
787.9536307874
 20
78.2994110082
 30
0.0
 10
787.866211228
 20
78.8232849224
 30
0.0
 10
787.4886328916
 20
79.5496749397
 30
0.0
 10
786.8933829067
 20
80.1885536929
 30
0.0
 10
786.3924760908
 20
80.5246731538
 30
0.0
 10
786.1190796997
 20
80.6727174903
 30
0.0
  0
SPLINE
  5
486
100
AcDbEntity
  8
0
100
AcDbSpline
 62
7
  6
CONTINUOUS
 70
0
 71
3
 72
8
 73
4
 74
0
 42
0.0000001
 43
0.0000001
 44
0.0000000001
 40
0.0
 40
0.0
 40
0.0
 40
0.0
 40
1.0
 40
1.0
 40
1.0
 40
1.0
 10
785.8546134848
 20
74.901569072
 30
0.0
 10
785.9596465483
 20
74.901569072
 30
0.0
 10
786.0659709495
 20
74.9165876853
 30
0.0
 10
786.1663425338
 20
74.9475310128
 30
0.0
  0
SPLINE
  5
487
100
AcDbEntity
  8
0
100
AcDbSpline
 62
7
  6
CONTINUOUS
 70
0
 71
3
 72
17
 73
13
 74
0
 42
0.0000001
 43
0.0000001
 44
0.0000000001
 40
0.0
 40
0.0
 40
0.0
 40
0.0
 40
0.0517921087
 40
0.1054769531
 40
0.2228492041
 40
0.356284866
 40
0.5
 40
0.643715134
 40
0.7771507959
 40
0.8945230469
 40
0.9482078913
 40
1.0
 40
1.0
 40
1.0
 40
1.0
 10
771.2008803281
 20
77.0754175751
 30
0.0
 10
771.2008803281
 20
76.9035975378
 30
0.0
 10
771.2508150519
 20
76.5518970023
 30
0.0
 10
771.5498286696
 20
75.8673641118
 30
0.0
 10
772.2883100123
 20
75.1283737314
 30
0.0
 10
773.5008344153
 20
74.5836926716
 30
0.0
 10
774.9020683125
 20
74.3932516226
 30
0.0
 10
776.3033022097
 20
74.5836926716
 30
0.0
 10
777.5158266127
 20
75.1283737314
 30
0.0
 10
778.2543079554
 20
75.8673641118
 30
0.0
 10
778.5533215731
 20
76.5518970023
 30
0.0
 10
778.6032562969
 20
76.9035975378
 30
0.0
 10
778.6032562969
 20
77.0754175751
 30
0.0
  0
SPLINE
  5
488
100
AcDbEntity
  8
0
100
AcDbSpline
 62
7
  6
CONTINUOUS
 70
0
 71
3
 72
9
 73
5
 74
0
 42
0.0000001
 43
0.0000001
 44
0.0000000001
 40
0.0
 40
0.0
 40
0.0
 40
0.0
 40
0.4402133985
 40
1.0
 40
1.0
 40
1.0
 40
1.0
 10
754.6313386362
 20
76.0690023678
 30
0.0
 10
754.6313386362
 20
76.0388693898
 30
0.0
 10
754.6777457623
 20
75.9732512556
 30
0.0
 10
754.7490207717
 20
75.9586937099
 30
0.0
 10
754.7873386362
 20
75.9586937099
 30
0.0
  0
SPLINE
  5
489
100
AcDbEntity
  8
0
100
AcDbSpline
 62
7
  6
CONTINUOUS
 70
0
 71
3
 72
11
 73
7
 74
0
 42
0.0000001
 43
0.0000001
 44
0.0000000001
 40
0.0
 40
0.0
 40
0.0
 40
0.0
 40
0.2816347582
 40
0.5420479832
 40
0.7798483853
 40
1.0
 40
1.0
 40
1.0
 40
1.0
 10
786.1663425338
 20
74.9475310128
 30
0.0
 10
786.5873802319
 20
75.0773317675
 30
0.0
 10
787.3768525659
 20
75.4062955263
 30
0.0
 10
788.3790508543
 20
76.122859108
 30
0.0
 10
789.0969874019
 20
77.0078832269
 30
0.0
 10
789.3504938105
 20
77.6965090333
 30
0.0
 10
789.4069247603
 20
78.0362613978
 30
0.0
  0
SPLINE
  5
48A
100
AcDbEntity
  8
0
100
AcDbSpline
 62
7
  6
CONTINUOUS
 70
0
 71
3
 72
9
 73
5
 74
0
 42
0.0000001
 43
0.0000001
 44
0.0000000001
 40
0.0
 40
0.0
 40
0.0
 40
0.0
 40
0.2591205677
 40
1.0
 40
1.0
 40
1.0
 40
1.0
 10
785.8819609061
 20
81.1891625703
 30
0.0
 10
785.9031375756
 20
81.1891625703
 30
0.0
 10
785.9847172396
 20
81.1844887195
 30
0.0
 10
786.0658361992
 20
81.1611682908
 30
0.0
 10
786.1190796997
 20
81.1323368981
 30
0.0
  0
SPLINE
  5
48B
100
AcDbEntity
  8
0
100
AcDbSpline
 62
7
  6
CONTINUOUS
 70
0
 71
3
 72
11
 73
7
 74
0
 42
0.0000001
 43
0.0000001
 44
0.0000000001
 40
0.0
 40
0.0
 40
0.0
 40
0.0
 40
0.2779697373
 40
0.5346991835
 40
0.7728568778
 40
1.0
 40
1.0
 40
1.0
 40
1.0
 10
786.1190796997
 20
81.1323368981
 30
0.0
 10
786.3924652877
 20
80.9842984114
 30
0.0
 10
786.8933661073
 20
80.6481647132
 30
0.0
 10
787.4886556364
 20
80.0093162482
 30
0.0
 10
787.8662195786
 20
79.2828996194
 30
0.0
 10
787.9536541756
 20
78.7590324225
 30
0.0
 10
787.9536541756
 20
78.5049852289
 30
0.0
  0
SPLINE
  5
48C
100
AcDbEntity
  8
0
100
AcDbSpline
 62
7
  6
CONTINUOUS
 70
0
 71
3
 72
9
 73
5
 74
0
 42
0.0000001
 43
0.0000001
 44
0.0000000001
 40
0.0
 40
0.0
 40
0.0
 40
0.0
 40
0.4402133985
 40
1.0
 40
1.0
 40
1.0
 40
1.0
 10
754.6313386362
 20
76.5286217755
 30
0.0
 10
754.6313386362
 20
76.4984887975
 30
0.0
 10
754.6777457623
 20
76.4328706634
 30
0.0
 10
754.7490207717
 20
76.4183131177
 30
0.0
 10
754.7873386362
 20
76.4183131177
 30
0.0
  0
SPLINE
  5
48D
100
AcDbEntity
  8
0
100
AcDbSpline
 62
7
  6
CONTINUOUS
 70
0
 71
3
 72
9
 73
5
 74
0
 42
0.0000001
 43
0.0000001
 44
0.0000000001
 40
0.0
 40
0.0
 40
0.0
 40
0.0
 40
0.5
 40
1.0
 40
1.0
 40
1.0
 40
1.0
 10
771.2283323863
 20
77.2173075809
 30
0.0
 10
771.4746315576
 20
75.7937937946
 30
0.0
 10
774.9020683125
 20
74.0420574558
 30
0.0
 10
778.3295050674
 20
75.7937937946
 30
0.0
 10
778.5758042387
 20
77.2173075809
 30
0.0
  0
SPLINE
  5
48E
100
AcDbEntity
  8
0
100
AcDbSpline
 62
7
  6
CONTINUOUS
 70
0
 71
3
 72
9
 73
5
 74
0
 42
0.0000001
 43
0.0000001
 44
0.0000000001
 40
0.0
 40
0.0
 40
0.0
 40
0.0
 40
0.5403772208
 40
1.0
 40
1.0
 40
1.0
 40
1.0
 10
767.5376734028
 20
78.4987835097
 30
0.0
 10
767.9186678765
 20
78.5872979486
 30
0.0
 10
768.6070434543
 20
78.8679740178
 30
0.0
 10
769.1104185225
 20
79.4491350856
 30
0.0
 10
769.229579479
 20
79.7597515107
 30
0.0
  0
SPLINE
  5
48F
100
AcDbEntity
  8
0
100
AcDbSpline
 62
7
  6
CONTINUOUS
 70
0
 71
3
 72
8
 73
4
 74
0
 42
0.0000001
 43
0.0000001
 44
0.0000000001
 40
0.0
 40
0.0
 40
0.0
 40
0.0
 40
1.0
 40
1.0
 40
1.0
 40
1.0
 10
769.229579479
 20
79.7597515107
 30
0.0
 10
769.2594093151
 20
79.8375088345
 30
0.0
 10
769.2825374579
 20
79.9182337836
 30
0.0
 10
769.2977961386
 20
80.0001068145
 30
0.0
  0
SPLINE
  5
490
100
AcDbEntity
  8
0
100
AcDbSpline
 62
7
  6
CONTINUOUS
 70
0
 71
3
 72
11
 73
7
 74
0
 42
0.0000001
 43
0.0000001
 44
0.0000000001
 40
0.0
 40
0.0
 40
0.0
 40
0.0
 40
0.2880066977
 40
0.5553334191
 40
0.790532629
 40
1.0
 40
1.0
 40
1.0
 40
1.0
 10
766.7288803281
 20
81.2351245111
 30
0.0
 10
766.9102905206
 20
81.2351245111
 30
0.0
 10
767.2622999806
 20
81.1877254712
 30
0.0
 10
767.7231572583
 20
80.9792535605
 30
0.0
 10
768.0512939572
 20
80.6547834392
 30
0.0
 10
768.1369970468
 20
80.3713753264
 30
0.0
 10
768.1369970468
 20
80.2394356306
 30
0.0
  0
SPLINE
  5
491
100
AcDbEntity
  8
0
100
AcDbSpline
 62
7
  6
CONTINUOUS
 70
0
 71
3
 72
9
 73
5
 74
0
 42
0.0000001
 43
0.0000001
 44
0.0000000001
 40
0.0
 40
0.0
 40
0.0
 40
0.0
 40
0.5597866015
 40
1.0
 40
1.0
 40
1.0
 40
1.0
 10
756.0353386362
 20
76.4183131177
 30
0.0
 10
756.0736565006
 20
76.4183131177
 30
0.0
 10
756.14493151
 20
76.4328706634
 30
0.0
 10
756.1913386362
 20
76.4984887975
 30
0.0
 10
756.1913386362
 20
76.5286217755
 30
0.0
  0
SPLINE
  5
492
100
AcDbEntity
  8
0
100
AcDbSpline
 62
7
  6
CONTINUOUS
 70
0
 71
3
 72
9
 73
5
 74
0
 42
0.0000001
 43
0.0000001
 44
0.0000000001
 40
0.0
 40
0.0
 40
0.0
 40
0.0
 40
0.4402133985
 40
1.0
 40
1.0
 40
1.0
 40
1.0
 10
755.1188386362
 20
79.3414925511
 30
0.0
 10
755.1188386362
 20
79.3716255291
 30
0.0
 10
755.1652457623
 20
79.4372436632
 30
0.0
 10
755.2365207717
 20
79.4518012089
 30
0.0
 10
755.2748386362
 20
79.4518012089
 30
0.0
  0
SPLINE
  5
493
100
AcDbEntity
  8
RUNDUNGEN
100
AcDbSpline
 62
7
  6
CONTINUOUS
 70
0
 71
3
 72
11
 73
7
 74
0
 42
0.0000001
 43
0.0000001
 44
0.0000000001
 40
0.0
 40
0.0
 40
0.0
 40
0.0
 40
0.2256778953
 40
0.4632795617
 40
0.7206246471
 40
1.0
 40
1.0
 40
1.0
 40
1.0
 10
734.6439572317
 20
85.444765736
 30
0.0
 10
734.643848925
 20
85.2601628681
 30
0.0
 10
734.5767320609
 20
84.8785441969
 30
0.0
 10
734.2893054535
 20
84.3539462332
 30
0.0
 10
733.839116671
 20
83.8988125837
 30
0.0
 10
733.462902657
 20
83.6648976397
 30
0.0
 10
733.2581037813
 20
83.5634973134
 30
0.0
  0
SPLINE
  5
494
100
AcDbEntity
  8
0
100
AcDbSpline
 62
7
  6
CONTINUOUS
 70
0
 71
3
 72
9
 73
5
 74
0
 42
0.0000001
 43
0.0000001
 44
0.0000000001
 40
0.0
 40
0.0
 40
0.0
 40
0.0
 40
0.5597866015
 40
1.0
 40
1.0
 40
1.0
 40
1.0
 10
755.5478386362
 20
79.4518012089
 30
0.0
 10
755.5861565006
 20
79.4518012089
 30
0.0
 10
755.65743151
 20
79.4372436632
 30
0.0
 10
755.7038386362
 20
79.3716255291
 30
0.0
 10
755.7038386362
 20
79.3414925511
 30
0.0
  0
SPLINE
  5
495
100
AcDbEntity
  8
0
100
AcDbSpline
 62
7
  6
CONTINUOUS
 70
0
 71
3
 72
9
 73
5
 74
0
 42
0.0000001
 43
0.0000001
 44
0.0000000001
 40
0.0
 40
0.0
 40
0.0
 40
0.0
 40
0.5597866015
 40
1.0
 40
1.0
 40
1.0
 40
1.0
 10
756.0353386362
 20
79.1760295643
 30
0.0
 10
756.0736565006
 20
79.1760295643
 30
0.0
 10
756.14493151
 20
79.19058711
 30
0.0
 10
756.1913386362
 20
79.2562052442
 30
0.0
 10
756.1913386362
 20
79.2863382222
 30
0.0
  0
SPLINE
  5
496
100
AcDbEntity
  8
0
100
AcDbSpline
 62
7
  6
CONTINUOUS
 70
0
 71
3
 72
11
 73
7
 74
0
 42
0.0000001
 43
0.0000001
 44
0.0000000001
 40
0.0
 40
0.0
 40
0.0
 40
0.0
 40
0.2876567391
 40
0.555407049
 40
0.7907201247
 40
1.0
 40
1.0
 40
1.0
 40
1.0
 10
756.3863386362
 20
80.9685452546
 30
0.0
 10
756.4365152889
 20
80.9685452546
 30
0.0
 10
756.5339336635
 20
80.9552115056
 30
0.0
 10
756.6618288827
 20
80.8978642624
 30
0.0
 10
756.7524050013
 20
80.8076464023
 30
0.0
 10
756.7763386362
 20
80.7292787989
 30
0.0
 10
756.7763386362
 20
80.6927736099
 30
0.0
  0
SPLINE
  5
497
100
AcDbEntity
  8
0
100
AcDbSpline
 62
7
  6
CONTINUOUS
 70
0
 71
3
 72
8
 73
4
 74
0
 42
0.0000001
 43
0.0000001
 44
0.0000000001
 40
0.0
 40
0.0
 40
0.0
 40
0.0
 40
1.0
 40
1.0
 40
1.0
 40
1.0
 10
756.4904940361
 20
78.2006709636
 30
0.0
 10
756.5214735797
 20
78.1945902222
 30
0.0
 10
756.5520897775
 20
78.1857656703
 30
0.0
 10
756.5813386362
 20
78.1738824132
 30
0.0
  0
SPLINE
  5
498
100
AcDbEntity
  8
0
100
AcDbSpline
 62
7
  6
CONTINUOUS
 70
0
 71
3
 72
9
 73
5
 74
0
 42
0.0000001
 43
0.0000001
 44
0.0000000001
 40
0.0
 40
0.0
 40
0.0
 40
0.0
 40
0.5424756321
 40
1.0
 40
1.0
 40
1.0
 40
1.0
 10
756.5813386362
 20
78.1738824132
 30
0.0
 10
756.6353301201
 20
78.1519466963
 30
0.0
 10
756.7305421666
 20
78.092232338
 30
0.0
 10
756.7763386362
 20
77.9842083724
 30
0.0
 10
756.7763386362
 20
77.9350571633
 30
0.0
  0
SPLINE
  5
499
100
AcDbEntity
  8
0
100
AcDbSpline
 62
7
  6
CONTINUOUS
 70
0
 71
3
 72
9
 73
5
 74
0
 42
0.0000001
 43
0.0000001
 44
0.0000000001
 40
0.0
 40
0.0
 40
0.0
 40
0.0
 40
0.4575243679
 40
1.0
 40
1.0
 40
1.0
 40
1.0
 10
754.0463386362
 20
77.9350571633
 30
0.0
 10
754.0463386362
 20
77.9842083724
 30
0.0
 10
754.0921351058
 20
78.092232338
 30
0.0
 10
754.1873471523
 20
78.1519466963
 30
0.0
 10
754.2413386362
 20
78.1738824132
 30
0.0
  0
SPLINE
  5
49A
100
AcDbEntity
  8
0
100
AcDbSpline
 62
7
  6
CONTINUOUS
 70
0
 71
3
 72
8
 73
4
 74
0
 42
0.0000001
 43
0.0000001
 44
0.0000000001
 40
0.0
 40
0.0
 40
0.0
 40
0.0
 40
1.0
 40
1.0
 40
1.0
 40
1.0
 10
754.2413386362
 20
78.1738824132
 30
0.0
 10
754.3026296759
 20
78.1987838014
 30
0.0
 10
754.3701822255
 20
78.210828808
 30
0.0
 10
754.4363386362
 20
78.210828808
 30
0.0
  0
SPLINE
  5
49B
100
AcDbEntity
  8
0
100
AcDbSpline
 62
7
  6
CONTINUOUS
 70
0
 71
3
 72
11
 73
7
 74
0
 42
0.0000001
 43
0.0000001
 44
0.0000000001
 40
0.0
 40
0.0
 40
0.0
 40
0.0
 40
0.2092798753
 40
0.444592951
 40
0.7123432609
 40
1.0
 40
1.0
 40
1.0
 40
1.0
 10
754.0463386362
 20
80.6927736099
 30
0.0
 10
754.0463386362
 20
80.7292787989
 30
0.0
 10
754.0702722711
 20
80.8076464023
 30
0.0
 10
754.1608483896
 20
80.8978642624
 30
0.0
 10
754.2887436088
 20
80.9552115056
 30
0.0
 10
754.3861619835
 20
80.9685452546
 30
0.0
 10
754.4363386362
 20
80.9685452546
 30
0.0
  0
SPLINE
  5
49C
100
AcDbEntity
  8
0
100
AcDbSpline
 62
7
  6
CONTINUOUS
 70
0
 71
3
 72
9
 73
5
 74
0
 42
0.0000001
 43
0.0000001
 44
0.0000000001
 40
0.0
 40
0.0
 40
0.0
 40
0.0
 40
0.538986273
 40
1.0
 40
1.0
 40
1.0
 40
1.0
 10
758.5313386362
 20
74.901569072
 30
0.0
 10
758.6790931517
 20
74.901569072
 30
0.0
 10
758.9562929141
 20
74.9534387308
 30
0.0
 10
759.1881587386
 20
75.1329560034
 30
0.0
 10
759.2519646715
 20
75.2420458823
 30
0.0
  0
SPLINE
  5
49D
100
AcDbEntity
  8
0
100
AcDbSpline
 62
7
  6
CONTINUOUS
 70
0
 71
3
 72
9
 73
5
 74
0
 42
0.0000001
 43
0.0000001
 44
0.0000000001
 40
0.0
 40
0.0
 40
0.0
 40
0.0
 40
0.2592261758
 40
1.0
 40
1.0
 40
1.0
 40
1.0
 10
759.2519646715
 20
75.2420458823
 30
0.0
 10
759.2615923461
 20
75.2585064495
 30
0.0
 10
759.2949026824
 20
75.3241288995
 30
0.0
 10
759.3113386362
 20
75.3986189462
 30
0.0
 10
759.3113386362
 20
75.4531123613
 30
0.0
  0
SPLINE
  5
49E
100
AcDbEntity
  8
RUNDUNGEN
100
AcDbSpline
 62
7
  6
CONTINUOUS
 70
0
 71
3
 72
9
 73
5
 74
0
 42
0.0000001
 43
0.0000001
 44
0.0000000001
 40
0.0
 40
0.0
 40
0.0
 40
0.0
 40
0.4963806263
 40
1.0
 40
1.0
 40
1.0
 40
1.0
 10
753.269193655
 20
93.8671109001
 30
0.0
 10
752.3080173367
 20
93.3912118411
 30
0.0
 10
750.1331377967
 20
92.897520867
 30
0.0
 10
747.9342391499
 20
93.2342460263
 30
0.0
 10
746.9209610024
 20
93.6309862529
 30
0.0
  0
SPLINE
  5
49F
100
AcDbEntity
  8
RUNDUNGEN
100
AcDbSpline
 62
7
  6
CONTINUOUS
 70
0
 71
3
 72
11
 73
7
 74
0
 42
0.0000001
 43
0.0000001
 44
0.0000000001
 40
0.0
 40
0.0
 40
0.0
 40
0.0
 40
0.2660806569
 40
0.5190943725
 40
0.7622194677
 40
1.0
 40
1.0
 40
1.0
 40
1.0
 10
794.3773072354
 20
44.9571350062
 30
0.0
 10
793.8093688311
 20
45.5306693871
 30
0.0
 10
792.7871154501
 20
46.7401559884
 30
0.0
 10
791.6298537298
 20
48.7576378549
 30
0.0
 10
790.9203609087
 20
50.8839459672
 30
0.0
 10
790.7603480961
 20
52.347426629
 30
0.0
 10
790.7603481212
 20
53.0687313479
 30
0.0
  0
SPLINE
  5
4A0
100
AcDbEntity
  8
RUNDUNGEN
100
AcDbSpline
 62
7
  6
CONTINUOUS
 70
0
 71
3
 72
11
 73
7
 74
0
 42
0.0000001
 43
0.0000001
 44
0.0000000001
 40
0.0
 40
0.0
 40
0.0
 40
0.0
 40
0.2297109036
 40
0.4842558674
 40
0.7475645357
 40
1.0
 40
1.0
 40
1.0
 40
1.0
 10
807.1772184152
 20
89.3931148538
 30
0.0
 10
806.6982509202
 20
88.9094280249
 30
0.0
 10
805.4603197005
 20
88.1107327369
 30
0.0
 10
803.2906384071
 20
87.5411400099
 30
0.0
 10
800.9818795911
 20
87.5735175905
 30
0.0
 10
799.4912248753
 20
88.0193075527
 30
0.0
 10
798.8208475314
 20
88.3512257878
 30
0.0
  0
SPLINE
  5
4A1
100
AcDbEntity
  8
KONSTRUKTIONSELEMENTE
100
AcDbSpline
 62
7
  6
CONTINUOUS
 70
0
 71
3
 72
15
 73
11
 74
0
 42
0.0000001
 43
0.0000001
 44
0.0000000001
 40
0.0
 40
0.0
 40
0.0
 40
0.0
 40
0.0624946376
 40
0.1250023376
 40
0.2497593649
 40
0.3747328447
 40
0.4997829526
 40
0.6248643907
 40
0.7499620208
 40
1.0
 40
1.0
 40
1.0
 40
1.0
 10
749.0346374388
 20
116.7979776103
 30
0.0
 10
749.0346374388
 20
117.1915801527
 30
0.0
 10
749.122256698
 20
117.9813565402
 30
0.0
 10
749.6155678198
 20
119.4843457826
 30
0.0
 10
750.7010259429
 20
121.1596826652
 30
0.0
 10
752.3932593864
 20
122.8198382266
 30
0.0
 10
754.3129059513
 20
124.2086264872
 30
0.0
 10
756.3776320776
 20
125.3670860602
 30
0.0
 10
759.2622011128
 20
126.6418102627
 30
0.0
 10
761.5376480082
 20
127.3230869889
 30
0.0
 10
763.074786692
 20
127.665359939
 30
0.0
  0
SPLINE
  5
4A2
100
AcDbEntity
  8
KONSTRUKTIONSELEMENTE
100
AcDbSpline
 62
7
  6
CONTINUOUS
 70
0
 71
3
 72
9
 73
5
 74
0
 42
0.0000001
 43
0.0000001
 44
0.0000000001
 40
0.0
 40
0.0
 40
0.0
 40
0.0
 40
0.5000902521
 40
1.0
 40
1.0
 40
1.0
 40
1.0
 10
748.3374030902
 20
110.4979776103
 30
0.0
 10
748.5543505365
 20
111.1069229708
 30
0.0
 10
748.9069585196
 20
112.3564043737
 30
0.0
 10
749.0346374388
 20
113.6517740521
 30
0.0
 10
749.0346374388
 20
114.2979776103
 30
0.0
  0
SPLINE
  5
4A3
100
AcDbEntity
  8
KONSTRUKTIONSELEMENTE
100
AcDbSpline
 62
7
  6
CONTINUOUS
 70
0
 71
3
 72
9
 73
5
 74
0
 42
0.0000001
 43
0.0000001
 44
0.0000000001
 40
0.0
 40
0.0
 40
0.0
 40
0.0
 40
0.4999097479
 40
1.0
 40
1.0
 40
1.0
 40
1.0
 10
791.9149359452
 20
114.2979776103
 30
0.0
 10
791.9149359452
 20
113.6517740521
 30
0.0
 10
792.0426148644
 20
112.3564043737
 30
0.0
 10
792.3952228475
 20
111.1069229708
 30
0.0
 10
792.6121702939
 20
110.4979776103
 30
0.0
  0
SPLINE
  5
4A4
100
AcDbEntity
  8
KONSTRUKTIONSELEMENTE
100
AcDbSpline
 62
7
  6
CONTINUOUS
 70
0
 71
3
 72
15
 73
11
 74
0
 42
0.0000001
 43
0.0000001
 44
0.0000000001
 40
0.0
 40
0.0
 40
0.0
 40
0.0
 40
0.2500415702
 40
0.3751416148
 40
0.5002258421
 40
0.6252778246
 40
0.7502487062
 40
0.8750031602
 40
0.9375084728
 40
1.0
 40
1.0
 40
1.0
 40
1.0
 10
777.874786692
 20
127.665359939
 30
0.0
 10
779.4119475407
 20
127.3230820535
 30
0.0
 10
781.6874285978
 20
126.6417871742
 30
0.0
 10
784.5720493246
 20
125.3670415372
 30
0.0
 10
786.6368042533
 20
124.2085406425
 30
0.0
 10
788.5564475693
 20
122.8197251667
 30
0.0
 10
790.2486457714
 20
121.1595629035
 30
0.0
 10
791.3340523898
 20
119.4842495766
 30
0.0
 10
791.8273261289
 20
117.9813021227
 30
0.0
 10
791.9149359452
 20
117.1915605856
 30
0.0
 10
791.9149359452
 20
116.7979776103
 30
0.0
  0
SPLINE
  5
4A5
100
AcDbEntity
  8
RUNDUNGEN
100
AcDbSpline
 62
7
  6
CONTINUOUS
 70
0
 71
3
 72
9
 73
5
 74
0
 42
0.0000001
 43
0.0000001
 44
0.0000000001
 40
0.0
 40
0.0
 40
0.0
 40
0.0
 40
0.4907112898
 40
1.0
 40
1.0
 40
1.0
 40
1.0
 10
757.0180728731
 20
152.7979776103
 30
0.0
 10
755.8085743714
 20
152.7979776103
 30
0.0
 10
753.3453977121
 20
152.6881831907
 30
0.0
 10
750.8814708735
 20
152.6074526297
 30
0.0
 10
749.6261829991
 20
152.6074526297
 30
0.0
  0
SPLINE
  5
4A6
100
AcDbEntity
  8
RUNDUNGEN
100
AcDbSpline
 62
7
  6
CONTINUOUS
 70
0
 71
3
 72
15
 73
11
 74
0
 42
0.0000001
 43
0.0000001
 44
0.0000000001
 40
0.0
 40
0.0
 40
0.0
 40
0.0
 40
0.0570233419
 40
0.1293586796
 40
0.2242107455
 40
0.3430879243
 40
0.4844660151
 40
0.6447708672
 40
0.8187803679
 40
1.0
 40
1.0
 40
1.0
 40
1.0
 10
807.474786692
 20
134.2609989142
 30
0.0
 10
807.474786692
 20
134.3867443362
 30
0.0
 10
807.3739912402
 20
134.6721110125
 30
0.0
 10
807.0095863243
 20
135.0192660266
 30
0.0
 10
806.4596932085
 20
135.3347375304
 30
0.0
 10
805.7250690658
 20
135.6127964893
 30
0.0
 10
804.8258319771
 20
135.8447689998
 30
0.0
 10
803.7904086753
 20
136.0195133733
 30
0.0
 10
802.6579833354
 20
136.1283234177
 30
0.0
 10
801.8744044338
 20
136.1527916474
 30
0.0
 10
801.474786692
 20
136.1527916474
 30
0.0
  0
SPLINE
  5
4A7
100
AcDbEntity
  8
KONSTRUKTIONSELEMENTE
100
AcDbSpline
 62
7
  6
CONTINUOUS
 70
0
 71
3
 72
20
 73
16
 74
0
 42
0.0000001
 43
0.0000001
 44
0.0000000001
 40
0.0
 40
0.0
 40
0.0
 40
0.0
 40
0.1925074097
 40
0.3784599411
 40
0.5508798646
 40
0.6298138988
 40
0.7027736029
 40
0.7689728188
 40
0.8277038991
 40
0.8783417129
 40
0.9203734727
 40
0.9534317115
 40
0.9665361599
 40
0.9773699474
 40
1.0
 40
1.0
 40
1.0
 40
1.0
 10
748.3374030902
 20
110.4979776103
 30
0.0
 10
747.9335060976
 20
109.3642873834
 30
0.0
 10
747.1978444031
 20
107.1143826082
 30
0.0
 10
746.2719862305
 20
103.7963914063
 30
0.0
 10
745.6382512404
 20
101.1362365706
 30
0.0
 10
745.2242492326
 20
99.1513684344
 30
0.0
 10
744.9711949494
 20
97.8115045416
 30
0.0
 10
744.7662301465
 20
96.5914353671
 30
0.0
 10
744.609466328
 20
95.5047683895
 30
0.0
 10
744.5002674107
 20
94.5650697887
 30
0.0
 10
744.4393656991
 20
93.7793433757
 30
0.0
 10
744.4244071023
 20
93.2321345347
 30
0.0
 10
744.4437936815
 20
92.8689954797
 30
0.0
 10
744.4737727948
 20
92.6012588607
 30
0.0
 10
744.5567814521
 20
92.2979776103
 30
0.0
 10
744.698256653
 20
92.2979776103
 30
0.0
  0
SPLINE
  5
4A8
100
AcDbEntity
  8
KONSTRUKTIONSELEMENTE
100
AcDbSpline
 62
7
  6
CONTINUOUS
 70
0
 71
3
 72
20
 73
16
 74
0
 42
0.0000001
 43
0.0000001
 44
0.0000000001
 40
0.0
 40
0.0
 40
0.0
 40
0.0
 40
0.0226300526
 40
0.0334638401
 40
0.0465682885
 40
0.0796265273
 40
0.1216582871
 40
0.1722961009
 40
0.2310271812
 40
0.2972263971
 40
0.3701861012
 40
0.4491201354
 40
0.6215400589
 40
0.8074925903
 40
1.0
 40
1.0
 40
1.0
 40
1.0
 10
796.251316731
 20
92.2979776103
 30
0.0
 10
796.3927919319
 20
92.2979776103
 30
0.0
 10
796.4758005893
 20
92.6012588607
 30
0.0
 10
796.5057797026
 20
92.8689954797
 30
0.0
 10
796.5251662817
 20
93.2321345347
 30
0.0
 10
796.510207685
 20
93.7793433757
 30
0.0
 10
796.4493059733
 20
94.5650697887
 30
0.0
 10
796.340107056
 20
95.5047683895
 30
0.0
 10
796.1833432375
 20
96.5914353671
 30
0.0
 10
795.9783784347
 20
97.8115045416
 30
0.0
 10
795.7253241514
 20
99.1513684344
 30
0.0
 10
795.3113221436
 20
101.1362365706
 30
0.0
 10
794.6775871535
 20
103.7963914063
 30
0.0
 10
793.751728981
 20
107.1143826082
 30
0.0
 10
793.0160672864
 20
109.3642873834
 30
0.0
 10
792.6121702939
 20
110.4979776103
 30
0.0
  0
SPLINE
  5
4A9
100
AcDbEntity
  8
RUNDUNGEN
100
AcDbSpline
 62
7
  6
CONTINUOUS
 70
0
 71
3
 72
9
 73
5
 74
0
 42
0.0000001
 43
0.0000001
 44
0.0000000001
 40
0.0
 40
0.0
 40
0.0
 40
0.0
 40
0.5098814585
 40
1.0
 40
1.0
 40
1.0
 40
1.0
 10
745.3384847701
 20
152.6074526297
 30
0.0
 10
744.6862979789
 20
152.6074526404
 30
0.0
 10
743.4071101972
 20
152.6422866378
 30
0.0
 10
742.1304638475
 20
152.7214999072
 30
0.0
 10
741.5043784268
 20
152.7536070252
 30
0.0
  0
SPLINE
  5
4AA
100
AcDbEntity
  8
RUNDUNGEN
100
AcDbSpline
 62
7
  6
CONTINUOUS
 70
0
 71
3
 72
15
 73
11
 74
0
 42
0.0000001
 43
0.0000001
 44
0.0000000001
 40
0.0
 40
0.0
 40
0.0
 40
0.0
 40
0.0570233419
 40
0.1293586796
 40
0.2242107455
 40
0.3430879243
 40
0.4844660151
 40
0.6447708672
 40
0.8187803679
 40
1.0
 40
1.0
 40
1.0
 40
1.0
 10
807.474786692
 20
126.4061848771
 30
0.0
 10
807.474786692
 20
126.5319302991
 30
0.0
 10
807.3739912402
 20
126.8172969755
 30
0.0
 10
807.0095863243
 20
127.1644519895
 30
0.0
 10
806.4596932085
 20
127.4799234933
 30
0.0
 10
805.7250690658
 20
127.7579824522
 30
0.0
 10
804.8258319771
 20
127.9899549628
 30
0.0
 10
803.7904086753
 20
128.1646993362
 30
0.0
 10
802.6579833354
 20
128.2735093806
 30
0.0
 10
801.8744044338
 20
128.2979776103
 30
0.0
 10
801.474786692
 20
128.2979776103
 30
0.0
  0
SPLINE
  5
4AB
100
AcDbEntity
  8
RUNDUNGEN
100
AcDbSpline
 62
7
  6
CONTINUOUS
 70
0
 71
3
 72
9
 73
5
 74
0
 42
0.0000001
 43
0.0000001
 44
0.0000000001
 40
0.0
 40
0.0
 40
0.0
 40
0.0
 40
0.4901185419
 40
1.0
 40
1.0
 40
1.0
 40
1.0
 10
799.4451948292
 20
152.7536070186
 30
0.0
 10
798.8191093266
 20
152.7214998953
 30
0.0
 10
797.5424628111
 20
152.6422866151
 30
0.0
 10
796.2632748625
 20
152.6074526297
 30
0.0
 10
795.6110879871
 20
152.6074526297
 30
0.0
  0
SPLINE
  5
4AC
100
AcDbEntity
  8
RUNDUNGEN
100
AcDbSpline
 62
7
  6
CONTINUOUS
 70
0
 71
3
 72
15
 73
11
 74
0
 42
0.0000001
 43
0.0000001
 44
0.0000000001
 40
0.0
 40
0.0
 40
0.0
 40
0.0
 40
0.1812196321
 40
0.3552291328
 40
0.5155339849
 40
0.6569120757
 40
0.7757892545
 40
0.8706413204
 40
0.9429766581
 40
1.0
 40
1.0
 40
1.0
 40
1.0
 10
739.474786692
 20
128.2979776103
 30
0.0
 10
739.0751689502
 20
128.2979776103
 30
0.0
 10
738.2915900487
 20
128.2735093806
 30
0.0
 10
737.1591647087
 20
128.1646993362
 30
0.0
 10
736.1237414069
 20
127.9899549628
 30
0.0
 10
735.2245043183
 20
127.7579824522
 30
0.0
 10
734.4898801756
 20
127.4799234933
 30
0.0
 10
733.9399870597
 20
127.1644519895
 30
0.0
 10
733.5755821439
 20
126.8172969755
 30
0.0
 10
733.474786692
 20
126.5319302991
 30
0.0
 10
733.474786692
 20
126.4061848771
 30
0.0
  0
SPLINE
  5
4AD
100
AcDbEntity
  8
RUNDUNGEN
100
AcDbSpline
 62
7
  6
CONTINUOUS
 70
0
 71
3
 72
15
 73
11
 74
0
 42
0.0000001
 43
0.0000001
 44
0.0000000001
 40
0.0
 40
0.0
 40
0.0
 40
0.0
 40
0.0570233419
 40
0.1293586796
 40
0.2242107455
 40
0.3430879243
 40
0.4844660151
 40
0.6447708672
 40
0.8187803679
 40
1.0
 40
1.0
 40
1.0
 40
1.0
 10
733.474786692
 20
134.2609989142
 30
0.0
 10
733.474786692
 20
134.3867443362
 30
0.0
 10
733.5755821439
 20
134.6721110125
 30
0.0
 10
733.9399870597
 20
135.0192660266
 30
0.0
 10
734.4898801756
 20
135.3347375304
 30
0.0
 10
735.2245043183
 20
135.6127964893
 30
0.0
 10
736.1237414069
 20
135.8447689998
 30
0.0
 10
737.1591647087
 20
136.0195133733
 30
0.0
 10
738.2915900487
 20
136.1283234177
 30
0.0
 10
739.0751689502
 20
136.1527916474
 30
0.0
 10
739.474786692
 20
136.1527916474
 30
0.0
  0
SPLINE
  5
4AE
100
AcDbEntity
  8
RUNDUNGEN
100
AcDbSpline
 62
7
  6
CONTINUOUS
 70
0
 71
3
 72
9
 73
5
 74
0
 42
0.0000001
 43
0.0000001
 44
0.0000000001
 40
0.0
 40
0.0
 40
0.0
 40
0.0
 40
0.5092886403
 40
1.0
 40
1.0
 40
1.0
 40
1.0
 10
791.323390385
 20
152.6074526297
 30
0.0
 10
790.0681014973
 20
152.6074526297
 30
0.0
 10
787.6041723367
 20
152.68818345
 30
0.0
 10
785.1409933412
 20
152.7979776103
 30
0.0
 10
783.931493525
 20
152.7979776103
 30
0.0
  0
SPLINE
  5
4AF
100
AcDbEntity
  8
0
100
AcDbSpline
 62
7
  6
CONTINUOUS
 70
0
 71
3
 72
9
 73
5
 74
0
 42
0.0000001
 43
0.0000001
 44
0.0000000001
 40
0.0
 40
0.0
 40
0.0
 40
0.0
 40
0.5000000006
 40
1.0
 40
1.0
 40
1.0
 40
1.0
 10
213.3974033745
 20
171.2979776103
 30
0.0
 10
212.9743354421
 20
174.9725143666
 30
0.0
 10
212.5230135326
 20
182.3754327454
 30
0.0
 10
212.9743354431
 20
189.7783511239
 30
0.0
 10
213.3974033745
 20
193.4528878711
 30
0.0
  0
LINE
  5
4B0
100
AcDbEntity
  8
0
100
AcDbLine
 62
7
  6
CONTINUOUS
 10
230.2291215594
 20
126.4061848771
 11
236.2291215594
 21
128.2979776103
  0
LINE
  5
4B1
100
AcDbEntity
  8
0
100
AcDbLine
 62
7
  6
CONTINUOUS
 10
224.7291215594
 20
134.2609989142
 11
230.7291215594
 21
136.1527916474
  0
SPLINE
  5
4B2
100
AcDbEntity
  8
0
100
AcDbSpline
 62
7
  6
CONTINUOUS
 70
0
 71
3
 72
9
 73
5
 74
0
 42
0.0000001
 43
0.0000001
 44
0.0000000001
 40
0.0
 40
0.0
 40
0.0
 40
0.0
 40
0.515843987
 40
1.0
 40
1.0
 40
1.0
 40
1.0
 10
224.7291215594
 20
152.6220714886
 30
0.0
 10
224.8429295851
 20
152.6773431317
 30
0.0
 10
225.0774936266
 20
152.7597213976
 30
0.0
 10
225.3270505253
 20
152.7692824494
 30
0.0
 10
225.444951013
 20
152.7551235875
 30
0.0
  0
SPLINE
  5
4B3
100
AcDbEntity
  8
0
100
AcDbSpline
 62
7
  6
CONTINUOUS
 70
0
 71
3
 72
11
 73
7
 74
0
 42
0.0000001
 43
0.0000001
 44
0.0000000001
 40
0.0
 40
0.0
 40
0.0
 40
0.0
 40
0.2551771482
 40
0.5000000006
 40
0.7448228526
 40
1.0
 40
1.0
 40
1.0
 40
1.0
 10
213.3974033745
 20
209.6714078191
 30
0.0
 10
213.1922738221
 20
210.14879766
 30
0.0
 10
212.8656496259
 20
211.120558152
 30
0.0
 10
212.691398113
 20
212.6396029786
 30
0.0
 10
212.8656496283
 20
214.1586478029
 30
0.0
 10
213.1922738228
 20
215.1304082926
 30
0.0
 10
213.3974033745
 20
215.6077981319
 30
0.0
  0
SPLINE
  5
4B4
100
AcDbEntity
  8
0
100
AcDbSpline
 62
7
  6
CONTINUOUS
 70
0
 71
3
 72
9
 73
5
 74
0
 42
0.0000001
 43
0.0000001
 44
0.0000000001
 40
0.0
 40
0.0
 40
0.0
 40
0.0
 40
0.5000000006
 40
1.0
 40
1.0
 40
1.0
 40
1.0
 10
213.3974033745
 20
193.4528878711
 30
0.0
 10
212.9760897666
 20
196.131681137
 30
0.0
 10
212.5212592081
 20
201.5621478486
 30
0.0
 10
212.9760897676
 20
206.9926145599
 30
0.0
 10
213.3974033745
 20
209.6714078191
 30
0.0
  0
SPLINE
  5
4B5
100
AcDbEntity
  8
0
100
AcDbSpline
 62
7
  6
CONTINUOUS
 70
0
 71
3
 72
11
 73
7
 74
0
 42
0.0000001
 43
0.0000001
 44
0.0000000001
 40
0.0
 40
0.0
 40
0.0
 40
0.0
 40
0.2551771482
 40
0.5000000006
 40
0.7448228526
 40
1.0
 40
1.0
 40
1.0
 40
1.0
 10
220.0608397443
 20
209.6714078191
 30
0.0
 10
220.2659692967
 20
210.14879766
 30
0.0
 10
220.5925934929
 20
211.120558152
 30
0.0
 10
220.7668450058
 20
212.6396029786
 30
0.0
 10
220.5925934905
 20
214.1586478029
 30
0.0
 10
220.265969296
 20
215.1304082926
 30
0.0
 10
220.0608397443
 20
215.6077981319
 30
0.0
  0
SPLINE
  5
4B6
100
AcDbEntity
  8
0
100
AcDbSpline
 62
7
  6
CONTINUOUS
 70
0
 71
3
 72
9
 73
5
 74
0
 42
0.0000001
 43
0.0000001
 44
0.0000000001
 40
0.0
 40
0.0
 40
0.0
 40
0.0
 40
0.5000000006
 40
1.0
 40
1.0
 40
1.0
 40
1.0
 10
220.0608397443
 20
193.4528878711
 30
0.0
 10
220.4821533522
 20
196.131681137
 30
0.0
 10
220.9369839107
 20
201.5621478486
 30
0.0
 10
220.4821533512
 20
206.9926145599
 30
0.0
 10
220.0608397443
 20
209.6714078191
 30
0.0
  0
SPLINE
  5
4B7
100
AcDbEntity
  8
0
100
AcDbSpline
 62
7
  6
CONTINUOUS
 70
0
 71
3
 72
9
 73
5
 74
0
 42
0.0000001
 43
0.0000001
 44
0.0000000001
 40
0.0
 40
0.0
 40
0.0
 40
0.0
 40
0.5000000006
 40
1.0
 40
1.0
 40
1.0
 40
1.0
 10
220.0608397443
 20
171.2979776103
 30
0.0
 10
220.4839076767
 20
174.9725143666
 30
0.0
 10
220.9352295862
 20
182.3754327454
 30
0.0
 10
220.4839076757
 20
189.7783511239
 30
0.0
 10
220.0608397443
 20
193.4528878711
 30
0.0
  0
LINE
  5
4B8
100
AcDbEntity
  8
RUNDUNGEN
100
AcDbLine
 62
7
  6
CONTINUOUS
 10
203.2291215594
 20
126.4061848771
 11
197.2291215594
 21
128.2979776103
  0
LINE
  5
4B9
100
AcDbEntity
  8
RUNDUNGEN
100
AcDbLine
 62
7
  6
CONTINUOUS
 10
208.7291215594
 20
134.2609989142
 11
202.7291215594
 21
136.1527916474
  0
SPLINE
  5
4BA
100
AcDbEntity
  8
RUNDUNGEN
100
AcDbSpline
 62
7
  6
CONTINUOUS
 70
0
 71
3
 72
9
 73
5
 74
0
 42
0.0000001
 43
0.0000001
 44
0.0000000001
 40
0.0
 40
0.0
 40
0.0
 40
0.0
 40
0.515843987
 40
1.0
 40
1.0
 40
1.0
 40
1.0
 10
208.7291215594
 20
152.6220714886
 30
0.0
 10
208.6153135337
 20
152.6773431317
 30
0.0
 10
208.3807494922
 20
152.7597213976
 30
0.0
 10
208.1311925935
 20
152.7692824494
 30
0.0
 10
208.0132921058
 20
152.7551235875
 30
0.0
  0
SPLINE
  5
4BB
100
AcDbEntity
  8
RUNDUNGEN
100
AcDbSpline
 62
7
  6
CONTINUOUS
 70
0
 71
3
 72
21
 73
17
 74
0
 42
0.0000001
 43
0.0000001
 44
0.0000000001
 40
0.0
 40
0.0
 40
0.0
 40
0.0
 40
0.0660002394
 40
0.0983941011
 40
0.1297349599
 40
0.1597924332
 40
0.1888054653
 40
0.2452498768
 40
0.3021345811
 40
0.3603460358
 40
0.4200424697
 40
0.4811456025
 40
0.6067345986
 40
0.7359521058
 40
0.8674331246
 40
1.0
 40
1.0
 40
1.0
 40
1.0
 10
206.629263606
 20
102.0479776103
 30
0.0
 10
206.1956579258
 20
102.0479776103
 30
0.0
 10
205.5409782265
 20
101.9903284047
 30
0.0
 10
204.7369395224
 20
101.6903843597
 30
0.0
 10
204.2198661618
 20
101.3426294825
 30
0.0
 10
203.8288454797
 20
100.8854640595
 30
0.0
 10
203.5028823538
 20
100.1912102177
 30
0.0
 10
203.4227092691
 20
99.2307810854
 30
0.0
 10
203.707074493
 20
98.1268376503
 30
0.0
 10
204.2477205688
 20
97.1046215626
 30
0.0
 10
204.9793422056
 20
96.1773038136
 30
0.0
 10
206.1600138223
 20
95.0634134396
 30
0.0
 10
207.9219107661
 20
93.9322144062
 30
0.0
 10
210.2891269012
 20
92.9851753172
 30
0.0
 10
212.8208359433
 20
92.4221309093
 30
0.0
 10
214.5581891097
 20
92.2979776103
 30
0.0
 10
215.4291215594
 20
92.2979776103
 30
0.0
  0
SPLINE
  5
4BC
100
AcDbEntity
  8
0
100
AcDbSpline
 62
7
  6
CONTINUOUS
 70
0
 71
3
 72
19
 73
15
 74
0
 42
0.0000001
 43
0.0000001
 44
0.0000000001
 40
0.0
 40
0.0
 40
0.0
 40
0.0
 40
0.0666497725
 40
0.1313031996
 40
0.1622622519
 40
0.1921196014
 40
0.2495047454
 40
0.3064810231
 40
0.3643249385
 40
0.4835207494
 40
0.6078156849
 40
0.7360781339
 40
0.8671531413
 40
1.0
 40
1.0
 40
1.0
 40
1.0
 10
226.8289795128
 20
102.0479776103
 30
0.0
 10
227.2151278407
 20
102.0479776103
 30
0.0
 10
227.9791870401
 20
101.98962331
 30
0.0
 10
228.8780454742
 20
101.6332995812
 30
0.0
 10
229.426362883
 20
101.1452874077
 30
0.0
 10
229.8176981788
 20
100.5756446645
 30
0.0
 10
230.0351220378
 20
99.7417829954
 30
0.0
 10
229.935597123
 20
98.7352828622
 30
0.0
 10
229.4686199109
 20
97.4515720944
 30
0.0
 10
228.4141960635
 20
96.0199546881
 30
0.0
 10
226.7359095322
 20
94.6476233271
 30
0.0
 10
224.7682853466
 20
93.5888047643
 30
0.0
 10
222.6143805043
 20
92.8410015502
 30
0.0
 10
221.1085613644
 20
92.5455072297
 30
0.0
 10
220.3452614383
 20
92.4466579414
 30
0.0
  0
ELLIPSE
  5
4BD
100
AcDbEntity
  8
RUNDUNGEN
100
AcDbEllipse
 62
7
  6
CONTINUOUS
 10
740.8333326523
 20
146.7979776103
 30
0.0
 11
14.2165593702
 21
-0.5423133308
 31
0.0
 40
0.4203155586
 41
1.5396153878
 42
1.5416988386
  0
ELLIPSE
  5
4BE
100
AcDbEntity
  8
RUNDUNGEN
100
AcDbEllipse
 62
7
  6
CONTINUOUS
 10
800.1162407317
 20
146.7979776103
 30
0.0
 11
14.2165593702
 21
0.5423133308
 31
0.0
 40
0.4203155586
 41
1.5998770104
 42
1.6019772748
  0
ELLIPSE
  5
4BF
100
AcDbEntity
  8
0
100
AcDbEllipse
 62
7
  6
CONTINUOUS
 10
224.851330738
 20
144.7979776103
 30
0.0
 11
0.7255286101
 21
7.994185694
 31
0.0
 40
0.4203155586
 41
0.2482200958
 42
1.6089244346
  0
ELLIPSE
  5
4C0
100
AcDbEntity
  8
RUNDUNGEN
100
AcDbEllipse
 62
7
  6
CONTINUOUS
 10
208.6069123808
 20
144.7979776103
 30
0.0
 11
-0.7255286101
 21
7.994185694
 31
0.0
 40
0.4203155586
 41
-1.6089244346
 42
-0.2482200958
  0
ENDSEC
  0
SECTION
  2
OBJECTS
  0
DICTIONARY
  5
C
100
AcDbDictionary
280
0
281
1
  3
ACAD_GROUP
350
D
  3
ACAD_MLINESTYLE
350
17
  3
ACAD_LAYOUT
350
1A
  3
ACAD_PLOTSETTINGS
350
19
  3
ACAD_PLOTSTYLENAME
350
E
  0
DICTIONARY
  5
D
102
{ACAD_REACTORS
330
C
102
}
100
AcDbDictionary
280
0
281
1
  0
ACDBDICTIONARYWDFLT
  5
E
102
{ACAD_REACTORS
330
C
102
}
100
AcDbDictionary
281
1
  3
Normal
350
F
100
AcDbDictionaryWithDefault
340
F
  0
DICTIONARY
  5
17
102
{ACAD_REACTORS
330
C
102
}
100
AcDbDictionary
280
0
281
1
  3
Standard
350
18
  0
DICTIONARY
  5
19
102
{ACAD_REACTORS
330
C
102
}
100
AcDbDictionary
281
1
  0
DICTIONARY
  5
1A
102
{ACAD_REACTORS
330
C
102
}
100
AcDbDictionary
281
1
  3
Model
350
4C1
  3
Layout1
350
4C2
  0
ACDBPLACEHOLDER
  5
F
102
{ACAD_REACTORS
330
E
102
}
  0
MLINESTYLE
  5
18
102
{ACAD_REACTORS
330
17
102
}
100
AcDbMlineStyle
  2
STANDARD
 70
0
  3

 62
256
 51
90.0
 52
90.0
 71
2
 49
0.5
 62
256
  6
BYLAYER
 49
-0.5
 62
256
  6
BYLAYER
  0
LAYOUT
  5
4C1
102
{ACAD_REACTORS
330
1A
102
}
100
AcDbPlotSettings
  1

  2
none_device
  4
ISO_A0_(1189.00_x_841.00_MM)
  6

 40
0.0
 41
0.0
 42
0.0
 43
0.0
 44
1189.0
 45
841.0
 46
0.0
 47
0.0
 48
0.0
 49
0.0
140
0.0
141
0.0
142
1.0
143
1.0
 70
1024
 72
1
 73
0
 74
0
  7

 75
0
147
1.0
148
0.0
149
0.0
100
AcDbLayout
  1
Model
 70
0
 71
0
 10
0.0
 20
0.0
 11
1189.0
 21
841.0
 12
0.0
 22
0.0
 32
0.0
 14
0.0
 24
0.0
 34
0.0
 15
0.0
 25
0.0
 35
0.0
146
0.0
 13
0.0
 23
0.0
 33
0.0
 16
1.0
 26
0.0
 36
0.0
 17
0.0
 27
1.0
 37
0.0
 76
0
330
20A
345
0
346
0
  0
LAYOUT
  5
4C2
102
{ACAD_REACTORS
330
1A
102
}
100
AcDbPlotSettings
  1

  2
none_device
  4
ISO_A0_(1189.00_x_841.00_MM)
  6

 40
0.0
 41
0.0
 42
0.0
 43
0.0
 44
1189.0
 45
841.0
 46
0.0
 47
0.0
 48
0.0
 49
0.0
140
0.0
141
0.0
142
1.0
143
1.0
 70
0
 72
1
 73
0
 74
0
  7

 75
0
147
1.0
148
0.0
149
0.0
100
AcDbLayout
  1
Layout1
 70
0
 71
1
 10
0.0
 20
0.0
 11
1189.0
 21
841.0
 12
0.0
 22
0.0
 32
0.0
 14
0.0
 24
0.0
 34
0.0
 15
0.0
 25
0.0
 35
0.0
146
0.0
 13
0.0
 23
0.0
 33
0.0
 16
1.0
 26
0.0
 36
0.0
 17
0.0
 27
1.0
 37
0.0
 76
0
330
20B
345
0
346
0
  0
ENDSEC
  0
EOF
