999
DXF file: ISAK-RG-1-13_190_7903189_M34585-P-8.dxf
999
Pro/ENGINEER 2010140 by Parametric Technology Corporation
  0
SECTION
  2
HEADER
  9
$ACADVER
  1
AC1015
  9
$DWGCODEPAGE
  3
ANSI_1252
  9
$EXTMAX
 10
1189.0
 20
841.0
 30
0.0
  9
$EXTMIN
 10
0.0
 20
0.0
 30
0.0
  9
$LIMMIN
 10
0.0
 20
0.0
  9
$LIMMAX
 10
1189.0
 20
841.0
  9
$VIEWCTR
 10
594.5
 20
420.5
  9
$VIEWSIZE
 40
841.0
  9
$CLAYER
  8
0
  9
$LTSCALE
 40
65.395
  9
$CELTYPE
  6
BYLAYER
  9
$DIMSCALE
 40
1.0
  9
$DIMASZ
 40
3.5
  9
$DIMEXO
 40
7.43125
  9
$DIMDLI
 40
45.182
  9
$DIMEXE
 40
21.402
  9
$DIMCEN
 40
10.701
  9
$DIMLFAC
 40
1.0
  9
$DIMBLK
  1
_FILLED
  9
$DIMTXT
 40
3.5
  9
$DIMTOL
 70
1
  9
$DIMLIM
 70
0
  9
$DIMTFAC
 40
1.0
  9
$DIMTP
 40
0.005
  9
$DIMTM
 40
0.005
  9
$PDMODE
 70
3
  9
$PDSIZE
 40
0.3125
  9
$HANDSEED
  5
4C3
  9
$TILEMODE
 70
1
  9
$MEASUREMENT
 70
1
  9
$INSUNITS
 70
4
  0
ENDSEC
  0
SECTION
  2
CLASSES
  0
CLASS
  1
ACDBDICTIONARYWDFLT
  2
AcDbDictionaryWithDefault
  3
AutoCAD 2000
 90
0
280
0
281
0
  0
CLASS
  1
ACDBPLACEHOLDER
  2
AcDbPlaceHolder
  3
AutoCAD 2000
 90
0
280
0
281
0
  0
CLASS
  1
LAYOUT
  2
AcDbLayout
  3
AutoCAD 2000
 90
0
280
0
281
0
  0
ENDSEC
  0
SECTION
  2
TABLES
  0
TABLE
  2
VPORT
  5
8
100
AcDbSymbolTable
 70
2
  0
VPORT
  5
1F4
100
AcDbSymbolTableRecord
100
AcDbViewportTableRecord
  2
*ACTIVE
 70
0
 10
0.0
 20
0.0
 11
1.0
 21
1.0
 12
594.5
 22
420.5
 13
0.0
 23
0.0
 14
1.0
 24
1.0
 15
0.0
 25
0.0
 16
0.0
 26
0.0
 36
1.0
 17
0.0
 27
0.0
 37
0.0
 40
841.0
 41
1.4137931034
 42
50.0
 43
0.0
 44
0.0
 50
0.0
 51
0.0
 71
0
 72
100
 73
1
 74
1
 75
0
 76
0
 77
0
 78
0
  0
ENDTAB
  0
TABLE
  2
LTYPE
  5
5
100
AcDbSymbolTable
 70
6
  0
LTYPE
  5
14
100
AcDbSymbolTableRecord
100
AcDbLinetypeTableRecord
  2
BYBLOCK
 70
0
  3

 72
65
 73
0
 40
0.0
  0
LTYPE
  5
15
100
AcDbSymbolTableRecord
100
AcDbLinetypeTableRecord
  2
BYLAYER
 70
0
  3

 72
65
 73
0
 40
0.0
  0
LTYPE
  5
16
100
AcDbSymbolTableRecord
100
AcDbLinetypeTableRecord
  2
CONTINUOUS
 70
64
  3
Solid line
 72
65
 73
0
 40
0.0
  0
LTYPE
  5
1F5
100
AcDbSymbolTableRecord
100
AcDbLinetypeTableRecord
  2
CENTER
 70
64
  3
____ _ ____ _ ____ _ ____ _ ____ _ ____ _ ____
 72
65
 73
4
 40
0.6
 49
0.375
 74
0
 49
-0.075
 74
0
 49
0.075
 74
0
 49
-0.075
 74
0
  0
LTYPE
  5
1F6
100
AcDbSymbolTableRecord
100
AcDbLinetypeTableRecord
  2
HIDDEN
 70
64
  3
- - - - - - - - - - - - - - - - - - - -
 72
65
 73
2
 40
0.2
 49
0.1
 74
0
 49
-0.1
 74
0
  0
LTYPE
  5
1F7
100
AcDbSymbolTableRecord
100
AcDbLinetypeTableRecord
  2
PHANTOM
 70
64
  3
_____ _ _ _____ _ _ _____ _ _ _____
 72
65
 73
6
 40
0.8
 49
0.45
 74
0
 49
-0.05
 74
0
 49
0.1
 74
0
 49
-0.05
 74
0
 49
0.1
 74
0
 49
-0.05
 74
0
  0
LTYPE
  5
1F8
100
AcDbSymbolTableRecord
100
AcDbLinetypeTableRecord
  2
DOT
 70
64
  3
. . . . . . . . . . . . . . . . . . . .
 72
65
 73
2
 40
0.2
 49
0.1
 74
0
 49
-0.1
 74
0
  0
LTYPE
  5
1F9
100
AcDbSymbolTableRecord
100
AcDbLinetypeTableRecord
  2
DASHED
 70
64
  3
- - - - - - - - - - - - - - - - - - - -
 72
65
 73
2
 40
0.2
 49
0.1
 74
0
 49
-0.1
 74
0
  0
ENDTAB
  0
TABLE
  2
LAYER
  5
2
100
AcDbSymbolTable
 70
36
  0
LAYER
  5
10
100
AcDbSymbolTableRecord
100
AcDbLayerTableRecord
  2
0
 70
0
 62
7
  6
CONTINUOUS
370
-3
390
F
  0
LAYER
  5
1FA
100
AcDbSymbolTableRecord
100
AcDbLayerTableRecord
  2
DEFAULT_1
 70
0
 62
7
  6
CENTER
370
-3
390
F
  0
LAYER
  5
1FB
100
AcDbSymbolTableRecord
100
AcDbLayerTableRecord
  2
DEFAULT_2
 70
0
 62
8
  6
HIDDEN
370
-3
390
F
  0
LAYER
  5
1FC
100
AcDbSymbolTableRecord
100
AcDbLayerTableRecord
  2
DEFAULT_3
 70
0
 62
7
  6
PHANTOM
370
-3
390
F
  0
LAYER
  5
1FD
100
AcDbSymbolTableRecord
100
AcDbLayerTableRecord
  2
BEZUGSACHSEN
 70
0
 62
7
  6
CONTINUOUS
370
-3
390
F
  0
LAYER
  5
1FE
100
AcDbSymbolTableRecord
100
AcDbLayerTableRecord
  2
BEZUGSEBENEN
 70
0
 62
7
  6
CONTINUOUS
370
-3
390
F
  0
LAYER
  5
1FF
100
AcDbSymbolTableRecord
100
AcDbLayerTableRecord
  2
BG_STARTBEZUEGE
 70
0
 62
7
  6
CONTINUOUS
370
-3
390
F
  0
LAYER
  5
200
100
AcDbSymbolTableRecord
100
AcDbLayerTableRecord
  2
FASEN
 70
0
 62
7
  6
CONTINUOUS
370
-3
390
F
  0
LAYER
  5
201
100
AcDbSymbolTableRecord
100
AcDbLayerTableRecord
  2
HILFEN
 70
0
 62
7
  6
CONTINUOUS
370
-3
390
F
  0
LAYER
  5
202
100
AcDbSymbolTableRecord
100
AcDbLayerTableRecord
  2
KONSTRUKTIONSELEMENTE
 70
0
 62
7
  6
CONTINUOUS
370
-3
390
F
  0
LAYER
  5
203
100
AcDbSymbolTableRecord
100
AcDbLayerTableRecord
  2
NORM
 70
0
 62
7
  6
CONTINUOUS
370
-3
390
F
  0
LAYER
  5
204
100
AcDbSymbolTableRecord
100
AcDbLayerTableRecord
  2
PLATZIERUNG
 70
0
 62
7
  6
CONTINUOUS
370
-3
390
F
  0
LAYER
  5
205
100
AcDbSymbolTableRecord
100
AcDbLayerTableRecord
  2
RUNDUNGEN
 70
0
 62
7
  6
CONTINUOUS
370
-3
390
F
  0
LAYER
  5
206
100
AcDbSymbolTableRecord
100
AcDbLayerTableRecord
  2
TEIL_STARTBEZUEGE
 70
0
 62
7
  6
CONTINUOUS
370
-3
390
F
  0
LAYER
  5
207
100
AcDbSymbolTableRecord
100
AcDbLayerTableRecord
  2
T_STARTBEZUEGE
 70
0
 62
7
  6
CONTINUOUS
370
-3
390
F
  0
ENDTAB
  0
TABLE
  2
STYLE
  5
3
100
AcDbSymbolTable
 70
1
  0
STYLE
  5
11
100
AcDbSymbolTableRecord
100
AcDbTextStyleTableRecord
  2
STANDARD
 70
0
 40
0.0
 41
0.7
 50
0.0
 71
0
 42
0.2
  3
txt
  4

  0
STYLE
  5
208
100
AcDbSymbolTableRecord
100
AcDbTextStyleTableRecord
  2
TEXTSTYLE_1
 70
0
 40
0.0
 41
0.8
 50
0.0
 71
0
 42
0.2
  3
gdt
  4

  0
ENDTAB
  0
TABLE
  2
VIEW
  5
6
100
AcDbSymbolTable
 70
0
  0
ENDTAB
  0
TABLE
  2
UCS
  5
7
100
AcDbSymbolTable
 70
0
  0
ENDTAB
  0
TABLE
  2
APPID
  5
9
100
AcDbSymbolTable
 70
1
  0
APPID
  5
209
100
AcDbSymbolTableRecord
100
AcDbRegAppTableRecord
  2
ACAD
 70
0
  0
ENDTAB
  0
TABLE
  2
BLOCK_RECORD
  5
1
100
AcDbSymbolTable
 70
0
  0
BLOCK_RECORD
  5
20A
100
AcDbSymbolTableRecord
100
AcDbBlockTableRecord
  2
*Model_Space
  0
BLOCK_RECORD
  5
20B
100
AcDbSymbolTableRecord
100
AcDbBlockTableRecord
  2
*Paper_Space
  0
ENDTAB
  0
TABLE
  2
DIMSTYLE
  5
A
100
AcDbSymbolTable
 70
1
100
AcDbDimStyleTable
 71
0
  0
DIMSTYLE
105
20C
100
AcDbSymbolTableRecord
100
AcDbDimStyleTableRecord
  2
STANDARD
 70
0
  3

  4

 40
1.0
 41
3.5
 42
0.0625
 43
0.38
 44
0.18
 45
0.0
 46
0.0
 47
0.005
 48
0.005
140
3.5
141
0.09
142
0.0
143
25.4
144
1.0
145
0.0
146
1.0
147
0.09
 71
1.0
 72
0.0
 73
0
 74
0
 75
0
 76
0
 77
1
 78
8
170
0
171
2
172
0
173
0
174
0
175
0
176
0
177
0
178
5
270
2
271
3
272
3
273
2
274
2
275
0
280
0
281
0
282
0
283
1
284
8
285
0
286
0
287
3
288
0
340
11
  0
ENDTAB
  0
ENDSEC
  0
SECTION
  2
BLOCKS
  0
BLOCK
  5
20
100
AcDbEntity
  8
0
100
AcDbBlockBegin
  2
*Model_Space
 70
0
 10
0.0
 20
0.0
 30
0.0
  3
*Model_Space
  1

  0
ENDBLK
  5
21
100
AcDbEntity
  8
0
100
AcDbBlockEnd
  0
BLOCK
  5
1C
100
AcDbEntity
  8
0
100
AcDbBlockBegin
  2
*Paper_Space
 70
0
 10
0.0
 20
0.0
 30
0.0
  3
*Paper_Space
  1

  0
ENDBLK
  5
1D
100
AcDbEntity
  8
0
100
AcDbBlockEnd
  0
ENDSEC
  0
SECTION
  2
ENTITIES
  0
MTEXT
  5
20D
100
AcDbEntity
  8
0
100
AcDbMText
 62
5
  6
CONTINUOUS
  7
STANDARD
 71
1
 72
1
 10
642.8354196312
 20
545.6520306914
 30
0.0
 11
0.0
 21
1.0
 31
0.0
 44
0.9
  1
RUD
 40
11.0
 41
29.3333333333
  0
MTEXT
  5
20E
100
AcDbEntity
  8
0
100
AcDbMText
 62
5
  6
CONTINUOUS
  7
STANDARD
 71
1
 72
1
 10
869.082884017
 20
495.2338532508
 30
0.0
 11
0.0
 21
1.0
 31
0.0
 44
0.9
  1
ISAK-RG 1-13/190
 40
11.0
 41
129.9047619048
  0
MTEXT
  5
20F
100
AcDbEntity
  8
0
100
AcDbMText
 62
5
  6
CONTINUOUS
  7
STANDARD
 71
1
 72
1
 10
337.6302504899
 20
464.00508765
 30
0.0
 11
0.0
 21
1.0
 31
0.0
 44
0.9
  1
RUD ISAK-RG 1-13/190
 40
11.0
 41
165.7857142857
  0
LINE
  5
210
100
AcDbEntity
  8
0
100
AcDbLine
 62
7
  6
CONTINUOUS
 10
0.0
 20
0.0
 11
0.0
 21
841.0
  0
LINE
  5
211
100
AcDbEntity
  8
0
100
AcDbLine
 62
7
  6
CONTINUOUS
 10
0.0
 20
0.0
 11
1189.0
 21
0.0
  0
LINE
  5
212
100
AcDbEntity
  8
0
100
AcDbLine
 62
7
  6
CONTINUOUS
 10
0.0
 20
841.0
 11
1189.0
 21
841.0
  0
LINE
  5
213
100
AcDbEntity
  8
0
100
AcDbLine
 62
7
  6
CONTINUOUS
 10
1189.0
 20
0.0
 11
1189.0
 21
841.0
  0
LINE
  5
214
100
AcDbEntity
  8
RUNDUNGEN
100
AcDbLine
 62
7
  6
CONTINUOUS
 10
723.6774283932
 20
67.1190163357
 11
727.1774283932
 21
67.1190163357
  0
LINE
  5
215
100
AcDbEntity
  8
RUNDUNGEN
100
AcDbLine
 62
7
  6
CONTINUOUS
 10
796.1774283932
 20
67.1190163357
 11
799.6774283932
 21
67.1190163357
  0
LINE
  5
216
100
AcDbEntity
  8
RUNDUNGEN
100
AcDbLine
 62
7
  6
CONTINUOUS
 10
733.6774283932
 20
77.7256180535
 11
742.5328441814
 21
77.7256180535
  0
LINE
  5
217
100
AcDbEntity
  8
RUNDUNGEN
100
AcDbLine
 62
7
  6
CONTINUOUS
 10
780.8220126051
 20
77.7256180535
 11
789.6774283932
 21
77.7256180535
  0
LINE
  5
218
100
AcDbEntity
  8
0
100
AcDbLine
 62
7
  6
CONTINUOUS
 10
743.4939803374
 20
131.0414693549
 11
749.7339803374
 21
131.0414693549
  0
LINE
  5
219
100
AcDbEntity
  8
0
100
AcDbLine
 62
7
  6
CONTINUOUS
 10
753.0435220293
 20
131.0414693549
 11
754.2915220293
 21
131.0414693549
  0
LINE
  5
21A
100
AcDbEntity
  8
0
100
AcDbLine
 62
7
  6
CONTINUOUS
 10
760.2363621213
 20
131.0414693549
 11
761.6774283932
 21
131.0414693549
  0
LINE
  5
21B
100
AcDbEntity
  8
0
100
AcDbLine
 62
7
  6
CONTINUOUS
 10
772.5358979981
 20
131.0414693549
 11
777.057255186
 21
131.0414693549
  0
LINE
  5
21C
100
AcDbEntity
  8
0
100
AcDbLine
 62
7
  6
CONTINUOUS
 10
743.4939803374
 20
131.5010887627
 11
749.7339803374
 21
131.5010887627
  0
LINE
  5
21D
100
AcDbEntity
  8
0
100
AcDbLine
 62
7
  6
CONTINUOUS
 10
753.0435220293
 20
131.5010887627
 11
754.2915220293
 21
131.5010887627
  0
LINE
  5
21E
100
AcDbEntity
  8
0
100
AcDbLine
 62
7
  6
CONTINUOUS
 10
760.2363621213
 20
131.5010887627
 11
761.3021507183
 21
131.5010887627
  0
LINE
  5
21F
100
AcDbEntity
  8
0
100
AcDbLine
 62
7
  6
CONTINUOUS
 10
772.5358979981
 20
131.5010887627
 11
777.057255186
 21
131.5010887627
  0
LINE
  5
220
100
AcDbEntity
  8
0
100
AcDbLine
 62
7
  6
CONTINUOUS
 10
777.0846026073
 20
131.9607081705
 11
773.7838979981
 21
131.9607081705
  0
LINE
  5
221
100
AcDbEntity
  8
0
100
AcDbLine
 62
7
  6
CONTINUOUS
 10
747.5889803374
 20
132.1445559336
 11
745.6389803374
 21
132.1445559336
  0
LINE
  5
222
100
AcDbEntity
  8
0
100
AcDbLine
 62
7
  6
CONTINUOUS
 10
745.9899803374
 20
132.5582134006
 11
747.2379803374
 21
132.5582134006
  0
LINE
  5
223
100
AcDbEntity
  8
0
100
AcDbLine
 62
7
  6
CONTINUOUS
 10
745.9899803374
 20
133.0178328083
 11
747.2379803374
 21
133.0178328083
  0
LINE
  5
224
100
AcDbEntity
  8
0
100
AcDbLine
 62
7
  6
CONTINUOUS
 10
746.7504803374
 20
133.6612999792
 11
746.4774803374
 21
133.6612999792
  0
LINE
  5
225
100
AcDbEntity
  8
0
100
AcDbLine
 62
7
  6
CONTINUOUS
 10
747.2379803374
 20
133.9370716239
 11
746.9064803374
 21
133.9370716239
  0
LINE
  5
226
100
AcDbEntity
  8
0
100
AcDbLine
 62
7
  6
CONTINUOUS
 10
746.3214803374
 20
133.9370716239
 11
745.9899803374
 21
133.9370716239
  0
LINE
  5
227
100
AcDbEntity
  8
0
100
AcDbLine
 62
7
  6
CONTINUOUS
 10
745.6389803374
 20
134.3507290909
 11
746.3214803374
 21
134.3507290909
  0
LINE
  5
228
100
AcDbEntity
  8
0
100
AcDbLine
 62
7
  6
CONTINUOUS
 10
746.9064803374
 20
134.3507290909
 11
747.5889803374
 21
134.3507290909
  0
LINE
  5
229
100
AcDbEntity
  8
0
100
AcDbLine
 62
7
  6
CONTINUOUS
 10
754.2915220293
 20
134.5011777701
 11
757.4115220293
 21
134.5011777701
  0
LINE
  5
22A
100
AcDbEntity
  8
0
100
AcDbLine
 62
7
  6
CONTINUOUS
 10
745.6389803374
 20
134.8103484987
 11
746.3214803374
 21
134.8103484987
  0
LINE
  5
22B
100
AcDbEntity
  8
0
100
AcDbLine
 62
7
  6
CONTINUOUS
 10
746.9064803374
 20
134.8103484987
 11
747.5889803374
 21
134.8103484987
  0
LINE
  5
22C
100
AcDbEntity
  8
0
100
AcDbLine
 62
7
  6
CONTINUOUS
 10
747.5889803374
 20
134.9022723802
 11
746.9064803374
 21
134.9022723802
  0
LINE
  5
22D
100
AcDbEntity
  8
0
100
AcDbLine
 62
7
  6
CONTINUOUS
 10
746.3214803374
 20
134.9022723802
 11
745.6389803374
 21
134.9022723802
  0
LINE
  5
22E
100
AcDbEntity
  8
0
100
AcDbLine
 62
7
  6
CONTINUOUS
 10
754.2915220293
 20
134.9607971779
 11
757.4115220293
 21
134.9607971779
  0
LINE
  5
22F
100
AcDbEntity
  8
0
100
AcDbLine
 62
7
  6
CONTINUOUS
 10
745.9899803374
 20
135.3159298472
 11
746.3214803374
 21
135.3159298472
  0
LINE
  5
230
100
AcDbEntity
  8
0
100
AcDbLine
 62
7
  6
CONTINUOUS
 10
746.9064803374
 20
135.3159298472
 11
747.2379803374
 21
135.3159298472
  0
LINE
  5
231
100
AcDbEntity
  8
0
100
AcDbLine
 62
7
  6
CONTINUOUS
 10
757.9315220293
 20
135.383647033
 11
754.2915220293
 21
135.383647033
  0
LINE
  5
232
100
AcDbEntity
  8
0
100
AcDbLine
 62
7
  6
CONTINUOUS
 10
746.4774803374
 20
135.5917014919
 11
746.7504803374
 21
135.5917014919
  0
LINE
  5
233
100
AcDbEntity
  8
0
100
AcDbLine
 62
7
  6
CONTINUOUS
 10
745.9899803374
 20
135.775549255
 11
746.3214803374
 21
135.775549255
  0
LINE
  5
234
100
AcDbEntity
  8
0
100
AcDbLine
 62
7
  6
CONTINUOUS
 10
746.9064803374
 20
135.775549255
 11
747.2379803374
 21
135.775549255
  0
LINE
  5
235
100
AcDbEntity
  8
0
100
AcDbLine
 62
7
  6
CONTINUOUS
 10
746.4774803374
 20
136.0513208996
 11
746.7504803374
 21
136.0513208996
  0
LINE
  5
236
100
AcDbEntity
  8
0
100
AcDbLine
 62
7
  6
CONTINUOUS
 10
773.7838979981
 20
136.5569022482
 11
772.5358979981
 21
136.5569022482
  0
LINE
  5
237
100
AcDbEntity
  8
0
100
AcDbLine
 62
7
  6
CONTINUOUS
 10
754.2915220293
 20
136.602864189
 11
753.0435220293
 21
136.602864189
  0
LINE
  5
238
100
AcDbEntity
  8
0
100
AcDbLine
 62
7
  6
CONTINUOUS
 10
747.2379803374
 20
136.6947880705
 11
745.9899803374
 21
136.6947880705
  0
LINE
  5
239
100
AcDbEntity
  8
0
100
AcDbLine
 62
7
  6
CONTINUOUS
 10
745.6389803374
 20
137.1084455375
 11
747.5889803374
 21
137.1084455375
  0
LINE
  5
23A
100
AcDbEntity
  8
0
100
AcDbLine
 62
7
  6
CONTINUOUS
 10
772.5358979981
 20
137.3290628532
 11
777.0846026073
 21
137.3290628532
  0
LINE
  5
23B
100
AcDbEntity
  8
0
100
AcDbLine
 62
7
  6
CONTINUOUS
 10
753.0435220293
 20
137.375024794
 11
757.9315220293
 21
137.375024794
  0
LINE
  5
23C
100
AcDbEntity
  8
0
100
AcDbLine
 62
7
  6
CONTINUOUS
 10
745.6389803374
 20
137.5680649453
 11
747.5889803374
 21
137.5680649453
  0
LINE
  5
23D
100
AcDbEntity
  8
0
100
AcDbLine
 62
7
  6
CONTINUOUS
 10
772.5358979981
 20
137.788682261
 11
777.0846026073
 21
137.788682261
  0
LINE
  5
23E
100
AcDbEntity
  8
0
100
AcDbLine
 62
7
  6
CONTINUOUS
 10
753.0435220293
 20
137.8346442018
 11
757.9315220293
 21
137.8346442018
  0
LINE
  5
23F
100
AcDbEntity
  8
0
100
AcDbLine
 62
7
  6
CONTINUOUS
 10
777.057255186
 20
138.2115321162
 11
772.5358979981
 21
138.2115321162
  0
LINE
  5
240
100
AcDbEntity
  8
0
100
AcDbLine
 62
7
  6
CONTINUOUS
 10
769.8058979981
 20
138.2115321162
 11
768.5578979981
 21
138.2115321162
  0
LINE
  5
241
100
AcDbEntity
  8
0
100
AcDbLine
 62
7
  6
CONTINUOUS
 10
763.6515220293
 20
138.2115321162
 11
762.4035220293
 21
138.2115321162
  0
LINE
  5
242
100
AcDbEntity
  8
0
100
AcDbLine
 62
7
  6
CONTINUOUS
 10
757.9315220293
 20
138.2115321162
 11
753.0435220293
 21
138.2115321162
  0
LINE
  5
243
100
AcDbEntity
  8
0
100
AcDbLine
 62
7
  6
CONTINUOUS
 10
749.7339803374
 20
138.2115321162
 11
743.4939803374
 21
138.2115321162
  0
LINE
  5
244
100
AcDbEntity
  8
RUNDUNGEN
100
AcDbLine
 62
7
  6
CONTINUOUS
 10
792.6774283932
 20
148.897497301
 11
787.4539584322
 21
148.897497301
  0
LINE
  5
245
100
AcDbEntity
  8
0
100
AcDbLine
 62
7
  6
CONTINUOUS
 10
787.4539584322
 20
148.897497301
 11
787.3956862823
 21
148.897497301
  0
LINE
  5
246
100
AcDbEntity
  8
0
100
AcDbLine
 62
7
  6
CONTINUOUS
 10
735.9591705042
 20
148.897497301
 11
735.9008983542
 21
148.897497301
  0
LINE
  5
247
100
AcDbEntity
  8
RUNDUNGEN
100
AcDbLine
 62
7
  6
CONTINUOUS
 10
735.9008983542
 20
148.897497301
 11
730.6774283932
 21
148.897497301
  0
LINE
  5
248
100
AcDbEntity
  8
BEZUGSACHSEN
100
AcDbLine
 62
7
  6
CONTINUOUS
 10
754.2774283932
 20
161.122497301
 11
769.0774283932
 21
161.122497301
  0
LINE
  5
249
100
AcDbEntity
  8
BEZUGSACHSEN
100
AcDbLine
 62
7
  6
CONTINUOUS
 10
754.2774283932
 20
165.9881324987
 11
769.0774283932
 21
165.9881324987
  0
LINE
  5
24A
100
AcDbEntity
  8
0
100
AcDbLine
 62
7
  6
CONTINUOUS
 10
789.5902904235
 20
195.1306228673
 11
790.1313063241
 21
195.2625377568
  0
LINE
  5
24B
100
AcDbEntity
  8
0
100
AcDbLine
 62
7
  6
CONTINUOUS
 10
790.1313063241
 20
195.9221122271
 11
789.4550352875
 21
195.7901973492
  0
LINE
  5
24C
100
AcDbEntity
  8
0
100
AcDbLine
 62
7
  6
CONTINUOUS
 10
780.9340275017
 20
195.1306228673
 11
781.6102977643
 21
195.2625377568
  0
LINE
  5
24D
100
AcDbEntity
  8
BEZUGSACHSEN
100
AcDbLine
 62
7
  6
CONTINUOUS
 10
754.2774283932
 20
174.6068621034
 11
769.0774283932
 21
174.6068621034
  0
LINE
  5
24E
100
AcDbEntity
  8
BEZUGSACHSEN
100
AcDbLine
 62
7
  6
CONTINUOUS
 10
754.2774283932
 20
179.472497301
 11
769.0774283932
 21
179.472497301
  0
LINE
  5
24F
100
AcDbEntity
  8
RUNDUNGEN
100
AcDbLine
 62
7
  6
CONTINUOUS
 10
730.6774283932
 20
184.897497301
 11
754.2774283932
 21
184.897497301
  0
LINE
  5
250
100
AcDbEntity
  8
RUNDUNGEN
100
AcDbLine
 62
7
  6
CONTINUOUS
 10
769.0774283932
 20
184.897497301
 11
792.6774283932
 21
184.897497301
  0
LINE
  5
251
100
AcDbEntity
  8
RUNDUNGEN
100
AcDbLine
 62
7
  6
CONTINUOUS
 10
792.6774283932
 20
192.7523113381
 11
767.4300544266
 21
192.7523113381
  0
LINE
  5
252
100
AcDbEntity
  8
RUNDUNGEN
100
AcDbLine
 62
7
  6
CONTINUOUS
 10
755.9248023598
 20
192.7523113381
 11
730.6774283932
 21
192.7523113381
  0
LINE
  5
253
100
AcDbEntity
  8
0
100
AcDbLine
 62
7
  6
CONTINUOUS
 10
734.1009651235
 20
195.1306228673
 11
734.8759651235
 21
195.1306228673
  0
LINE
  5
254
100
AcDbEntity
  8
0
100
AcDbLine
 62
7
  6
CONTINUOUS
 10
738.1051316669
 20
195.1306228673
 11
739.00929858
 21
195.1306228673
  0
LINE
  5
255
100
AcDbEntity
  8
0
100
AcDbLine
 62
7
  6
CONTINUOUS
 10
742.1092982104
 20
195.1306228673
 11
742.6259651235
 21
195.1306228673
  0
LINE
  5
256
100
AcDbEntity
  8
0
100
AcDbLine
 62
7
  6
CONTINUOUS
 10
745.7259651235
 20
195.1306228673
 11
748.8259651235
 21
195.1306228673
  0
LINE
  5
257
100
AcDbEntity
  8
0
100
AcDbLine
 62
7
  6
CONTINUOUS
 10
769.4374283932
 20
195.1306228673
 11
770.248953018
 21
195.1306228673
  0
LINE
  5
258
100
AcDbEntity
  8
0
100
AcDbLine
 62
7
  6
CONTINUOUS
 10
771.3309857865
 20
195.1306228673
 11
772.1425104112
 21
195.1306228673
  0
LINE
  5
259
100
AcDbEntity
  8
0
100
AcDbLine
 62
7
  6
CONTINUOUS
 10
775.5238630788
 20
195.1306228673
 11
776.4706420656
 21
195.1306228673
  0
LINE
  5
25A
100
AcDbEntity
  8
0
100
AcDbLine
 62
7
  6
CONTINUOUS
 10
779.7167405646
 20
195.1306228673
 11
780.9340275017
 21
195.1306228673
  0
LINE
  5
25B
100
AcDbEntity
  8
0
100
AcDbLine
 62
7
  6
CONTINUOUS
 10
784.7211426751
 20
195.1306228673
 11
785.5326672999
 21
195.1306228673
  0
LINE
  5
25C
100
AcDbEntity
  8
0
100
AcDbLine
 62
7
  6
CONTINUOUS
 10
788.5082570746
 20
195.1306228673
 11
789.5902904235
 21
195.1306228673
  0
LINE
  5
25D
100
AcDbEntity
  8
0
100
AcDbLine
 62
7
  6
CONTINUOUS
 10
789.4550352875
 20
195.7901973492
 11
788.6435106628
 21
195.7901973492
  0
LINE
  5
25E
100
AcDbEntity
  8
0
100
AcDbLine
 62
7
  6
CONTINUOUS
 10
780.9340275017
 20
195.9221122271
 11
779.7167405646
 21
195.9221122271
  0
LINE
  5
25F
100
AcDbEntity
  8
0
100
AcDbLine
 62
7
  6
CONTINUOUS
 10
748.8259651235
 20
195.9221122271
 11
746.5009651235
 21
195.9221122271
  0
LINE
  5
260
100
AcDbEntity
  8
0
100
AcDbLine
 62
7
  6
CONTINUOUS
 10
742.6259651235
 20
195.9221122271
 11
742.1092982104
 21
195.9221122271
  0
LINE
  5
261
100
AcDbEntity
  8
0
100
AcDbLine
 62
7
  6
CONTINUOUS
 10
787.2909701375
 20
196.5816867089
 11
786.6146991009
 21
196.5816867089
  0
LINE
  5
262
100
AcDbEntity
  8
0
100
AcDbLine
 62
7
  6
CONTINUOUS
 10
741.4634651235
 20
195.2625377568
 11
742.1092982104
 21
195.1306228673
  0
LINE
  5
263
100
AcDbEntity
  8
RUNDUNGEN
100
AcDbLine
 62
7
  6
CONTINUOUS
 10
790.0234892326
 20
144.9507454785
 11
773.1489571203
 21
153.3056891045
  0
LINE
  5
264
100
AcDbEntity
  8
RUNDUNGEN
100
AcDbLine
 62
7
  6
CONTINUOUS
 10
789.1929498238
 20
148.897497301
 11
790.0234892326
 21
148.4862793844
  0
LINE
  5
265
100
AcDbEntity
  8
RUNDUNGEN
100
AcDbLine
 62
7
  6
CONTINUOUS
 10
706.8209338598
 20
149.0388140364
 11
710.2910712997
 21
145.5344848461
  0
LINE
  5
266
100
AcDbEntity
  8
RUNDUNGEN
100
AcDbLine
 62
7
  6
CONTINUOUS
 10
719.6403672123
 20
136.0930690111
 11
737.7749078499
 21
117.7798462038
  0
LINE
  5
267
100
AcDbEntity
  8
RUNDUNGEN
100
AcDbLine
 62
7
  6
CONTINUOUS
 10
768.2306447475
 20
87.0240246635
 11
775.4975243172
 21
79.6855435113
  0
LINE
  5
268
100
AcDbEntity
  8
0
100
AcDbLine
 62
7
  6
CONTINUOUS
 10
749.3426312974
 20
196.054027105
 11
748.8259651235
 21
195.9221122271
  0
LINE
  5
269
100
AcDbEntity
  8
0
100
AcDbLine
 62
7
  6
CONTINUOUS
 10
743.1426320365
 20
196.054027105
 11
742.6259651235
 21
195.9221122271
  0
LINE
  5
26A
100
AcDbEntity
  8
0
100
AcDbLine
 62
7
  6
CONTINUOUS
 10
781.4750434022
 20
196.054027105
 11
780.9340275017
 21
195.9221122271
  0
LINE
  5
26B
100
AcDbEntity
  8
0
100
AcDbLine
 62
7
  6
CONTINUOUS
 10
779.1757238901
 20
200.4072187221
 11
779.7167405646
 21
200.5391336
  0
LINE
  5
26C
100
AcDbEntity
  8
0
100
AcDbLine
 62
7
  6
CONTINUOUS
 10
748.8259651235
 20
195.1306228673
 11
749.4717989495
 21
195.2625377568
  0
LINE
  5
26D
100
AcDbEntity
  8
0
100
AcDbLine
 62
7
  6
CONTINUOUS
 10
742.6259651235
 20
195.1306228673
 11
743.2717982104
 21
195.2625377568
  0
LINE
  5
26E
100
AcDbEntity
  8
0
100
AcDbLine
 62
7
  6
CONTINUOUS
 10
788.1024947622
 20
200.5391336
 11
788.7787657988
 21
200.6710484779
  0
LINE
  5
26F
100
AcDbEntity
  8
0
100
AcDbLine
 62
7
  6
CONTINUOUS
 10
779.7167405646
 20
201.3306228673
 11
779.040469528
 21
201.1987079895
  0
LINE
  5
270
100
AcDbEntity
  8
0
100
AcDbLine
 62
7
  6
CONTINUOUS
 10
788.914019387
 20
201.3306228673
 11
787.9672411741
 21
201.1987079895
  0
LINE
  5
271
100
AcDbEntity
  8
0
100
AcDbLine
 62
7
  6
CONTINUOUS
 10
780.7987731396
 20
197.7689207947
 11
782.0160600767
 21
197.7689207947
  0
LINE
  5
272
100
AcDbEntity
  8
0
100
AcDbLine
 62
7
  6
CONTINUOUS
 10
734.8759651235
 20
197.9008356726
 11
737.0717983952
 21
197.9008356726
  0
LINE
  5
273
100
AcDbEntity
  8
0
100
AcDbLine
 62
7
  6
CONTINUOUS
 10
772.1425104112
 20
197.9008356726
 11
774.4418301168
 21
197.9008356726
  0
LINE
  5
274
100
AcDbEntity
  8
0
100
AcDbLine
 62
7
  6
CONTINUOUS
 10
788.7787657988
 20
198.0327505505
 11
789.3197816993
 21
198.0327505505
  0
LINE
  5
275
100
AcDbEntity
  8
0
100
AcDbLine
 62
7
  6
CONTINUOUS
 10
789.3197816993
 20
198.5604100621
 11
788.7787657988
 21
198.5604100621
  0
LINE
  5
276
100
AcDbEntity
  8
0
100
AcDbLine
 62
7
  6
CONTINUOUS
 10
782.8275847014
 20
198.5604100621
 11
780.7987731396
 21
198.5604100621
  0
LINE
  5
277
100
AcDbEntity
  8
0
100
AcDbLine
 62
7
  6
CONTINUOUS
 10
774.712338454
 20
198.69232494
 11
772.1425104112
 21
198.69232494
  0
LINE
  5
278
100
AcDbEntity
  8
0
100
AcDbLine
 62
7
  6
CONTINUOUS
 10
737.3301316669
 20
198.69232494
 11
734.8759651235
 21
198.69232494
  0
LINE
  5
279
100
AcDbEntity
  8
0
100
AcDbLine
 62
7
  6
CONTINUOUS
 10
782.0160600767
 20
199.7476439631
 11
782.8275847014
 21
199.7476439631
  0
LINE
  5
27A
100
AcDbEntity
  8
0
100
AcDbLine
 62
7
  6
CONTINUOUS
 10
786.749954237
 20
199.8795592105
 11
787.4262237257
 21
199.8795592105
  0
LINE
  5
27B
100
AcDbEntity
  8
0
100
AcDbLine
 62
7
  6
CONTINUOUS
 10
746.5009651235
 20
200.5391336
 11
748.8259651235
 21
200.5391336
  0
LINE
  5
27C
100
AcDbEntity
  8
0
100
AcDbLine
 62
7
  6
CONTINUOUS
 10
779.7167405646
 20
200.5391336
 11
780.9340275017
 21
200.5391336
  0
LINE
  5
27D
100
AcDbEntity
  8
0
100
AcDbLine
 62
7
  6
CONTINUOUS
 10
734.8759651235
 20
200.6710484779
 11
737.3301316669
 21
200.6710484779
  0
LINE
  5
27E
100
AcDbEntity
  8
0
100
AcDbLine
 62
7
  6
CONTINUOUS
 10
772.1425104112
 20
200.6710484779
 11
774.712338454
 21
200.6710484779
  0
LINE
  5
27F
100
AcDbEntity
  8
0
100
AcDbLine
 62
7
  6
CONTINUOUS
 10
788.7787657988
 20
200.6710484779
 11
789.3197816993
 21
200.6710484779
  0
LINE
  5
280
100
AcDbEntity
  8
0
100
AcDbLine
 62
7
  6
CONTINUOUS
 10
789.1845281112
 20
201.3306228673
 11
788.914019387
 21
201.3306228673
  0
LINE
  5
281
100
AcDbEntity
  8
0
100
AcDbLine
 62
7
  6
CONTINUOUS
 10
785.5326672999
 20
201.3306228673
 11
784.7211426751
 21
201.3306228673
  0
LINE
  5
282
100
AcDbEntity
  8
0
100
AcDbLine
 62
7
  6
CONTINUOUS
 10
780.9340275017
 20
201.3306228673
 11
779.7167405646
 21
201.3306228673
  0
LINE
  5
283
100
AcDbEntity
  8
0
100
AcDbLine
 62
7
  6
CONTINUOUS
 10
774.5770844789
 20
201.3306228673
 11
771.3309857865
 21
201.3306228673
  0
LINE
  5
284
100
AcDbEntity
  8
0
100
AcDbLine
 62
7
  6
CONTINUOUS
 10
770.248953018
 20
201.3306228673
 11
769.4374283932
 21
201.3306228673
  0
LINE
  5
285
100
AcDbEntity
  8
0
100
AcDbLine
 62
7
  6
CONTINUOUS
 10
748.8259651235
 20
201.3306228673
 11
745.7259651235
 21
201.3306228673
  0
LINE
  5
286
100
AcDbEntity
  8
0
100
AcDbLine
 62
7
  6
CONTINUOUS
 10
744.6926320365
 20
201.3306228673
 11
743.9176320365
 21
201.3306228673
  0
LINE
  5
287
100
AcDbEntity
  8
0
100
AcDbLine
 62
7
  6
CONTINUOUS
 10
740.8176320365
 20
201.3306228673
 11
740.0426316669
 21
201.3306228673
  0
LINE
  5
288
100
AcDbEntity
  8
0
100
AcDbLine
 62
7
  6
CONTINUOUS
 10
737.2009651235
 20
201.3306228673
 11
734.1009651235
 21
201.3306228673
  0
LINE
  5
289
100
AcDbEntity
  8
RUNDUNGEN
100
AcDbLine
 62
7
  6
CONTINUOUS
 10
786.8137296883
 20
209.2069723203
 11
782.5260320862
 21
209.2069723203
  0
LINE
  5
28A
100
AcDbEntity
  8
RUNDUNGEN
100
AcDbLine
 62
7
  6
CONTINUOUS
 10
740.8288247003
 20
209.2069723203
 11
736.5411264713
 21
209.2069723203
  0
LINE
  5
28B
100
AcDbEntity
  8
RUNDUNGEN
100
AcDbLine
 62
7
  6
CONTINUOUS
 10
748.2206316513
 20
209.397497301
 11
775.1342251351
 21
209.397497301
  0
LINE
  5
28C
100
AcDbEntity
  8
0
100
AcDbLine
 62
7
  6
CONTINUOUS
 10
790.1313063241
 20
201.1987079895
 11
789.1845281112
 21
201.3306228673
  0
LINE
  5
28D
100
AcDbEntity
  8
0
100
AcDbLine
 62
7
  6
CONTINUOUS
 10
789.3197816993
 20
198.0327505505
 11
790.1313063241
 21
197.9008356726
  0
LINE
  5
28E
100
AcDbEntity
  8
0
100
AcDbLine
 62
7
  6
CONTINUOUS
 10
779.040469528
 20
195.2625377568
 11
779.7167405646
 21
195.1306228673
  0
LINE
  5
28F
100
AcDbEntity
  8
0
100
AcDbLine
 62
7
  6
CONTINUOUS
 10
788.6435106628
 20
195.7901973492
 11
787.9672411741
 21
195.9221122271
  0
LINE
  5
290
100
AcDbEntity
  8
0
100
AcDbLine
 62
7
  6
CONTINUOUS
 10
775.2533547415
 20
201.1987079895
 11
774.5770844789
 21
201.3306228673
  0
LINE
  5
291
100
AcDbEntity
  8
0
100
AcDbLine
 62
7
  6
CONTINUOUS
 10
781.6102977643
 20
201.1987079895
 11
780.9340275017
 21
201.3306228673
  0
LINE
  5
292
100
AcDbEntity
  8
0
100
AcDbLine
 62
7
  6
CONTINUOUS
 10
789.3197816993
 20
200.6710484779
 11
789.9960527359
 21
200.5391336
  0
LINE
  5
293
100
AcDbEntity
  8
0
100
AcDbLine
 62
7
  6
CONTINUOUS
 10
737.84679858
 20
201.1987079895
 11
737.2009651235
 21
201.3306228673
  0
LINE
  5
294
100
AcDbEntity
  8
0
100
AcDbLine
 62
7
  6
CONTINUOUS
 10
749.4717989495
 20
201.1987079895
 11
748.8259651235
 21
201.3306228673
  0
LINE
  5
295
100
AcDbEntity
  8
0
100
AcDbLine
 62
7
  6
CONTINUOUS
 10
779.7167405646
 20
195.9221122271
 11
779.1757238901
 21
196.054027105
  0
LINE
  5
296
100
AcDbEntity
  8
0
100
AcDbLine
 62
7
  6
CONTINUOUS
 10
787.9672411741
 20
195.2625377568
 11
788.5082570746
 21
195.1306228673
  0
LINE
  5
297
100
AcDbEntity
  8
0
100
AcDbLine
 62
7
  6
CONTINUOUS
 10
780.9340275017
 20
200.5391336
 11
781.4750434022
 21
200.4072187221
  0
LINE
  5
298
100
AcDbEntity
  8
0
100
AcDbLine
 62
7
  6
CONTINUOUS
 10
742.1092982104
 20
195.9221122271
 11
741.5926320365
 21
196.054027105
  0
LINE
  5
299
100
AcDbEntity
  8
0
100
AcDbLine
 62
7
  6
CONTINUOUS
 10
748.8259651235
 20
200.5391336
 11
749.3426312974
 21
200.4072187221
  0
LINE
  5
29A
100
AcDbEntity
  8
0
100
AcDbLine
 62
7
  6
CONTINUOUS
 10
774.712338454
 20
200.6710484779
 11
775.1181007664
 21
200.5391336
  0
LINE
  5
29B
100
AcDbEntity
  8
0
100
AcDbLine
 62
7
  6
CONTINUOUS
 10
737.3301316669
 20
200.6710484779
 11
737.7176316669
 21
200.5391336
  0
LINE
  5
29C
100
AcDbEntity
  8
RUNDUNGEN
100
AcDbLine
 62
7
  6
CONTINUOUS
 10
818.3370774562
 20
153.3253414038
 11
811.4562002841
 21
156.7322116202
  0
LINE
  5
29D
100
AcDbEntity
  8
RUNDUNGEN
100
AcDbLine
 62
7
  6
CONTINUOUS
 10
818.3370774562
 20
156.8608753097
 11
811.4562002841
 21
160.2677455262
  0
LINE
  5
29E
100
AcDbEntity
  8
0
100
AcDbLine
 62
7
  6
CONTINUOUS
 10
740.9467982104
 20
195.5263675472
 11
741.4634651235
 21
195.2625377568
  0
LINE
  5
29F
100
AcDbEntity
  8
0
100
AcDbLine
 62
7
  6
CONTINUOUS
 10
749.9884651235
 20
200.9348782337
 11
749.4717989495
 21
201.1987079895
  0
LINE
  5
2A0
100
AcDbEntity
  8
RUNDUNGEN
100
AcDbLine
 62
7
  6
CONTINUOUS
 10
725.2588662083
 20
143.3636422014
 11
721.8747652338
 21
146.7810871969
  0
LINE
  5
2A1
100
AcDbEntity
  8
RUNDUNGEN
100
AcDbLine
 62
7
  6
CONTINUOUS
 10
804.592340659
 20
82.3569312151
 11
785.5799489366
 21
101.5566546969
  0
LINE
  5
2A2
100
AcDbEntity
  8
RUNDUNGEN
100
AcDbLine
 62
7
  6
CONTINUOUS
 10
804.592340659
 20
85.8924651211
 11
785.5799489366
 21
105.0921886028
  0
LINE
  5
2A3
100
AcDbEntity
  8
0
100
AcDbLine
 62
7
  6
CONTINUOUS
 10
791.078084537
 20
198.0327505505
 11
790.4018150483
 21
198.2965803063
  0
LINE
  5
2A4
100
AcDbEntity
  8
0
100
AcDbLine
 62
7
  6
CONTINUOUS
 10
778.4994536275
 20
195.5263675472
 11
779.040469528
 21
195.2625377568
  0
LINE
  5
2A5
100
AcDbEntity
  8
0
100
AcDbLine
 62
7
  6
CONTINUOUS
 10
787.4262237257
 20
195.5263675472
 11
787.9672411741
 21
195.2625377568
  0
LINE
  5
2A6
100
AcDbEntity
  8
0
100
AcDbLine
 62
7
  6
CONTINUOUS
 10
787.9672411741
 20
195.9221122271
 11
787.6967324499
 21
196.054027105
  0
LINE
  5
2A7
100
AcDbEntity
  8
0
100
AcDbLine
 62
7
  6
CONTINUOUS
 10
782.1513144388
 20
200.9348782337
 11
781.6102977643
 21
201.1987079895
  0
LINE
  5
2A8
100
AcDbEntity
  8
0
100
AcDbLine
 62
7
  6
CONTINUOUS
 10
790.6723222246
 20
200.9348782337
 11
790.1313063241
 21
201.1987079895
  0
LINE
  5
2A9
100
AcDbEntity
  8
0
100
AcDbLine
 62
7
  6
CONTINUOUS
 10
779.1757238901
 20
196.054027105
 11
778.7699615777
 21
196.3178569531
  0
LINE
  5
2AA
100
AcDbEntity
  8
0
100
AcDbLine
 62
7
  6
CONTINUOUS
 10
787.0204614133
 20
195.7901973492
 11
787.4262237257
 21
195.5263675472
  0
LINE
  5
2AB
100
AcDbEntity
  8
0
100
AcDbLine
 62
7
  6
CONTINUOUS
 10
781.4750434022
 20
200.4072187221
 11
781.8808057146
 21
200.1433889663
  0
LINE
  5
2AC
100
AcDbEntity
  8
0
100
AcDbLine
 62
7
  6
CONTINUOUS
 10
741.5926320365
 20
196.054027105
 11
741.2051320365
 21
196.3178569531
  0
LINE
  5
2AD
100
AcDbEntity
  8
0
100
AcDbLine
 62
7
  6
CONTINUOUS
 10
749.3426312974
 20
200.4072187221
 11
749.7301312974
 21
200.1433889663
  0
LINE
  5
2AE
100
AcDbEntity
  8
0
100
AcDbLine
 62
7
  6
CONTINUOUS
 10
738.3634651235
 20
200.8029633558
 11
737.84679858
 21
201.1987079895
  0
LINE
  5
2AF
100
AcDbEntity
  8
0
100
AcDbLine
 62
7
  6
CONTINUOUS
 10
757.4115220293
 20
134.5011777701
 11
760.2363621213
 21
131.0414693549
  0
LINE
  5
2B0
100
AcDbEntity
  8
0
100
AcDbLine
 62
7
  6
CONTINUOUS
 10
757.4115220293
 20
134.9607971779
 11
760.2363621213
 21
131.5010887627
  0
LINE
  5
2B1
100
AcDbEntity
  8
0
100
AcDbLine
 62
7
  6
CONTINUOUS
 10
761.6774283932
 20
131.0414693549
 11
758.740315104
 21
134.6386837926
  0
LINE
  5
2B2
100
AcDbEntity
  8
0
100
AcDbLine
 62
7
  6
CONTINUOUS
 10
790.1313063241
 20
197.9008356726
 11
790.5370686365
 21
197.6370059168
  0
LINE
  5
2B3
100
AcDbEntity
  8
0
100
AcDbLine
 62
7
  6
CONTINUOUS
 10
789.9960527359
 20
200.5391336
 11
790.4018150483
 21
200.2753038442
  0
LINE
  5
2B4
100
AcDbEntity
  8
0
100
AcDbLine
 62
7
  6
CONTINUOUS
 10
775.794371416
 20
200.8029633558
 11
775.2533547415
 21
201.1987079895
  0
LINE
  5
2B5
100
AcDbEntity
  8
0
100
AcDbLine
 62
7
  6
CONTINUOUS
 10
777.958436953
 20
196.054027105
 11
778.4994536275
 21
195.5263675472
  0
LINE
  5
2B6
100
AcDbEntity
  8
0
100
AcDbLine
 62
7
  6
CONTINUOUS
 10
775.1181007664
 20
200.5391336
 11
775.3886091036
 21
200.2753038442
  0
LINE
  5
2B7
100
AcDbEntity
  8
0
100
AcDbLine
 62
7
  6
CONTINUOUS
 10
740.4301320365
 20
196.054027105
 11
740.9467982104
 21
195.5263675472
  0
LINE
  5
2B8
100
AcDbEntity
  8
0
100
AcDbLine
 62
7
  6
CONTINUOUS
 10
737.7176316669
 20
200.5391336
 11
737.9759651235
 21
200.2753038442
  0
LINE
  5
2B9
100
AcDbEntity
  8
0
100
AcDbLine
 62
7
  6
CONTINUOUS
 10
750.5051312974
 20
200.4072187221
 11
749.9884651235
 21
200.9348782337
  0
LINE
  5
2BA
100
AcDbEntity
  8
0
100
AcDbLine
 62
7
  6
CONTINUOUS
 10
738.7509651235
 20
200.2753038442
 11
738.3634651235
 21
200.8029633558
  0
LINE
  5
2BB
100
AcDbEntity
  8
RUNDUNGEN
100
AcDbLine
 62
7
  6
CONTINUOUS
 10
730.6774283835
 20
148.8974973168
 11
724.6774283932
 21
158.647497301
  0
LINE
  5
2BC
100
AcDbEntity
  8
0
100
AcDbLine
 62
7
  6
CONTINUOUS
 10
630.6774283932
 20
641.397497301
 11
630.6774283932
 21
481.397497301
  0
LINE
  5
2BD
100
AcDbEntity
  8
0
100
AcDbLine
 62
7
  6
CONTINUOUS
 10
748.6774283932
 20
268.723978321
 11
739.5225181325
 21
266.2709275098
  0
LINE
  5
2BE
100
AcDbEntity
  8
0
100
AcDbLine
 62
7
  6
CONTINUOUS
 10
783.832338654
 20
266.2709275098
 11
774.6774283932
 21
268.723978321
  0
LINE
  5
2BF
100
AcDbEntity
  8
0
100
AcDbLine
 62
7
  6
CONTINUOUS
 10
782.6923311133
 20
200.4072187221
 11
782.1513144388
 21
200.9348782337
  0
LINE
  5
2C0
100
AcDbEntity
  8
0
100
AcDbLine
 62
7
  6
CONTINUOUS
 10
787.6967324499
 20
196.054027105
 11
787.4262237257
 21
196.3178569531
  0
LINE
  5
2C1
100
AcDbEntity
  8
0
100
AcDbLine
 62
7
  6
CONTINUOUS
 10
791.213339673
 20
200.4072187221
 11
790.6723222246
 21
200.9348782337
  0
LINE
  5
2C2
100
AcDbEntity
  8
0
100
AcDbLine
 62
7
  6
CONTINUOUS
 10
776.2001333414
 20
200.2753038442
 11
775.794371416
 21
200.8029633558
  0
LINE
  5
2C3
100
AcDbEntity
  8
0
100
AcDbLine
 62
7
  6
CONTINUOUS
 10
741.2051320365
 20
196.3178569531
 11
740.9467982104
 21
196.7136015868
  0
LINE
  5
2C4
100
AcDbEntity
  8
0
100
AcDbLine
 62
7
  6
CONTINUOUS
 10
749.7301312974
 20
200.1433889663
 11
749.9884651235
 21
199.7476439631
  0
LINE
  5
2C5
100
AcDbEntity
  8
0
100
AcDbLine
 62
7
  6
CONTINUOUS
 10
778.7699615777
 20
196.3178569531
 11
778.4994536275
 21
196.7136015868
  0
LINE
  5
2C6
100
AcDbEntity
  8
0
100
AcDbLine
 62
7
  6
CONTINUOUS
 10
786.749954237
 20
196.1859419829
 11
787.0204614133
 21
195.7901973492
  0
LINE
  5
2C7
100
AcDbEntity
  8
0
100
AcDbLine
 62
7
  6
CONTINUOUS
 10
791.3485932612
 20
197.6370059168
 11
791.078084537
 21
198.0327505505
  0
LINE
  5
2C8
100
AcDbEntity
  8
0
100
AcDbLine
 62
7
  6
CONTINUOUS
 10
790.4018150483
 20
200.2753038442
 11
790.6723222246
 21
199.8795592105
  0
LINE
  5
2C9
100
AcDbEntity
  8
0
100
AcDbLine
 62
7
  6
CONTINUOUS
 10
740.17179858
 20
196.5816867089
 11
740.4301320365
 21
196.054027105
  0
LINE
  5
2CA
100
AcDbEntity
  8
0
100
AcDbLine
 62
7
  6
CONTINUOUS
 10
750.7634651235
 20
199.8795592105
 11
750.5051312974
 21
200.4072187221
  0
LINE
  5
2CB
100
AcDbEntity
  8
0
100
AcDbLine
 62
7
  6
CONTINUOUS
 10
739.00929858
 20
195.1306228673
 11
737.84679858
 21
198.1646654284
  0
LINE
  5
2CC
100
AcDbEntity
  8
0
100
AcDbLine
 62
7
  6
CONTINUOUS
 10
737.0717983952
 20
197.9008356726
 11
738.1051316669
 21
195.1306228673
  0
LINE
  5
2CD
100
AcDbEntity
  8
0
100
AcDbLine
 62
7
  6
CONTINUOUS
 10
666.6774283932
 20
641.397497301
 11
666.6774283932
 21
481.397497301
  0
LINE
  5
2CE
100
AcDbEntity
  8
0
100
AcDbLine
 62
7
  6
CONTINUOUS
 10
800.050858602
 20
250.0524075618
 11
783.832338654
 21
266.2709275098
  0
LINE
  5
2CF
100
AcDbEntity
  8
0
100
AcDbLine
 62
7
  6
CONTINUOUS
 10
777.6879290027
 20
196.5816867089
 11
777.958436953
 21
196.054027105
  0
LINE
  5
2D0
100
AcDbEntity
  8
0
100
AcDbLine
 62
7
  6
CONTINUOUS
 10
787.4262237257
 20
196.3178569531
 11
787.2909701375
 21
196.5816867089
  0
LINE
  5
2D1
100
AcDbEntity
  8
0
100
AcDbLine
 62
7
  6
CONTINUOUS
 10
790.5370686365
 20
197.6370059168
 11
790.8075773607
 21
197.1093462205
  0
LINE
  5
2D2
100
AcDbEntity
  8
0
100
AcDbLine
 62
7
  6
CONTINUOUS
 10
737.9759651235
 20
200.2753038442
 11
738.1051316669
 21
199.8795592105
  0
LINE
  5
2D3
100
AcDbEntity
  8
0
100
AcDbLine
 62
7
  6
CONTINUOUS
 10
738.8801316669
 20
199.8795592105
 11
738.7509651235
 21
200.2753038442
  0
LINE
  5
2D4
100
AcDbEntity
  8
0
100
AcDbLine
 62
7
  6
CONTINUOUS
 10
717.3676078717
 20
227.897497301
 11
723.3039981844
 21
205.7425870403
  0
LINE
  5
2D5
100
AcDbEntity
  8
0
100
AcDbLine
 62
7
  6
CONTINUOUS
 10
740.9467982104
 20
196.7136015868
 11
740.8176320365
 21
197.2412610984
  0
LINE
  5
2D6
100
AcDbEntity
  8
0
100
AcDbLine
 62
7
  6
CONTINUOUS
 10
723.3039981844
 20
189.2587479006
 11
724.6774283932
 21
181.469638127
  0
LINE
  5
2D7
100
AcDbEntity
  8
RUNDUNGEN
100
AcDbLine
 62
7
  6
CONTINUOUS
 10
705.7358461256
 20
151.4722927624
 11
705.7358461256
 21
155.0078266684
  0
LINE
  5
2D8
100
AcDbEntity
  8
0
100
AcDbLine
 62
7
  6
CONTINUOUS
 10
776.4706420656
 20
195.1306228673
 11
775.2533547415
 21
198.1646654284
  0
LINE
  5
2D9
100
AcDbEntity
  8
0
100
AcDbLine
 62
7
  6
CONTINUOUS
 10
774.4418301168
 20
197.9008356726
 11
775.5238630788
 21
195.1306228673
  0
LINE
  5
2DA
100
AcDbEntity
  8
0
100
AcDbLine
 62
7
  6
CONTINUOUS
 10
775.3886091036
 20
200.2753038442
 11
775.5238630788
 21
199.8795592105
  0
LINE
  5
2DB
100
AcDbEntity
  8
0
100
AcDbLine
 62
7
  6
CONTINUOUS
 10
776.3353877035
 20
199.8795592105
 11
776.2001333414
 21
200.2753038442
  0
LINE
  5
2DC
100
AcDbEntity
  8
0
100
AcDbLine
 62
7
  6
CONTINUOUS
 10
781.8808057146
 20
200.1433889663
 11
782.0160600767
 21
199.7476439631
  0
LINE
  5
2DD
100
AcDbEntity
  8
0
100
AcDbLine
 62
7
  6
CONTINUOUS
 10
786.6146991009
 20
196.5816867089
 11
786.749954237
 21
196.1859419829
  0
LINE
  5
2DE
100
AcDbEntity
  8
0
100
AcDbLine
 62
7
  6
CONTINUOUS
 10
749.9884651235
 20
199.7476439631
 11
750.1176312974
 21
199.2199844515
  0
LINE
  5
2DF
100
AcDbEntity
  8
0
100
AcDbLine
 62
7
  6
CONTINUOUS
 10
740.0426316669
 20
197.2412610984
 11
740.17179858
 21
196.5816867089
  0
LINE
  5
2E0
100
AcDbEntity
  8
0
100
AcDbLine
 62
7
  6
CONTINUOUS
 10
750.8926312974
 20
199.2199844515
 11
750.7634651235
 21
199.8795592105
  0
LINE
  5
2E1
100
AcDbEntity
  8
RUNDUNGEN
100
AcDbLine
 62
7
  6
CONTINUOUS
 10
717.6774283932
 20
71.3616570228
 11
717.6774283932
 21
83.458986395
  0
LINE
  5
2E2
100
AcDbEntity
  8
RUNDUNGEN
100
AcDbLine
 62
7
  6
CONTINUOUS
 10
719.2877136986
 20
136.883949597
 11
719.2877136986
 21
140.419483503
  0
LINE
  5
2E3
100
AcDbEntity
  8
0
100
AcDbLine
 62
7
  6
CONTINUOUS
 10
723.3039981844
 20
189.2587479006
 11
723.3039981844
 21
205.7425870403
  0
LINE
  5
2E4
100
AcDbEntity
  8
RUNDUNGEN
100
AcDbLine
 62
7
  6
CONTINUOUS
 10
724.6774283932
 20
158.647497301
 11
724.6774283932
 21
201.397497301
  0
LINE
  5
2E5
100
AcDbEntity
  8
RUNDUNGEN
100
AcDbLine
 62
7
  6
CONTINUOUS
 10
727.6774283932
 20
67.4725697263
 11
727.6774283932
 21
73.4829773663
  0
LINE
  5
2E6
100
AcDbEntity
  8
0
100
AcDbLine
 62
7
  6
CONTINUOUS
 10
734.1009651235
 20
201.3306228673
 11
734.1009651235
 21
195.1306228673
  0
LINE
  5
2E7
100
AcDbEntity
  8
0
100
AcDbLine
 62
7
  6
CONTINUOUS
 10
734.8759651235
 20
195.1306228673
 11
734.8759651235
 21
197.9008356726
  0
LINE
  5
2E8
100
AcDbEntity
  8
0
100
AcDbLine
 62
7
  6
CONTINUOUS
 10
734.8759651235
 20
198.69232494
 11
734.8759651235
 21
200.6710484779
  0
LINE
  5
2E9
100
AcDbEntity
  8
0
100
AcDbLine
 62
7
  6
CONTINUOUS
 10
738.1051316669
 20
199.8795592105
 11
738.1051316669
 21
199.4838142073
  0
LINE
  5
2EA
100
AcDbEntity
  8
0
100
AcDbLine
 62
7
  6
CONTINUOUS
 10
738.8801316669
 20
199.3518993294
 11
738.8801316669
 21
199.8795592105
  0
LINE
  5
2EB
100
AcDbEntity
  8
0
100
AcDbLine
 62
7
  6
CONTINUOUS
 10
778.4994536275
 20
196.7136015868
 11
778.3641992654
 21
197.2412610984
  0
LINE
  5
2EC
100
AcDbEntity
  8
0
100
AcDbLine
 62
7
  6
CONTINUOUS
 10
791.4838468494
 20
197.1093462205
 11
791.3485932612
 21
197.6370059168
  0
LINE
  5
2ED
100
AcDbEntity
  8
0
100
AcDbLine
 62
7
  6
CONTINUOUS
 10
791.3485932612
 20
199.8795592105
 11
791.213339673
 21
200.4072187221
  0
LINE
  5
2EE
100
AcDbEntity
  8
0
100
AcDbLine
 62
7
  6
CONTINUOUS
 10
777.5526746406
 20
197.2412610984
 11
777.6879290027
 21
196.5816867089
  0
LINE
  5
2EF
100
AcDbEntity
  8
0
100
AcDbLine
 62
7
  6
CONTINUOUS
 10
782.8275847014
 20
199.7476439631
 11
782.6923311133
 21
200.4072187221
  0
LINE
  5
2F0
100
AcDbEntity
  8
0
100
AcDbLine
 62
7
  6
CONTINUOUS
 10
740.0426316669
 20
201.3306228673
 11
740.0426316669
 21
197.2412610984
  0
LINE
  5
2F1
100
AcDbEntity
  8
KONSTRUKTIONSELEMENTE
100
AcDbLine
 62
7
  6
CONTINUOUS
 10
740.23727914
 20
170.897497301
 11
740.23727914
 21
173.397497301
  0
LINE
  5
2F2
100
AcDbEntity
  8
0
100
AcDbLine
 62
7
  6
CONTINUOUS
 10
740.8176320365
 20
197.2412610984
 11
740.8176320365
 21
201.3306228673
  0
LINE
  5
2F3
100
AcDbEntity
  8
0
100
AcDbLine
 62
7
  6
CONTINUOUS
 10
742.7139803374
 20
137.6599888268
 11
742.7139803374
 21
131.5930126443
  0
LINE
  5
2F4
100
AcDbEntity
  8
0
100
AcDbLine
 62
7
  6
CONTINUOUS
 10
743.9176320365
 20
201.3306228673
 11
743.9176320365
 21
197.2412610984
  0
LINE
  5
2F5
100
AcDbEntity
  8
0
100
AcDbLine
 62
7
  6
CONTINUOUS
 10
744.6926320365
 20
197.2412610984
 11
744.6926320365
 21
201.3306228673
  0
LINE
  5
2F6
100
AcDbEntity
  8
0
100
AcDbLine
 62
7
  6
CONTINUOUS
 10
745.2489803374
 20
132.4203275782
 11
745.2489803374
 21
134.534576854
  0
LINE
  5
2F7
100
AcDbEntity
  8
0
100
AcDbLine
 62
7
  6
CONTINUOUS
 10
745.2489803374
 20
135.1780440249
 11
745.2489803374
 21
137.2922933006
  0
LINE
  5
2F8
100
AcDbEntity
  8
0
100
AcDbLine
 62
7
  6
CONTINUOUS
 10
745.7259651235
 20
201.3306228673
 11
745.7259651235
 21
195.1306228673
  0
LINE
  5
2F9
100
AcDbEntity
  8
0
100
AcDbLine
 62
7
  6
CONTINUOUS
 10
745.8339803374
 20
136.5844794127
 11
745.8339803374
 21
135.4262385051
  0
LINE
  5
2FA
100
AcDbEntity
  8
0
100
AcDbLine
 62
7
  6
CONTINUOUS
 10
745.8339803374
 20
133.826762966
 11
745.8339803374
 21
132.6685220584
  0
LINE
  5
2FB
100
AcDbEntity
  8
0
100
AcDbLine
 62
7
  6
CONTINUOUS
 10
746.3214803374
 20
133.7716086371
 11
746.3214803374
 21
133.9370716239
  0
LINE
  5
2FC
100
AcDbEntity
  8
0
100
AcDbLine
 62
7
  6
CONTINUOUS
 10
746.3214803374
 20
134.3507290909
 11
746.3214803374
 21
134.9022723802
  0
LINE
  5
2FD
100
AcDbEntity
  8
0
100
AcDbLine
 62
7
  6
CONTINUOUS
 10
746.3214803374
 20
135.3159298472
 11
746.3214803374
 21
135.9410122418
  0
LINE
  5
2FE
100
AcDbEntity
  8
0
100
AcDbLine
 62
7
  6
CONTINUOUS
 10
746.5009651235
 20
195.9221122271
 11
746.5009651235
 21
200.5391336
  0
LINE
  5
2FF
100
AcDbEntity
  8
0
100
AcDbLine
 62
7
  6
CONTINUOUS
 10
746.9064803374
 20
135.9410122418
 11
746.9064803374
 21
135.3159298472
  0
LINE
  5
300
100
AcDbEntity
  8
0
100
AcDbLine
 62
7
  6
CONTINUOUS
 10
746.9064803374
 20
134.9022723802
 11
746.9064803374
 21
134.3507290909
  0
LINE
  5
301
100
AcDbEntity
  8
0
100
AcDbLine
 62
7
  6
CONTINUOUS
 10
746.9064803374
 20
133.9370716239
 11
746.9064803374
 21
133.7716086371
  0
LINE
  5
302
100
AcDbEntity
  8
0
100
AcDbLine
 62
7
  6
CONTINUOUS
 10
747.3939803374
 20
132.6685220584
 11
747.3939803374
 21
133.826762966
  0
LINE
  5
303
100
AcDbEntity
  8
0
100
AcDbLine
 62
7
  6
CONTINUOUS
 10
747.3939803374
 20
135.4262385051
 11
747.3939803374
 21
136.5844794127
  0
LINE
  5
304
100
AcDbEntity
  8
0
100
AcDbLine
 62
7
  6
CONTINUOUS
 10
747.9789803374
 20
137.2922933006
 11
747.9789803374
 21
135.1780440249
  0
LINE
  5
305
100
AcDbEntity
  8
0
100
AcDbLine
 62
7
  6
CONTINUOUS
 10
747.9789803374
 20
134.534576854
 11
747.9789803374
 21
132.4203275782
  0
LINE
  5
306
100
AcDbEntity
  8
0
100
AcDbLine
 62
7
  6
CONTINUOUS
 10
748.6774283932
 20
399.3390983773
 11
748.6774283932
 21
233.4558962248
  0
LINE
  5
307
100
AcDbEntity
  8
0
100
AcDbLine
 62
7
  6
CONTINUOUS
 10
750.1176312974
 20
199.2199844515
 11
750.1176312974
 21
197.2412610984
  0
LINE
  5
308
100
AcDbEntity
  8
0
100
AcDbLine
 62
7
  6
CONTINUOUS
 10
750.5139803374
 20
131.5930126443
 11
750.5139803374
 21
137.6599888268
  0
LINE
  5
309
100
AcDbEntity
  8
0
100
AcDbLine
 62
7
  6
CONTINUOUS
 10
750.8926312974
 20
197.2412610984
 11
750.8926312974
 21
199.2199844515
  0
LINE
  5
30A
100
AcDbEntity
  8
0
100
AcDbLine
 62
7
  6
CONTINUOUS
 10
753.0435220293
 20
138.2115321162
 11
753.0435220293
 21
137.375024794
  0
LINE
  5
30B
100
AcDbEntity
  8
0
100
AcDbLine
 62
7
  6
CONTINUOUS
 10
753.0435220293
 20
136.602864189
 11
753.0435220293
 21
131.0414693549
  0
LINE
  5
30C
100
AcDbEntity
  8
0
100
AcDbLine
 62
7
  6
CONTINUOUS
 10
754.2774283932
 20
170.897497301
 11
754.2774283932
 21
156.0087513416
  0
LINE
  5
30D
100
AcDbEntity
  8
KONSTRUKTIONSELEMENTE
100
AcDbLine
 62
7
  6
CONTINUOUS
 10
754.2774283932
 20
170.897497301
 11
754.2774283932
 21
188.097497301
  0
LINE
  5
30E
100
AcDbEntity
  8
0
100
AcDbLine
 62
7
  6
CONTINUOUS
 10
754.2915220293
 20
131.0414693549
 11
754.2915220293
 21
134.9607971779
  0
LINE
  5
30F
100
AcDbEntity
  8
0
100
AcDbLine
 62
7
  6
CONTINUOUS
 10
754.2915220293
 20
135.383647033
 11
754.2915220293
 21
136.602864189
  0
LINE
  5
310
100
AcDbEntity
  8
0
100
AcDbLine
 62
7
  6
CONTINUOUS
 10
757.4115220293
 20
134.5011777701
 11
757.4115220293
 21
134.9607971779
  0
LINE
  5
311
100
AcDbEntity
  8
KONSTRUKTIONSELEMENTE
100
AcDbLine
 62
7
  6
CONTINUOUS
 10
758.1774283932
 20
179.472497301
 11
758.1774283932
 21
179.9025479349
  0
LINE
  5
312
100
AcDbEntity
  8
KONSTRUKTIONSELEMENTE
100
AcDbLine
 62
7
  6
CONTINUOUS
 10
758.1774283932
 20
209.7457964149
 11
758.1774283932
 21
211.0152463071
  0
LINE
  5
313
100
AcDbEntity
  8
0
100
AcDbLine
 62
7
  6
CONTINUOUS
 10
758.740315104
 20
134.6386837926
 11
758.740315104
 21
135.0983032004
  0
LINE
  5
314
100
AcDbEntity
  8
KONSTRUKTIONSELEMENTE
100
AcDbLine
 62
7
  6
CONTINUOUS
 10
759.1774283932
 20
148.492719323
 11
759.1774283932
 21
161.122497301
  0
LINE
  5
315
100
AcDbEntity
  8
KONSTRUKTIONSELEMENTE
100
AcDbLine
 62
7
  6
CONTINUOUS
 10
759.1774283932
 20
209.6574558957
 11
759.1774283932
 21
220.6470746988
  0
LINE
  5
316
100
AcDbEntity
  8
0
100
AcDbLine
 62
7
  6
CONTINUOUS
 10
759.339638748
 20
136.8389553213
 11
759.339638748
 21
136.3793359135
  0
LINE
  5
317
100
AcDbEntity
  8
KONSTRUKTIONSELEMENTE
100
AcDbLine
 62
7
  6
CONTINUOUS
 10
759.4274283932
 20
179.472497301
 11
759.4274283932
 21
195.1429810312
  0
LINE
  5
318
100
AcDbEntity
  8
0
100
AcDbLine
 62
7
  6
CONTINUOUS
 10
760.2363621213
 20
131.0414693549
 11
760.2363621213
 21
131.5010887627
  0
LINE
  5
319
100
AcDbEntity
  8
0
100
AcDbLine
 62
7
  6
CONTINUOUS
 10
762.4035220293
 20
138.2115321162
 11
762.4035220293
 21
133.6749372658
  0
LINE
  5
31A
100
AcDbEntity
  8
0
100
AcDbLine
 62
7
  6
CONTINUOUS
 10
763.6515220293
 20
133.6749372658
 11
763.6515220293
 21
138.2115321162
  0
LINE
  5
31B
100
AcDbEntity
  8
KONSTRUKTIONSELEMENTE
100
AcDbLine
 62
7
  6
CONTINUOUS
 10
763.9274283932
 20
179.472497301
 11
763.9274283932
 21
195.1429810312
  0
LINE
  5
31C
100
AcDbEntity
  8
KONSTRUKTIONSELEMENTE
100
AcDbLine
 62
7
  6
CONTINUOUS
 10
764.1774283932
 20
148.492719323
 11
764.1774283932
 21
161.122497301
  0
LINE
  5
31D
100
AcDbEntity
  8
KONSTRUKTIONSELEMENTE
100
AcDbLine
 62
7
  6
CONTINUOUS
 10
764.1774283932
 20
209.6574558957
 11
764.1774283932
 21
220.6470746988
  0
LINE
  5
31E
100
AcDbEntity
  8
0
100
AcDbLine
 62
7
  6
CONTINUOUS
 10
805.9872489148
 20
227.897497301
 11
800.050858602
 21
250.0524075618
  0
LINE
  5
31F
100
AcDbEntity
  8
KONSTRUKTIONSELEMENTE
100
AcDbLine
 62
7
  6
CONTINUOUS
 10
765.1774283932
 20
211.0152463071
 11
765.1774283932
 21
209.7457964149
  0
LINE
  5
320
100
AcDbEntity
  8
KONSTRUKTIONSELEMENTE
100
AcDbLine
 62
7
  6
CONTINUOUS
 10
765.1774283932
 20
179.9025479349
 11
765.1774283932
 21
179.472497301
  0
LINE
  5
321
100
AcDbEntity
  8
0
100
AcDbLine
 62
7
  6
CONTINUOUS
 10
768.5578979981
 20
138.2115321162
 11
768.5578979981
 21
133.6749372658
  0
LINE
  5
322
100
AcDbEntity
  8
0
100
AcDbLine
 62
7
  6
CONTINUOUS
 10
769.0774283932
 20
156.0087513416
 11
769.0774283932
 21
170.897497301
  0
LINE
  5
323
100
AcDbEntity
  8
KONSTRUKTIONSELEMENTE
100
AcDbLine
 62
7
  6
CONTINUOUS
 10
769.0774283932
 20
170.897497301
 11
769.0774283932
 21
188.0974974219
  0
LINE
  5
324
100
AcDbEntity
  8
0
100
AcDbLine
 62
7
  6
CONTINUOUS
 10
769.4374283932
 20
201.3306228673
 11
769.4374283932
 21
195.1306228673
  0
LINE
  5
325
100
AcDbEntity
  8
0
100
AcDbLine
 62
7
  6
CONTINUOUS
 10
769.8058979981
 20
133.6749372658
 11
769.8058979981
 21
138.2115321162
  0
LINE
  5
326
100
AcDbEntity
  8
0
100
AcDbLine
 62
7
  6
CONTINUOUS
 10
770.248953018
 20
195.1306228673
 11
770.248953018
 21
201.3306228673
  0
LINE
  5
327
100
AcDbEntity
  8
0
100
AcDbLine
 62
7
  6
CONTINUOUS
 10
771.3309857865
 20
201.3306228673
 11
771.3309857865
 21
195.1306228673
  0
LINE
  5
328
100
AcDbEntity
  8
0
100
AcDbLine
 62
7
  6
CONTINUOUS
 10
772.1425104112
 20
195.1306228673
 11
772.1425104112
 21
197.9008356726
  0
LINE
  5
329
100
AcDbEntity
  8
0
100
AcDbLine
 62
7
  6
CONTINUOUS
 10
772.1425104112
 20
198.69232494
 11
772.1425104112
 21
200.6710484779
  0
LINE
  5
32A
100
AcDbEntity
  8
0
100
AcDbLine
 62
7
  6
CONTINUOUS
 10
772.5358979981
 20
138.2115321162
 11
772.5358979981
 21
137.3290628532
  0
LINE
  5
32B
100
AcDbEntity
  8
0
100
AcDbLine
 62
7
  6
CONTINUOUS
 10
772.5358979981
 20
136.5569022482
 11
772.5358979981
 21
131.0414693549
  0
LINE
  5
32C
100
AcDbEntity
  8
0
100
AcDbLine
 62
7
  6
CONTINUOUS
 10
773.7838979981
 20
131.9607081705
 11
773.7838979981
 21
136.5569022482
  0
LINE
  5
32D
100
AcDbEntity
  8
0
100
AcDbLine
 62
7
  6
CONTINUOUS
 10
774.6774283932
 20
399.3390983773
 11
774.6774283932
 21
233.4558962248
  0
LINE
  5
32E
100
AcDbEntity
  8
0
100
AcDbLine
 62
7
  6
CONTINUOUS
 10
775.5238630788
 20
199.8795592105
 11
775.5238630788
 21
199.4838142073
  0
LINE
  5
32F
100
AcDbEntity
  8
0
100
AcDbLine
 62
7
  6
CONTINUOUS
 10
776.3353877035
 20
199.3518993294
 11
776.3353877035
 21
199.8795592105
  0
LINE
  5
330
100
AcDbEntity
  8
0
100
AcDbLine
 62
7
  6
CONTINUOUS
 10
777.5526746406
 20
199.2199844515
 11
777.5526746406
 21
197.2412610984
  0
LINE
  5
331
100
AcDbEntity
  8
0
100
AcDbLine
 62
7
  6
CONTINUOUS
 10
778.3641992654
 20
197.2412610984
 11
778.3641992654
 21
199.2199844515
  0
LINE
  5
332
100
AcDbEntity
  8
0
100
AcDbLine
 62
7
  6
CONTINUOUS
 10
779.1562958768
 20
135.1045049196
 11
779.1562958768
 21
134.6448855119
  0
LINE
  5
333
100
AcDbEntity
  8
0
100
AcDbLine
 62
7
  6
CONTINUOUS
 10
780.7987731396
 20
198.5604100621
 11
780.7987731396
 21
197.7689207947
  0
LINE
  5
334
100
AcDbEntity
  8
0
100
AcDbLine
 62
7
  6
CONTINUOUS
 10
782.0160600767
 20
197.7689207947
 11
782.0160600767
 21
196.7136015868
  0
LINE
  5
335
100
AcDbEntity
  8
0
100
AcDbLine
 62
7
  6
CONTINUOUS
 10
782.8275847014
 20
196.5816867089
 11
782.8275847014
 21
198.5604100621
  0
LINE
  5
336
100
AcDbEntity
  8
KONSTRUKTIONSELEMENTE
100
AcDbLine
 62
7
  6
CONTINUOUS
 10
783.1175776464
 20
170.897497301
 11
783.1175776464
 21
173.397497301
  0
LINE
  5
337
100
AcDbEntity
  8
0
100
AcDbLine
 62
7
  6
CONTINUOUS
 10
783.9096180504
 20
200.4072187221
 11
783.9096180504
 21
199.3518993294
  0
LINE
  5
338
100
AcDbEntity
  8
0
100
AcDbLine
 62
7
  6
CONTINUOUS
 10
784.7211426751
 20
200.2753038442
 11
784.7211426751
 21
195.1306228673
  0
LINE
  5
339
100
AcDbEntity
  8
0
100
AcDbLine
 62
7
  6
CONTINUOUS
 10
785.5326672999
 20
195.1306228673
 11
785.5326672999
 21
201.3306228673
  0
LINE
  5
33A
100
AcDbEntity
  8
0
100
AcDbLine
 62
7
  6
CONTINUOUS
 10
788.7787657988
 20
198.5604100621
 11
788.7787657988
 21
198.0327505505
  0
LINE
  5
33B
100
AcDbEntity
  8
0
100
AcDbLine
 62
7
  6
CONTINUOUS
 10
744.5634651235
 20
196.5816867089
 11
744.6926320365
 21
197.2412610984
  0
LINE
  5
33C
100
AcDbEntity
  8
0
100
AcDbLine
 62
7
  6
CONTINUOUS
 10
723.3039981844
 20
250.0524075618
 11
717.3676078717
 21
227.897497301
  0
LINE
  5
33D
100
AcDbEntity
  8
0
100
AcDbLine
 62
7
  6
CONTINUOUS
 10
790.6723222246
 20
199.8795592105
 11
790.6723222246
 21
199.6157290852
  0
LINE
  5
33E
100
AcDbEntity
  8
0
100
AcDbLine
 62
7
  6
CONTINUOUS
 10
790.8075773607
 20
197.1093462205
 11
790.8075773607
 21
196.5816867089
  0
LINE
  5
33F
100
AcDbEntity
  8
0
100
AcDbLine
 62
7
  6
CONTINUOUS
 10
791.3485932612
 20
199.6157290852
 11
791.3485932612
 21
199.8795592105
  0
LINE
  5
340
100
AcDbEntity
  8
0
100
AcDbLine
 62
7
  6
CONTINUOUS
 10
791.4838468494
 20
196.5816867089
 11
791.4838468494
 21
197.1093462205
  0
LINE
  5
341
100
AcDbEntity
  8
RUNDUNGEN
100
AcDbLine
 62
7
  6
CONTINUOUS
 10
795.6774283932
 20
73.4829773663
 11
795.6774283932
 21
67.4725697263
  0
LINE
  5
342
100
AcDbEntity
  8
RUNDUNGEN
100
AcDbLine
 62
7
  6
CONTINUOUS
 10
798.6774283932
 20
158.647497301
 11
798.6774283932
 21
201.397497301
  0
LINE
  5
343
100
AcDbEntity
  8
0
100
AcDbLine
 62
7
  6
CONTINUOUS
 10
800.050858602
 20
189.2587479006
 11
800.050858602
 21
205.7425870403
  0
LINE
  5
344
100
AcDbEntity
  8
RUNDUNGEN
100
AcDbLine
 62
7
  6
CONTINUOUS
 10
805.6774283932
 20
71.3616570228
 11
805.6774283932
 21
83.458986395
  0
LINE
  5
345
100
AcDbEntity
  8
0
100
AcDbLine
 62
7
  6
CONTINUOUS
 10
750.7634651235
 20
196.5816867089
 11
750.8926312974
 21
197.2412610984
  0
LINE
  5
346
100
AcDbEntity
  8
0
100
AcDbLine
 62
7
  6
CONTINUOUS
 10
743.9176320365
 20
197.2412610984
 11
743.7884651235
 21
196.7136015868
  0
LINE
  5
347
100
AcDbEntity
  8
0
100
AcDbLine
 62
7
  6
CONTINUOUS
 10
750.1176312974
 20
197.2412610984
 11
749.9884651235
 21
196.7136015868
  0
LINE
  5
348
100
AcDbEntity
  8
0
100
AcDbLine
 62
7
  6
CONTINUOUS
 10
738.1051316669
 20
199.4838142073
 11
737.9759651235
 21
199.0880695736
  0
LINE
  5
349
100
AcDbEntity
  8
0
100
AcDbLine
 62
7
  6
CONTINUOUS
 10
738.7509651235
 20
198.9561546957
 11
738.8801316669
 21
199.3518993294
  0
LINE
  5
34A
100
AcDbEntity
  8
RUNDUNGEN
100
AcDbLine
 62
7
  6
CONTINUOUS
 10
819.1899245835
 20
152.1668854731
 11
819.1899245835
 21
155.702419379
  0
LINE
  5
34B
100
AcDbEntity
  8
0
100
AcDbLine
 62
7
  6
CONTINUOUS
 10
800.050858602
 20
189.2587479006
 11
798.6774283932
 21
181.469638127
  0
LINE
  5
34C
100
AcDbEntity
  8
0
100
AcDbLine
 62
7
  6
CONTINUOUS
 10
777.6879290027
 20
199.8795592105
 11
777.5526746406
 21
199.2199844515
  0
LINE
  5
34D
100
AcDbEntity
  8
0
100
AcDbLine
 62
7
  6
CONTINUOUS
 10
778.3641992654
 20
199.2199844515
 11
778.4994536275
 21
199.7476439631
  0
LINE
  5
34E
100
AcDbEntity
  8
0
100
AcDbLine
 62
7
  6
CONTINUOUS
 10
782.6923311133
 20
196.054027105
 11
782.8275847014
 21
196.5816867089
  0
LINE
  5
34F
100
AcDbEntity
  8
0
100
AcDbLine
 62
7
  6
CONTINUOUS
 10
856.6774283932
 20
481.397497301
 11
856.6774283932
 21
641.397497301
  0
LINE
  5
350
100
AcDbEntity
  8
0
100
AcDbLine
 62
7
  6
CONTINUOUS
 10
786.8852078251
 20
200.4072187221
 11
786.749954237
 21
199.8795592105
  0
LINE
  5
351
100
AcDbEntity
  8
0
100
AcDbLine
 62
7
  6
CONTINUOUS
 10
791.213339673
 20
199.0880695736
 11
791.3485932612
 21
199.6157290852
  0
LINE
  5
352
100
AcDbEntity
  8
0
100
AcDbLine
 62
7
  6
CONTINUOUS
 10
800.050858602
 20
205.7425870403
 11
805.9872489148
 21
227.897497301
  0
LINE
  5
353
100
AcDbEntity
  8
0
100
AcDbLine
 62
7
  6
CONTINUOUS
 10
775.5238630788
 20
199.4838142073
 11
775.3886091036
 21
199.0880695736
  0
LINE
  5
354
100
AcDbEntity
  8
0
100
AcDbLine
 62
7
  6
CONTINUOUS
 10
776.2001333414
 20
198.9561546957
 11
776.3353877035
 21
199.3518993294
  0
LINE
  5
355
100
AcDbEntity
  8
0
100
AcDbLine
 62
7
  6
CONTINUOUS
 10
782.0160600767
 20
196.7136015868
 11
781.8808057146
 21
196.3178569531
  0
LINE
  5
356
100
AcDbEntity
  8
0
100
AcDbLine
 62
7
  6
CONTINUOUS
 10
791.3485932612
 20
196.1859419829
 11
791.4838468494
 21
196.5816867089
  0
LINE
  5
357
100
AcDbEntity
  8
0
100
AcDbLine
 62
7
  6
CONTINUOUS
 10
744.3051320365
 20
196.054027105
 11
744.5634651235
 21
196.5816867089
  0
LINE
  5
358
100
AcDbEntity
  8
0
100
AcDbLine
 62
7
  6
CONTINUOUS
 10
750.5051312974
 20
196.054027105
 11
750.7634651235
 21
196.5816867089
  0
LINE
  5
359
100
AcDbEntity
  8
0
100
AcDbLine
 62
7
  6
CONTINUOUS
 10
739.5225181325
 20
266.2709275098
 11
723.3039981844
 21
250.0524075618
  0
LINE
  5
35A
100
AcDbEntity
  8
0
100
AcDbLine
 62
7
  6
CONTINUOUS
 10
777.958436953
 20
200.4072187221
 11
777.6879290027
 21
199.8795592105
  0
LINE
  5
35B
100
AcDbEntity
  8
0
100
AcDbLine
 62
7
  6
CONTINUOUS
 10
790.6723222246
 20
199.6157290852
 11
790.4018150483
 21
199.0880695736
  0
LINE
  5
35C
100
AcDbEntity
  8
0
100
AcDbLine
 62
7
  6
CONTINUOUS
 10
790.8075773607
 20
196.5816867089
 11
790.6723222246
 21
196.3178569531
  0
LINE
  5
35D
100
AcDbEntity
  8
0
100
AcDbLine
 62
7
  6
CONTINUOUS
 10
743.7884651235
 20
196.7136015868
 11
743.5301320365
 21
196.3178569531
  0
LINE
  5
35E
100
AcDbEntity
  8
0
100
AcDbLine
 62
7
  6
CONTINUOUS
 10
749.9884651235
 20
196.7136015868
 11
749.7301312974
 21
196.3178569531
  0
LINE
  5
35F
100
AcDbEntity
  8
0
100
AcDbLine
 62
7
  6
CONTINUOUS
 10
738.3634651235
 20
198.4284951842
 11
738.7509651235
 21
198.9561546957
  0
LINE
  5
360
100
AcDbEntity
  8
0
100
AcDbLine
 62
7
  6
CONTINUOUS
 10
892.6774283932
 20
481.397497301
 11
892.6774283932
 21
641.397497301
  0
LINE
  5
361
100
AcDbEntity
  8
0
100
AcDbLine
 62
7
  6
CONTINUOUS
 10
778.4994536275
 20
199.7476439631
 11
778.7699615777
 21
200.1433889663
  0
LINE
  5
362
100
AcDbEntity
  8
0
100
AcDbLine
 62
7
  6
CONTINUOUS
 10
787.4262237257
 20
199.8795592105
 11
787.6967324499
 21
200.2753038442
  0
LINE
  5
363
100
AcDbEntity
  8
0
100
AcDbLine
 62
7
  6
CONTINUOUS
 10
790.9428309488
 20
198.69232494
 11
791.213339673
 21
199.0880695736
  0
LINE
  5
364
100
AcDbEntity
  8
0
100
AcDbLine
 62
7
  6
CONTINUOUS
 10
791.078084537
 20
195.7901973492
 11
791.3485932612
 21
196.1859419829
  0
LINE
  5
365
100
AcDbEntity
  8
0
100
AcDbLine
 62
7
  6
CONTINUOUS
 10
775.794371416
 20
198.4284951842
 11
776.2001333414
 21
198.9561546957
  0
LINE
  5
366
100
AcDbEntity
  8
0
100
AcDbLine
 62
7
  6
CONTINUOUS
 10
737.9759651235
 20
199.0880695736
 11
737.7176316669
 21
198.8242398179
  0
LINE
  5
367
100
AcDbEntity
  8
0
100
AcDbLine
 62
7
  6
CONTINUOUS
 10
743.7884651235
 20
195.5263675472
 11
744.3051320365
 21
196.054027105
  0
LINE
  5
368
100
AcDbEntity
  8
0
100
AcDbLine
 62
7
  6
CONTINUOUS
 10
749.9884651235
 20
195.5263675472
 11
750.5051312974
 21
196.054027105
  0
LINE
  5
369
100
AcDbEntity
  8
RUNDUNGEN
100
AcDbLine
 62
7
  6
CONTINUOUS
 10
798.6774283932
 20
158.647497301
 11
792.6774283932
 21
148.897497301
  0
LINE
  5
36A
100
AcDbEntity
  8
0
100
AcDbLine
 62
7
  6
CONTINUOUS
 10
784.7211426751
 20
201.3306228673
 11
783.9096180504
 21
200.4072187221
  0
LINE
  5
36B
100
AcDbEntity
  8
0
100
AcDbLine
 62
7
  6
CONTINUOUS
 10
783.9096180504
 20
199.3518993294
 11
784.7211426751
 21
200.2753038442
  0
LINE
  5
36C
100
AcDbEntity
  8
0
100
AcDbLine
 62
7
  6
CONTINUOUS
 10
775.3886091036
 20
199.0880695736
 11
775.1181007664
 21
198.8242398179
  0
LINE
  5
36D
100
AcDbEntity
  8
0
100
AcDbLine
 62
7
  6
CONTINUOUS
 10
778.4994536275
 20
200.9348782337
 11
777.958436953
 21
200.4072187221
  0
LINE
  5
36E
100
AcDbEntity
  8
0
100
AcDbLine
 62
7
  6
CONTINUOUS
 10
787.4262237257
 20
200.9348782337
 11
786.8852078251
 21
200.4072187221
  0
LINE
  5
36F
100
AcDbEntity
  8
0
100
AcDbLine
 62
7
  6
CONTINUOUS
 10
782.1513144388
 20
195.5263675472
 11
782.6923311133
 21
196.054027105
  0
LINE
  5
370
100
AcDbEntity
  8
0
100
AcDbLine
 62
7
  6
CONTINUOUS
 10
790.4018150483
 20
199.0880695736
 11
790.1313063241
 21
198.8242398179
  0
LINE
  5
371
100
AcDbEntity
  8
0
100
AcDbLine
 62
7
  6
CONTINUOUS
 10
743.5301320365
 20
196.3178569531
 11
743.1426320365
 21
196.054027105
  0
LINE
  5
372
100
AcDbEntity
  8
0
100
AcDbLine
 62
7
  6
CONTINUOUS
 10
749.7301312974
 20
196.3178569531
 11
749.3426312974
 21
196.054027105
  0
LINE
  5
373
100
AcDbEntity
  8
0
100
AcDbLine
 62
7
  6
CONTINUOUS
 10
790.6723222246
 20
196.3178569531
 11
790.4018150483
 21
196.054027105
  0
LINE
  5
374
100
AcDbEntity
  8
0
100
AcDbLine
 62
7
  6
CONTINUOUS
 10
790.4018150483
 20
198.2965803063
 11
790.9428309488
 21
198.69232494
  0
LINE
  5
375
100
AcDbEntity
  8
0
100
AcDbLine
 62
7
  6
CONTINUOUS
 10
778.7699615777
 20
200.1433889663
 11
779.1757238901
 21
200.4072187221
  0
LINE
  5
376
100
AcDbEntity
  8
0
100
AcDbLine
 62
7
  6
CONTINUOUS
 10
787.6967324499
 20
200.2753038442
 11
788.1024947622
 21
200.5391336
  0
LINE
  5
377
100
AcDbEntity
  8
0
100
AcDbLine
 62
7
  6
CONTINUOUS
 10
781.8808057146
 20
196.3178569531
 11
781.4750434022
 21
196.054027105
  0
LINE
  5
378
100
AcDbEntity
  8
0
100
AcDbLine
 62
7
  6
CONTINUOUS
 10
790.6723222246
 20
195.5263675472
 11
791.078084537
 21
195.7901973492
  0
LINE
  5
379
100
AcDbEntity
  8
0
100
AcDbLine
 62
7
  6
CONTINUOUS
 10
737.84679858
 20
198.1646654284
 11
738.3634651235
 21
198.4284951842
  0
LINE
  5
37A
100
AcDbEntity
  8
0
100
AcDbLine
 62
7
  6
CONTINUOUS
 10
743.2717982104
 20
195.2625377568
 11
743.7884651235
 21
195.5263675472
  0
LINE
  5
37B
100
AcDbEntity
  8
0
100
AcDbLine
 62
7
  6
CONTINUOUS
 10
749.4717989495
 20
195.2625377568
 11
749.9884651235
 21
195.5263675472
  0
LINE
  5
37C
100
AcDbEntity
  8
0
100
AcDbLine
 62
7
  6
CONTINUOUS
 10
737.7176316669
 20
198.8242398179
 11
737.3301316669
 21
198.69232494
  0
LINE
  5
37D
100
AcDbEntity
  8
RUNDUNGEN
100
AcDbLine
 62
7
  6
CONTINUOUS
 10
737.7749078499
 20
105.0921886028
 11
718.7625161275
 21
85.8924651211
  0
LINE
  5
37E
100
AcDbEntity
  8
RUNDUNGEN
100
AcDbLine
 62
7
  6
CONTINUOUS
 10
737.7749078499
 20
101.5566546969
 11
718.7625161275
 21
82.3569312151
  0
LINE
  5
37F
100
AcDbEntity
  8
RUNDUNGEN
100
AcDbLine
 62
7
  6
CONTINUOUS
 10
798.3798601164
 20
149.5281684504
 11
808.6707433229
 21
159.9204491708
  0
LINE
  5
380
100
AcDbEntity
  8
RUNDUNGEN
100
AcDbLine
 62
7
  6
CONTINUOUS
 10
798.3798601164
 20
145.9926345445
 11
808.6707433229
 21
156.3849152649
  0
LINE
  5
381
100
AcDbEntity
  8
RUNDUNGEN
100
AcDbLine
 62
7
  6
CONTINUOUS
 10
709.932691596
 20
159.2943540358
 11
708.2943875075
 21
158.4831944604
  0
LINE
  5
382
100
AcDbEntity
  8
RUNDUNGEN
100
AcDbLine
 62
7
  6
CONTINUOUS
 10
709.932691596
 20
155.7588201298
 11
708.2943875075
 21
154.9476605545
  0
LINE
  5
383
100
AcDbEntity
  8
RUNDUNGEN
100
AcDbLine
 62
7
  6
CONTINUOUS
 10
717.3483976717
 20
147.3454437743
 11
713.006891837
 21
145.1958708997
  0
LINE
  5
384
100
AcDbEntity
  8
0
100
AcDbLine
 62
7
  6
CONTINUOUS
 10
779.040469528
 20
201.1987079895
 11
778.4994536275
 21
200.9348782337
  0
LINE
  5
385
100
AcDbEntity
  8
0
100
AcDbLine
 62
7
  6
CONTINUOUS
 10
775.2533547415
 20
198.1646654284
 11
775.794371416
 21
198.4284951842
  0
LINE
  5
386
100
AcDbEntity
  8
0
100
AcDbLine
 62
7
  6
CONTINUOUS
 10
787.9672411741
 20
201.1987079895
 11
787.4262237257
 21
200.9348782337
  0
LINE
  5
387
100
AcDbEntity
  8
0
100
AcDbLine
 62
7
  6
CONTINUOUS
 10
781.6102977643
 20
195.2625377568
 11
782.1513144388
 21
195.5263675472
  0
LINE
  5
388
100
AcDbEntity
  8
0
100
AcDbLine
 62
7
  6
CONTINUOUS
 10
790.4018150483
 20
196.054027105
 11
790.1313063241
 21
195.9221122271
  0
LINE
  5
389
100
AcDbEntity
  8
0
100
AcDbLine
 62
7
  6
CONTINUOUS
 10
790.1313063241
 20
195.2625377568
 11
790.6723222246
 21
195.5263675472
  0
LINE
  5
38A
100
AcDbEntity
  8
0
100
AcDbLine
 62
7
  6
CONTINUOUS
 10
775.1181007664
 20
198.8242398179
 11
774.712338454
 21
198.69232494
  0
LINE
  5
38B
100
AcDbEntity
  8
0
100
AcDbLine
 62
7
  6
CONTINUOUS
 10
790.1313063241
 20
198.8242398179
 11
789.3197816993
 21
198.5604100621
  0
LINE
  5
38C
100
AcDbEntity
  8
RUNDUNGEN
100
AcDbLine
 62
7
  6
CONTINUOUS
 10
747.8573324693
 20
79.6855435113
 11
755.1242120389
 21
87.0240246635
  0
LINE
  5
38D
100
AcDbEntity
  8
RUNDUNGEN
100
AcDbLine
 62
7
  6
CONTINUOUS
 10
785.5799489366
 20
117.7798462038
 11
818.828228672
 21
151.3557258978
  0
LINE
  5
38E
100
AcDbEntity
  8
RUNDUNGEN
100
AcDbLine
 62
7
  6
CONTINUOUS
 10
720.1192396477
 20
141.5489780354
 11
724.4607454825
 21
143.69855091
  0
LINE
  5
38F
100
AcDbEntity
  8
RUNDUNGEN
100
AcDbLine
 62
7
  6
CONTINUOUS
 10
750.2058996662
 20
153.3056891045
 11
744.4718353562
 21
150.4666305908
  0
LINE
  5
390
100
AcDbEntity
  8
RUNDUNGEN
100
AcDbLine
 62
7
  6
CONTINUOUS
 10
720.1192396477
 20
138.0134441294
 11
724.4607454825
 21
140.1630170041
  0
LINE
  5
391
100
AcDbEntity
  8
0
100
AcDbLine
 62
7
  6
CONTINUOUS
 10
341.9031435022
 20
148.897497301
 11
344.5031435022
 21
148.897497301
  0
LINE
  5
392
100
AcDbEntity
  8
0
100
AcDbLine
 62
7
  6
CONTINUOUS
 10
333.1032855488
 20
158.647497301
 11
353.3030014556
 21
158.647497301
  0
LINE
  5
393
100
AcDbEntity
  8
0
100
AcDbLine
 62
7
  6
CONTINUOUS
 10
339.9531435022
 20
181.469638127
 11
346.4531435022
 21
181.469638127
  0
LINE
  5
394
100
AcDbEntity
  8
0
100
AcDbLine
 62
7
  6
CONTINUOUS
 10
346.4531435022
 20
189.2587479006
 11
339.9531435022
 21
189.2587479006
  0
LINE
  5
395
100
AcDbEntity
  8
0
100
AcDbLine
 62
7
  6
CONTINUOUS
 10
347.6830827418
 20
205.7425870403
 11
338.7232042625
 21
205.7425870403
  0
LINE
  5
396
100
AcDbEntity
  8
0
100
AcDbLine
 62
7
  6
CONTINUOUS
 10
346.5348616871
 20
227.897497301
 11
339.8714253173
 21
227.897497301
  0
LINE
  5
397
100
AcDbEntity
  8
0
100
AcDbLine
 62
7
  6
CONTINUOUS
 10
357.2031435022
 20
192.7523113381
 11
362.7031435022
 21
184.897497301
  0
LINE
  5
398
100
AcDbEntity
  8
0
100
AcDbLine
 62
7
  6
CONTINUOUS
 10
346.5348616871
 20
250.0524075618
 11
339.8714253173
 21
250.0524075618
  0
LINE
  5
399
100
AcDbEntity
  8
0
100
AcDbLine
 62
7
  6
CONTINUOUS
 10
346.5348616871
 20
266.2709275098
 11
339.8714253173
 21
266.2709275098
  0
LINE
  5
39A
100
AcDbEntity
  8
KONSTRUKTIONSELEMENTE
100
AcDbLine
 62
7
  6
CONTINUOUS
 10
459.8050517198
 20
148.7898495627
 11
451.3904810237
 21
157.2044202588
  0
LINE
  5
39B
100
AcDbEntity
  8
KONSTRUKTIONSELEMENTE
100
AcDbLine
 62
7
  6
CONTINUOUS
 10
398.6403151472
 20
209.9545861353
 11
390.2257444511
 21
218.3691568315
  0
LINE
  5
39C
100
AcDbEntity
  8
KONSTRUKTIONSELEMENTE
100
AcDbLine
 62
7
  6
CONTINUOUS
 10
431.5914911505
 20
179.1954411537
 11
420.9848894327
 21
189.8020428715
  0
LINE
  5
39D
100
AcDbEntity
  8
KONSTRUKTIONSELEMENTE
100
AcDbLine
 62
7
  6
CONTINUOUS
 10
463.3405856258
 20
152.3253834686
 11
454.9260149296
 21
160.7399541648
  0
LINE
  5
39E
100
AcDbEntity
  8
KONSTRUKTIONSELEMENTE
100
AcDbLine
 62
7
  6
CONTINUOUS
 10
402.1758490531
 20
213.4901200413
 11
393.761278357
 21
221.9046907374
  0
LINE
  5
39F
100
AcDbEntity
  8
KONSTRUKTIONSELEMENTE
100
AcDbLine
 62
7
  6
CONTINUOUS
 10
434.7734716658
 20
182.3774216691
 11
424.166869948
 21
192.9840233869
  0
LINE
  5
3A0
100
AcDbEntity
  8
KONSTRUKTIONSELEMENTE
100
AcDbLine
 62
7
  6
CONTINUOUS
 10
361.2343664224
 20
255.9165269125
 11
394.4683851382
 21
222.6825081967
  0
LINE
  5
3A1
100
AcDbEntity
  8
RUNDUNGEN
100
AcDbLine
 62
7
  6
CONTINUOUS
 10
551.4460905616
 20
67.1190163357
 11
460.5043162502
 21
158.0607906471
  0
LINE
  5
3A2
100
AcDbEntity
  8
KONSTRUKTIONSELEMENTE
100
AcDbLine
 62
7
  6
CONTINUOUS
 10
405.4285402466
 20
213.4901200413
 11
424.1372252218
 21
194.7814350661
  0
LINE
  5
3A3
100
AcDbEntity
  8
KONSTRUKTIONSELEMENTE
100
AcDbLine
 62
7
  6
CONTINUOUS
 10
436.5412386188
 20
182.3774216691
 11
455.249923594
 21
163.6687366939
  0
LINE
  5
3A4
100
AcDbEntity
  8
KONSTRUKTIONSELEMENTE
100
AcDbLine
 62
7
  6
CONTINUOUS
 10
408.6105207619
 20
216.6721005566
 11
427.3192057371
 21
197.9634155814
  0
LINE
  5
3A5
100
AcDbEntity
  8
KONSTRUKTIONSELEMENTE
100
AcDbLine
 62
7
  6
CONTINUOUS
 10
439.7232191341
 20
185.5594021844
 11
458.4319041093
 21
166.8507172092
  0
LINE
  5
3A6
100
AcDbEntity
  8
RUNDUNGEN
100
AcDbLine
 62
7
  6
CONTINUOUS
 10
464.0398383824
 20
161.5963363268
 11
465.1099127208
 21
160.5262619883
  0
LINE
  5
3A7
100
AcDbEntity
  8
RUNDUNGEN
100
AcDbLine
 62
7
  6
CONTINUOUS
 10
465.1128475322
 20
160.5233271769
 11
554.9816244675
 21
70.6545502416
  0
LINE
  5
3A8
100
AcDbEntity
  8
KONSTRUKTIONSELEMENTE
100
AcDbLine
 62
7
  6
CONTINUOUS
 10
366.1841138907
 20
260.8662743808
 11
399.3716680781
 21
227.6787201934
  0
LINE
  5
3A9
100
AcDbEntity
  8
KONSTRUKTIONSELEMENTE
100
AcDbLine
 62
7
  6
CONTINUOUS
 10
429.1166174163
 20
197.9337708552
 11
439.7232191341
 21
187.3271691374
  0
LINE
  5
3AA
100
AcDbEntity
  8
KONSTRUKTIONSELEMENTE
100
AcDbLine
 62
7
  6
CONTINUOUS
 10
400.1959500658
 20
228.3393624462
 11
404.2264587186
 21
224.3088537934
  0
LINE
  5
3AB
100
AcDbEntity
  8
KONSTRUKTIONSELEMENTE
100
AcDbLine
 62
7
  6
CONTINUOUS
 10
404.5800121092
 20
223.9553004028
 11
408.6105207619
 21
219.9247917501
  0
LINE
  5
3AC
100
AcDbEntity
  8
KONSTRUKTIONSELEMENTE
100
AcDbLine
 62
7
  6
CONTINUOUS
 10
461.3606866384
 20
167.1746258736
 11
465.3911952912
 21
163.1441172208
  0
LINE
  5
3AD
100
AcDbEntity
  8
KONSTRUKTIONSELEMENTE
100
AcDbLine
 62
7
  6
CONTINUOUS
 10
465.7447486818
 20
162.7905638302
 11
469.7752573346
 21
158.7600551774
  0
LINE
  5
3AE
100
AcDbEntity
  8
0
100
AcDbLine
 62
7
  6
CONTINUOUS
 10
284.7031435022
 20
353.897497301
 11
284.7031435022
 21
278.897497301
  0
LINE
  5
3AF
100
AcDbEntity
  8
0
100
AcDbLine
 62
7
  6
CONTINUOUS
 10
339.8714253173
 20
272.2073178226
 11
346.5348616871
 21
272.2073178226
  0
LINE
  5
3B0
100
AcDbEntity
  8
KONSTRUKTIONSELEMENTE
100
AcDbLine
 62
7
  6
CONTINUOUS
 10
432.2985979317
 20
201.1157513705
 11
442.9051996495
 21
190.5091496527
  0
LINE
  5
3B1
100
AcDbEntity
  8
KONSTRUKTIONSELEMENTE
100
AcDbLine
 62
7
  6
CONTINUOUS
 10
403.7314839717
 20
231.8748963521
 11
407.7619926245
 21
227.8443876994
  0
LINE
  5
3B2
100
AcDbEntity
  8
KONSTRUKTIONSELEMENTE
100
AcDbLine
 62
7
  6
CONTINUOUS
 10
408.1155460151
 20
227.4908343088
 11
412.1460546678
 21
223.460325656
  0
LINE
  5
3B3
100
AcDbEntity
  8
KONSTRUKTIONSELEMENTE
100
AcDbLine
 62
7
  6
CONTINUOUS
 10
464.8962205444
 20
170.7101597795
 11
468.9267291971
 21
166.6796511267
  0
LINE
  5
3B4
100
AcDbEntity
  8
KONSTRUKTIONSELEMENTE
100
AcDbLine
 62
7
  6
CONTINUOUS
 10
469.2802825877
 20
166.3260977361
 11
473.3107912405
 21
162.2955890834
  0
LINE
  5
3B5
100
AcDbEntity
  8
0
100
AcDbLine
 62
7
  6
CONTINUOUS
 10
351.9314830002
 20
259.6479758848
 11
346.5348616871
 21
272.2073178226
  0
LINE
  5
3B6
100
AcDbEntity
  8
RUNDUNGEN
100
AcDbLine
 62
7
  6
CONTINUOUS
 10
339.9531435022
 20
181.469638127
 11
338.4662292128
 21
201.397497301
  0
LINE
  5
3B7
100
AcDbEntity
  8
0
100
AcDbLine
 62
7
  6
CONTINUOUS
 10
310.7031435022
 20
353.897497301
 11
310.7031435022
 21
278.897497301
  0
LINE
  5
3B8
100
AcDbEntity
  8
0
100
AcDbLine
 62
7
  6
CONTINUOUS
 10
339.9531435022
 20
189.2587479006
 11
338.7232042625
 21
205.7425870403
  0
LINE
  5
3B9
100
AcDbEntity
  8
0
100
AcDbLine
 62
7
  6
CONTINUOUS
 10
347.1133666093
 20
220.4369657218
 11
347.6830827418
 21
205.7425870403
  0
LINE
  5
3BA
100
AcDbEntity
  8
RUNDUNGEN
100
AcDbLine
 62
7
  6
CONTINUOUS
 10
323.7031435022
 20
167.097497301
 11
323.7031435022
 21
184.897497301
  0
LINE
  5
3BB
100
AcDbEntity
  8
0
100
AcDbLine
 62
7
  6
CONTINUOUS
 10
325.2031435022
 20
368.397497301
 11
325.2031435022
 21
754.397497301
  0
LINE
  5
3BC
100
AcDbEntity
  8
RUNDUNGEN
100
AcDbLine
 62
7
  6
CONTINUOUS
 10
329.2031435022
 20
192.7523113381
 11
329.2031435022
 21
203.3974973
  0
LINE
  5
3BD
100
AcDbEntity
  8
BEZUGSACHSEN
100
AcDbLine
 62
7
  6
CONTINUOUS
 10
333.7031435022
 20
255.897497301
 11
333.7031435022
 21
223.0353483264
  0
LINE
  5
3BE
100
AcDbEntity
  8
RUNDUNGEN
100
AcDbLine
 62
7
  6
CONTINUOUS
 10
333.7031435022
 20
223.0350463376
 11
333.7031435022
 21
209.2069723203
  0
LINE
  5
3BF
100
AcDbEntity
  8
0
100
AcDbLine
 62
7
  6
CONTINUOUS
 10
339.9531435022
 20
189.2587479006
 11
339.9531435022
 21
181.469638127
  0
LINE
  5
3C0
100
AcDbEntity
  8
0
100
AcDbLine
 62
7
  6
CONTINUOUS
 10
346.4531435022
 20
189.2587479006
 11
346.4531435022
 21
181.469638127
  0
LINE
  5
3C1
100
AcDbEntity
  8
0
100
AcDbLine
 62
7
  6
CONTINUOUS
 10
339.292920395
 20
220.4369657218
 11
338.7232042625
 21
205.7425870403
  0
LINE
  5
3C2
100
AcDbEntity
  8
BEZUGSACHSEN
100
AcDbLine
 62
7
  6
CONTINUOUS
 10
352.7031435022
 20
255.897497301
 11
352.7031435022
 21
223.0353483264
  0
LINE
  5
3C3
100
AcDbEntity
  8
0
100
AcDbLine
 62
7
  6
CONTINUOUS
 10
352.7031435022
 20
223.0350463376
 11
352.7031435022
 21
209.2069723203
  0
LINE
  5
3C4
100
AcDbEntity
  8
0
100
AcDbLine
 62
7
  6
CONTINUOUS
 10
357.2031435022
 20
192.7523113381
 11
357.2031435022
 21
203.397497301
  0
LINE
  5
3C5
100
AcDbEntity
  8
0
100
AcDbLine
 62
7
  6
CONTINUOUS
 10
361.2031435022
 20
368.397497301
 11
361.2031435022
 21
754.397497301
  0
LINE
  5
3C6
100
AcDbEntity
  8
0
100
AcDbLine
 62
7
  6
CONTINUOUS
 10
362.7031435022
 20
167.097497301
 11
362.7031435022
 21
184.897497301
  0
LINE
  5
3C7
100
AcDbEntity
  8
0
100
AcDbLine
 62
7
  6
CONTINUOUS
 10
346.4531435022
 20
189.2587479006
 11
347.6830827418
 21
205.7425870403
  0
LINE
  5
3C8
100
AcDbEntity
  8
0
100
AcDbLine
 62
7
  6
CONTINUOUS
 10
346.4531435022
 20
181.469638127
 11
347.9400577916
 21
201.397497301
  0
LINE
  5
3C9
100
AcDbEntity
  8
0
100
AcDbLine
 62
7
  6
CONTINUOUS
 10
375.7031435022
 20
278.897497301
 11
375.7031435022
 21
353.897497301
  0
LINE
  5
3CA
100
AcDbEntity
  8
0
100
AcDbLine
 62
7
  6
CONTINUOUS
 10
401.7031435022
 20
278.897497301
 11
401.7031435022
 21
353.897497301
  0
LINE
  5
3CB
100
AcDbEntity
  8
KONSTRUKTIONSELEMENTE
100
AcDbLine
 62
7
  6
CONTINUOUS
 10
339.8714253173
 20
272.2073178226
 11
334.4748040041
 21
259.6479758848
  0
LINE
  5
3CC
100
AcDbEntity
  8
RUNDUNGEN
100
AcDbLine
 62
7
  6
CONTINUOUS
 10
329.2031435022
 20
192.7523113381
 11
323.7031435022
 21
184.897497301
  0
LINE
  5
3CD
100
AcDbEntity
  8
KONSTRUKTIONSELEMENTE
100
AcDbLine
 62
7
  6
CONTINUOUS
 10
407.7619926245
 20
227.8443876994
 11
404.2264587186
 21
224.3088537934
  0
LINE
  5
3CE
100
AcDbEntity
  8
KONSTRUKTIONSELEMENTE
100
AcDbLine
 62
7
  6
CONTINUOUS
 10
408.1155460151
 20
227.4908343088
 11
404.5800121092
 21
223.9553004028
  0
LINE
  5
3CF
100
AcDbEntity
  8
KONSTRUKTIONSELEMENTE
100
AcDbLine
 62
7
  6
CONTINUOUS
 10
468.9267291971
 20
166.6796511267
 11
465.3911952912
 21
163.1441172208
  0
LINE
  5
3D0
100
AcDbEntity
  8
RUNDUNGEN
100
AcDbLine
 62
7
  6
CONTINUOUS
 10
460.5044680822
 20
158.0606388151
 11
464.0400019881
 21
161.596172721
  0
LINE
  5
3D1
100
AcDbEntity
  8
KONSTRUKTIONSELEMENTE
100
AcDbLine
 62
7
  6
CONTINUOUS
 10
469.2802825877
 20
166.3260977361
 11
465.7447486818
 21
162.7905638302
  0
LINE
  5
3D2
100
AcDbEntity
  8
RUNDUNGEN
100
AcDbLine
 62
7
  6
CONTINUOUS
 10
465.1126715513
 20
160.5235031579
 11
461.5771376453
 21
156.9879692519
  0
LINE
  5
3D3
100
AcDbEntity
  8
RUNDUNGEN
100
AcDbLine
 62
7
  6
CONTINUOUS
 10
551.4460905616
 20
67.1190163357
 11
554.9816244675
 21
70.6545502416
  0
ARC
  5
3D4
100
AcDbEntity
  8
RUNDUNGEN
100
AcDbCircle
 62
7
  6
CONTINUOUS
 10
732.6774283932
 20
201.397497301
 40
8.0
100
AcDbArc
 50
102.037384222
 51
180.0
  0
ARC
  5
3D5
100
AcDbEntity
  8
RUNDUNGEN
100
AcDbCircle
 62
7
  6
CONTINUOUS
 10
732.3533185068
 20
202.8912947335
 40
6.4714578049
100
AcDbArc
 50
87.1292556972
 51
101.9891141635
  0
ARC
  5
3D6
100
AcDbEntity
  8
RUNDUNGEN
100
AcDbCircle
 62
7
  6
CONTINUOUS
 10
722.9839627651
 20
146.6870566217
 40
3.3334747012
100
AcDbArc
 50
296.2964744357
 51
302.2123623221
  0
CIRCLE
  5
3D7
100
AcDbEntity
  8
BEZUGSACHSEN
100
AcDbCircle
 62
7
  6
CONTINUOUS
 10
737.0774283932
 20
170.297497301
 40
3.0
  0
ARC
  5
3D8
100
AcDbEntity
  8
0
100
AcDbCircle
 62
7
  6
CONTINUOUS
 10
747.5886897057
 20
134.2683008742
 40
0.5420477023
100
AcDbArc
 50
78.8903114983
 51
89.9692795103
  0
ARC
  5
3D9
100
AcDbEntity
  8
KONSTRUKTIONSELEMENTE
100
AcDbCircle
 62
7
  6
CONTINUOUS
 10
761.6774283932
 20
109.797497301
 40
46.8
100
AcDbArc
 50
56.6553646926
 51
80.9022287256
  0
ARC
  5
3DA
100
AcDbEntity
  8
KONSTRUKTIONSELEMENTE
100
AcDbCircle
 62
7
  6
CONTINUOUS
 10
761.6774283932
 20
109.797497301
 40
46.8
100
AcDbArc
 50
99.0977712744
 51
123.3446353074
  0
ARC
  5
3DB
100
AcDbEntity
  8
BEZUGSACHSEN
100
AcDbCircle
 62
7
  6
CONTINUOUS
 10
761.6774283932
 20
227.897497301
 40
18.5
100
AcDbArc
 50
134.6562818467
 51
45.3437181533
  0
ARC
  5
3DC
100
AcDbEntity
  8
0
100
AcDbCircle
 62
7
  6
CONTINUOUS
 10
761.6774283932
 20
233.397497301
 40
13.0
100
AcDbArc
 50
180.0
 51
360.0
  0
ARC
  5
3DD
100
AcDbEntity
  8
KONSTRUKTIONSELEMENTE
100
AcDbCircle
 62
7
  6
CONTINUOUS
 10
761.5347115307
 20
203.6668360019
 40
9.5600220347
100
AcDbArc
 50
250.2472929192
 51
257.2525711218
  0
ARC
  5
3DE
100
AcDbEntity
  8
KONSTRUKTIONSELEMENTE
100
AcDbCircle
 62
7
  6
CONTINUOUS
 10
761.8535206128
 20
203.5518180799
 40
9.4404839019
100
AcDbArc
 50
282.7159617125
 51
289.8017277657
  0
ARC
  5
3DF
100
AcDbEntity
  8
RUNDUNGEN
100
AcDbCircle
 62
7
  6
CONTINUOUS
 10
790.6774283932
 20
201.397497301
 40
8.0
100
AcDbArc
 50
0.0
 51
77.962615778
  0
ARC
  5
3E0
100
AcDbEntity
  8
KONSTRUKTIONSELEMENTE
100
AcDbCircle
 62
7
  6
CONTINUOUS
 10
761.6774283932
 20
188.097497301
 40
7.4
100
AcDbArc
 50
0.0000004677
 51
180.0
  0
ARC
  5
3E1
100
AcDbEntity
  8
BEZUGSACHSEN
100
AcDbCircle
 62
7
  6
CONTINUOUS
 10
761.4136917269
 20
154.7085479825
 40
6.5895200435
100
AcDbArc
 50
249.8584610791
 51
250.1295722559
  0
ARC
  5
3E2
100
AcDbEntity
  8
BEZUGSACHSEN
100
AcDbCircle
 62
7
  6
CONTINUOUS
 10
761.9411650615
 20
154.7085479773
 40
6.589520038
100
AcDbArc
 50
289.870427744
 51
290.1415389211
  0
ARC
  5
3E3
100
AcDbEntity
  8
RUNDUNGEN
100
AcDbCircle
 62
7
  6
CONTINUOUS
 10
791.0015393637
 20
202.8913114867
 40
6.4714411919
100
AcDbArc
 50
78.010864413
 51
92.8686453501
  0
ARC
  5
3E4
100
AcDbEntity
  8
0
100
AcDbCircle
 62
7
  6
CONTINUOUS
 10
777.8790460209
 20
135.0895939515
 40
2.7679754318
100
AcDbArc
 50
350.5636876715
 51
355.3957076165
  0
ARC
  5
3E5
100
AcDbEntity
  8
KONSTRUKTIONSELEMENTE
100
AcDbCircle
 62
7
  6
CONTINUOUS
 10
761.6774283932
 20
148.492719323
 40
2.5
100
AcDbArc
 50
180.0
 51
360.0
  0
ARC
  5
3E6
100
AcDbEntity
  8
KONSTRUKTIONSELEMENTE
100
AcDbCircle
 62
7
  6
CONTINUOUS
 10
761.6774283932
 20
209.6574558957
 40
2.5
100
AcDbArc
 50
358.1688338955
 51
360.0
  0
ARC
  5
3E7
100
AcDbEntity
  8
KONSTRUKTIONSELEMENTE
100
AcDbCircle
 62
7
  6
CONTINUOUS
 10
761.6774283932
 20
209.6574558957
 40
2.5
100
AcDbArc
 50
180.0
 51
181.8311661045
  0
ARC
  5
3E8
100
AcDbEntity
  8
0
100
AcDbCircle
 62
7
  6
CONTINUOUS
 10
761.6774283932
 20
481.397497301
 40
131.0
100
AcDbArc
 50
180.0
 51
264.3042118104
  0
ARC
  5
3E9
100
AcDbEntity
  8
0
100
AcDbCircle
 62
7
  6
CONTINUOUS
 10
761.6774283932
 20
481.397497301
 40
131.0
100
AcDbArc
 50
275.6957881896
 51
360.0
  0
ARC
  5
3EA
100
AcDbEntity
  8
0
100
AcDbCircle
 62
7
  6
CONTINUOUS
 10
761.6774283932
 20
641.397497301
 40
131.0
100
AcDbArc
 50
0.0
 51
180.0
  0
ARC
  5
3EB
100
AcDbEntity
  8
0
100
AcDbCircle
 62
7
  6
CONTINUOUS
 10
761.6774283932
 20
481.397497301
 40
95.0
100
AcDbArc
 50
180.0
 51
262.1342268816
  0
ARC
  5
3EC
100
AcDbEntity
  8
0
100
AcDbCircle
 62
7
  6
CONTINUOUS
 10
761.6774283932
 20
481.397497301
 40
95.0
100
AcDbArc
 50
277.8657731184
 51
360.0
  0
ARC
  5
3ED
100
AcDbEntity
  8
0
100
AcDbCircle
 62
7
  6
CONTINUOUS
 10
761.6774283932
 20
641.397497301
 40
95.0
100
AcDbArc
 50
0.0
 51
180.0
  0
ARC
  5
3EE
100
AcDbEntity
  8
0
100
AcDbCircle
 62
7
  6
CONTINUOUS
 10
761.6774283932
 20
399.397497301
 40
13.0
100
AcDbArc
 50
0.0
 51
180.0
  0
ARC
  5
3EF
100
AcDbEntity
  8
0
100
AcDbCircle
 62
7
  6
CONTINUOUS
 10
248.514035691
 20
216.5440663673
 40
98.6761507302
100
AcDbArc
 50
2.2609779608
 51
6.6069414076
  0
ARC
  5
3F0
100
AcDbEntity
  8
0
100
AcDbCircle
 62
7
  6
CONTINUOUS
 10
344.5031435022
 20
167.097497301
 40
18.2
100
AcDbArc
 50
270.0
 51
360.0
  0
ARC
  5
3F1
100
AcDbEntity
  8
RUNDUNGEN
100
AcDbCircle
 62
7
  6
CONTINUOUS
 10
341.9031435022
 20
167.097497301
 40
18.2
100
AcDbArc
 50
180.0
 51
270.0
  0
ARC
  5
3F2
100
AcDbEntity
  8
0
100
AcDbCircle
 62
7
  6
CONTINUOUS
 10
344.5034728997
 20
167.0636735092
 40
18.1661762111
100
AcDbArc
 50
269.9989610864
 51
273.3240615168
  0
ARC
  5
3F3
100
AcDbEntity
  8
0
100
AcDbCircle
 62
7
  6
CONTINUOUS
 10
344.5081648249
 20
166.9742253153
 40
18.0766064628
100
AcDbArc
 50
273.3256541448
 51
274.0265161695
  0
ARC
  5
3F4
100
AcDbEntity
  8
0
100
AcDbCircle
 62
7
  6
CONTINUOUS
 10
344.5198088233
 20
166.8240108896
 40
17.9259452292
100
AcDbArc
 50
274.0231042362
 51
276.9058832781
  0
ARC
  5
3F5
100
AcDbEntity
  8
0
100
AcDbCircle
 62
7
  6
CONTINUOUS
 10
344.5409179597
 20
166.6397112207
 40
17.7404445584
100
AcDbArc
 50
276.9097717271
 51
277.3787475808
  0
ARC
  5
3F6
100
AcDbEntity
  8
BEZUGSACHSEN
100
AcDbCircle
 62
7
  6
CONTINUOUS
 10
343.2031435022
 20
255.897497301
 40
9.5
100
AcDbArc
 50
156.7472958606
 51
180.0
  0
ARC
  5
3F7
100
AcDbEntity
  8
BEZUGSACHSEN
100
AcDbCircle
 62
7
  6
CONTINUOUS
 10
343.2031435022
 20
255.897497301
 40
9.5
100
AcDbArc
 50
0.0
 51
23.2527041394
  0
CIRCLE
  5
3F8
100
AcDbEntity
  8
BEZUGSACHSEN
100
AcDbCircle
 62
7
  6
CONTINUOUS
 10
343.2031435022
 20
170.297497301
 40
9.25
  0
ARC
  5
3F9
100
AcDbEntity
  8
RUNDUNGEN
100
AcDbCircle
 62
7
  6
CONTINUOUS
 10
335.2031435022
 20
203.397497301
 40
6.0
100
AcDbArc
 50
96.8519886055
 51
179.9999125493
  0
ARC
  5
3FA
100
AcDbEntity
  8
0
100
AcDbCircle
 62
7
  6
CONTINUOUS
 10
351.2031435022
 20
203.397497301
 40
6.0
100
AcDbArc
 50
0.0
 51
83.1480113945
  0
ARC
  5
3FB
100
AcDbEntity
  8
0
100
AcDbCircle
 62
7
  6
CONTINUOUS
 10
343.2031435022
 20
278.897497301
 40
58.5
100
AcDbArc
 50
180.0
 51
260.653043499
  0
ARC
  5
3FC
100
AcDbEntity
  8
0
100
AcDbCircle
 62
7
  6
CONTINUOUS
 10
343.2031435022
 20
278.897497301
 40
58.5
100
AcDbArc
 50
279.346956501
 51
311.569568572
  0
ARC
  5
3FD
100
AcDbEntity
  8
0
100
AcDbCircle
 62
7
  6
CONTINUOUS
 10
343.2031435022
 20
278.897497301
 40
58.5
100
AcDbArc
 50
318.430431428
 51
360.0
  0
ARC
  5
3FE
100
AcDbEntity
  8
0
100
AcDbCircle
 62
7
  6
CONTINUOUS
 10
343.2031435022
 20
353.897497301
 40
58.5
100
AcDbArc
 50
0.0
 51
72.0727336624
  0
ARC
  5
3FF
100
AcDbEntity
  8
0
100
AcDbCircle
 62
7
  6
CONTINUOUS
 10
343.2031435022
 20
353.897497301
 40
58.5
100
AcDbArc
 50
107.9272663376
 51
180.0
  0
ARC
  5
400
100
AcDbEntity
  8
0
100
AcDbCircle
 62
7
  6
CONTINUOUS
 10
343.2031435022
 20
278.897497301
 40
32.5
100
AcDbArc
 50
180.0
 51
252.9980192948
  0
ARC
  5
401
100
AcDbEntity
  8
0
100
AcDbCircle
 62
7
  6
CONTINUOUS
 10
343.2031435022
 20
278.897497301
 40
32.5
100
AcDbArc
 50
287.0019807052
 51
308.8171072275
  0
ARC
  5
402
100
AcDbEntity
  8
0
100
AcDbCircle
 62
7
  6
CONTINUOUS
 10
343.2031435022
 20
278.897497301
 40
32.5
100
AcDbArc
 50
321.1828927725
 51
360.0
  0
ARC
  5
403
100
AcDbEntity
  8
0
100
AcDbCircle
 62
7
  6
CONTINUOUS
 10
343.2031435022
 20
353.897497301
 40
32.5
100
AcDbArc
 50
0.0
 51
56.3663446066
  0
ARC
  5
404
100
AcDbEntity
  8
0
100
AcDbCircle
 62
7
  6
CONTINUOUS
 10
343.2031435022
 20
353.897497301
 40
32.5
100
AcDbArc
 50
123.6336553934
 51
180.0
  0
ARC
  5
405
100
AcDbEntity
  8
0
100
AcDbCircle
 62
7
  6
CONTINUOUS
 10
343.2031435022
 20
368.397497301
 40
18.0
100
AcDbArc
 50
180.0
 51
360.0
  0
ARC
  5
406
100
AcDbEntity
  8
0
100
AcDbCircle
 62
7
  6
CONTINUOUS
 10
343.2031435022
 20
754.397497301
 40
18.0
100
AcDbArc
 50
0.0
 51
180.0
  0
ARC
  5
407
100
AcDbEntity
  8
KONSTRUKTIONSELEMENTE
100
AcDbCircle
 62
7
  6
CONTINUOUS
 10
405.3931849075
 20
216.7074558957
 40
9.55
100
AcDbArc
 50
328.6297070454
 51
45.0
  0
ARC
  5
408
100
AcDbEntity
  8
KONSTRUKTIONSELEMENTE
100
AcDbCircle
 62
7
  6
CONTINUOUS
 10
405.3931849075
 20
216.7074558957
 40
9.55
100
AcDbArc
 50
225.0
 51
301.3702929546
  0
ARC
  5
409
100
AcDbEntity
  8
KONSTRUKTIONSELEMENTE
100
AcDbCircle
 62
7
  6
CONTINUOUS
 10
396.9786142114
 20
225.1220265918
 40
9.55
100
AcDbArc
 50
156.5165763377
 51
225.0
  0
ARC
  5
40A
100
AcDbEntity
  8
KONSTRUKTIONSELEMENTE
100
AcDbCircle
 62
7
  6
CONTINUOUS
 10
396.9786142114
 20
225.1220265918
 40
9.55
100
AcDbArc
 50
45.0
 51
113.4834236623
  0
ARC
  5
40B
100
AcDbEntity
  8
KONSTRUKTIONSELEMENTE
100
AcDbCircle
 62
7
  6
CONTINUOUS
 10
405.3931849075
 20
216.7074558957
 40
4.55
100
AcDbArc
 50
344.6522021471
 51
45.0
  0
ARC
  5
40C
100
AcDbEntity
  8
KONSTRUKTIONSELEMENTE
100
AcDbCircle
 62
7
  6
CONTINUOUS
 10
405.3931849075
 20
216.7074558957
 40
4.55
100
AcDbArc
 50
225.0
 51
285.3477978529
  0
ARC
  5
40D
100
AcDbEntity
  8
KONSTRUKTIONSELEMENTE
100
AcDbCircle
 62
7
  6
CONTINUOUS
 10
396.9786142114
 20
225.1220265918
 40
4.55
100
AcDbArc
 50
185.3186932883
 51
225.0
  0
ARC
  5
40E
100
AcDbEntity
  8
KONSTRUKTIONSELEMENTE
100
AcDbCircle
 62
7
  6
CONTINUOUS
 10
396.9786142114
 20
225.1220265918
 40
4.55
100
AcDbArc
 50
45.0
 51
84.6813067117
  0
ARC
  5
40F
100
AcDbEntity
  8
KONSTRUKTIONSELEMENTE
100
AcDbCircle
 62
7
  6
CONTINUOUS
 10
363.7092401566
 20
258.3914006466
 40
3.5
100
AcDbArc
 50
45.0
 51
225.0
  0
ARC
  5
410
100
AcDbEntity
  8
KONSTRUKTIONSELEMENTE
100
AcDbCircle
 62
7
  6
CONTINUOUS
 10
396.9432588723
 20
225.1573819309
 40
3.5
100
AcDbArc
 50
225.0
 51
45.0
  0
ARC
  5
411
100
AcDbEntity
  8
KONSTRUKTIONSELEMENTE
100
AcDbCircle
 62
7
  6
CONTINUOUS
 10
407.0195305042
 20
215.081110299
 40
2.25
100
AcDbArc
 50
45.0
 51
225.0
  0
ARC
  5
412
100
AcDbEntity
  8
KONSTRUKTIONSELEMENTE
100
AcDbCircle
 62
7
  6
CONTINUOUS
 10
466.5579214802
 20
155.542719323
 40
9.55
100
AcDbArc
 50
330.1951355235
 51
45.0
  0
ARC
  5
413
100
AcDbEntity
  8
KONSTRUKTIONSELEMENTE
100
AcDbCircle
 62
7
  6
CONTINUOUS
 10
466.5579214802
 20
155.542719323
 40
9.55
100
AcDbArc
 50
225.0
 51
299.8048644765
  0
ARC
  5
414
100
AcDbEntity
  8
KONSTRUKTIONSELEMENTE
100
AcDbCircle
 62
7
  6
CONTINUOUS
 10
458.143350784
 20
163.9572900192
 40
9.55
100
AcDbArc
 50
148.6297070454
 51
225.0
  0
ARC
  5
415
100
AcDbEntity
  8
KONSTRUKTIONSELEMENTE
100
AcDbCircle
 62
7
  6
CONTINUOUS
 10
458.143350784
 20
163.9572900192
 40
9.55
100
AcDbArc
 50
45.0
 51
121.3702929546
  0
ARC
  5
416
100
AcDbEntity
  8
KONSTRUKTIONSELEMENTE
100
AcDbCircle
 62
7
  6
CONTINUOUS
 10
437.2483454
 20
184.8522954032
 40
8.0
100
AcDbArc
 50
331.3642958278
 51
45.0
  0
ARC
  5
417
100
AcDbEntity
  8
KONSTRUKTIONSELEMENTE
100
AcDbCircle
 62
7
  6
CONTINUOUS
 10
437.2483454
 20
184.8522954032
 40
8.0
100
AcDbArc
 50
225.0
 51
298.6357041722
  0
ARC
  5
418
100
AcDbEntity
  8
KONSTRUKTIONSELEMENTE
100
AcDbCircle
 62
7
  6
CONTINUOUS
 10
426.6417436822
 20
195.458897121
 40
8.0
100
AcDbArc
 50
151.3642958278
 51
225.0
  0
ARC
  5
419
100
AcDbEntity
  8
KONSTRUKTIONSELEMENTE
100
AcDbCircle
 62
7
  6
CONTINUOUS
 10
426.6417436822
 20
195.458897121
 40
8.0
100
AcDbArc
 50
45.0
 51
118.6357041722
  0
ARC
  5
41A
100
AcDbEntity
  8
KONSTRUKTIONSELEMENTE
100
AcDbCircle
 62
7
  6
CONTINUOUS
 10
466.5579214802
 20
155.542719323
 40
4.55
100
AcDbArc
 50
348.3583327703
 51
45.0
  0
ARC
  5
41B
100
AcDbEntity
  8
KONSTRUKTIONSELEMENTE
100
AcDbCircle
 62
7
  6
CONTINUOUS
 10
466.5579214802
 20
155.542719323
 40
4.55
100
AcDbArc
 50
225.0
 51
281.6416672297
  0
ARC
  5
41C
100
AcDbEntity
  8
KONSTRUKTIONSELEMENTE
100
AcDbCircle
 62
7
  6
CONTINUOUS
 10
458.143350784
 20
163.9572900192
 40
4.55
100
AcDbArc
 50
164.6522021471
 51
225.0
  0
ARC
  5
41D
100
AcDbEntity
  8
KONSTRUKTIONSELEMENTE
100
AcDbCircle
 62
7
  6
CONTINUOUS
 10
458.143350784
 20
163.9572900192
 40
4.55
100
AcDbArc
 50
45.0
 51
105.3477978529
  0
ARC
  5
41E
100
AcDbEntity
  8
KONSTRUKTIONSELEMENTE
100
AcDbCircle
 62
7
  6
CONTINUOUS
 10
437.2483454
 20
184.8522954032
 40
3.5
100
AcDbArc
 50
355.1538775079
 51
45.0
  0
ARC
  5
41F
100
AcDbEntity
  8
KONSTRUKTIONSELEMENTE
100
AcDbCircle
 62
7
  6
CONTINUOUS
 10
437.2483454
 20
184.8522954032
 40
3.5
100
AcDbArc
 50
225.0
 51
274.8461224921
  0
ARC
  5
420
100
AcDbEntity
  8
KONSTRUKTIONSELEMENTE
100
AcDbCircle
 62
7
  6
CONTINUOUS
 10
426.6417436822
 20
195.458897121
 40
3.5
100
AcDbArc
 50
175.1538775079
 51
225.0
  0
ARC
  5
421
100
AcDbEntity
  8
KONSTRUKTIONSELEMENTE
100
AcDbCircle
 62
7
  6
CONTINUOUS
 10
426.6417436822
 20
195.458897121
 40
3.5
100
AcDbArc
 50
45.0
 51
94.8461224921
  0
ARC
  5
422
100
AcDbEntity
  8
KONSTRUKTIONSELEMENTE
100
AcDbCircle
 62
7
  6
CONTINUOUS
 10
438.1322288765
 20
183.9684119267
 40
2.25
100
AcDbArc
 50
45.0
 51
225.0
  0
ARC
  5
423
100
AcDbEntity
  8
KONSTRUKTIONSELEMENTE
100
AcDbCircle
 62
7
  6
CONTINUOUS
 10
456.8705585779
 20
165.2300822253
 40
2.25
100
AcDbArc
 50
225.0
 51
45.0
  0
ARC
  5
424
100
AcDbEntity
  8
KONSTRUKTIONSELEMENTE
100
AcDbCircle
 62
7
  6
CONTINUOUS
 10
425.7578602057
 20
196.3427805975
 40
2.25
100
AcDbArc
 50
225.0
 51
45.0
  0
ARC
  5
425
100
AcDbEntity
  8
0
100
AcDbCircle
 62
7
  6
CONTINUOUS
 10
437.8922513133
 20
216.5440663673
 40
98.6761507301
100
AcDbArc
 50
173.3930585924
 51
177.7390220392
  0
SPLINE
  5
426
100
AcDbEntity
  8
KONSTRUKTIONSELEMENTE
100
AcDbSpline
 62
7
  6
CONTINUOUS
 70
0
 71
3
 72
11
 73
7
 74
0
 42
0.0000001
 43
0.0000001
 44
0.0000000001
 40
0.0
 40
0.0
 40
0.0
 40
0.0
 40
0.2390759488
 40
0.4845199689
 40
0.7382329877
 40
1.0
 40
1.0
 40
1.0
 40
1.0
 10
754.2670401815
 20
182.3095196963
 30
0.0
 10
754.5032678509
 20
182.7716946441
 30
0.0
 10
755.1150755056
 20
183.6448892566
 30
0.0
 10
756.3367287518
 20
184.7026928962
 30
0.0
 10
757.7962195958
 20
185.4997109177
 30
0.0
 10
758.8690780957
 20
185.8426302196
 30
0.0
 10
759.4233160727
 20
185.9683140556
 30
0.0
  0
SPLINE
  5
427
100
AcDbEntity
  8
KONSTRUKTIONSELEMENTE
100
AcDbSpline
 62
7
  6
CONTINUOUS
 70
0
 71
3
 72
11
 73
7
 74
0
 42
0.0000001
 43
0.0000001
 44
0.0000000001
 40
0.0
 40
0.0
 40
0.0
 40
0.0
 40
0.2617931805
 40
0.5155111137
 40
0.7609431338
 40
1.0
 40
1.0
 40
1.0
 40
1.0
 10
763.929599172
 20
185.9687452679
 30
0.0
 10
764.4841455202
 20
185.8430838695
 30
0.0
 10
765.5575907324
 20
185.5002220014
 30
0.0
 10
767.0178289095
 20
184.7029818537
 30
0.0
 10
768.2399112094
 20
183.6447293557
 30
0.0
 10
768.8519680315
 20
182.7712322069
 30
0.0
 10
769.088210129
 20
182.3088661013
 30
0.0
  0
SPLINE
  5
428
100
AcDbEntity
  8
KONSTRUKTIONSELEMENTE
100
AcDbSpline
 62
7
  6
CONTINUOUS
 70
0
 71
3
 72
10
 73
6
 74
0
 42
0.0000001
 43
0.0000001
 44
0.0000000001
 40
0.0
 40
0.0
 40
0.0
 40
0.0
 40
0.3116645009
 40
0.6060899939
 40
1.0
 40
1.0
 40
1.0
 40
1.0
 10
758.1774283932
 20
179.9025479349
 30
0.0
 10
758.1774283932
 20
180.0997027814
 30
0.0
 10
758.3649569498
 20
180.471028976
 30
0.0
 10
758.8222762194
 20
180.9049020658
 30
0.0
 10
759.2006775316
 20
181.1323120992
 30
0.0
 10
759.4254365049
 20
181.2399002302
 30
0.0
  0
SPLINE
  5
429
100
AcDbEntity
  8
KONSTRUKTIONSELEMENTE
100
AcDbSpline
 62
7
  6
CONTINUOUS
 70
0
 71
3
 72
10
 73
6
 74
0
 42
0.0000001
 43
0.0000001
 44
0.0000000001
 40
0.0
 40
0.0
 40
0.0
 40
0.0
 40
0.3939255147
 40
0.6883533687
 40
1.0
 40
1.0
 40
1.0
 40
1.0
 10
763.9291776287
 20
181.2400121583
 30
0.0
 10
764.1539855347
 20
181.1324222577
 30
0.0
 10
764.5324480564
 20
180.9049766894
 30
0.0
 10
764.989889574
 20
180.471098946
 30
0.0
 10
765.1774283932
 20
180.0997192388
 30
0.0
 10
765.1774283932
 20
179.9025479349
 30
0.0
  0
SPLINE
  5
42A
100
AcDbEntity
  8
KONSTRUKTIONSELEMENTE
100
AcDbSpline
 62
7
  6
CONTINUOUS
 70
0
 71
3
 72
12
 73
8
 74
0
 42
0.0000001
 43
0.0000001
 44
0.0000000001
 40
0.0
 40
0.0
 40
0.0
 40
0.0
 40
0.119660423
 40
0.239791031
 40
0.4831782475
 40
0.7358868616
 40
1.0
 40
1.0
 40
1.0
 40
1.0
 10
753.6816942941
 20
211.2240634151
 30
0.0
 10
753.6955898217
 20
211.5642172646
 30
0.0
 10
753.7919741574
 20
212.2450658712
 30
0.0
 10
754.2482172325
 20
213.5494799805
 30
0.0
 10
755.2864565826
 20
215.0112704652
 30
0.0
 10
757.0554470092
 20
216.3048342369
 30
0.0
 10
758.4458195814
 20
216.8356536643
 30
0.0
 10
759.1740040573
 20
217.0210296494
 30
0.0
  0
SPLINE
  5
42B
100
AcDbEntity
  8
KONSTRUKTIONSELEMENTE
100
AcDbSpline
 62
7
  6
CONTINUOUS
 70
0
 71
3
 72
12
 73
8
 74
0
 42
0.0000001
 43
0.0000001
 44
0.0000000001
 40
0.0
 40
0.0
 40
0.0
 40
0.0
 40
0.2641163723
 40
0.5168081693
 40
0.7601760549
 40
0.8803250158
 40
1.0
 40
1.0
 40
1.0
 40
1.0
 10
764.1817561957
 20
217.0207824598
 30
0.0
 10
764.9098530147
 20
216.8353432371
 30
0.0
 10
766.3000175063
 20
216.3045079911
 30
0.0
 10
768.0685899181
 20
215.0109608836
 30
0.0
 10
769.1067665303
 20
213.5494181935
 30
0.0
 10
769.5628503904
 20
212.2450551341
 30
0.0
 10
769.6592552078
 20
211.5641930877
 30
0.0
 10
769.6731598523
 20
211.2240337676
 30
0.0
  0
SPLINE
  5
42C
100
AcDbEntity
  8
KONSTRUKTIONSELEMENTE
100
AcDbSpline
 62
7
  6
CONTINUOUS
 70
0
 71
3
 72
10
 73
6
 74
0
 42
0.0000001
 43
0.0000001
 44
0.0000000001
 40
0.0
 40
0.0
 40
0.0
 40
0.0
 40
0.3192646009
 40
0.6086079864
 40
1.0
 40
1.0
 40
1.0
 40
1.0
 10
758.1774283932
 20
211.0152463071
 30
0.0
 10
758.1774283932
 20
211.1869860823
 30
0.0
 10
758.3194441798
 20
211.5078372973
 30
0.0
 10
758.6852501945
 20
211.9011896367
 30
0.0
 10
758.9885380272
 20
212.1142295499
 30
0.0
 10
759.1710743282
 20
212.2191441464
 30
0.0
  0
SPLINE
  5
42D
100
AcDbEntity
  8
KONSTRUKTIONSELEMENTE
100
AcDbSpline
 62
7
  6
CONTINUOUS
 70
0
 71
3
 72
10
 73
6
 74
0
 42
0.0000001
 43
0.0000001
 44
0.0000000001
 40
0.0
 40
0.0
 40
0.0
 40
0.0
 40
0.3914026107
 40
0.6807340322
 40
1.0
 40
1.0
 40
1.0
 40
1.0
 10
764.1838739943
 20
212.2190916753
 30
0.0
 10
764.3664012378
 20
212.1141762657
 30
0.0
 10
764.6696408185
 20
211.9011171943
 30
0.0
 10
765.0354615231
 20
211.5078188337
 30
0.0
 10
765.1774283932
 20
211.1869760928
 30
0.0
 10
765.1774283932
 20
211.0152463071
 30
0.0
  0
SPLINE
  5
42E
100
AcDbEntity
  8
KONSTRUKTIONSELEMENTE
100
AcDbSpline
 62
7
  6
CONTINUOUS
 70
0
 71
3
 72
9
 73
5
 74
0
 42
0.0000001
 43
0.0000001
 44
0.0000000001
 40
0.0
 40
0.0
 40
0.0
 40
0.0
 40
0.4878890232
 40
1.0
 40
1.0
 40
1.0
 40
1.0
 10
780.1585814436
 20
227.0568370657
 30
0.0
 10
778.4612566615
 20
225.8759336905
 30
0.0
 10
774.6785565473
 20
223.8771407239
 30
0.0
 10
770.5775705738
 20
222.6974377743
 30
0.0
 10
768.4455369443
 20
222.2913146887
 30
0.0
  0
SPLINE
  5
42F
100
AcDbEntity
  8
KONSTRUKTIONSELEMENTE
100
AcDbSpline
 62
7
  6
CONTINUOUS
 70
0
 71
3
 72
9
 73
5
 74
0
 42
0.0000001
 43
0.0000001
 44
0.0000000001
 40
0.0
 40
0.0
 40
0.0
 40
0.0
 40
0.5121260224
 40
1.0
 40
1.0
 40
1.0
 40
1.0
 10
754.9307927035
 20
222.2872346716
 30
0.0
 10
752.7948239163
 20
222.6927482324
 30
0.0
 10
748.6861971969
 20
223.8724000741
 30
0.0
 10
744.8965556723
 20
225.8738892521
 30
0.0
 10
743.1963951422
 20
227.0567572688
 30
0.0
  0
SPLINE
  5
430
100
AcDbEntity
  8
KONSTRUKTIONSELEMENTE
100
AcDbSpline
 62
7
  6
CONTINUOUS
 70
0
 71
3
 72
9
 73
5
 74
0
 42
0.0000001
 43
0.0000001
 44
0.0000000001
 40
0.0
 40
0.0
 40
0.0
 40
0.0
 40
0.2348418344
 40
1.0
 40
1.0
 40
1.0
 40
1.0
 10
778.7558395749
 20
235.0347301432
 30
0.0
 10
778.474632858
 20
234.7319760419
 30
0.0
 10
777.2201588211
 20
233.4960197898
 30
0.0
 10
775.7597512318
 20
232.4774570653
 30
0.0
 10
774.5861356065
 20
231.8178102594
 30
0.0
  0
SPLINE
  5
431
100
AcDbEntity
  8
KONSTRUKTIONSELEMENTE
100
AcDbSpline
 62
7
  6
CONTINUOUS
 70
0
 71
3
 72
9
 73
5
 74
0
 42
0.0000001
 43
0.0000001
 44
0.0000000001
 40
0.0
 40
0.0
 40
0.0
 40
0.0
 40
0.2654819976
 40
1.0
 40
1.0
 40
1.0
 40
1.0
 10
748.7685969016
 20
231.8178742773
 30
0.0
 10
748.3614156665
 20
232.0467384603
 30
0.0
 10
746.858143584
 20
232.9603927507
 30
0.0
 10
745.478160632
 20
234.0881631425
 30
0.0
 10
744.5986972051
 20
235.0350719727
 30
0.0
  0
SPLINE
  5
432
100
AcDbEntity
  8
0
100
AcDbSpline
 62
7
  6
CONTINUOUS
 70
0
 71
3
 72
11
 73
7
 74
0
 42
0.0000001
 43
0.0000001
 44
0.0000000001
 40
0.0
 40
0.0
 40
0.0
 40
0.0
 40
0.2192989281
 40
0.4548225453
 40
0.7152180566
 40
1.0
 40
1.0
 40
1.0
 40
1.0
 10
780.6468533271
 20
134.6265007355
 30
0.0
 10
780.6468533271
 20
135.0021540717
 30
0.0
 10
780.4779329207
 20
135.7885965637
 30
0.0
 10
779.7730465251
 20
136.819991667
 30
0.0
 10
778.702767231
 20
137.650118653
 30
0.0
 10
777.8351581156
 20
138.0218544896
 30
0.0
 10
777.368984235
 20
138.1655701754
 30
0.0
  0
SPLINE
  5
433
100
AcDbEntity
  8
0
100
AcDbSpline
 62
7
  6
CONTINUOUS
 70
0
 71
3
 72
15
 73
11
 74
0
 42
0.0000001
 43
0.0000001
 44
0.0000000001
 40
0.0
 40
0.0
 40
0.0
 40
0.0
 40
0.1047415988
 40
0.222328371
 40
0.3560160977
 40
0.5
 40
0.6439839023
 40
0.777671629
 40
0.8952584012
 40
1.0
 40
1.0
 40
1.0
 40
1.0
 10
763.6515220293
 20
133.6749372658
 30
0.0
 10
763.6515220293
 20
133.44505555
 30
0.0
 10
763.8008440901
 20
132.9513219754
 30
0.0
 10
764.3723501166
 20
132.3859161254
 30
0.0
 10
765.175945835
 20
132.0229318398
 30
0.0
 10
766.1047100137
 20
131.8974086488
 30
0.0
 10
767.0334741925
 20
132.0229318398
 30
0.0
 10
767.8370699108
 20
132.3859161254
 30
0.0
 10
768.4085759373
 20
132.9513219754
 30
0.0
 10
768.5578979981
 20
133.44505555
 30
0.0
 10
768.5578979981
 20
133.6749372658
 30
0.0
  0
SPLINE
  5
434
100
AcDbEntity
  8
0
100
AcDbSpline
 62
7
  6
CONTINUOUS
 70
0
 71
3
 72
11
 73
7
 74
0
 42
0.0000001
 43
0.0000001
 44
0.0000000001
 40
0.0
 40
0.0
 40
0.0
 40
0.0
 40
0.2094689415
 40
0.4446609502
 40
0.7120169424
 40
1.0
 40
1.0
 40
1.0
 40
1.0
 10
760.5226331947
 20
136.379747589
 30
0.0
 10
760.5225967773
 20
136.622509336
 30
0.0
 10
760.3646994054
 20
137.143878539
 30
0.0
 10
759.760998104
 20
137.7409319582
 30
0.0
 10
758.9129263962
 20
138.1242803046
 30
0.0
 10
758.2652768594
 20
138.2115321162
 30
0.0
 10
757.9315220293
 20
138.2115321162
 30
0.0
  0
SPLINE
  5
435
100
AcDbEntity
  8
0
100
AcDbSpline
 62
7
  6
CONTINUOUS
 70
0
 71
3
 72
9
 73
5
 74
0
 42
0.0000001
 43
0.0000001
 44
0.0000000001
 40
0.0
 40
0.0
 40
0.0
 40
0.0
 40
0.4402133985
 40
1.0
 40
1.0
 40
1.0
 40
1.0
 10
746.3214803374
 20
133.7716086371
 30
0.0
 10
746.3214803374
 20
133.7414756591
 30
0.0
 10
746.3678874635
 20
133.675857525
 30
0.0
 10
746.4391624729
 20
133.6612999792
 30
0.0
 10
746.4774803374
 20
133.6612999792
 30
0.0
  0
SPLINE
  5
436
100
AcDbEntity
  8
0
100
AcDbSpline
 62
7
  6
CONTINUOUS
 70
0
 71
3
 72
9
 73
5
 74
0
 42
0.0000001
 43
0.0000001
 44
0.0000000001
 40
0.0
 40
0.0
 40
0.0
 40
0.0
 40
0.4402133985
 40
1.0
 40
1.0
 40
1.0
 40
1.0
 10
747.3939803374
 20
133.826762966
 30
0.0
 10
747.3939803374
 20
133.856895944
 30
0.0
 10
747.3475732113
 20
133.9225140781
 30
0.0
 10
747.2762982018
 20
133.9370716239
 30
0.0
 10
747.2379803374
 20
133.9370716239
 30
0.0
  0
SPLINE
  5
437
100
AcDbEntity
  8
0
100
AcDbSpline
 62
7
  6
CONTINUOUS
 70
0
 71
3
 72
9
 73
5
 74
0
 42
0.0000001
 43
0.0000001
 44
0.0000000001
 40
0.0
 40
0.0
 40
0.0
 40
0.0
 40
0.4402133985
 40
1.0
 40
1.0
 40
1.0
 40
1.0
 10
747.3939803374
 20
136.5844794127
 30
0.0
 10
747.3939803374
 20
136.6146123906
 30
0.0
 10
747.3475732113
 20
136.6802305248
 30
0.0
 10
747.2762982018
 20
136.6947880705
 30
0.0
 10
747.2379803374
 20
136.6947880705
 30
0.0
  0
SPLINE
  5
438
100
AcDbEntity
  8
0
100
AcDbSpline
 62
7
  6
CONTINUOUS
 70
0
 71
3
 72
11
 73
7
 74
0
 42
0.0000001
 43
0.0000001
 44
0.0000000001
 40
0.0
 40
0.0
 40
0.0
 40
0.0
 40
0.2094668498
 40
0.4446559298
 40
0.7120302568
 40
1.0
 40
1.0
 40
1.0
 40
1.0
 10
745.2489803374
 20
135.1780440249
 30
0.0
 10
745.2489803374
 20
135.1415009277
 30
0.0
 10
745.2727124393
 20
135.0630082968
 30
0.0
 10
745.3635910894
 20
134.9731221633
 30
0.0
 10
745.4912478266
 20
134.9154069705
 30
0.0
 10
745.5887418088
 20
134.9022723802
 30
0.0
 10
745.6389803374
 20
134.9022723802
 30
0.0
  0
SPLINE
  5
439
100
AcDbEntity
  8
0
100
AcDbSpline
 62
7
  6
CONTINUOUS
 70
0
 71
3
 72
11
 73
7
 74
0
 42
0.0000001
 43
0.0000001
 44
0.0000000001
 40
0.0
 40
0.0
 40
0.0
 40
0.0
 40
0.2094668498
 40
0.4446559298
 40
0.7120302568
 40
1.0
 40
1.0
 40
1.0
 40
1.0
 10
745.2489803374
 20
132.4203275782
 30
0.0
 10
745.2489803374
 20
132.3837844811
 30
0.0
 10
745.2727124393
 20
132.3052918502
 30
0.0
 10
745.3635910894
 20
132.2154057167
 30
0.0
 10
745.4912478266
 20
132.1576905238
 30
0.0
 10
745.5887418088
 20
132.1445559336
 30
0.0
 10
745.6389803374
 20
132.1445559336
 30
0.0
  0
SPLINE
  5
43A
100
AcDbEntity
  8
0
100
AcDbSpline
 62
7
  6
CONTINUOUS
 70
0
 71
3
 72
9
 73
5
 74
0
 42
0.0000001
 43
0.0000001
 44
0.0000000001
 40
0.0
 40
0.0
 40
0.0
 40
0.0
 40
0.2432035461
 40
1.0
 40
1.0
 40
1.0
 40
1.0
 10
750.5139803374
 20
137.6599888268
 30
0.0
 10
750.5139803374
 20
137.6816307284
 30
0.0
 10
750.5065806052
 20
137.7706206293
 30
0.0
 10
750.4683394756
 20
137.8557484458
 30
0.0
 10
750.4289667725
 20
137.9103847298
 30
0.0
  0
SPLINE
  5
43B
100
AcDbEntity
  8
0
100
AcDbSpline
 62
7
  6
CONTINUOUS
 70
0
 71
3
 72
9
 73
5
 74
0
 42
0.0000001
 43
0.0000001
 44
0.0000000001
 40
0.0
 40
0.0
 40
0.0
 40
0.0
 40
0.2250156934
 40
1.0
 40
1.0
 40
1.0
 40
1.0
 10
750.4289667725
 20
137.9103847298
 30
0.0
 10
750.3950422151
 20
137.9574607902
 30
0.0
 10
750.2088407587
 20
138.1410214883
 30
0.0
 10
749.9338301111
 20
138.2115321162
 30
0.0
 10
749.7339803374
 20
138.2115321162
 30
0.0
  0
SPLINE
  5
43C
100
AcDbEntity
  8
RUNDUNGEN
100
AcDbSpline
 62
7
  6
CONTINUOUS
 70
0
 71
3
 72
10
 73
6
 74
0
 42
0.0000001
 43
0.0000001
 44
0.0000000001
 40
0.0
 40
0.0
 40
0.0
 40
0.0
 40
0.2265435863
 40
0.4650408478
 40
1.0
 40
1.0
 40
1.0
 40
1.0
 10
719.2877292932
 20
140.4202517399
 30
0.0
 10
719.287799098
 20
140.5310184286
 30
0.0
 10
719.3281685958
 20
140.7600676365
 30
0.0
 10
719.565992859
 20
141.1946806535
 30
0.0
 10
719.8848339882
 20
141.4329187539
 30
0.0
 10
720.1192396477
 20
141.5489780354
 30
0.0
  0
SPLINE
  5
43D
100
AcDbEntity
  8
RUNDUNGEN
100
AcDbSpline
 62
7
  6
CONTINUOUS
 70
0
 71
3
 72
9
 73
5
 74
0
 42
0.0000001
 43
0.0000001
 44
0.0000000001
 40
0.0
 40
0.0
 40
0.0
 40
0.0
 40
0.4805181646
 40
1.0
 40
1.0
 40
1.0
 40
1.0
 10
719.2877276129
 20
136.8846629901
 30
0.0
 10
719.2876476418
 20
136.74311056
 30
0.0
 10
719.3549136844
 20
136.4457495267
 30
0.0
 10
719.5326900975
 20
136.2018070835
 30
0.0
 10
719.6403672123
 20
136.0930690111
 30
0.0
  0
SPLINE
  5
43E
100
AcDbEntity
  8
RUNDUNGEN
100
AcDbSpline
 62
7
  6
CONTINUOUS
 70
0
 71
3
 72
11
 73
7
 74
0
 42
0.0000001
 43
0.0000001
 44
0.0000000001
 40
0.0
 40
0.0
 40
0.0
 40
0.0
 40
0.2256920307
 40
0.4632775486
 40
0.7205987639
 40
1.0
 40
1.0
 40
1.0
 40
1.0
 10
705.7358490507
 20
155.0070553263
 30
0.0
 10
705.7357827647
 20
155.3481070435
 30
0.0
 10
705.859117019
 20
156.0532214789
 30
0.0
 10
706.3895957079
 20
157.0226336872
 30
0.0
 10
707.2210211805
 20
157.8636656068
 30
0.0
 10
707.9160125968
 20
158.2958529077
 30
0.0
 10
708.2943875075
 20
158.4831944604
 30
0.0
  0
SPLINE
  5
43F
100
AcDbEntity
  8
RUNDUNGEN
100
AcDbSpline
 62
7
  6
CONTINUOUS
 70
0
 71
3
 72
9
 73
5
 74
0
 42
0.0000001
 43
0.0000001
 44
0.0000000001
 40
0.0
 40
0.0
 40
0.0
 40
0.0
 40
0.4805190228
 40
1.0
 40
1.0
 40
1.0
 40
1.0
 10
705.7358490507
 20
151.4715214204
 30
0.0
 10
705.7359336125
 20
151.0364384913
 30
0.0
 10
705.9435491458
 20
150.1227022802
 30
0.0
 10
706.4899730505
 20
149.3730358489
 30
0.0
 10
706.8209338598
 20
149.0388140364
 30
0.0
  0
SPLINE
  5
440
100
AcDbEntity
  8
RUNDUNGEN
100
AcDbSpline
 62
7
  6
CONTINUOUS
 70
0
 71
3
 72
11
 73
7
 74
0
 42
0.0000001
 43
0.0000001
 44
0.0000000001
 40
0.0
 40
0.0
 40
0.0
 40
0.0
 40
0.2377805525
 40
0.4809056656
 40
0.7339193662
 40
1.0
 40
1.0
 40
1.0
 40
1.0
 10
781.9629898224
 20
109.6682510386
 30
0.0
 10
781.9629898474
 20
110.3895557261
 30
0.0
 10
782.1230028594
 20
111.8530362986
 30
0.0
 10
782.8324958173
 20
113.9793441238
 30
0.0
 10
783.9897574458
 20
115.9968256224
 30
0.0
 10
785.0120106546
 20
117.2063119463
 30
0.0
 10
785.5799489366
 20
117.7798462038
 30
0.0
  0
SPLINE
  5
441
100
AcDbEntity
  8
RUNDUNGEN
100
AcDbSpline
 62
7
  6
CONTINUOUS
 70
0
 71
3
 72
9
 73
5
 74
0
 42
0.0000001
 43
0.0000001
 44
0.0000000001
 40
0.0
 40
0.0
 40
0.0
 40
0.0
 40
0.4822746168
 40
1.0
 40
1.0
 40
1.0
 40
1.0
 10
782.1200812303
 20
111.4347919351
 30
0.0
 10
782.3262790133
 20
110.2780826535
 30
0.0
 10
783.1800784899
 20
107.9431794017
 30
0.0
 10
784.6924501826
 20
105.9884320064
 30
0.0
 10
785.5799489366
 20
105.0921886028
 30
0.0
  0
SPLINE
  5
442
100
AcDbEntity
  8
RUNDUNGEN
100
AcDbSpline
 62
7
  6
CONTINUOUS
 70
0
 71
3
 72
9
 73
5
 74
0
 42
0.0000001
 43
0.0000001
 44
0.0000000001
 40
0.0
 40
0.0
 40
0.0
 40
0.0
 40
0.4805364501
 40
1.0
 40
1.0
 40
1.0
 40
1.0
 10
717.6774283932
 20
83.458986395
 30
0.0
 10
717.6774283932
 20
83.8942063091
 30
0.0
 10
717.884897768
 20
84.8082591432
 30
0.0
 10
718.4314742347
 20
85.5581614261
 30
0.0
 10
718.7625161275
 20
85.8924651211
 30
0.0
  0
SPLINE
  5
443
100
AcDbEntity
  8
BEZUGSACHSEN
100
AcDbSpline
 62
7
  6
CONTINUOUS
 70
0
 71
3
 72
9
 73
5
 74
0
 42
0.0000001
 43
0.0000001
 44
0.0000000001
 40
0.0
 40
0.0
 40
0.0
 40
0.0
 40
0.4744816413
 40
1.0
 40
1.0
 40
1.0
 40
1.0
 10
756.7802537325
 20
150.2039541581
 30
0.0
 10
757.0520845953
 20
149.8280399527
 30
0.0
 10
757.7782541663
 20
149.1434283553
 30
0.0
 10
758.6622763778
 20
148.6989335674
 30
0.0
 10
759.144653502
 20
148.5220109917
 30
0.0
  0
SPLINE
  5
444
100
AcDbEntity
  8
BEZUGSACHSEN
100
AcDbSpline
 62
7
  6
CONTINUOUS
 70
0
 71
3
 72
9
 73
5
 74
0
 42
0.0000001
 43
0.0000001
 44
0.0000000001
 40
0.0
 40
0.0
 40
0.0
 40
0.0
 40
0.5255183587
 40
1.0
 40
1.0
 40
1.0
 40
1.0
 10
764.2102032844
 20
148.5220109917
 30
0.0
 10
764.6925804087
 20
148.6989335674
 30
0.0
 10
765.5766026201
 20
149.1434283553
 30
0.0
 10
766.3027721912
 20
149.8280399527
 30
0.0
 10
766.574603054
 20
150.2039541581
 30
0.0
  0
SPLINE
  5
445
100
AcDbEntity
  8
BEZUGSACHSEN
100
AcDbSpline
 62
7
  6
CONTINUOUS
 70
0
 71
3
 72
11
 73
7
 74
0
 42
0.0000001
 43
0.0000001
 44
0.0000000001
 40
0.0
 40
0.0
 40
0.0
 40
0.0
 40
0.2211899434
 40
0.4572145773
 40
0.7166495597
 40
1.0
 40
1.0
 40
1.0
 40
1.0
 10
767.1774283932
 20
148.438644219
 30
0.0
 10
767.1774283932
 20
148.7967792365
 30
0.0
 10
767.0262513993
 20
149.5435570676
 30
0.0
 10
766.3891591799
 20
150.5385069179
 30
0.0
 10
765.4119287761
 20
151.3596422202
 30
0.0
 10
764.6123711193
 20
151.7455409452
 30
0.0
 10
764.1809046435
 20
151.9014786505
 30
0.0
  0
SPLINE
  5
446
100
AcDbEntity
  8
BEZUGSACHSEN
100
AcDbSpline
 62
7
  6
CONTINUOUS
 70
0
 71
3
 72
11
 73
7
 74
0
 42
0.0000001
 43
0.0000001
 44
0.0000000001
 40
0.0
 40
0.0
 40
0.0
 40
0.0
 40
0.2833504403
 40
0.5427854227
 40
0.7788100566
 40
1.0
 40
1.0
 40
1.0
 40
1.0
 10
759.1739521429
 20
151.9014786505
 30
0.0
 10
758.7424856672
 20
151.7455409452
 30
0.0
 10
757.9429280103
 20
151.3596422202
 30
0.0
 10
756.9656976066
 20
150.5385069179
 30
0.0
 10
756.3286053872
 20
149.5435570676
 30
0.0
 10
756.1774283932
 20
148.7967792365
 30
0.0
 10
756.1774283932
 20
148.438644219
 30
0.0
  0
SPLINE
  5
447
100
AcDbEntity
  8
RUNDUNGEN
100
AcDbSpline
 62
7
  6
CONTINUOUS
 70
0
 71
3
 72
9
 73
5
 74
0
 42
0.0000001
 43
0.0000001
 44
0.0000000001
 40
0.0
 40
0.0
 40
0.0
 40
0.0
 40
0.5194633855
 40
1.0
 40
1.0
 40
1.0
 40
1.0
 10
804.592340659
 20
85.8924651211
 30
0.0
 10
804.9233824468
 20
85.5581615321
 30
0.0
 10
805.4699589393
 20
84.8082592972
 30
0.0
 10
805.6774283932
 20
83.8942064578
 30
0.0
 10
805.6774283932
 20
83.458986395
 30
0.0
  0
SPLINE
  5
448
100
AcDbEntity
  8
RUNDUNGEN
100
AcDbSpline
 62
7
  6
CONTINUOUS
 70
0
 71
3
 72
10
 73
6
 74
0
 42
0.0000001
 43
0.0000001
 44
0.0000000001
 40
0.0
 40
0.0
 40
0.0
 40
0.0
 40
0.5349738236
 40
0.7734707683
 40
1.0
 40
1.0
 40
1.0
 40
1.0
 10
818.3370774562
 20
156.8608753097
 30
0.0
 10
818.5775041626
 20
156.7418348786
 30
0.0
 10
818.9045336319
 20
156.4974766522
 30
0.0
 10
819.1484447787
 20
156.0517033622
 30
0.0
 10
819.1898423851
 20
155.8167836489
 30
0.0
 10
819.189910112
 20
155.7031820704
 30
0.0
  0
SPLINE
  5
449
100
AcDbEntity
  8
RUNDUNGEN
100
AcDbSpline
 62
7
  6
CONTINUOUS
 70
0
 71
3
 72
10
 73
6
 74
0
 42
0.0000001
 43
0.0000001
 44
0.0000000001
 40
0.0
 40
0.0
 40
0.0
 40
0.0
 40
0.480919237
 40
0.7459271749
 40
1.0
 40
1.0
 40
1.0
 40
1.0
 10
808.6707433229
 20
159.9204491708
 30
0.0
 10
809.002846885
 20
160.2558249959
 30
0.0
 10
809.751619139
 20
160.5437158498
 30
0.0
 10
810.7341496842
 20
160.5264125928
 30
0.0
 10
811.2327380532
 20
160.3783864808
 30
0.0
 10
811.4562002841
 20
160.2677455262
 30
0.0
  0
SPLINE
  5
44A
100
AcDbEntity
  8
0
100
AcDbSpline
 62
7
  6
CONTINUOUS
 70
0
 71
3
 72
9
 73
5
 74
0
 42
0.0000001
 43
0.0000001
 44
0.0000000001
 40
0.0
 40
0.0
 40
0.0
 40
0.0
 40
0.2469303797
 40
1.0
 40
1.0
 40
1.0
 40
1.0
 10
769.0839268517
 20
158.3933320695
 30
0.0
 10
768.6886796117
 20
158.5047477628
 30
0.0
 10
767.0772967373
 20
158.9171827369
 30
0.0
 10
765.4272097099
 20
159.1763540806
 30
0.0
 10
764.1797932967
 20
159.2876426491
 30
0.0
  0
SPLINE
  5
44B
100
AcDbEntity
  8
0
100
AcDbSpline
 62
7
  6
CONTINUOUS
 70
0
 71
3
 72
9
 73
5
 74
0
 42
0.0000001
 43
0.0000001
 44
0.0000000001
 40
0.0
 40
0.0
 40
0.0
 40
0.0
 40
0.2528805792
 40
1.0
 40
1.0
 40
1.0
 40
1.0
 10
759.1750634898
 20
159.2876426491
 30
0.0
 10
758.7561870045
 20
159.2502724783
 30
0.0
 10
757.1033719122
 20
159.0652178573
 30
0.0
 10
755.4667849375
 20
158.7304299684
 30
0.0
 10
754.2709299348
 20
158.3933320695
 30
0.0
  0
SPLINE
  5
44C
100
AcDbEntity
  8
RUNDUNGEN
100
AcDbSpline
 62
7
  6
CONTINUOUS
 70
0
 71
3
 72
9
 73
5
 74
0
 42
0.0000001
 43
0.0000001
 44
0.0000000001
 40
0.0
 40
0.0
 40
0.0
 40
0.0
 40
0.2416515958
 40
1.0
 40
1.0
 40
1.0
 40
1.0
 10
709.932691596
 20
159.2943540358
 30
0.0
 10
711.0161427326
 20
159.830793986
 30
0.0
 10
715.6992758144
 20
161.6329713852
 30
0.0
 10
720.9442466898
 20
161.8753698686
 30
0.0
 10
724.6787686328
 20
161.2061488961
 30
0.0
  0
SPLINE
  5
44D
100
AcDbEntity
  8
0
100
AcDbSpline
 62
7
  6
CONTINUOUS
 70
0
 71
3
 72
11
 73
7
 74
0
 42
0.0000001
 43
0.0000001
 44
0.0000000001
 40
0.0
 40
0.0
 40
0.0
 40
0.0
 40
0.2880052506
 40
0.5553344723
 40
0.7905070702
 40
1.0
 40
1.0
 40
1.0
 40
1.0
 10
743.4939803374
 20
138.2115321162
 30
0.0
 10
743.3934915951
 20
138.2115321162
 30
0.0
 10
743.1984969004
 20
138.1852829719
 30
0.0
 10
742.943237815
 20
138.0697844321
 30
0.0
 10
742.7614338805
 20
137.8900839441
 30
0.0
 10
742.7139803374
 20
137.7330836089
 30
0.0
 10
742.7139803374
 20
137.6599888268
 30
0.0
  0
SPLINE
  5
44E
100
AcDbEntity
  8
0
100
AcDbSpline
 62
7
  6
CONTINUOUS
 70
0
 71
3
 72
11
 73
7
 74
0
 42
0.0000001
 43
0.0000001
 44
0.0000000001
 40
0.0
 40
0.0
 40
0.0
 40
0.0
 40
0.2879697432
 40
0.5553440702
 40
0.7905331502
 40
1.0
 40
1.0
 40
1.0
 40
1.0
 10
747.5889803374
 20
134.9022723802
 30
0.0
 10
747.6392188659
 20
134.9022723802
 30
0.0
 10
747.7367128482
 20
134.9154069705
 30
0.0
 10
747.8643695854
 20
134.9731221633
 30
0.0
 10
747.9552482355
 20
135.0630082968
 30
0.0
 10
747.9789803374
 20
135.1415009277
 30
0.0
 10
747.9789803374
 20
135.1780440249
 30
0.0
  0
SPLINE
  5
44F
100
AcDbEntity
  8
0
100
AcDbSpline
 62
7
  6
CONTINUOUS
 70
0
 71
3
 72
11
 73
7
 74
0
 42
0.0000001
 43
0.0000001
 44
0.0000000001
 40
0.0
 40
0.0
 40
0.0
 40
0.0
 40
0.2879697432
 40
0.5553440702
 40
0.7905331502
 40
1.0
 40
1.0
 40
1.0
 40
1.0
 10
747.5889803374
 20
132.1445559336
 30
0.0
 10
747.6392188659
 20
132.1445559336
 30
0.0
 10
747.7367128482
 20
132.1576905238
 30
0.0
 10
747.8643695854
 20
132.2154057167
 30
0.0
 10
747.9552482355
 20
132.3052918502
 30
0.0
 10
747.9789803374
 20
132.3837844811
 30
0.0
 10
747.9789803374
 20
132.4203275782
 30
0.0
  0
SPLINE
  5
450
100
AcDbEntity
  8
0
100
AcDbSpline
 62
7
  6
CONTINUOUS
 70
0
 71
3
 72
9
 73
5
 74
0
 42
0.0000001
 43
0.0000001
 44
0.0000000001
 40
0.0
 40
0.0
 40
0.0
 40
0.0
 40
0.5597866015
 40
1.0
 40
1.0
 40
1.0
 40
1.0
 10
745.9899803374
 20
136.6947880705
 30
0.0
 10
745.9516624729
 20
136.6947880705
 30
0.0
 10
745.8803874635
 20
136.6802305248
 30
0.0
 10
745.8339803374
 20
136.6146123906
 30
0.0
 10
745.8339803374
 20
136.5844794127
 30
0.0
  0
SPLINE
  5
451
100
AcDbEntity
  8
0
100
AcDbSpline
 62
7
  6
CONTINUOUS
 70
0
 71
3
 72
9
 73
5
 74
0
 42
0.0000001
 43
0.0000001
 44
0.0000000001
 40
0.0
 40
0.0
 40
0.0
 40
0.0
 40
0.5597866015
 40
1.0
 40
1.0
 40
1.0
 40
1.0
 10
745.9899803374
 20
133.9370716239
 30
0.0
 10
745.9516624729
 20
133.9370716239
 30
0.0
 10
745.8803874635
 20
133.9225140781
 30
0.0
 10
745.8339803374
 20
133.856895944
 30
0.0
 10
745.8339803374
 20
133.826762966
 30
0.0
  0
SPLINE
  5
452
100
AcDbEntity
  8
0
100
AcDbSpline
 62
7
  6
CONTINUOUS
 70
0
 71
3
 72
9
 73
5
 74
0
 42
0.0000001
 43
0.0000001
 44
0.0000000001
 40
0.0
 40
0.0
 40
0.0
 40
0.0
 40
0.5597866015
 40
1.0
 40
1.0
 40
1.0
 40
1.0
 10
746.7504803374
 20
133.6612999792
 30
0.0
 10
746.7887982018
 20
133.6612999792
 30
0.0
 10
746.8600732113
 20
133.675857525
 30
0.0
 10
746.9064803374
 20
133.7414756591
 30
0.0
 10
746.9064803374
 20
133.7716086371
 30
0.0
  0
SPLINE
  5
453
100
AcDbEntity
  8
0
100
AcDbSpline
 62
7
  6
CONTINUOUS
 70
0
 71
3
 72
11
 73
7
 74
0
 42
0.0000001
 43
0.0000001
 44
0.0000000001
 40
0.0
 40
0.0
 40
0.0
 40
0.0
 40
0.2880001164
 40
0.5553425139
 40
0.7905343079
 40
1.0
 40
1.0
 40
1.0
 40
1.0
 10
757.9315220293
 20
135.383647033
 30
0.0
 10
758.1129287673
 20
135.383647033
 30
0.0
 10
758.4649391498
 20
135.4310645589
 30
0.0
 10
758.9258205942
 20
135.6394871134
 30
0.0
 10
759.2539583576
 20
135.9639846631
 30
0.0
 10
759.3396144414
 20
136.2473967727
 30
0.0
 10
759.3396144414
 20
136.3793359135
 30
0.0
  0
SPLINE
  5
454
100
AcDbEntity
  8
0
100
AcDbSpline
 62
7
  6
CONTINUOUS
 70
0
 71
3
 72
8
 73
4
 74
0
 42
0.0000001
 43
0.0000001
 44
0.0000000001
 40
0.0
 40
0.0
 40
0.0
 40
0.0
 40
1.0
 40
1.0
 40
1.0
 40
1.0
 10
777.368984235
 20
138.1655701754
 30
0.0
 10
777.2686126507
 20
138.1965135029
 30
0.0
 10
777.1622882495
 20
138.2115321162
 30
0.0
 10
777.057255186
 20
138.2115321162
 30
0.0
  0
SPLINE
  5
455
100
AcDbEntity
  8
0
100
AcDbSpline
 62
7
  6
CONTINUOUS
 70
0
 71
3
 72
11
 73
7
 74
0
 42
0.0000001
 43
0.0000001
 44
0.0000000001
 40
0.0
 40
0.0
 40
0.0
 40
0.0
 40
0.2779817175
 40
0.5346952233
 40
0.772857858
 40
1.0
 40
1.0
 40
1.0
 40
1.0
 10
777.3217214009
 20
132.0175338427
 30
0.0
 10
777.595117792
 20
132.1655781792
 30
0.0
 10
778.0960246079
 20
132.5016976401
 30
0.0
 10
778.6912745928
 20
133.1405763933
 30
0.0
 10
779.0688529293
 20
133.8669664107
 30
0.0
 10
779.1562724886
 20
134.3908403248
 30
0.0
 10
779.1562724886
 20
134.6448855119
 30
0.0
  0
SPLINE
  5
456
100
AcDbEntity
  8
0
100
AcDbSpline
 62
7
  6
CONTINUOUS
 70
0
 71
3
 72
9
 73
5
 74
0
 42
0.0000001
 43
0.0000001
 44
0.0000000001
 40
0.0
 40
0.0
 40
0.0
 40
0.0
 40
0.2591205677
 40
1.0
 40
1.0
 40
1.0
 40
1.0
 10
777.0846026073
 20
131.9607081705
 30
0.0
 10
777.1057792768
 20
131.9607081705
 30
0.0
 10
777.1873589408
 20
131.9653820213
 30
0.0
 10
777.2684779004
 20
131.98870245
 30
0.0
 10
777.3217214009
 20
132.0175338427
 30
0.0
  0
SPLINE
  5
457
100
AcDbEntity
  8
RUNDUNGEN
100
AcDbSpline
 62
7
  6
CONTINUOUS
 70
0
 71
3
 72
11
 73
7
 74
0
 42
0.0000001
 43
0.0000001
 44
0.0000000001
 40
0.0
 40
0.0
 40
0.0
 40
0.0
 40
0.287975155
 40
0.5553539353
 40
0.7905396327
 40
1.0
 40
1.0
 40
1.0
 40
1.0
 10
727.1774283932
 20
67.1190163357
 30
0.0
 10
727.2418379875
 20
67.1190163357
 30
0.0
 10
727.3668325247
 20
67.1358563902
 30
0.0
 10
727.5304958824
 20
67.2098521679
 30
0.0
 10
727.6470047697
 20
67.3250915359
 30
0.0
 10
727.6774283932
 20
67.4257210414
 30
0.0
 10
727.6774283932
 20
67.4725697263
 30
0.0
  0
SPLINE
  5
458
100
AcDbEntity
  8
RUNDUNGEN
100
AcDbSpline
 62
7
  6
CONTINUOUS
 70
0
 71
3
 72
13
 73
9
 74
0
 42
0.0000001
 43
0.0000001
 44
0.0000000001
 40
0.0
 40
0.0
 40
0.0
 40
0.0
 40
0.1034546064
 40
0.2106689685
 40
0.3244963058
 40
0.4464318167
 40
0.7129512659
 40
1.0
 40
1.0
 40
1.0
 40
1.0
 10
717.6774283932
 20
71.3616570228
 30
0.0
 10
717.6774283932
 20
71.0830978471
 30
0.0
 10
717.7582671537
 20
70.5129628304
 30
0.0
 10
718.1120132325
 20
69.7039609154
 30
0.0
 10
718.6794591172
 20
68.9650978765
 30
0.0
 10
719.7166329459
 20
68.0842784914
 30
0.0
 10
721.406401831
 20
67.3202691166
 30
0.0
 10
722.9045284566
 20
67.1190163357
 30
0.0
 10
723.6774283932
 20
67.1190163357
 30
0.0
  0
SPLINE
  5
459
100
AcDbEntity
  8
RUNDUNGEN
100
AcDbSpline
 62
7
  6
CONTINUOUS
 70
0
 71
3
 72
10
 73
6
 74
0
 42
0.0000001
 43
0.0000001
 44
0.0000000001
 40
0.0
 40
0.0
 40
0.0
 40
0.0
 40
0.4808964563
 40
0.7459158441
 40
1.0
 40
1.0
 40
1.0
 40
1.0
 10
710.2910712997
 20
145.5344848461
 30
0.0
 10
710.6148571589
 20
145.2075086795
 30
0.0
 10
711.3448896591
 20
144.9268097437
 30
0.0
 10
712.3028591561
 20
144.9436628606
 30
0.0
 10
712.7890062944
 20
145.0879910833
 30
0.0
 10
713.006891837
 20
145.1958708997
 30
0.0
  0
SPLINE
  5
45A
100
AcDbEntity
  8
RUNDUNGEN
100
AcDbSpline
 62
7
  6
CONTINUOUS
 70
0
 71
3
 72
9
 73
5
 74
0
 42
0.0000001
 43
0.0000001
 44
0.0000000001
 40
0.0
 40
0.0
 40
0.0
 40
0.0
 40
0.5194816466
 40
1.0
 40
1.0
 40
1.0
 40
1.0
 10
818.828228672
 20
151.3557258978
 30
0.0
 10
818.9386761885
 20
151.4672616691
 30
0.0
 10
819.1210246699
 20
151.7174839134
 30
0.0
 10
819.1900034446
 20
152.0225026326
 30
0.0
 10
819.1899084594
 20
152.1676971372
 30
0.0
  0
SPLINE
  5
45B
100
AcDbEntity
  8
RUNDUNGEN
100
AcDbSpline
 62
7
  6
CONTINUOUS
 70
0
 71
3
 72
13
 73
9
 74
0
 42
0.0000001
 43
0.0000001
 44
0.0000000001
 40
0.0
 40
0.0
 40
0.0
 40
0.0
 40
0.2870489714
 40
0.5535683803
 40
0.6755038887
 40
0.7893312167
 40
0.8965454657
 40
1.0
 40
1.0
 40
1.0
 40
1.0
 10
799.6774283932
 20
67.1190163357
 30
0.0
 10
800.4503289683
 20
67.1190163357
 30
0.0
 10
801.9484561617
 20
67.3202693193
 30
0.0
 10
803.6382253071
 20
68.0842793977
 30
0.0
 10
804.6753987815
 20
68.9650989999
 30
0.0
 10
805.2428441234
 20
69.7039620272
 30
0.0
 10
805.5965898095
 20
70.5129635177
 30
0.0
 10
805.6774283932
 20
71.0830980415
 30
0.0
 10
805.6774283932
 20
71.3616570228
 30
0.0
  0
SPLINE
  5
45C
100
AcDbEntity
  8
RUNDUNGEN
100
AcDbSpline
 62
7
  6
CONTINUOUS
 70
0
 71
3
 72
11
 73
7
 74
0
 42
0.0000001
 43
0.0000001
 44
0.0000000001
 40
0.0
 40
0.0
 40
0.0
 40
0.0
 40
0.2094711443
 40
0.4446658249
 40
0.7120384825
 40
1.0
 40
1.0
 40
1.0
 40
1.0
 10
795.6774283932
 20
67.4725697263
 30
0.0
 10
795.6774283932
 20
67.4257186471
 30
0.0
 10
795.7078558311
 20
67.3250849346
 30
0.0
 10
795.824369657
 20
67.2098464007
 30
0.0
 10
795.9880318322
 20
67.1358544462
 30
0.0
 10
796.1130218713
 20
67.1190163357
 30
0.0
 10
796.1774283932
 20
67.1190163357
 30
0.0
  0
SPLINE
  5
45D
100
AcDbEntity
  8
RUNDUNGEN
100
AcDbSpline
 62
7
  6
CONTINUOUS
 70
0
 71
3
 72
9
 73
5
 74
0
 42
0.0000001
 43
0.0000001
 44
0.0000000001
 40
0.0
 40
0.0
 40
0.0
 40
0.0
 40
0.4729729907
 40
1.0
 40
1.0
 40
1.0
 40
1.0
 10
775.4975243172
 20
79.6855435113
 30
0.0
 10
776.1386603281
 20
79.0380902974
 30
0.0
 10
777.8666160551
 20
78.0361177571
 30
0.0
 10
779.806696563
 20
77.7256180535
 30
0.0
 10
780.8220126051
 20
77.7256180535
 30
0.0
  0
SPLINE
  5
45E
100
AcDbEntity
  8
RUNDUNGEN
100
AcDbSpline
 62
7
  6
CONTINUOUS
 70
0
 71
3
 72
9
 73
5
 74
0
 42
0.0000001
 43
0.0000001
 44
0.0000000001
 40
0.0
 40
0.0
 40
0.0
 40
0.0
 40
0.5270273161
 40
1.0
 40
1.0
 40
1.0
 40
1.0
 10
742.5328441814
 20
77.7256180535
 30
0.0
 10
743.5481608158
 20
77.7256180535
 30
0.0
 10
745.4882413848
 20
78.0361179446
 30
0.0
 10
747.2161968734
 20
79.0380907166
 30
0.0
 10
747.8573324693
 20
79.6855435113
 30
0.0
  0
SPLINE
  5
45F
100
AcDbEntity
  8
RUNDUNGEN
100
AcDbSpline
 62
7
  6
CONTINUOUS
 70
0
 71
3
 72
13
 73
9
 74
0
 42
0.0000001
 43
0.0000001
 44
0.0000000001
 40
0.0
 40
0.0
 40
0.0
 40
0.0
 40
0.1034546064
 40
0.2106689685
 40
0.3244963058
 40
0.4464318167
 40
0.7129512659
 40
1.0
 40
1.0
 40
1.0
 40
1.0
 10
727.6774283932
 20
73.4829773663
 30
0.0
 10
727.6774283932
 20
73.7615365421
 30
0.0
 10
727.7582671537
 20
74.3316715588
 30
0.0
 10
728.1120132325
 20
75.1406734737
 30
0.0
 10
728.6794591172
 20
75.8795365126
 30
0.0
 10
729.7166329459
 20
76.7603558977
 30
0.0
 10
731.406401831
 20
77.5243652725
 30
0.0
 10
732.9045284566
 20
77.7256180535
 30
0.0
 10
733.6774283932
 20
77.7256180535
 30
0.0
  0
SPLINE
  5
460
100
AcDbEntity
  8
RUNDUNGEN
100
AcDbSpline
 62
7
  6
CONTINUOUS
 70
0
 71
3
 72
13
 73
9
 74
0
 42
0.0000001
 43
0.0000001
 44
0.0000000001
 40
0.0
 40
0.0
 40
0.0
 40
0.0
 40
0.2870489714
 40
0.5535683803
 40
0.6755038887
 40
0.7893312167
 40
0.8965454657
 40
1.0
 40
1.0
 40
1.0
 40
1.0
 10
789.6774283932
 20
77.7256180535
 30
0.0
 10
790.4503289683
 20
77.7256180535
 30
0.0
 10
791.9484561617
 20
77.5243650699
 30
0.0
 10
793.6382253071
 20
76.7603549915
 30
0.0
 10
794.6753987815
 20
75.8795353892
 30
0.0
 10
795.2428441234
 20
75.1406723619
 30
0.0
 10
795.5965898095
 20
74.3316708714
 30
0.0
 10
795.6774283932
 20
73.7615363476
 30
0.0
 10
795.6774283932
 20
73.4829773663
 30
0.0
  0
SPLINE
  5
461
100
AcDbEntity
  8
RUNDUNGEN
100
AcDbSpline
 62
7
  6
CONTINUOUS
 70
0
 71
3
 72
13
 73
9
 74
0
 42
0.0000001
 43
0.0000001
 44
0.0000000001
 40
0.0
 40
0.0
 40
0.0
 40
0.0
 40
0.2360077347
 40
0.3661261322
 40
0.5000000765
 40
0.633874052
 40
0.7639924192
 40
1.0
 40
1.0
 40
1.0
 40
1.0
 10
755.1242120389
 20
87.0240246635
 30
0.0
 10
755.9133000306
 20
87.8208876497
 30
0.0
 10
757.4809805123
 20
88.728856813
 30
0.0
 10
759.7831637063
 20
89.3298836898
 30
0.0
 10
761.6774296685
 20
89.4901756919
 30
0.0
 10
763.5716954543
 20
89.3298833028
 30
0.0
 10
765.8738778279
 20
88.7288561121
 30
0.0
 10
767.4415572704
 20
87.82088713
 30
0.0
 10
768.2306447475
 20
87.0240246635
 30
0.0
  0
SPLINE
  5
462
100
AcDbEntity
  8
RUNDUNGEN
100
AcDbSpline
 62
7
  6
CONTINUOUS
 70
0
 71
3
 72
9
 73
5
 74
0
 42
0.0000001
 43
0.0000001
 44
0.0000000001
 40
0.0
 40
0.0
 40
0.0
 40
0.0
 40
0.5177253986
 40
1.0
 40
1.0
 40
1.0
 40
1.0
 10
737.7749078499
 20
105.0921886028
 30
0.0
 10
738.662410984
 20
105.9884364297
 30
0.0
 10
740.1747891943
 20
107.9431946205
 30
0.0
 10
741.0285872552
 20
110.2781120436
 30
0.0
 10
741.2347819167
 20
111.4348276984
 30
0.0
  0
SPLINE
  5
463
100
AcDbEntity
  8
RUNDUNGEN
100
AcDbSpline
 62
7
  6
CONTINUOUS
 70
0
 71
3
 72
11
 73
7
 74
0
 42
0.0000001
 43
0.0000001
 44
0.0000000001
 40
0.0
 40
0.0
 40
0.0
 40
0.0
 40
0.2660806569
 40
0.5190943725
 40
0.7622194677
 40
1.0
 40
1.0
 40
1.0
 40
1.0
 10
737.7749078499
 20
117.7798462038
 30
0.0
 10
738.3428462541
 20
117.2063118229
 30
0.0
 10
739.3650996352
 20
115.9968252216
 30
0.0
 10
740.5223613555
 20
113.9793433551
 30
0.0
 10
741.2318541765
 20
111.8530352428
 30
0.0
 10
741.3918669891
 20
110.389554581
 30
0.0
 10
741.3918669641
 20
109.6682498621
 30
0.0
  0
SPLINE
  5
464
100
AcDbEntity
  8
RUNDUNGEN
100
AcDbSpline
 62
7
  6
CONTINUOUS
 70
0
 71
3
 72
10
 73
6
 74
0
 42
0.0000001
 43
0.0000001
 44
0.0000000001
 40
0.0
 40
0.0
 40
0.0
 40
0.0
 40
0.2540843695
 40
0.5191023225
 40
1.0
 40
1.0
 40
1.0
 40
1.0
 10
717.3483976717
 20
147.3454437743
 30
0.0
 10
717.7115405336
 20
147.5252436123
 30
0.0
 10
718.5217839502
 20
147.7657897745
 30
0.0
 10
720.1183994328
 20
147.7938796442
 30
0.0
 10
721.3351207861
 20
147.326048837
 30
0.0
 10
721.8747652338
 20
146.7810871969
 30
0.0
  0
SPLINE
  5
465
100
AcDbEntity
  8
RUNDUNGEN
100
AcDbSpline
 62
7
  6
CONTINUOUS
 70
0
 71
3
 72
9
 73
5
 74
0
 42
0.0000001
 43
0.0000001
 44
0.0000000001
 40
0.0
 40
0.0
 40
0.0
 40
0.0
 40
0.5194813996
 40
1.0
 40
1.0
 40
1.0
 40
1.0
 10
725.2588662083
 20
143.3636422014
 30
0.0
 10
725.4383318953
 20
143.1824082139
 30
0.0
 10
725.7346309177
 20
142.7758267325
 30
0.0
 10
725.846737351
 20
142.2802115861
 30
0.0
 10
725.8465989329
 20
142.0442854267
 30
0.0
  0
SPLINE
  5
466
100
AcDbEntity
  8
RUNDUNGEN
100
AcDbSpline
 62
7
  6
CONTINUOUS
 70
0
 71
3
 72
11
 73
7
 74
0
 42
0.0000001
 43
0.0000001
 44
0.0000000001
 40
0.0
 40
0.0
 40
0.0
 40
0.0
 40
0.2524374527
 40
0.5157480209
 40
0.7702932627
 40
1.0
 40
1.0
 40
1.0
 40
1.0
 10
790.0234892326
 20
148.4862793844
 30
0.0
 10
790.6938718583
 20
148.1543585342
 30
0.0
 10
792.184538691
 20
147.70856681
 30
0.0
 10
794.4933104963
 20
147.6761961291
 30
0.0
 10
796.6629837008
 20
148.2457981442
 30
0.0
 10
797.9009013075
 20
149.0444903932
 30
0.0
 10
798.3798601164
 20
149.5281684504
 30
0.0
  0
SPLINE
  5
467
100
AcDbEntity
  8
0
100
AcDbSpline
 62
7
  6
CONTINUOUS
 70
0
 71
3
 72
9
 73
5
 74
0
 42
0.0000001
 43
0.0000001
 44
0.0000000001
 40
0.0
 40
0.0
 40
0.0
 40
0.0
 40
0.4402133985
 40
1.0
 40
1.0
 40
1.0
 40
1.0
 10
746.9064803374
 20
135.481392834
 30
0.0
 10
746.9064803374
 20
135.511525812
 30
0.0
 10
746.8600732113
 20
135.5771439461
 30
0.0
 10
746.7887982018
 20
135.5917014919
 30
0.0
 10
746.7504803374
 20
135.5917014919
 30
0.0
  0
SPLINE
  5
468
100
AcDbEntity
  8
0
100
AcDbSpline
 62
7
  6
CONTINUOUS
 70
0
 71
3
 72
11
 73
7
 74
0
 42
0.0000001
 43
0.0000001
 44
0.0000000001
 40
0.0
 40
0.0
 40
0.0
 40
0.0
 40
0.2094656921
 40
0.4446574861
 40
0.7119998836
 40
1.0
 40
1.0
 40
1.0
 40
1.0
 10
759.3396144414
 20
136.3793359135
 30
0.0
 10
759.3396144414
 20
136.5112750543
 30
0.0
 10
759.2539583576
 20
136.7946871639
 30
0.0
 10
758.9258205942
 20
137.1191847136
 30
0.0
 10
758.4649391498
 20
137.3276072681
 30
0.0
 10
758.1129287673
 20
137.375024794
 30
0.0
 10
757.9315220293
 20
137.375024794
 30
0.0
  0
SPLINE
  5
469
100
AcDbEntity
  8
0
100
AcDbSpline
 62
7
  6
CONTINUOUS
 70
0
 71
3
 72
9
 73
5
 74
0
 42
0.0000001
 43
0.0000001
 44
0.0000000001
 40
0.0
 40
0.0
 40
0.0
 40
0.0
 40
0.4402133985
 40
1.0
 40
1.0
 40
1.0
 40
1.0
 10
745.8339803374
 20
135.4262385051
 30
0.0
 10
745.8339803374
 20
135.3961055271
 30
0.0
 10
745.8803874635
 20
135.3304873929
 30
0.0
 10
745.9516624729
 20
135.3159298472
 30
0.0
 10
745.9899803374
 20
135.3159298472
 30
0.0
  0
SPLINE
  5
46A
100
AcDbEntity
  8
0
100
AcDbSpline
 62
7
  6
CONTINUOUS
 70
0
 71
3
 72
11
 73
7
 74
0
 42
0.0000001
 43
0.0000001
 44
0.0000000001
 40
0.0
 40
0.0
 40
0.0
 40
0.0
 40
0.2094929298
 40
0.4446655277
 40
0.7119947494
 40
1.0
 40
1.0
 40
1.0
 40
1.0
 10
742.7139803374
 20
131.5930126443
 30
0.0
 10
742.7139803374
 20
131.5199178622
 30
0.0
 10
742.7614338805
 20
131.362917527
 30
0.0
 10
742.943237815
 20
131.183217039
 30
0.0
 10
743.1984969004
 20
131.0677184992
 30
0.0
 10
743.3934915951
 20
131.0414693549
 30
0.0
 10
743.4939803374
 20
131.0414693549
 30
0.0
  0
SPLINE
  5
46B
100
AcDbEntity
  8
0
100
AcDbSpline
 62
7
  6
CONTINUOUS
 70
0
 71
3
 72
11
 73
7
 74
0
 42
0.0000001
 43
0.0000001
 44
0.0000000001
 40
0.0
 40
0.0
 40
0.0
 40
0.0
 40
0.2094668498
 40
0.4446559298
 40
0.7120302568
 40
1.0
 40
1.0
 40
1.0
 40
1.0
 10
747.9789803374
 20
134.0749574462
 30
0.0
 10
747.9789803374
 20
134.1115005434
 30
0.0
 10
747.9552482355
 20
134.1899931742
 30
0.0
 10
747.8643695854
 20
134.2798793078
 30
0.0
 10
747.7367128482
 20
134.3375945006
 30
0.0
 10
747.6392188659
 20
134.3507290909
 30
0.0
 10
747.5889803374
 20
134.3507290909
 30
0.0
  0
SPLINE
  5
46C
100
AcDbEntity
  8
0
100
AcDbSpline
 62
7
  6
CONTINUOUS
 70
0
 71
3
 72
9
 73
5
 74
0
 42
0.0000001
 43
0.0000001
 44
0.0000000001
 40
0.0
 40
0.0
 40
0.0
 40
0.0
 40
0.7407738242
 40
1.0
 40
1.0
 40
1.0
 40
1.0
 10
742.7139803374
 20
132.052632052
 30
0.0
 10
742.7139803374
 20
131.9981386369
 30
0.0
 10
742.7304162912
 20
131.9236485902
 30
0.0
 10
742.7637266275
 20
131.8580261402
 30
0.0
 10
742.773354302
 20
131.841565573
 30
0.0
  0
SPLINE
  5
46D
100
AcDbEntity
  8
0
100
AcDbSpline
 62
7
  6
CONTINUOUS
 70
0
 71
3
 72
9
 73
5
 74
0
 42
0.0000001
 43
0.0000001
 44
0.0000000001
 40
0.0
 40
0.0
 40
0.0
 40
0.0
 40
0.461013727
 40
1.0
 40
1.0
 40
1.0
 40
1.0
 10
742.773354302
 20
131.841565573
 30
0.0
 10
742.837160235
 20
131.7324756941
 30
0.0
 10
743.0690260595
 20
131.5529584215
 30
0.0
 10
743.3462258219
 20
131.5010887627
 30
0.0
 10
743.4939803374
 20
131.5010887627
 30
0.0
  0
SPLINE
  5
46E
100
AcDbEntity
  8
0
100
AcDbSpline
 62
7
  6
CONTINUOUS
 70
0
 71
3
 72
11
 73
7
 74
0
 42
0.0000001
 43
0.0000001
 44
0.0000000001
 40
0.0
 40
0.0
 40
0.0
 40
0.0
 40
0.2880052506
 40
0.5553344723
 40
0.7905070702
 40
1.0
 40
1.0
 40
1.0
 40
1.0
 10
749.7339803374
 20
131.0414693549
 30
0.0
 10
749.8344690797
 20
131.0414693549
 30
0.0
 10
750.0294637744
 20
131.0677184992
 30
0.0
 10
750.2847228597
 20
131.183217039
 30
0.0
 10
750.4665267943
 20
131.362917527
 30
0.0
 10
750.5139803374
 20
131.5199178622
 30
0.0
 10
750.5139803374
 20
131.5930126443
 30
0.0
  0
SPLINE
  5
46F
100
AcDbEntity
  8
RUNDUNGEN
100
AcDbSpline
 62
7
  6
CONTINUOUS
 70
0
 71
3
 72
11
 73
7
 74
0
 42
0.0000001
 43
0.0000001
 44
0.0000000001
 40
0.0
 40
0.0
 40
0.0
 40
0.0
 40
0.2377805525
 40
0.4809056656
 40
0.7339193662
 40
1.0
 40
1.0
 40
1.0
 40
1.0
 10
741.3918669641
 20
109.6682498621
 30
0.0
 10
741.3918669391
 20
108.9469451747
 30
0.0
 10
741.231853927
 20
107.4834646021
 30
0.0
 10
740.5223609692
 20
105.3571567769
 30
0.0
 10
739.3650993406
 20
103.3396752783
 30
0.0
 10
738.3428461319
 20
102.1301889544
 30
0.0
 10
737.7749078499
 20
101.5566546969
 30
0.0
  0
SPLINE
  5
470
100
AcDbEntity
  8
0
100
AcDbSpline
 62
7
  6
CONTINUOUS
 70
0
 71
3
 72
11
 73
7
 74
0
 42
0.0000001
 43
0.0000001
 44
0.0000000001
 40
0.0
 40
0.0
 40
0.0
 40
0.0
 40
0.2879697432
 40
0.5553440702
 40
0.7905331502
 40
1.0
 40
1.0
 40
1.0
 40
1.0
 10
745.6389803374
 20
134.3507290909
 30
0.0
 10
745.5887418088
 20
134.3507290909
 30
0.0
 10
745.4912478266
 20
134.3375945006
 30
0.0
 10
745.3635910894
 20
134.2798793078
 30
0.0
 10
745.2727124393
 20
134.1899931742
 30
0.0
 10
745.2489803374
 20
134.1115005434
 30
0.0
 10
745.2489803374
 20
134.0749574462
 30
0.0
  0
SPLINE
  5
471
100
AcDbEntity
  8
0
100
AcDbSpline
 62
7
  6
CONTINUOUS
 70
0
 71
3
 72
11
 73
7
 74
0
 42
0.0000001
 43
0.0000001
 44
0.0000000001
 40
0.0
 40
0.0
 40
0.0
 40
0.0
 40
0.2879697432
 40
0.5553440702
 40
0.7905331502
 40
1.0
 40
1.0
 40
1.0
 40
1.0
 10
745.6389803374
 20
137.1084455375
 30
0.0
 10
745.5887418088
 20
137.1084455375
 30
0.0
 10
745.4912478266
 20
137.0953109473
 30
0.0
 10
745.3635910894
 20
137.0375957544
 30
0.0
 10
745.2727124393
 20
136.9477096209
 30
0.0
 10
745.2489803374
 20
136.86921699
 30
0.0
 10
745.2489803374
 20
136.8326738928
 30
0.0
  0
SPLINE
  5
472
100
AcDbEntity
  8
0
100
AcDbSpline
 62
7
  6
CONTINUOUS
 70
0
 71
3
 72
9
 73
5
 74
0
 42
0.0000001
 43
0.0000001
 44
0.0000000001
 40
0.0
 40
0.0
 40
0.0
 40
0.0
 40
0.5597866015
 40
1.0
 40
1.0
 40
1.0
 40
1.0
 10
746.4774803374
 20
135.5917014919
 30
0.0
 10
746.4391624729
 20
135.5917014919
 30
0.0
 10
746.3678874635
 20
135.5771439461
 30
0.0
 10
746.3214803374
 20
135.511525812
 30
0.0
 10
746.3214803374
 20
135.481392834
 30
0.0
  0
SPLINE
  5
473
100
AcDbEntity
  8
0
100
AcDbSpline
 62
7
  6
CONTINUOUS
 70
0
 71
3
 72
9
 73
5
 74
0
 42
0.0000001
 43
0.0000001
 44
0.0000000001
 40
0.0
 40
0.0
 40
0.0
 40
0.0
 40
0.5597866015
 40
1.0
 40
1.0
 40
1.0
 40
1.0
 10
747.2379803374
 20
135.3159298472
 30
0.0
 10
747.2762982018
 20
135.3159298472
 30
0.0
 10
747.3475732113
 20
135.3304873929
 30
0.0
 10
747.3939803374
 20
135.3961055271
 30
0.0
 10
747.3939803374
 20
135.4262385051
 30
0.0
  0
SPLINE
  5
474
100
AcDbEntity
  8
0
100
AcDbSpline
 62
7
  6
CONTINUOUS
 70
0
 71
3
 72
9
 73
5
 74
0
 42
0.0000001
 43
0.0000001
 44
0.0000000001
 40
0.0
 40
0.0
 40
0.0
 40
0.0
 40
0.5597866015
 40
1.0
 40
1.0
 40
1.0
 40
1.0
 10
747.2379803374
 20
132.5582134006
 30
0.0
 10
747.2762982018
 20
132.5582134006
 30
0.0
 10
747.3475732113
 20
132.5727709463
 30
0.0
 10
747.3939803374
 20
132.6383890805
 30
0.0
 10
747.3939803374
 20
132.6685220584
 30
0.0
  0
SPLINE
  5
475
100
AcDbEntity
  8
RUNDUNGEN
100
AcDbSpline
 62
7
  6
CONTINUOUS
 70
0
 71
3
 72
9
 73
5
 74
0
 42
0.0000001
 43
0.0000001
 44
0.0000000001
 40
0.0
 40
0.0
 40
0.0
 40
0.0
 40
0.4805366145
 40
1.0
 40
1.0
 40
1.0
 40
1.0
 10
805.6774283932
 20
79.9234524891
 30
0.0
 10
805.6774283932
 20
80.3586725519
 30
0.0
 10
805.4699589393
 20
81.2727253913
 30
0.0
 10
804.9233824468
 20
82.0226276262
 30
0.0
 10
804.592340659
 20
82.3569312151
 30
0.0
  0
SPLINE
  5
476
100
AcDbEntity
  8
0
100
AcDbSpline
 62
7
  6
CONTINUOUS
 70
0
 71
3
 72
11
 73
7
 74
0
 42
0.0000001
 43
0.0000001
 44
0.0000000001
 40
0.0
 40
0.0
 40
0.0
 40
0.0
 40
0.2865059912
 40
0.5484241175
 40
0.7833822346
 40
1.0
 40
1.0
 40
1.0
 40
1.0
 10
758.740315104
 20
134.6386837926
 30
0.0
 10
758.9888541391
 20
134.6964255573
 30
0.0
 10
759.4548167517
 20
134.8607209905
 30
0.0
 10
760.0375572699
 20
135.2613858841
 30
0.0
 10
760.4277067071
 20
135.7804795272
 30
0.0
 10
760.5226621348
 20
136.1868307772
 30
0.0
 10
760.5226331947
 20
136.379747589
 30
0.0
  0
SPLINE
  5
477
100
AcDbEntity
  8
0
100
AcDbSpline
 62
7
  6
CONTINUOUS
 70
0
 71
3
 72
8
 73
4
 74
0
 42
0.0000001
 43
0.0000001
 44
0.0000000001
 40
0.0
 40
0.0
 40
0.0
 40
0.0
 40
1.0
 40
1.0
 40
1.0
 40
1.0
 10
777.057255186
 20
131.0414693549
 30
0.0
 10
777.1622882495
 20
131.0414693549
 30
0.0
 10
777.2686126507
 20
131.0564879682
 30
0.0
 10
777.368984235
 20
131.0874312957
 30
0.0
  0
SPLINE
  5
478
100
AcDbEntity
  8
0
100
AcDbSpline
 62
7
  6
CONTINUOUS
 70
0
 71
3
 72
11
 73
7
 74
0
 42
0.0000001
 43
0.0000001
 44
0.0000000001
 40
0.0
 40
0.0
 40
0.0
 40
0.0
 40
0.2847819434
 40
0.5451774547
 40
0.7807010719
 40
1.0
 40
1.0
 40
1.0
 40
1.0
 10
777.368984235
 20
131.0874312957
 30
0.0
 10
777.8351581156
 20
131.2311469815
 30
0.0
 10
778.702767231
 20
131.6028828181
 30
0.0
 10
779.7730465251
 20
132.4330098041
 30
0.0
 10
780.4779329207
 20
133.4644049074
 30
0.0
 10
780.6468533271
 20
134.2508473994
 30
0.0
 10
780.6468533271
 20
134.6265007355
 30
0.0
  0
SPLINE
  5
479
100
AcDbEntity
  8
0
100
AcDbSpline
 62
7
  6
CONTINUOUS
 70
0
 71
3
 72
9
 73
5
 74
0
 42
0.0000001
 43
0.0000001
 44
0.0000000001
 40
0.0
 40
0.0
 40
0.0
 40
0.0
 40
0.239729366
 40
1.0
 40
1.0
 40
1.0
 40
1.0
 10
777.3217214009
 20
137.272237181
 30
0.0
 10
777.3044880711
 20
137.2815690412
 30
0.0
 10
777.2298267305
 20
137.315280958
 30
0.0
 10
777.1467542899
 20
137.3290628532
 30
0.0
 10
777.0846026073
 20
137.3290628532
 30
0.0
  0
SPLINE
  5
47A
100
AcDbEntity
  8
RUNDUNGEN
100
AcDbSpline
 62
7
  6
CONTINUOUS
 70
0
 71
3
 72
10
 73
6
 74
0
 42
0.0000001
 43
0.0000001
 44
0.0000000001
 40
0.0
 40
0.0
 40
0.0
 40
0.0
 40
0.2265442065
 40
0.4650409693
 40
1.0
 40
1.0
 40
1.0
 40
1.0
 10
819.1899084594
 20
152.1676971372
 30
0.0
 10
819.1898341395
 20
152.281302558
 30
0.0
 10
819.1484252123
 20
152.5162201846
 30
0.0
 10
818.9045011066
 20
152.9619667704
 30
0.0
 10
818.5774897621
 20
153.2063081026
 30
0.0
 10
818.3370774562
 20
153.3253414038
 30
0.0
  0
SPLINE
  5
47B
100
AcDbEntity
  8
RUNDUNGEN
100
AcDbSpline
 62
7
  6
CONTINUOUS
 70
0
 71
3
 72
9
 73
5
 74
0
 42
0.0000001
 43
0.0000001
 44
0.0000000001
 40
0.0
 40
0.0
 40
0.0
 40
0.0
 40
0.5194635499
 40
1.0
 40
1.0
 40
1.0
 40
1.0
 10
718.7625161275
 20
82.3569312151
 30
0.0
 10
718.4314742347
 20
82.0226275202
 30
0.0
 10
717.884897768
 20
81.2727252372
 30
0.0
 10
717.6774283932
 20
80.3586724031
 30
0.0
 10
717.6774283932
 20
79.9234524891
 30
0.0
  0
SPLINE
  5
47C
100
AcDbEntity
  8
RUNDUNGEN
100
AcDbSpline
 62
7
  6
CONTINUOUS
 70
0
 71
3
 72
10
 73
6
 74
0
 42
0.0000001
 43
0.0000001
 44
0.0000000001
 40
0.0
 40
0.0
 40
0.0
 40
0.0
 40
0.5349741761
 40
0.7734715455
 40
1.0
 40
1.0
 40
1.0
 40
1.0
 10
720.1192396477
 20
138.0134441294
 30
0.0
 10
719.884818737
 20
137.8973772968
 30
0.0
 10
719.5659582352
 20
137.659121185
 30
0.0
 10
719.3281474536
 20
137.2244788826
 30
0.0
 10
719.2877901895
 20
136.9954263801
 30
0.0
 10
719.2877276129
 20
136.8846629901
 30
0.0
  0
SPLINE
  5
47D
100
AcDbEntity
  8
0
100
AcDbSpline
 62
7
  6
CONTINUOUS
 70
0
 71
3
 72
9
 73
5
 74
0
 42
0.0000001
 43
0.0000001
 44
0.0000000001
 40
0.0
 40
0.0
 40
0.0
 40
0.0
 40
0.4402133985
 40
1.0
 40
1.0
 40
1.0
 40
1.0
 10
745.8339803374
 20
135.8858579128
 30
0.0
 10
745.8339803374
 20
135.8557249349
 30
0.0
 10
745.8803874635
 20
135.7901068007
 30
0.0
 10
745.9516624729
 20
135.775549255
 30
0.0
 10
745.9899803374
 20
135.775549255
 30
0.0
  0
SPLINE
  5
47E
100
AcDbEntity
  8
0
100
AcDbSpline
 62
7
  6
CONTINUOUS
 70
0
 71
3
 72
11
 73
7
 74
0
 42
0.0000001
 43
0.0000001
 44
0.0000000001
 40
0.0
 40
0.0
 40
0.0
 40
0.0
 40
0.2094668498
 40
0.4446559298
 40
0.7120302568
 40
1.0
 40
1.0
 40
1.0
 40
1.0
 10
747.9789803374
 20
136.8326738928
 30
0.0
 10
747.9789803374
 20
136.86921699
 30
0.0
 10
747.9552482355
 20
136.9477096209
 30
0.0
 10
747.8643695854
 20
137.0375957544
 30
0.0
 10
747.7367128482
 20
137.0953109473
 30
0.0
 10
747.6392188659
 20
137.1084455375
 30
0.0
 10
747.5889803374
 20
137.1084455375
 30
0.0
  0
SPLINE
  5
47F
100
AcDbEntity
  8
BEZUGSACHSEN
100
AcDbSpline
 62
7
  6
CONTINUOUS
 70
0
 71
3
 72
19
 73
15
 74
0
 42
0.0000001
 43
0.0000001
 44
0.0000000001
 40
0.0
 40
0.0
 40
0.0
 40
0.0
 40
0.0517263209
 40
0.1053355973
 40
0.1622490903
 40
0.223216447
 40
0.356475981
 40
0.5
 40
0.643524019
 40
0.776783553
 40
0.8377509097
 40
0.8946644027
 40
0.9482736791
 40
1.0
 40
1.0
 40
1.0
 40
1.0
 10
756.1774283932
 20
148.438644219
 30
0.0
 10
756.1774283932
 20
148.1833036932
 30
0.0
 10
756.2515495483
 20
147.660680251
 30
0.0
 10
756.5757824469
 20
146.9190781085
 30
0.0
 10
757.095998242
 20
146.2418051887
 30
0.0
 10
758.0466057091
 20
145.4343806427
 30
0.0
 10
759.5965807343
 20
144.7340592097
 30
0.0
 10
761.6774283932
 20
144.4539145035
 30
0.0
 10
763.7582760522
 20
144.7340592097
 30
0.0
 10
765.3082510774
 20
145.4343806427
 30
0.0
 10
766.2588585445
 20
146.2418051887
 30
0.0
 10
766.7790743395
 20
146.9190781085
 30
0.0
 10
767.1033072382
 20
147.660680251
 30
0.0
 10
767.1774283932
 20
148.1833036932
 30
0.0
 10
767.1774283932
 20
148.438644219
 30
0.0
  0
SPLINE
  5
480
100
AcDbEntity
  8
RUNDUNGEN
100
AcDbSpline
 62
7
  6
CONTINUOUS
 70
0
 71
3
 72
11
 73
7
 74
0
 42
0.0000001
 43
0.0000001
 44
0.0000000001
 40
0.0
 40
0.0
 40
0.0
 40
0.0
 40
0.2794012361
 40
0.5367224514
 40
0.7743079693
 40
1.0
 40
1.0
 40
1.0
 40
1.0
 10
708.2943875075
 20
154.9476605545
 30
0.0
 10
707.9160125968
 20
154.7603190017
 30
0.0
 10
707.2210211805
 20
154.3281317009
 30
0.0
 10
706.3895957079
 20
153.4870997813
 30
0.0
 10
705.859117019
 20
152.517687573
 30
0.0
 10
705.7357827647
 20
151.8125731376
 30
0.0
 10
705.7358490507
 20
151.4715214204
 30
0.0
  0
SPLINE
  5
481
100
AcDbEntity
  8
RUNDUNGEN
100
AcDbSpline
 62
7
  6
CONTINUOUS
 70
0
 71
3
 72
9
 73
5
 74
0
 42
0.0000001
 43
0.0000001
 44
0.0000000001
 40
0.0
 40
0.0
 40
0.0
 40
0.0
 40
0.5089429305
 40
1.0
 40
1.0
 40
1.0
 40
1.0
 10
725.3712860554
 20
157.536077107
 30
0.0
 10
722.7565144887
 20
158.0839196673
 30
0.0
 10
717.4178044035
 20
158.3186263656
 30
0.0
 10
712.2427110469
 20
156.9025604219
 30
0.0
 10
709.932691596
 20
155.7588201298
 30
0.0
  0
SPLINE
  5
482
100
AcDbEntity
  8
0
100
AcDbSpline
 62
7
  6
CONTINUOUS
 70
0
 71
3
 72
9
 73
5
 74
0
 42
0.0000001
 43
0.0000001
 44
0.0000000001
 40
0.0
 40
0.0
 40
0.0
 40
0.0
 40
0.2415905642
 40
1.0
 40
1.0
 40
1.0
 40
1.0
 10
773.1489571203
 20
153.3056891045
 30
0.0
 10
772.4758340442
 20
153.6389668106
 30
0.0
 10
769.6185748174
 20
154.872908047
 30
0.0
 10
766.5283807911
 20
155.5425789202
 30
0.0
 10
764.1797932967
 20
155.7521087431
 30
0.0
  0
SPLINE
  5
483
100
AcDbEntity
  8
0
100
AcDbSpline
 62
7
  6
CONTINUOUS
 70
0
 71
3
 72
9
 73
5
 74
0
 42
0.0000001
 43
0.0000001
 44
0.0000000001
 40
0.0
 40
0.0
 40
0.0
 40
0.0
 40
0.2578604761
 40
1.0
 40
1.0
 40
1.0
 40
1.0
 10
759.1750634898
 20
155.7521087431
 30
0.0
 10
758.3766493571
 20
155.6808780258
 30
0.0
 10
755.2949323683
 20
155.2725502646
 30
0.0
 10
752.2733757368
 20
154.3293409547
 30
0.0
 10
750.2058996662
 20
153.3056891045
 30
0.0
  0
SPLINE
  5
484
100
AcDbEntity
  8
RUNDUNGEN
100
AcDbSpline
 62
7
  6
CONTINUOUS
 70
0
 71
3
 72
10
 73
6
 74
0
 42
0.0000001
 43
0.0000001
 44
0.0000000001
 40
0.0
 40
0.0
 40
0.0
 40
0.0
 40
0.2540840964
 40
0.5191023951
 40
1.0
 40
1.0
 40
1.0
 40
1.0
 10
811.4562002841
 20
156.7322116202
 30
0.0
 10
811.2327279927
 20
156.842857556
 30
0.0
 10
810.7341166762
 20
156.990886245
 30
0.0
 10
809.7515840145
 20
157.0081720694
 30
0.0
 10
809.0028321653
 20
156.7202762252
 30
0.0
 10
808.6707433229
 20
156.3849152649
 30
0.0
  0
SPLINE
  5
485
100
AcDbEntity
  8
0
100
AcDbSpline
 62
7
  6
CONTINUOUS
 70
0
 71
3
 72
11
 73
7
 74
0
 42
0.0000001
 43
0.0000001
 44
0.0000000001
 40
0.0
 40
0.0
 40
0.0
 40
0.0
 40
0.227142142
 40
0.4653047767
 40
0.7220182825
 40
1.0
 40
1.0
 40
1.0
 40
1.0
 10
779.1562724886
 20
134.6448855119
 30
0.0
 10
779.1562724886
 20
134.8989306989
 30
0.0
 10
779.0688529293
 20
135.422804613
 30
0.0
 10
778.6912745928
 20
136.1491946304
 30
0.0
 10
778.0960246079
 20
136.7880733836
 30
0.0
 10
777.595117792
 20
137.1241928445
 30
0.0
 10
777.3217214009
 20
137.272237181
 30
0.0
  0
SPLINE
  5
486
100
AcDbEntity
  8
0
100
AcDbSpline
 62
7
  6
CONTINUOUS
 70
0
 71
3
 72
8
 73
4
 74
0
 42
0.0000001
 43
0.0000001
 44
0.0000000001
 40
0.0
 40
0.0
 40
0.0
 40
0.0
 40
1.0
 40
1.0
 40
1.0
 40
1.0
 10
777.057255186
 20
131.5010887627
 30
0.0
 10
777.1622882495
 20
131.5010887627
 30
0.0
 10
777.2686126507
 20
131.516107376
 30
0.0
 10
777.368984235
 20
131.5470507035
 30
0.0
  0
SPLINE
  5
487
100
AcDbEntity
  8
0
100
AcDbSpline
 62
7
  6
CONTINUOUS
 70
0
 71
3
 72
17
 73
13
 74
0
 42
0.0000001
 43
0.0000001
 44
0.0000000001
 40
0.0
 40
0.0
 40
0.0
 40
0.0
 40
0.0517921087
 40
0.1054769531
 40
0.2228492041
 40
0.356284866
 40
0.5
 40
0.643715134
 40
0.7771507959
 40
0.8945230469
 40
0.9482078913
 40
1.0
 40
1.0
 40
1.0
 40
1.0
 10
762.4035220293
 20
133.6749372658
 30
0.0
 10
762.4035220293
 20
133.5031172285
 30
0.0
 10
762.4534567531
 20
133.1514166929
 30
0.0
 10
762.7524703708
 20
132.4668838025
 30
0.0
 10
763.4909517135
 20
131.7278934221
 30
0.0
 10
764.7034761165
 20
131.1832123623
 30
0.0
 10
766.1047100137
 20
130.9927713132
 30
0.0
 10
767.5059439109
 20
131.1832123623
 30
0.0
 10
768.7184683139
 20
131.7278934221
 30
0.0
 10
769.4569496566
 20
132.4668838025
 30
0.0
 10
769.7559632743
 20
133.1514166929
 30
0.0
 10
769.8058979981
 20
133.5031172285
 30
0.0
 10
769.8058979981
 20
133.6749372658
 30
0.0
  0
SPLINE
  5
488
100
AcDbEntity
  8
0
100
AcDbSpline
 62
7
  6
CONTINUOUS
 70
0
 71
3
 72
9
 73
5
 74
0
 42
0.0000001
 43
0.0000001
 44
0.0000000001
 40
0.0
 40
0.0
 40
0.0
 40
0.0
 40
0.4402133985
 40
1.0
 40
1.0
 40
1.0
 40
1.0
 10
745.8339803374
 20
132.6685220584
 30
0.0
 10
745.8339803374
 20
132.6383890805
 30
0.0
 10
745.8803874635
 20
132.5727709463
 30
0.0
 10
745.9516624729
 20
132.5582134006
 30
0.0
 10
745.9899803374
 20
132.5582134006
 30
0.0
  0
SPLINE
  5
489
100
AcDbEntity
  8
0
100
AcDbSpline
 62
7
  6
CONTINUOUS
 70
0
 71
3
 72
11
 73
7
 74
0
 42
0.0000001
 43
0.0000001
 44
0.0000000001
 40
0.0
 40
0.0
 40
0.0
 40
0.0
 40
0.2816347582
 40
0.5420479832
 40
0.7798483853
 40
1.0
 40
1.0
 40
1.0
 40
1.0
 10
777.368984235
 20
131.5470507035
 30
0.0
 10
777.7900219331
 20
131.6768514582
 30
0.0
 10
778.5794942671
 20
132.005815217
 30
0.0
 10
779.5816925555
 20
132.7223787986
 30
0.0
 10
780.2996291031
 20
133.6074029176
 30
0.0
 10
780.5531355117
 20
134.296028724
 30
0.0
 10
780.6095664615
 20
134.6357810885
 30
0.0
  0
SPLINE
  5
48A
100
AcDbEntity
  8
0
100
AcDbSpline
 62
7
  6
CONTINUOUS
 70
0
 71
3
 72
9
 73
5
 74
0
 42
0.0000001
 43
0.0000001
 44
0.0000000001
 40
0.0
 40
0.0
 40
0.0
 40
0.0
 40
0.2591205677
 40
1.0
 40
1.0
 40
1.0
 40
1.0
 10
777.0846026073
 20
137.788682261
 30
0.0
 10
777.1057792768
 20
137.788682261
 30
0.0
 10
777.1873589408
 20
137.7840084102
 30
0.0
 10
777.2684779004
 20
137.7606879815
 30
0.0
 10
777.3217214009
 20
137.7318565888
 30
0.0
  0
SPLINE
  5
48B
100
AcDbEntity
  8
0
100
AcDbSpline
 62
7
  6
CONTINUOUS
 70
0
 71
3
 72
11
 73
7
 74
0
 42
0.0000001
 43
0.0000001
 44
0.0000000001
 40
0.0
 40
0.0
 40
0.0
 40
0.0
 40
0.2779697373
 40
0.5346991835
 40
0.7728568778
 40
1.0
 40
1.0
 40
1.0
 40
1.0
 10
777.3217214009
 20
137.7318565888
 30
0.0
 10
777.5951069889
 20
137.5838181021
 30
0.0
 10
778.0960078085
 20
137.2476844039
 30
0.0
 10
778.6912973376
 20
136.6088359389
 30
0.0
 10
779.0688612798
 20
135.8824193101
 30
0.0
 10
779.1562958768
 20
135.3585521131
 30
0.0
 10
779.1562958768
 20
135.1045049196
 30
0.0
  0
SPLINE
  5
48C
100
AcDbEntity
  8
0
100
AcDbSpline
 62
7
  6
CONTINUOUS
 70
0
 71
3
 72
9
 73
5
 74
0
 42
0.0000001
 43
0.0000001
 44
0.0000000001
 40
0.0
 40
0.0
 40
0.0
 40
0.0
 40
0.4402133985
 40
1.0
 40
1.0
 40
1.0
 40
1.0
 10
745.8339803374
 20
133.1281414662
 30
0.0
 10
745.8339803374
 20
133.0980084882
 30
0.0
 10
745.8803874635
 20
133.0323903541
 30
0.0
 10
745.9516624729
 20
133.0178328083
 30
0.0
 10
745.9899803374
 20
133.0178328083
 30
0.0
  0
SPLINE
  5
48D
100
AcDbEntity
  8
0
100
AcDbSpline
 62
7
  6
CONTINUOUS
 70
0
 71
3
 72
9
 73
5
 74
0
 42
0.0000001
 43
0.0000001
 44
0.0000000001
 40
0.0
 40
0.0
 40
0.0
 40
0.0
 40
0.5
 40
1.0
 40
1.0
 40
1.0
 40
1.0
 10
762.4309740875
 20
133.8168272716
 30
0.0
 10
762.6772732588
 20
132.3933134853
 30
0.0
 10
766.1047100137
 20
130.6415771465
 30
0.0
 10
769.5321467686
 20
132.3933134853
 30
0.0
 10
769.7784459399
 20
133.8168272716
 30
0.0
  0
SPLINE
  5
48E
100
AcDbEntity
  8
0
100
AcDbSpline
 62
7
  6
CONTINUOUS
 70
0
 71
3
 72
9
 73
5
 74
0
 42
0.0000001
 43
0.0000001
 44
0.0000000001
 40
0.0
 40
0.0
 40
0.0
 40
0.0
 40
0.5403772208
 40
1.0
 40
1.0
 40
1.0
 40
1.0
 10
758.740315104
 20
135.0983032004
 30
0.0
 10
759.1213095777
 20
135.1868176393
 30
0.0
 10
759.8096851555
 20
135.4674937085
 30
0.0
 10
760.3130602237
 20
136.0486547763
 30
0.0
 10
760.4322211802
 20
136.3592712014
 30
0.0
  0
SPLINE
  5
48F
100
AcDbEntity
  8
0
100
AcDbSpline
 62
7
  6
CONTINUOUS
 70
0
 71
3
 72
8
 73
4
 74
0
 42
0.0000001
 43
0.0000001
 44
0.0000000001
 40
0.0
 40
0.0
 40
0.0
 40
0.0
 40
1.0
 40
1.0
 40
1.0
 40
1.0
 10
760.4322211802
 20
136.3592712014
 30
0.0
 10
760.4620510163
 20
136.4370285251
 30
0.0
 10
760.4851791591
 20
136.5177534743
 30
0.0
 10
760.5004378398
 20
136.5996265052
 30
0.0
  0
SPLINE
  5
490
100
AcDbEntity
  8
0
100
AcDbSpline
 62
7
  6
CONTINUOUS
 70
0
 71
3
 72
11
 73
7
 74
0
 42
0.0000001
 43
0.0000001
 44
0.0000000001
 40
0.0
 40
0.0
 40
0.0
 40
0.0
 40
0.2880066977
 40
0.5553334191
 40
0.790532629
 40
1.0
 40
1.0
 40
1.0
 40
1.0
 10
757.9315220293
 20
137.8346442018
 30
0.0
 10
758.1129322218
 20
137.8346442018
 30
0.0
 10
758.4649416818
 20
137.7872451619
 30
0.0
 10
758.9257989596
 20
137.5787732512
 30
0.0
 10
759.2539356584
 20
137.2543031299
 30
0.0
 10
759.339638748
 20
136.9708950171
 30
0.0
 10
759.339638748
 20
136.8389553213
 30
0.0
  0
SPLINE
  5
491
100
AcDbEntity
  8
0
100
AcDbSpline
 62
7
  6
CONTINUOUS
 70
0
 71
3
 72
9
 73
5
 74
0
 42
0.0000001
 43
0.0000001
 44
0.0000000001
 40
0.0
 40
0.0
 40
0.0
 40
0.0
 40
0.5597866015
 40
1.0
 40
1.0
 40
1.0
 40
1.0
 10
747.2379803374
 20
133.0178328083
 30
0.0
 10
747.2762982018
 20
133.0178328083
 30
0.0
 10
747.3475732113
 20
133.0323903541
 30
0.0
 10
747.3939803374
 20
133.0980084882
 30
0.0
 10
747.3939803374
 20
133.1281414662
 30
0.0
  0
SPLINE
  5
492
100
AcDbEntity
  8
0
100
AcDbSpline
 62
7
  6
CONTINUOUS
 70
0
 71
3
 72
9
 73
5
 74
0
 42
0.0000001
 43
0.0000001
 44
0.0000000001
 40
0.0
 40
0.0
 40
0.0
 40
0.0
 40
0.4402133985
 40
1.0
 40
1.0
 40
1.0
 40
1.0
 10
746.3214803374
 20
135.9410122418
 30
0.0
 10
746.3214803374
 20
135.9711452197
 30
0.0
 10
746.3678874635
 20
136.0367633539
 30
0.0
 10
746.4391624729
 20
136.0513208996
 30
0.0
 10
746.4774803374
 20
136.0513208996
 30
0.0
  0
SPLINE
  5
493
100
AcDbEntity
  8
RUNDUNGEN
100
AcDbSpline
 62
7
  6
CONTINUOUS
 70
0
 71
3
 72
11
 73
7
 74
0
 42
0.0000001
 43
0.0000001
 44
0.0000000001
 40
0.0
 40
0.0
 40
0.0
 40
0.0
 40
0.2256778953
 40
0.4632795617
 40
0.7206246471
 40
1.0
 40
1.0
 40
1.0
 40
1.0
 10
725.8465989329
 20
142.0442854267
 30
0.0
 10
725.8464906262
 20
141.8596825588
 30
0.0
 10
725.7793737621
 20
141.4780638876
 30
0.0
 10
725.4919471547
 20
140.9534659239
 30
0.0
 10
725.0417583722
 20
140.4983322744
 30
0.0
 10
724.6655443582
 20
140.2644173303
 30
0.0
 10
724.4607454825
 20
140.1630170041
 30
0.0
  0
SPLINE
  5
494
100
AcDbEntity
  8
0
100
AcDbSpline
 62
7
  6
CONTINUOUS
 70
0
 71
3
 72
9
 73
5
 74
0
 42
0.0000001
 43
0.0000001
 44
0.0000000001
 40
0.0
 40
0.0
 40
0.0
 40
0.0
 40
0.5597866015
 40
1.0
 40
1.0
 40
1.0
 40
1.0
 10
746.7504803374
 20
136.0513208996
 30
0.0
 10
746.7887982018
 20
136.0513208996
 30
0.0
 10
746.8600732113
 20
136.0367633539
 30
0.0
 10
746.9064803374
 20
135.9711452197
 30
0.0
 10
746.9064803374
 20
135.9410122418
 30
0.0
  0
SPLINE
  5
495
100
AcDbEntity
  8
0
100
AcDbSpline
 62
7
  6
CONTINUOUS
 70
0
 71
3
 72
9
 73
5
 74
0
 42
0.0000001
 43
0.0000001
 44
0.0000000001
 40
0.0
 40
0.0
 40
0.0
 40
0.0
 40
0.5597866015
 40
1.0
 40
1.0
 40
1.0
 40
1.0
 10
747.2379803374
 20
135.775549255
 30
0.0
 10
747.2762982018
 20
135.775549255
 30
0.0
 10
747.3475732113
 20
135.7901068007
 30
0.0
 10
747.3939803374
 20
135.8557249349
 30
0.0
 10
747.3939803374
 20
135.8858579128
 30
0.0
  0
SPLINE
  5
496
100
AcDbEntity
  8
0
100
AcDbSpline
 62
7
  6
CONTINUOUS
 70
0
 71
3
 72
11
 73
7
 74
0
 42
0.0000001
 43
0.0000001
 44
0.0000000001
 40
0.0
 40
0.0
 40
0.0
 40
0.0
 40
0.2876567391
 40
0.555407049
 40
0.7907201247
 40
1.0
 40
1.0
 40
1.0
 40
1.0
 10
747.5889803374
 20
137.5680649453
 30
0.0
 10
747.6391569901
 20
137.5680649453
 30
0.0
 10
747.7365753647
 20
137.5547311962
 30
0.0
 10
747.8644705839
 20
137.4973839531
 30
0.0
 10
747.9550467025
 20
137.407166093
 30
0.0
 10
747.9789803374
 20
137.3287984896
 30
0.0
 10
747.9789803374
 20
137.2922933006
 30
0.0
  0
SPLINE
  5
497
100
AcDbEntity
  8
0
100
AcDbSpline
 62
7
  6
CONTINUOUS
 70
0
 71
3
 72
8
 73
4
 74
0
 42
0.0000001
 43
0.0000001
 44
0.0000000001
 40
0.0
 40
0.0
 40
0.0
 40
0.0
 40
1.0
 40
1.0
 40
1.0
 40
1.0
 10
747.6931357374
 20
134.8001906542
 30
0.0
 10
747.7241152809
 20
134.7941099129
 30
0.0
 10
747.7547314787
 20
134.785285361
 30
0.0
 10
747.7839803374
 20
134.7734021039
 30
0.0
  0
SPLINE
  5
498
100
AcDbEntity
  8
0
100
AcDbSpline
 62
7
  6
CONTINUOUS
 70
0
 71
3
 72
9
 73
5
 74
0
 42
0.0000001
 43
0.0000001
 44
0.0000000001
 40
0.0
 40
0.0
 40
0.0
 40
0.0
 40
0.5424756321
 40
1.0
 40
1.0
 40
1.0
 40
1.0
 10
747.7839803374
 20
134.7734021039
 30
0.0
 10
747.8379718213
 20
134.751466387
 30
0.0
 10
747.9331838678
 20
134.6917520287
 30
0.0
 10
747.9789803374
 20
134.5837280631
 30
0.0
 10
747.9789803374
 20
134.534576854
 30
0.0
  0
SPLINE
  5
499
100
AcDbEntity
  8
0
100
AcDbSpline
 62
7
  6
CONTINUOUS
 70
0
 71
3
 72
9
 73
5
 74
0
 42
0.0000001
 43
0.0000001
 44
0.0000000001
 40
0.0
 40
0.0
 40
0.0
 40
0.0
 40
0.4575243679
 40
1.0
 40
1.0
 40
1.0
 40
1.0
 10
745.2489803374
 20
134.534576854
 30
0.0
 10
745.2489803374
 20
134.5837280631
 30
0.0
 10
745.294776807
 20
134.6917520287
 30
0.0
 10
745.3899888535
 20
134.751466387
 30
0.0
 10
745.4439803374
 20
134.7734021039
 30
0.0
  0
SPLINE
  5
49A
100
AcDbEntity
  8
0
100
AcDbSpline
 62
7
  6
CONTINUOUS
 70
0
 71
3
 72
8
 73
4
 74
0
 42
0.0000001
 43
0.0000001
 44
0.0000000001
 40
0.0
 40
0.0
 40
0.0
 40
0.0
 40
1.0
 40
1.0
 40
1.0
 40
1.0
 10
745.4439803374
 20
134.7734021039
 30
0.0
 10
745.5052713771
 20
134.7983034921
 30
0.0
 10
745.5728239267
 20
134.8103484987
 30
0.0
 10
745.6389803374
 20
134.8103484987
 30
0.0
  0
SPLINE
  5
49B
100
AcDbEntity
  8
0
100
AcDbSpline
 62
7
  6
CONTINUOUS
 70
0
 71
3
 72
11
 73
7
 74
0
 42
0.0000001
 43
0.0000001
 44
0.0000000001
 40
0.0
 40
0.0
 40
0.0
 40
0.0
 40
0.2092798753
 40
0.444592951
 40
0.7123432609
 40
1.0
 40
1.0
 40
1.0
 40
1.0
 10
745.2489803374
 20
137.2922933006
 30
0.0
 10
745.2489803374
 20
137.3287984896
 30
0.0
 10
745.2729139723
 20
137.407166093
 30
0.0
 10
745.3634900908
 20
137.4973839531
 30
0.0
 10
745.49138531
 20
137.5547311962
 30
0.0
 10
745.5888036847
 20
137.5680649453
 30
0.0
 10
745.6389803374
 20
137.5680649453
 30
0.0
  0
SPLINE
  5
49C
100
AcDbEntity
  8
0
100
AcDbSpline
 62
7
  6
CONTINUOUS
 70
0
 71
3
 72
9
 73
5
 74
0
 42
0.0000001
 43
0.0000001
 44
0.0000000001
 40
0.0
 40
0.0
 40
0.0
 40
0.0
 40
0.538986273
 40
1.0
 40
1.0
 40
1.0
 40
1.0
 10
749.7339803374
 20
131.5010887627
 30
0.0
 10
749.8817348529
 20
131.5010887627
 30
0.0
 10
750.1589346153
 20
131.5529584215
 30
0.0
 10
750.3908004398
 20
131.7324756941
 30
0.0
 10
750.4546063727
 20
131.841565573
 30
0.0
  0
SPLINE
  5
49D
100
AcDbEntity
  8
0
100
AcDbSpline
 62
7
  6
CONTINUOUS
 70
0
 71
3
 72
9
 73
5
 74
0
 42
0.0000001
 43
0.0000001
 44
0.0000000001
 40
0.0
 40
0.0
 40
0.0
 40
0.0
 40
0.2592261758
 40
1.0
 40
1.0
 40
1.0
 40
1.0
 10
750.4546063727
 20
131.841565573
 30
0.0
 10
750.4642340473
 20
131.8580261402
 30
0.0
 10
750.4975443836
 20
131.9236485902
 30
0.0
 10
750.5139803374
 20
131.9981386369
 30
0.0
 10
750.5139803374
 20
132.052632052
 30
0.0
  0
SPLINE
  5
49E
100
AcDbEntity
  8
RUNDUNGEN
100
AcDbSpline
 62
7
  6
CONTINUOUS
 70
0
 71
3
 72
9
 73
5
 74
0
 42
0.0000001
 43
0.0000001
 44
0.0000000001
 40
0.0
 40
0.0
 40
0.0
 40
0.0
 40
0.4963806263
 40
1.0
 40
1.0
 40
1.0
 40
1.0
 10
744.4718353562
 20
150.4666305908
 30
0.0
 10
743.5106590379
 20
149.9907315317
 30
0.0
 10
741.3357794979
 20
149.4970405577
 30
0.0
 10
739.1368808511
 20
149.833765717
 30
0.0
 10
738.1236027036
 20
150.2305059436
 30
0.0
  0
SPLINE
  5
49F
100
AcDbEntity
  8
RUNDUNGEN
100
AcDbSpline
 62
7
  6
CONTINUOUS
 70
0
 71
3
 72
11
 73
7
 74
0
 42
0.0000001
 43
0.0000001
 44
0.0000000001
 40
0.0
 40
0.0
 40
0.0
 40
0.0
 40
0.2660806569
 40
0.5190943725
 40
0.7622194677
 40
1.0
 40
1.0
 40
1.0
 40
1.0
 10
785.5799489366
 20
101.5566546969
 30
0.0
 10
785.0120105324
 20
102.1301890778
 30
0.0
 10
783.9897571513
 20
103.3396756791
 30
0.0
 10
782.832495431
 20
105.3571575456
 30
0.0
 10
782.1230026099
 20
107.4834656579
 30
0.0
 10
781.9629897973
 20
108.9469463197
 30
0.0
 10
781.9629898224
 20
109.6682510386
 30
0.0
  0
SPLINE
  5
4A0
100
AcDbEntity
  8
RUNDUNGEN
100
AcDbSpline
 62
7
  6
CONTINUOUS
 70
0
 71
3
 72
11
 73
7
 74
0
 42
0.0000001
 43
0.0000001
 44
0.0000000001
 40
0.0
 40
0.0
 40
0.0
 40
0.0
 40
0.2297109036
 40
0.4842558674
 40
0.7475645357
 40
1.0
 40
1.0
 40
1.0
 40
1.0
 10
798.3798601164
 20
145.9926345445
 30
0.0
 10
797.9008926214
 20
145.5089477155
 30
0.0
 10
796.6629614017
 20
144.7102524276
 30
0.0
 10
794.4932801083
 20
144.1406597006
 30
0.0
 10
792.1845212923
 20
144.1730372812
 30
0.0
 10
790.6938665765
 20
144.6188272434
 30
0.0
 10
790.0234892326
 20
144.9507454785
 30
0.0
  0
SPLINE
  5
4A1
100
AcDbEntity
  8
KONSTRUKTIONSELEMENTE
100
AcDbSpline
 62
7
  6
CONTINUOUS
 70
0
 71
3
 72
15
 73
11
 74
0
 42
0.0000001
 43
0.0000001
 44
0.0000000001
 40
0.0
 40
0.0
 40
0.0
 40
0.0
 40
0.0624946376
 40
0.1250023376
 40
0.2497593649
 40
0.3747328447
 40
0.4997829526
 40
0.6248643907
 40
0.7499620208
 40
1.0
 40
1.0
 40
1.0
 40
1.0
 10
740.23727914
 20
173.397497301
 30
0.0
 10
740.23727914
 20
173.7910998434
 30
0.0
 10
740.3248983992
 20
174.5808762309
 30
0.0
 10
740.818209521
 20
176.0838654733
 30
0.0
 10
741.9036676441
 20
177.7592023558
 30
0.0
 10
743.5959010876
 20
179.4193579173
 30
0.0
 10
745.5155476525
 20
180.8081461779
 30
0.0
 10
747.5802737788
 20
181.9666057509
 30
0.0
 10
750.464842814
 20
183.2413299534
 30
0.0
 10
752.7402897094
 20
183.9226066796
 30
0.0
 10
754.2774283932
 20
184.2648796297
 30
0.0
  0
SPLINE
  5
4A2
100
AcDbEntity
  8
KONSTRUKTIONSELEMENTE
100
AcDbSpline
 62
7
  6
CONTINUOUS
 70
0
 71
3
 72
9
 73
5
 74
0
 42
0.0000001
 43
0.0000001
 44
0.0000000001
 40
0.0
 40
0.0
 40
0.0
 40
0.0
 40
0.5000902521
 40
1.0
 40
1.0
 40
1.0
 40
1.0
 10
739.5400447914
 20
167.097497301
 30
0.0
 10
739.7569922377
 20
167.7064426615
 30
0.0
 10
740.1096002208
 20
168.9559240644
 30
0.0
 10
740.23727914
 20
170.2512937428
 30
0.0
 10
740.23727914
 20
170.897497301
 30
0.0
  0
SPLINE
  5
4A3
100
AcDbEntity
  8
KONSTRUKTIONSELEMENTE
100
AcDbSpline
 62
7
  6
CONTINUOUS
 70
0
 71
3
 72
9
 73
5
 74
0
 42
0.0000001
 43
0.0000001
 44
0.0000000001
 40
0.0
 40
0.0
 40
0.0
 40
0.0
 40
0.4999097479
 40
1.0
 40
1.0
 40
1.0
 40
1.0
 10
783.1175776464
 20
170.897497301
 30
0.0
 10
783.1175776464
 20
170.2512937428
 30
0.0
 10
783.2452565656
 20
168.9559240644
 30
0.0
 10
783.5978645487
 20
167.7064426615
 30
0.0
 10
783.8148119951
 20
167.097497301
 30
0.0
  0
SPLINE
  5
4A4
100
AcDbEntity
  8
KONSTRUKTIONSELEMENTE
100
AcDbSpline
 62
7
  6
CONTINUOUS
 70
0
 71
3
 72
15
 73
11
 74
0
 42
0.0000001
 43
0.0000001
 44
0.0000000001
 40
0.0
 40
0.0
 40
0.0
 40
0.0
 40
0.2500415702
 40
0.3751416148
 40
0.5002258421
 40
0.6252778246
 40
0.7502487062
 40
0.8750031602
 40
0.9375084728
 40
1.0
 40
1.0
 40
1.0
 40
1.0
 10
769.0774283932
 20
184.2648796297
 30
0.0
 10
770.6145892419
 20
183.9226017442
 30
0.0
 10
772.890070299
 20
183.2413068649
 30
0.0
 10
775.7746910259
 20
181.9665612279
 30
0.0
 10
777.8394459545
 20
180.8080603332
 30
0.0
 10
779.7590892705
 20
179.4192448574
 30
0.0
 10
781.4512874726
 20
177.7590825942
 30
0.0
 10
782.536694091
 20
176.0837692673
 30
0.0
 10
783.0299678301
 20
174.5808218134
 30
0.0
 10
783.1175776464
 20
173.7910802763
 30
0.0
 10
783.1175776464
 20
173.397497301
 30
0.0
  0
SPLINE
  5
4A5
100
AcDbEntity
  8
RUNDUNGEN
100
AcDbSpline
 62
7
  6
CONTINUOUS
 70
0
 71
3
 72
9
 73
5
 74
0
 42
0.0000001
 43
0.0000001
 44
0.0000000001
 40
0.0
 40
0.0
 40
0.0
 40
0.0
 40
0.4907112898
 40
1.0
 40
1.0
 40
1.0
 40
1.0
 10
748.2207145743
 20
209.397497301
 30
0.0
 10
747.0112160726
 20
209.397497301
 30
0.0
 10
744.5480394133
 20
209.2877028814
 30
0.0
 10
742.0841125747
 20
209.2069723203
 30
0.0
 10
740.8288247003
 20
209.2069723203
 30
0.0
  0
SPLINE
  5
4A6
100
AcDbEntity
  8
RUNDUNGEN
100
AcDbSpline
 62
7
  6
CONTINUOUS
 70
0
 71
3
 72
15
 73
11
 74
0
 42
0.0000001
 43
0.0000001
 44
0.0000000001
 40
0.0
 40
0.0
 40
0.0
 40
0.0
 40
0.0570233419
 40
0.1293586796
 40
0.2242107455
 40
0.3430879243
 40
0.4844660151
 40
0.6447708672
 40
0.8187803679
 40
1.0
 40
1.0
 40
1.0
 40
1.0
 10
798.6774283932
 20
190.8605186048
 30
0.0
 10
798.6774283932
 20
190.9862640269
 30
0.0
 10
798.5766329414
 20
191.2716307032
 30
0.0
 10
798.2122280256
 20
191.6187857173
 30
0.0
 10
797.6623349097
 20
191.9342572211
 30
0.0
 10
796.927710767
 20
192.21231618
 30
0.0
 10
796.0284736783
 20
192.4442886905
 30
0.0
 10
794.9930503765
 20
192.619033064
 30
0.0
 10
793.8606250366
 20
192.7278431084
 30
0.0
 10
793.077046135
 20
192.7523113381
 30
0.0
 10
792.6774283932
 20
192.7523113381
 30
0.0
  0
SPLINE
  5
4A7
100
AcDbEntity
  8
KONSTRUKTIONSELEMENTE
100
AcDbSpline
 62
7
  6
CONTINUOUS
 70
0
 71
3
 72
20
 73
16
 74
0
 42
0.0000001
 43
0.0000001
 44
0.0000000001
 40
0.0
 40
0.0
 40
0.0
 40
0.0
 40
0.1925074097
 40
0.3784599411
 40
0.5508798646
 40
0.6298138988
 40
0.7027736029
 40
0.7689728188
 40
0.8277038991
 40
0.8783417129
 40
0.9203734727
 40
0.9534317115
 40
0.9665361599
 40
0.9773699474
 40
1.0
 40
1.0
 40
1.0
 40
1.0
 10
739.5400447914
 20
167.097497301
 30
0.0
 10
739.1361477988
 20
165.9638070741
 30
0.0
 10
738.4004861043
 20
163.7139022989
 30
0.0
 10
737.4746279317
 20
160.395911097
 30
0.0
 10
736.8408929416
 20
157.7357562613
 30
0.0
 10
736.4268909338
 20
155.7508881251
 30
0.0
 10
736.1738366506
 20
154.4110242323
 30
0.0
 10
735.9688718478
 20
153.1909550578
 30
0.0
 10
735.8121080292
 20
152.1042880802
 30
0.0
 10
735.7029091119
 20
151.1645894794
 30
0.0
 10
735.6420074003
 20
150.3788630664
 30
0.0
 10
735.6270488035
 20
149.8316542254
 30
0.0
 10
735.6464353827
 20
149.4685151704
 30
0.0
 10
735.676414496
 20
149.2007785513
 30
0.0
 10
735.7594231533
 20
148.897497301
 30
0.0
 10
735.9008983542
 20
148.897497301
 30
0.0
  0
SPLINE
  5
4A8
100
AcDbEntity
  8
KONSTRUKTIONSELEMENTE
100
AcDbSpline
 62
7
  6
CONTINUOUS
 70
0
 71
3
 72
20
 73
16
 74
0
 42
0.0000001
 43
0.0000001
 44
0.0000000001
 40
0.0
 40
0.0
 40
0.0
 40
0.0
 40
0.0226300526
 40
0.0334638401
 40
0.0465682885
 40
0.0796265273
 40
0.1216582871
 40
0.1722961009
 40
0.2310271812
 40
0.2972263971
 40
0.3701861012
 40
0.4491201354
 40
0.6215400589
 40
0.8074925903
 40
1.0
 40
1.0
 40
1.0
 40
1.0
 10
787.4539584322
 20
148.897497301
 30
0.0
 10
787.5954336331
 20
148.897497301
 30
0.0
 10
787.6784422905
 20
149.2007785513
 30
0.0
 10
787.7084214038
 20
149.4685151704
 30
0.0
 10
787.7278079829
 20
149.8316542254
 30
0.0
 10
787.7128493862
 20
150.3788630664
 30
0.0
 10
787.6519476745
 20
151.1645894794
 30
0.0
 10
787.5427487572
 20
152.1042880802
 30
0.0
 10
787.3859849387
 20
153.1909550578
 30
0.0
 10
787.1810201359
 20
154.4110242323
 30
0.0
 10
786.9279658527
 20
155.7508881251
 30
0.0
 10
786.5139638448
 20
157.7357562613
 30
0.0
 10
785.8802288547
 20
160.395911097
 30
0.0
 10
784.9543706822
 20
163.7139022989
 30
0.0
 10
784.2187089877
 20
165.9638070741
 30
0.0
 10
783.8148119951
 20
167.097497301
 30
0.0
  0
SPLINE
  5
4A9
100
AcDbEntity
  8
RUNDUNGEN
100
AcDbSpline
 62
7
  6
CONTINUOUS
 70
0
 71
3
 72
9
 73
5
 74
0
 42
0.0000001
 43
0.0000001
 44
0.0000000001
 40
0.0
 40
0.0
 40
0.0
 40
0.0
 40
0.5098814585
 40
1.0
 40
1.0
 40
1.0
 40
1.0
 10
736.5411264713
 20
209.2069723203
 30
0.0
 10
735.8889396801
 20
209.2069723311
 30
0.0
 10
734.6097518985
 20
209.2418063285
 30
0.0
 10
733.3331055488
 20
209.3210195979
 30
0.0
 10
732.707020128
 20
209.3531267159
 30
0.0
  0
SPLINE
  5
4AA
100
AcDbEntity
  8
RUNDUNGEN
100
AcDbSpline
 62
7
  6
CONTINUOUS
 70
0
 71
3
 72
15
 73
11
 74
0
 42
0.0000001
 43
0.0000001
 44
0.0000000001
 40
0.0
 40
0.0
 40
0.0
 40
0.0
 40
0.0570233419
 40
0.1293586796
 40
0.2242107455
 40
0.3430879243
 40
0.4844660151
 40
0.6447708672
 40
0.8187803679
 40
1.0
 40
1.0
 40
1.0
 40
1.0
 10
798.6774283932
 20
183.0057045678
 30
0.0
 10
798.6774283932
 20
183.1314499898
 30
0.0
 10
798.5766329414
 20
183.4168166662
 30
0.0
 10
798.2122280256
 20
183.7639716802
 30
0.0
 10
797.6623349097
 20
184.079443184
 30
0.0
 10
796.927710767
 20
184.3575021429
 30
0.0
 10
796.0284736783
 20
184.5894746534
 30
0.0
 10
794.9930503765
 20
184.7642190269
 30
0.0
 10
793.8606250366
 20
184.8730290713
 30
0.0
 10
793.077046135
 20
184.897497301
 30
0.0
 10
792.6774283932
 20
184.897497301
 30
0.0
  0
SPLINE
  5
4AB
100
AcDbEntity
  8
RUNDUNGEN
100
AcDbSpline
 62
7
  6
CONTINUOUS
 70
0
 71
3
 72
9
 73
5
 74
0
 42
0.0000001
 43
0.0000001
 44
0.0000000001
 40
0.0
 40
0.0
 40
0.0
 40
0.0
 40
0.4901185419
 40
1.0
 40
1.0
 40
1.0
 40
1.0
 10
790.6478365304
 20
209.3531267093
 30
0.0
 10
790.0217510279
 20
209.321019586
 30
0.0
 10
788.7451045123
 20
209.2418063058
 30
0.0
 10
787.4659165638
 20
209.2069723203
 30
0.0
 10
786.8137296883
 20
209.2069723203
 30
0.0
  0
SPLINE
  5
4AC
100
AcDbEntity
  8
RUNDUNGEN
100
AcDbSpline
 62
7
  6
CONTINUOUS
 70
0
 71
3
 72
15
 73
11
 74
0
 42
0.0000001
 43
0.0000001
 44
0.0000000001
 40
0.0
 40
0.0
 40
0.0
 40
0.0
 40
0.1812196321
 40
0.3552291328
 40
0.5155339849
 40
0.6569120757
 40
0.7757892545
 40
0.8706413204
 40
0.9429766581
 40
1.0
 40
1.0
 40
1.0
 40
1.0
 10
730.6774283932
 20
184.897497301
 30
0.0
 10
730.2778106514
 20
184.897497301
 30
0.0
 10
729.4942317499
 20
184.8730290713
 30
0.0
 10
728.3618064099
 20
184.7642190269
 30
0.0
 10
727.3263831082
 20
184.5894746534
 30
0.0
 10
726.4271460195
 20
184.3575021429
 30
0.0
 10
725.6925218768
 20
184.079443184
 30
0.0
 10
725.1426287609
 20
183.7639716802
 30
0.0
 10
724.7782238451
 20
183.4168166662
 30
0.0
 10
724.6774283932
 20
183.1314499898
 30
0.0
 10
724.6774283932
 20
183.0057045678
 30
0.0
  0
SPLINE
  5
4AD
100
AcDbEntity
  8
RUNDUNGEN
100
AcDbSpline
 62
7
  6
CONTINUOUS
 70
0
 71
3
 72
15
 73
11
 74
0
 42
0.0000001
 43
0.0000001
 44
0.0000000001
 40
0.0
 40
0.0
 40
0.0
 40
0.0
 40
0.0570233419
 40
0.1293586796
 40
0.2242107455
 40
0.3430879243
 40
0.4844660151
 40
0.6447708672
 40
0.8187803679
 40
1.0
 40
1.0
 40
1.0
 40
1.0
 10
724.6774283932
 20
190.8605186048
 30
0.0
 10
724.6774283932
 20
190.9862640269
 30
0.0
 10
724.7782238451
 20
191.2716307032
 30
0.0
 10
725.1426287609
 20
191.6187857173
 30
0.0
 10
725.6925218768
 20
191.9342572211
 30
0.0
 10
726.4271460195
 20
192.21231618
 30
0.0
 10
727.3263831082
 20
192.4442886905
 30
0.0
 10
728.3618064099
 20
192.619033064
 30
0.0
 10
729.4942317499
 20
192.7278431084
 30
0.0
 10
730.2778106514
 20
192.7523113381
 30
0.0
 10
730.6774283932
 20
192.7523113381
 30
0.0
  0
SPLINE
  5
4AE
100
AcDbEntity
  8
RUNDUNGEN
100
AcDbSpline
 62
7
  6
CONTINUOUS
 70
0
 71
3
 72
9
 73
5
 74
0
 42
0.0000001
 43
0.0000001
 44
0.0000000001
 40
0.0
 40
0.0
 40
0.0
 40
0.0
 40
0.5092886403
 40
1.0
 40
1.0
 40
1.0
 40
1.0
 10
782.5260320862
 20
209.2069723203
 30
0.0
 10
781.2707431985
 20
209.2069723203
 30
0.0
 10
778.8068140379
 20
209.2877031407
 30
0.0
 10
776.3436350424
 20
209.397497301
 30
0.0
 10
775.1341352262
 20
209.397497301
 30
0.0
  0
SPLINE
  5
4AF
100
AcDbEntity
  8
0
100
AcDbSpline
 62
7
  6
CONTINUOUS
 70
0
 71
3
 72
9
 73
5
 74
0
 42
0.0000001
 43
0.0000001
 44
0.0000000001
 40
0.0
 40
0.0
 40
0.0
 40
0.0
 40
0.5000000006
 40
1.0
 40
1.0
 40
1.0
 40
1.0
 10
339.8714253173
 20
227.897497301
 30
0.0
 10
339.4483573848
 20
231.5720340573
 30
0.0
 10
338.9970354753
 20
238.9749524361
 30
0.0
 10
339.4483573859
 20
246.3778708146
 30
0.0
 10
339.8714253173
 20
250.0524075618
 30
0.0
  0
LINE
  5
4B0
100
AcDbEntity
  8
0
100
AcDbLine
 62
7
  6
CONTINUOUS
 10
356.7031435022
 20
183.0057045678
 11
362.7031435022
 21
184.897497301
  0
LINE
  5
4B1
100
AcDbEntity
  8
0
100
AcDbLine
 62
7
  6
CONTINUOUS
 10
351.2031435022
 20
190.8605186048
 11
357.2031435022
 21
192.7523113381
  0
SPLINE
  5
4B2
100
AcDbEntity
  8
0
100
AcDbSpline
 62
7
  6
CONTINUOUS
 70
0
 71
3
 72
9
 73
5
 74
0
 42
0.0000001
 43
0.0000001
 44
0.0000000001
 40
0.0
 40
0.0
 40
0.0
 40
0.0
 40
0.515843987
 40
1.0
 40
1.0
 40
1.0
 40
1.0
 10
351.2031435022
 20
209.2215911793
 30
0.0
 10
351.3169515279
 20
209.2768628224
 30
0.0
 10
351.5515155694
 20
209.3592410883
 30
0.0
 10
351.8010724681
 20
209.3688021401
 30
0.0
 10
351.9189729558
 20
209.3546432782
 30
0.0
  0
SPLINE
  5
4B3
100
AcDbEntity
  8
0
100
AcDbSpline
 62
7
  6
CONTINUOUS
 70
0
 71
3
 72
11
 73
7
 74
0
 42
0.0000001
 43
0.0000001
 44
0.0000000001
 40
0.0
 40
0.0
 40
0.0
 40
0.0
 40
0.2551771482
 40
0.5000000006
 40
0.7448228526
 40
1.0
 40
1.0
 40
1.0
 40
1.0
 10
339.8714253173
 20
266.2709275098
 30
0.0
 10
339.6662957649
 20
266.7483173507
 30
0.0
 10
339.3396715686
 20
267.7200778427
 30
0.0
 10
339.1654200558
 20
269.2391226693
 30
0.0
 10
339.339671571
 20
270.7581674936
 30
0.0
 10
339.6662957656
 20
271.7299279833
 30
0.0
 10
339.8714253173
 20
272.2073178226
 30
0.0
  0
SPLINE
  5
4B4
100
AcDbEntity
  8
0
100
AcDbSpline
 62
7
  6
CONTINUOUS
 70
0
 71
3
 72
9
 73
5
 74
0
 42
0.0000001
 43
0.0000001
 44
0.0000000001
 40
0.0
 40
0.0
 40
0.0
 40
0.0
 40
0.5000000006
 40
1.0
 40
1.0
 40
1.0
 40
1.0
 10
339.8714253173
 20
250.0524075618
 30
0.0
 10
339.4501117094
 20
252.7312008277
 30
0.0
 10
338.9952811508
 20
258.1616675392
 30
0.0
 10
339.4501117104
 20
263.5921342505
 30
0.0
 10
339.8714253173
 20
266.2709275098
 30
0.0
  0
SPLINE
  5
4B5
100
AcDbEntity
  8
0
100
AcDbSpline
 62
7
  6
CONTINUOUS
 70
0
 71
3
 72
11
 73
7
 74
0
 42
0.0000001
 43
0.0000001
 44
0.0000000001
 40
0.0
 40
0.0
 40
0.0
 40
0.0
 40
0.2551771482
 40
0.5000000006
 40
0.7448228526
 40
1.0
 40
1.0
 40
1.0
 40
1.0
 10
346.5348616871
 20
266.2709275098
 30
0.0
 10
346.7399912395
 20
266.7483173507
 30
0.0
 10
347.0666154357
 20
267.7200778427
 30
0.0
 10
347.2408669485
 20
269.2391226693
 30
0.0
 10
347.0666154333
 20
270.7581674936
 30
0.0
 10
346.7399912388
 20
271.7299279833
 30
0.0
 10
346.5348616871
 20
272.2073178226
 30
0.0
  0
SPLINE
  5
4B6
100
AcDbEntity
  8
0
100
AcDbSpline
 62
7
  6
CONTINUOUS
 70
0
 71
3
 72
9
 73
5
 74
0
 42
0.0000001
 43
0.0000001
 44
0.0000000001
 40
0.0
 40
0.0
 40
0.0
 40
0.0
 40
0.5000000006
 40
1.0
 40
1.0
 40
1.0
 40
1.0
 10
346.5348616871
 20
250.0524075618
 30
0.0
 10
346.956175295
 20
252.7312008277
 30
0.0
 10
347.4110058535
 20
258.1616675392
 30
0.0
 10
346.9561752939
 20
263.5921342505
 30
0.0
 10
346.5348616871
 20
266.2709275098
 30
0.0
  0
SPLINE
  5
4B7
100
AcDbEntity
  8
0
100
AcDbSpline
 62
7
  6
CONTINUOUS
 70
0
 71
3
 72
9
 73
5
 74
0
 42
0.0000001
 43
0.0000001
 44
0.0000000001
 40
0.0
 40
0.0
 40
0.0
 40
0.0
 40
0.5000000006
 40
1.0
 40
1.0
 40
1.0
 40
1.0
 10
346.5348616871
 20
227.897497301
 30
0.0
 10
346.9579296195
 20
231.5720340573
 30
0.0
 10
347.409251529
 20
238.9749524361
 30
0.0
 10
346.9579296184
 20
246.3778708146
 30
0.0
 10
346.5348616871
 20
250.0524075618
 30
0.0
  0
LINE
  5
4B8
100
AcDbEntity
  8
RUNDUNGEN
100
AcDbLine
 62
7
  6
CONTINUOUS
 10
329.7031435022
 20
183.0057045678
 11
323.7031435022
 21
184.897497301
  0
LINE
  5
4B9
100
AcDbEntity
  8
RUNDUNGEN
100
AcDbLine
 62
7
  6
CONTINUOUS
 10
335.2031435022
 20
190.8605186048
 11
329.2031435022
 21
192.7523113381
  0
SPLINE
  5
4BA
100
AcDbEntity
  8
RUNDUNGEN
100
AcDbSpline
 62
7
  6
CONTINUOUS
 70
0
 71
3
 72
9
 73
5
 74
0
 42
0.0000001
 43
0.0000001
 44
0.0000000001
 40
0.0
 40
0.0
 40
0.0
 40
0.0
 40
0.515843987
 40
1.0
 40
1.0
 40
1.0
 40
1.0
 10
335.2031435022
 20
209.2215911793
 30
0.0
 10
335.0893354765
 20
209.2768628224
 30
0.0
 10
334.854771435
 20
209.3592410883
 30
0.0
 10
334.6052145363
 20
209.3688021401
 30
0.0
 10
334.4873140485
 20
209.3546432782
 30
0.0
  0
SPLINE
  5
4BB
100
AcDbEntity
  8
RUNDUNGEN
100
AcDbSpline
 62
7
  6
CONTINUOUS
 70
0
 71
3
 72
21
 73
17
 74
0
 42
0.0000001
 43
0.0000001
 44
0.0000000001
 40
0.0
 40
0.0
 40
0.0
 40
0.0
 40
0.0660002394
 40
0.0983941011
 40
0.1297349599
 40
0.1597924332
 40
0.1888054653
 40
0.2452498768
 40
0.3021345811
 40
0.3603460358
 40
0.4200424697
 40
0.4811456025
 40
0.6067345986
 40
0.7359521058
 40
0.8674331246
 40
1.0
 40
1.0
 40
1.0
 40
1.0
 10
333.1032855488
 20
158.647497301
 30
0.0
 10
332.6696798685
 20
158.647497301
 30
0.0
 10
332.0150001693
 20
158.5898480954
 30
0.0
 10
331.2109614652
 20
158.2899040504
 30
0.0
 10
330.6938881045
 20
157.9421491732
 30
0.0
 10
330.3028674224
 20
157.4849837502
 30
0.0
 10
329.9769042966
 20
156.7907299084
 30
0.0
 10
329.8967312118
 20
155.8303007761
 30
0.0
 10
330.1810964358
 20
154.726357341
 30
0.0
 10
330.7217425115
 20
153.7041412533
 30
0.0
 10
331.4533641483
 20
152.7768235043
 30
0.0
 10
332.6340357651
 20
151.6629331303
 30
0.0
 10
334.3959327088
 20
150.5317340969
 30
0.0
 10
336.763148844
 20
149.5846950079
 30
0.0
 10
339.294857886
 20
149.0216506
 30
0.0
 10
341.0322110525
 20
148.897497301
 30
0.0
 10
341.9031435022
 20
148.897497301
 30
0.0
  0
SPLINE
  5
4BC
100
AcDbEntity
  8
0
100
AcDbSpline
 62
7
  6
CONTINUOUS
 70
0
 71
3
 72
19
 73
15
 74
0
 42
0.0000001
 43
0.0000001
 44
0.0000000001
 40
0.0
 40
0.0
 40
0.0
 40
0.0
 40
0.0666497725
 40
0.1313031996
 40
0.1622622519
 40
0.1921196014
 40
0.2495047454
 40
0.3064810231
 40
0.3643249385
 40
0.4835207494
 40
0.6078156849
 40
0.7360781339
 40
0.8671531413
 40
1.0
 40
1.0
 40
1.0
 40
1.0
 10
353.3030014556
 20
158.647497301
 30
0.0
 10
353.6891497835
 20
158.647497301
 30
0.0
 10
354.4532089829
 20
158.5891430007
 30
0.0
 10
355.3520674169
 20
158.2328192719
 30
0.0
 10
355.9003848258
 20
157.7448070984
 30
0.0
 10
356.2917201216
 20
157.1751643552
 30
0.0
 10
356.5091439806
 20
156.3413026861
 30
0.0
 10
356.4096190658
 20
155.3348025529
 30
0.0
 10
355.9426418536
 20
154.0510917851
 30
0.0
 10
354.8882180063
 20
152.6194743788
 30
0.0
 10
353.209931475
 20
151.2471430177
 30
0.0
 10
351.2423072894
 20
150.188324455
 30
0.0
 10
349.0884024471
 20
149.4405212409
 30
0.0
 10
347.5825833071
 20
149.1450269203
 30
0.0
 10
346.819283381
 20
149.046177632
 30
0.0
  0
ELLIPSE
  5
4BD
100
AcDbEntity
  8
RUNDUNGEN
100
AcDbEllipse
 62
7
  6
CONTINUOUS
 10
732.0359743535
 20
203.397497301
 30
0.0
 11
14.2165593702
 21
-0.5423133308
 31
0.0
 40
0.4203155586
 41
1.5396153878
 42
1.5416988386
  0
ELLIPSE
  5
4BE
100
AcDbEntity
  8
RUNDUNGEN
100
AcDbEllipse
 62
7
  6
CONTINUOUS
 10
791.3188824329
 20
203.397497301
 30
0.0
 11
14.2165593702
 21
0.5423133308
 31
0.0
 40
0.4203155586
 41
1.5998770104
 42
1.6019772748
  0
ELLIPSE
  5
4BF
100
AcDbEntity
  8
0
100
AcDbEllipse
 62
7
  6
CONTINUOUS
 10
351.3253526808
 20
201.397497301
 30
0.0
 11
0.7255286101
 21
7.994185694
 31
0.0
 40
0.4203155586
 41
0.2482200958
 42
1.6089244346
  0
ELLIPSE
  5
4C0
100
AcDbEntity
  8
RUNDUNGEN
100
AcDbEllipse
 62
7
  6
CONTINUOUS
 10
335.0809343235
 20
201.397497301
 30
0.0
 11
-0.7255286101
 21
7.994185694
 31
0.0
 40
0.4203155586
 41
-1.6089244346
 42
-0.2482200958
  0
ENDSEC
  0
SECTION
  2
OBJECTS
  0
DICTIONARY
  5
C
100
AcDbDictionary
280
0
281
1
  3
ACAD_GROUP
350
D
  3
ACAD_MLINESTYLE
350
17
  3
ACAD_LAYOUT
350
1A
  3
ACAD_PLOTSETTINGS
350
19
  3
ACAD_PLOTSTYLENAME
350
E
  0
DICTIONARY
  5
D
102
{ACAD_REACTORS
330
C
102
}
100
AcDbDictionary
280
0
281
1
  0
ACDBDICTIONARYWDFLT
  5
E
102
{ACAD_REACTORS
330
C
102
}
100
AcDbDictionary
281
1
  3
Normal
350
F
100
AcDbDictionaryWithDefault
340
F
  0
DICTIONARY
  5
17
102
{ACAD_REACTORS
330
C
102
}
100
AcDbDictionary
280
0
281
1
  3
Standard
350
18
  0
DICTIONARY
  5
19
102
{ACAD_REACTORS
330
C
102
}
100
AcDbDictionary
281
1
  0
DICTIONARY
  5
1A
102
{ACAD_REACTORS
330
C
102
}
100
AcDbDictionary
281
1
  3
Model
350
4C1
  3
Layout1
350
4C2
  0
ACDBPLACEHOLDER
  5
F
102
{ACAD_REACTORS
330
E
102
}
  0
MLINESTYLE
  5
18
102
{ACAD_REACTORS
330
17
102
}
100
AcDbMlineStyle
  2
STANDARD
 70
0
  3

 62
256
 51
90.0
 52
90.0
 71
2
 49
0.5
 62
256
  6
BYLAYER
 49
-0.5
 62
256
  6
BYLAYER
  0
LAYOUT
  5
4C1
102
{ACAD_REACTORS
330
1A
102
}
100
AcDbPlotSettings
  1

  2
none_device
  4
ISO_A0_(1189.00_x_841.00_MM)
  6

 40
0.0
 41
0.0
 42
0.0
 43
0.0
 44
1189.0
 45
841.0
 46
0.0
 47
0.0
 48
0.0
 49
0.0
140
0.0
141
0.0
142
1.0
143
1.0
 70
1024
 72
1
 73
0
 74
0
  7

 75
0
147
1.0
148
0.0
149
0.0
100
AcDbLayout
  1
Model
 70
0
 71
0
 10
0.0
 20
0.0
 11
1189.0
 21
841.0
 12
0.0
 22
0.0
 32
0.0
 14
0.0
 24
0.0
 34
0.0
 15
0.0
 25
0.0
 35
0.0
146
0.0
 13
0.0
 23
0.0
 33
0.0
 16
1.0
 26
0.0
 36
0.0
 17
0.0
 27
1.0
 37
0.0
 76
0
330
20A
345
0
346
0
  0
LAYOUT
  5
4C2
102
{ACAD_REACTORS
330
1A
102
}
100
AcDbPlotSettings
  1

  2
none_device
  4
ISO_A0_(1189.00_x_841.00_MM)
  6

 40
0.0
 41
0.0
 42
0.0
 43
0.0
 44
1189.0
 45
841.0
 46
0.0
 47
0.0
 48
0.0
 49
0.0
140
0.0
141
0.0
142
1.0
143
1.0
 70
0
 72
1
 73
0
 74
0
  7

 75
0
147
1.0
148
0.0
149
0.0
100
AcDbLayout
  1
Layout1
 70
0
 71
1
 10
0.0
 20
0.0
 11
1189.0
 21
841.0
 12
0.0
 22
0.0
 32
0.0
 14
0.0
 24
0.0
 34
0.0
 15
0.0
 25
0.0
 35
0.0
146
0.0
 13
0.0
 23
0.0
 33
0.0
 16
1.0
 26
0.0
 36
0.0
 17
0.0
 27
1.0
 37
0.0
 76
0
330
20B
345
0
346
0
  0
ENDSEC
  0
EOF
