999
DXF file: ISAK-RG-1-13_140_7903185_M34585-P-4.dxf
999
Pro/ENGINEER 2010140 by Parametric Technology Corporation
  0
SECTION
  2
HEADER
  9
$ACADVER
  1
AC1015
  9
$DWGCODEPAGE
  3
ANSI_1252
  9
$EXTMAX
 10
1189.0
 20
841.0
 30
0.0
  9
$EXTMIN
 10
0.0
 20
0.0
 30
0.0
  9
$LIMMIN
 10
0.0
 20
0.0
  9
$LIMMAX
 10
1189.0
 20
841.0
  9
$VIEWCTR
 10
594.5
 20
420.5
  9
$VIEWSIZE
 40
841.0
  9
$CLAYER
  8
0
  9
$LTSCALE
 40
65.395
  9
$CELTYPE
  6
BYLAYER
  9
$DIMSCALE
 40
1.0
  9
$DIMASZ
 40
3.5
  9
$DIMEXO
 40
7.43125
  9
$DIMDLI
 40
45.182
  9
$DIMEXE
 40
21.402
  9
$DIMCEN
 40
10.701
  9
$DIMLFAC
 40
1.0
  9
$DIMBLK
  1
_FILLED
  9
$DIMTXT
 40
3.5
  9
$DIMTOL
 70
1
  9
$DIMLIM
 70
0
  9
$DIMTFAC
 40
1.0
  9
$DIMTP
 40
0.005
  9
$DIMTM
 40
0.005
  9
$PDMODE
 70
3
  9
$PDSIZE
 40
0.3125
  9
$HANDSEED
  5
4C4
  9
$TILEMODE
 70
1
  9
$MEASUREMENT
 70
1
  9
$INSUNITS
 70
4
  0
ENDSEC
  0
SECTION
  2
CLASSES
  0
CLASS
  1
ACDBDICTIONARYWDFLT
  2
AcDbDictionaryWithDefault
  3
AutoCAD 2000
 90
0
280
0
281
0
  0
CLASS
  1
ACDBPLACEHOLDER
  2
AcDbPlaceHolder
  3
AutoCAD 2000
 90
0
280
0
281
0
  0
CLASS
  1
LAYOUT
  2
AcDbLayout
  3
AutoCAD 2000
 90
0
280
0
281
0
  0
ENDSEC
  0
SECTION
  2
TABLES
  0
TABLE
  2
VPORT
  5
8
100
AcDbSymbolTable
 70
2
  0
VPORT
  5
1F4
100
AcDbSymbolTableRecord
100
AcDbViewportTableRecord
  2
*ACTIVE
 70
0
 10
0.0
 20
0.0
 11
1.0
 21
1.0
 12
594.5
 22
420.5
 13
0.0
 23
0.0
 14
1.0
 24
1.0
 15
0.0
 25
0.0
 16
0.0
 26
0.0
 36
1.0
 17
0.0
 27
0.0
 37
0.0
 40
841.0
 41
1.4137931034
 42
50.0
 43
0.0
 44
0.0
 50
0.0
 51
0.0
 71
0
 72
100
 73
1
 74
1
 75
0
 76
0
 77
0
 78
0
  0
ENDTAB
  0
TABLE
  2
LTYPE
  5
5
100
AcDbSymbolTable
 70
6
  0
LTYPE
  5
14
100
AcDbSymbolTableRecord
100
AcDbLinetypeTableRecord
  2
BYBLOCK
 70
0
  3

 72
65
 73
0
 40
0.0
  0
LTYPE
  5
15
100
AcDbSymbolTableRecord
100
AcDbLinetypeTableRecord
  2
BYLAYER
 70
0
  3

 72
65
 73
0
 40
0.0
  0
LTYPE
  5
16
100
AcDbSymbolTableRecord
100
AcDbLinetypeTableRecord
  2
CONTINUOUS
 70
64
  3
Solid line
 72
65
 73
0
 40
0.0
  0
LTYPE
  5
1F5
100
AcDbSymbolTableRecord
100
AcDbLinetypeTableRecord
  2
CENTER
 70
64
  3
____ _ ____ _ ____ _ ____ _ ____ _ ____ _ ____
 72
65
 73
4
 40
0.6
 49
0.375
 74
0
 49
-0.075
 74
0
 49
0.075
 74
0
 49
-0.075
 74
0
  0
LTYPE
  5
1F6
100
AcDbSymbolTableRecord
100
AcDbLinetypeTableRecord
  2
HIDDEN
 70
64
  3
- - - - - - - - - - - - - - - - - - - -
 72
65
 73
2
 40
0.2
 49
0.1
 74
0
 49
-0.1
 74
0
  0
LTYPE
  5
1F7
100
AcDbSymbolTableRecord
100
AcDbLinetypeTableRecord
  2
PHANTOM
 70
64
  3
_____ _ _ _____ _ _ _____ _ _ _____
 72
65
 73
6
 40
0.8
 49
0.45
 74
0
 49
-0.05
 74
0
 49
0.1
 74
0
 49
-0.05
 74
0
 49
0.1
 74
0
 49
-0.05
 74
0
  0
LTYPE
  5
1F8
100
AcDbSymbolTableRecord
100
AcDbLinetypeTableRecord
  2
DOT
 70
64
  3
. . . . . . . . . . . . . . . . . . . .
 72
65
 73
2
 40
0.2
 49
0.1
 74
0
 49
-0.1
 74
0
  0
LTYPE
  5
1F9
100
AcDbSymbolTableRecord
100
AcDbLinetypeTableRecord
  2
DASHED
 70
64
  3
- - - - - - - - - - - - - - - - - - - -
 72
65
 73
2
 40
0.2
 49
0.1
 74
0
 49
-0.1
 74
0
  0
ENDTAB
  0
TABLE
  2
LAYER
  5
2
100
AcDbSymbolTable
 70
36
  0
LAYER
  5
10
100
AcDbSymbolTableRecord
100
AcDbLayerTableRecord
  2
0
 70
0
 62
7
  6
CONTINUOUS
370
-3
390
F
  0
LAYER
  5
1FA
100
AcDbSymbolTableRecord
100
AcDbLayerTableRecord
  2
DEFAULT_1
 70
0
 62
7
  6
CENTER
370
-3
390
F
  0
LAYER
  5
1FB
100
AcDbSymbolTableRecord
100
AcDbLayerTableRecord
  2
DEFAULT_2
 70
0
 62
8
  6
HIDDEN
370
-3
390
F
  0
LAYER
  5
1FC
100
AcDbSymbolTableRecord
100
AcDbLayerTableRecord
  2
DEFAULT_3
 70
0
 62
7
  6
PHANTOM
370
-3
390
F
  0
LAYER
  5
1FD
100
AcDbSymbolTableRecord
100
AcDbLayerTableRecord
  2
BEZUGSACHSEN
 70
0
 62
7
  6
CONTINUOUS
370
-3
390
F
  0
LAYER
  5
1FE
100
AcDbSymbolTableRecord
100
AcDbLayerTableRecord
  2
BEZUGSEBENEN
 70
0
 62
7
  6
CONTINUOUS
370
-3
390
F
  0
LAYER
  5
1FF
100
AcDbSymbolTableRecord
100
AcDbLayerTableRecord
  2
BG_STARTBEZUEGE
 70
0
 62
7
  6
CONTINUOUS
370
-3
390
F
  0
LAYER
  5
200
100
AcDbSymbolTableRecord
100
AcDbLayerTableRecord
  2
FASEN
 70
0
 62
7
  6
CONTINUOUS
370
-3
390
F
  0
LAYER
  5
201
100
AcDbSymbolTableRecord
100
AcDbLayerTableRecord
  2
HILFEN
 70
0
 62
7
  6
CONTINUOUS
370
-3
390
F
  0
LAYER
  5
202
100
AcDbSymbolTableRecord
100
AcDbLayerTableRecord
  2
KONSTRUKTIONSELEMENTE
 70
0
 62
7
  6
CONTINUOUS
370
-3
390
F
  0
LAYER
  5
203
100
AcDbSymbolTableRecord
100
AcDbLayerTableRecord
  2
NORM
 70
0
 62
7
  6
CONTINUOUS
370
-3
390
F
  0
LAYER
  5
204
100
AcDbSymbolTableRecord
100
AcDbLayerTableRecord
  2
PLATZIERUNG
 70
0
 62
7
  6
CONTINUOUS
370
-3
390
F
  0
LAYER
  5
205
100
AcDbSymbolTableRecord
100
AcDbLayerTableRecord
  2
RUNDUNGEN
 70
0
 62
7
  6
CONTINUOUS
370
-3
390
F
  0
LAYER
  5
206
100
AcDbSymbolTableRecord
100
AcDbLayerTableRecord
  2
TEIL_STARTBEZUEGE
 70
0
 62
7
  6
CONTINUOUS
370
-3
390
F
  0
LAYER
  5
207
100
AcDbSymbolTableRecord
100
AcDbLayerTableRecord
  2
T_STARTBEZUEGE
 70
0
 62
7
  6
CONTINUOUS
370
-3
390
F
  0
LAYER
  5
208
100
AcDbSymbolTableRecord
100
AcDbLayerTableRecord
  2
ZEICHNUNGSBEMASSUNGEN
 70
0
 62
7
  6
CONTINUOUS
370
-3
390
F
  0
ENDTAB
  0
TABLE
  2
STYLE
  5
3
100
AcDbSymbolTable
 70
1
  0
STYLE
  5
11
100
AcDbSymbolTableRecord
100
AcDbTextStyleTableRecord
  2
STANDARD
 70
0
 40
0.0
 41
0.7
 50
0.0
 71
0
 42
0.2
  3
txt
  4

  0
STYLE
  5
209
100
AcDbSymbolTableRecord
100
AcDbTextStyleTableRecord
  2
TEXTSTYLE_1
 70
0
 40
0.0
 41
0.8
 50
0.0
 71
0
 42
0.2
  3
gdt
  4

  0
ENDTAB
  0
TABLE
  2
VIEW
  5
6
100
AcDbSymbolTable
 70
0
  0
ENDTAB
  0
TABLE
  2
UCS
  5
7
100
AcDbSymbolTable
 70
0
  0
ENDTAB
  0
TABLE
  2
APPID
  5
9
100
AcDbSymbolTable
 70
1
  0
APPID
  5
20A
100
AcDbSymbolTableRecord
100
AcDbRegAppTableRecord
  2
ACAD
 70
0
  0
ENDTAB
  0
TABLE
  2
BLOCK_RECORD
  5
1
100
AcDbSymbolTable
 70
0
  0
BLOCK_RECORD
  5
20B
100
AcDbSymbolTableRecord
100
AcDbBlockTableRecord
  2
*Model_Space
  0
BLOCK_RECORD
  5
20C
100
AcDbSymbolTableRecord
100
AcDbBlockTableRecord
  2
*Paper_Space
  0
ENDTAB
  0
TABLE
  2
DIMSTYLE
  5
A
100
AcDbSymbolTable
 70
1
100
AcDbDimStyleTable
 71
0
  0
DIMSTYLE
105
20D
100
AcDbSymbolTableRecord
100
AcDbDimStyleTableRecord
  2
STANDARD
 70
0
  3

  4

 40
1.0
 41
3.5
 42
0.0625
 43
0.38
 44
0.18
 45
0.0
 46
0.0
 47
0.005
 48
0.005
140
3.5
141
0.09
142
0.0
143
25.4
144
1.0
145
0.0
146
1.0
147
0.09
 71
1.0
 72
0.0
 73
0
 74
0
 75
0
 76
0
 77
1
 78
8
170
0
171
2
172
0
173
0
174
0
175
0
176
0
177
0
178
5
270
2
271
3
272
3
273
2
274
2
275
0
280
0
281
0
282
0
283
1
284
8
285
0
286
0
287
3
288
0
340
11
  0
ENDTAB
  0
ENDSEC
  0
SECTION
  2
BLOCKS
  0
BLOCK
  5
20
100
AcDbEntity
  8
0
100
AcDbBlockBegin
  2
*Model_Space
 70
0
 10
0.0
 20
0.0
 30
0.0
  3
*Model_Space
  1

  0
ENDBLK
  5
21
100
AcDbEntity
  8
0
100
AcDbBlockEnd
  0
BLOCK
  5
1C
100
AcDbEntity
  8
0
100
AcDbBlockBegin
  2
*Paper_Space
 70
0
 10
0.0
 20
0.0
 30
0.0
  3
*Paper_Space
  1

  0
ENDBLK
  5
1D
100
AcDbEntity
  8
0
100
AcDbBlockEnd
  0
ENDSEC
  0
SECTION
  2
ENTITIES
  0
MTEXT
  5
20E
100
AcDbEntity
  8
0
100
AcDbMText
 62
5
  6
CONTINUOUS
  7
STANDARD
 71
1
 72
1
 10
685.9546044569
 20
559.7755793715
 30
0.0
 11
0.0
 21
1.0
 31
0.0
 44
0.9
  1
RUD
 40
11.0
 41
29.3333333333
  0
MTEXT
  5
20F
100
AcDbEntity
  8
0
100
AcDbMText
 62
5
  6
CONTINUOUS
  7
STANDARD
 71
1
 72
1
 10
857.5253276381
 20
501.736261141
 30
0.0
 11
0.0
 21
1.0
 31
0.0
 44
0.9
  1
ISAK-RG 1-13/140
 40
11.0
 41
129.9047619048
  0
MTEXT
  5
210
100
AcDbEntity
  8
0
100
AcDbMText
 62
5
  6
CONTINUOUS
  7
STANDARD
 71
1
 72
1
 10
367.2648429899
 20
489.2591678719
 30
0.0
 11
0.0
 21
1.0
 31
0.0
 44
0.9
  1
RUD ISAK-RG 1-13/140
 40
11.0
 41
165.7857142857
  0
LINE
  5
211
100
AcDbEntity
  8
0
100
AcDbLine
 62
7
  6
CONTINUOUS
 10
0.0
 20
0.0
 11
0.0
 21
841.0
  0
LINE
  5
212
100
AcDbEntity
  8
0
100
AcDbLine
 62
7
  6
CONTINUOUS
 10
0.0
 20
0.0
 11
1189.0
 21
0.0
  0
LINE
  5
213
100
AcDbEntity
  8
0
100
AcDbLine
 62
7
  6
CONTINUOUS
 10
0.0
 20
841.0
 11
1189.0
 21
841.0
  0
LINE
  5
214
100
AcDbEntity
  8
0
100
AcDbLine
 62
7
  6
CONTINUOUS
 10
1189.0
 20
0.0
 11
1189.0
 21
841.0
  0
LINE
  5
215
100
AcDbEntity
  8
RUNDUNGEN
100
AcDbLine
 62
7
  6
CONTINUOUS
 10
739.6726253001
 20
119.8772872221
 11
743.1726253001
 21
119.8772872221
  0
LINE
  5
216
100
AcDbEntity
  8
RUNDUNGEN
100
AcDbLine
 62
7
  6
CONTINUOUS
 10
812.1726253001
 20
119.8772872221
 11
815.6726253001
 21
119.8772872221
  0
LINE
  5
217
100
AcDbEntity
  8
RUNDUNGEN
100
AcDbLine
 62
7
  6
CONTINUOUS
 10
749.6726253001
 20
130.4838889399
 11
758.5280410883
 21
130.4838889399
  0
LINE
  5
218
100
AcDbEntity
  8
RUNDUNGEN
100
AcDbLine
 62
7
  6
CONTINUOUS
 10
796.817209512
 20
130.4838889399
 11
805.6726253001
 21
130.4838889399
  0
LINE
  5
219
100
AcDbEntity
  8
0
100
AcDbLine
 62
7
  6
CONTINUOUS
 10
759.4891772443
 20
183.7997402414
 11
765.7291772443
 21
183.7997402414
  0
LINE
  5
21A
100
AcDbEntity
  8
0
100
AcDbLine
 62
7
  6
CONTINUOUS
 10
769.0387189362
 20
183.7997402414
 11
770.2867189362
 21
183.7997402414
  0
LINE
  5
21B
100
AcDbEntity
  8
0
100
AcDbLine
 62
7
  6
CONTINUOUS
 10
776.2315590282
 20
183.7997402414
 11
777.6726253001
 21
183.7997402414
  0
LINE
  5
21C
100
AcDbEntity
  8
0
100
AcDbLine
 62
7
  6
CONTINUOUS
 10
788.531094905
 20
183.7997402414
 11
793.0524520929
 21
183.7997402414
  0
LINE
  5
21D
100
AcDbEntity
  8
0
100
AcDbLine
 62
7
  6
CONTINUOUS
 10
759.4891772443
 20
184.2593596492
 11
765.7291772443
 21
184.2593596492
  0
LINE
  5
21E
100
AcDbEntity
  8
0
100
AcDbLine
 62
7
  6
CONTINUOUS
 10
769.0387189362
 20
184.2593596492
 11
770.2867189362
 21
184.2593596492
  0
LINE
  5
21F
100
AcDbEntity
  8
0
100
AcDbLine
 62
7
  6
CONTINUOUS
 10
776.2315590282
 20
184.2593596492
 11
777.2973476251
 21
184.2593596492
  0
LINE
  5
220
100
AcDbEntity
  8
0
100
AcDbLine
 62
7
  6
CONTINUOUS
 10
788.531094905
 20
184.2593596492
 11
793.0524520929
 21
184.2593596492
  0
LINE
  5
221
100
AcDbEntity
  8
0
100
AcDbLine
 62
7
  6
CONTINUOUS
 10
793.0797995142
 20
184.718979057
 11
789.779094905
 21
184.718979057
  0
LINE
  5
222
100
AcDbEntity
  8
0
100
AcDbLine
 62
7
  6
CONTINUOUS
 10
763.5841772443
 20
184.9028268201
 11
761.6341772443
 21
184.9028268201
  0
LINE
  5
223
100
AcDbEntity
  8
0
100
AcDbLine
 62
7
  6
CONTINUOUS
 10
761.9851772443
 20
185.3164842871
 11
763.2331772443
 21
185.3164842871
  0
LINE
  5
224
100
AcDbEntity
  8
0
100
AcDbLine
 62
7
  6
CONTINUOUS
 10
761.9851772443
 20
185.7761036948
 11
763.2331772443
 21
185.7761036948
  0
LINE
  5
225
100
AcDbEntity
  8
0
100
AcDbLine
 62
7
  6
CONTINUOUS
 10
762.7456772443
 20
186.4195708657
 11
762.4726772443
 21
186.4195708657
  0
LINE
  5
226
100
AcDbEntity
  8
0
100
AcDbLine
 62
7
  6
CONTINUOUS
 10
763.2331772443
 20
186.6953425104
 11
762.9016772443
 21
186.6953425104
  0
LINE
  5
227
100
AcDbEntity
  8
0
100
AcDbLine
 62
7
  6
CONTINUOUS
 10
762.3166772443
 20
186.6953425104
 11
761.9851772443
 21
186.6953425104
  0
LINE
  5
228
100
AcDbEntity
  8
0
100
AcDbLine
 62
7
  6
CONTINUOUS
 10
761.6341772443
 20
187.1089999774
 11
762.3166772443
 21
187.1089999774
  0
LINE
  5
229
100
AcDbEntity
  8
0
100
AcDbLine
 62
7
  6
CONTINUOUS
 10
762.9016772443
 20
187.1089999774
 11
763.5841772443
 21
187.1089999774
  0
LINE
  5
22A
100
AcDbEntity
  8
0
100
AcDbLine
 62
7
  6
CONTINUOUS
 10
770.2867189362
 20
187.2594486566
 11
773.4067189362
 21
187.2594486566
  0
LINE
  5
22B
100
AcDbEntity
  8
0
100
AcDbLine
 62
7
  6
CONTINUOUS
 10
761.6341772443
 20
187.5686193851
 11
762.3166772443
 21
187.5686193851
  0
LINE
  5
22C
100
AcDbEntity
  8
0
100
AcDbLine
 62
7
  6
CONTINUOUS
 10
762.9016772443
 20
187.5686193851
 11
763.5841772443
 21
187.5686193851
  0
LINE
  5
22D
100
AcDbEntity
  8
0
100
AcDbLine
 62
7
  6
CONTINUOUS
 10
763.5841772443
 20
187.6605432667
 11
762.9016772443
 21
187.6605432667
  0
LINE
  5
22E
100
AcDbEntity
  8
0
100
AcDbLine
 62
7
  6
CONTINUOUS
 10
762.3166772443
 20
187.6605432667
 11
761.6341772443
 21
187.6605432667
  0
LINE
  5
22F
100
AcDbEntity
  8
0
100
AcDbLine
 62
7
  6
CONTINUOUS
 10
770.2867189362
 20
187.7190680644
 11
773.4067189362
 21
187.7190680644
  0
LINE
  5
230
100
AcDbEntity
  8
0
100
AcDbLine
 62
7
  6
CONTINUOUS
 10
761.9851772443
 20
188.0742007337
 11
762.3166772443
 21
188.0742007337
  0
LINE
  5
231
100
AcDbEntity
  8
0
100
AcDbLine
 62
7
  6
CONTINUOUS
 10
762.9016772443
 20
188.0742007337
 11
763.2331772443
 21
188.0742007337
  0
LINE
  5
232
100
AcDbEntity
  8
0
100
AcDbLine
 62
7
  6
CONTINUOUS
 10
773.9267189362
 20
188.1419179195
 11
770.2867189362
 21
188.1419179195
  0
LINE
  5
233
100
AcDbEntity
  8
0
100
AcDbLine
 62
7
  6
CONTINUOUS
 10
762.4726772443
 20
188.3499723783
 11
762.7456772443
 21
188.3499723783
  0
LINE
  5
234
100
AcDbEntity
  8
0
100
AcDbLine
 62
7
  6
CONTINUOUS
 10
761.9851772443
 20
188.5338201415
 11
762.3166772443
 21
188.5338201415
  0
LINE
  5
235
100
AcDbEntity
  8
0
100
AcDbLine
 62
7
  6
CONTINUOUS
 10
762.9016772443
 20
188.5338201415
 11
763.2331772443
 21
188.5338201415
  0
LINE
  5
236
100
AcDbEntity
  8
0
100
AcDbLine
 62
7
  6
CONTINUOUS
 10
762.4726772443
 20
188.8095917861
 11
762.7456772443
 21
188.8095917861
  0
LINE
  5
237
100
AcDbEntity
  8
0
100
AcDbLine
 62
7
  6
CONTINUOUS
 10
789.779094905
 20
189.3151731347
 11
788.531094905
 21
189.3151731347
  0
LINE
  5
238
100
AcDbEntity
  8
0
100
AcDbLine
 62
7
  6
CONTINUOUS
 10
770.2867189362
 20
189.3611350754
 11
769.0387189362
 21
189.3611350754
  0
LINE
  5
239
100
AcDbEntity
  8
0
100
AcDbLine
 62
7
  6
CONTINUOUS
 10
763.2331772443
 20
189.453058957
 11
761.9851772443
 21
189.453058957
  0
LINE
  5
23A
100
AcDbEntity
  8
0
100
AcDbLine
 62
7
  6
CONTINUOUS
 10
761.6341772443
 20
189.866716424
 11
763.5841772443
 21
189.866716424
  0
LINE
  5
23B
100
AcDbEntity
  8
0
100
AcDbLine
 62
7
  6
CONTINUOUS
 10
788.531094905
 20
190.0873337397
 11
793.0797995142
 21
190.0873337397
  0
LINE
  5
23C
100
AcDbEntity
  8
0
100
AcDbLine
 62
7
  6
CONTINUOUS
 10
769.0387189362
 20
190.1332956805
 11
773.9267189362
 21
190.1332956805
  0
LINE
  5
23D
100
AcDbEntity
  8
0
100
AcDbLine
 62
7
  6
CONTINUOUS
 10
761.6341772443
 20
190.3263358318
 11
763.5841772443
 21
190.3263358318
  0
LINE
  5
23E
100
AcDbEntity
  8
0
100
AcDbLine
 62
7
  6
CONTINUOUS
 10
788.531094905
 20
190.5469531475
 11
793.0797995142
 21
190.5469531475
  0
LINE
  5
23F
100
AcDbEntity
  8
0
100
AcDbLine
 62
7
  6
CONTINUOUS
 10
769.0387189362
 20
190.5929150883
 11
773.9267189362
 21
190.5929150883
  0
LINE
  5
240
100
AcDbEntity
  8
0
100
AcDbLine
 62
7
  6
CONTINUOUS
 10
793.0524520929
 20
190.9698030026
 11
788.531094905
 21
190.9698030026
  0
LINE
  5
241
100
AcDbEntity
  8
0
100
AcDbLine
 62
7
  6
CONTINUOUS
 10
785.801094905
 20
190.9698030026
 11
784.553094905
 21
190.9698030026
  0
LINE
  5
242
100
AcDbEntity
  8
0
100
AcDbLine
 62
7
  6
CONTINUOUS
 10
779.6467189362
 20
190.9698030026
 11
778.3987189362
 21
190.9698030026
  0
LINE
  5
243
100
AcDbEntity
  8
0
100
AcDbLine
 62
7
  6
CONTINUOUS
 10
773.9267189362
 20
190.9698030026
 11
769.0387189362
 21
190.9698030026
  0
LINE
  5
244
100
AcDbEntity
  8
0
100
AcDbLine
 62
7
  6
CONTINUOUS
 10
765.7291772443
 20
190.9698030026
 11
759.4891772443
 21
190.9698030026
  0
LINE
  5
245
100
AcDbEntity
  8
RUNDUNGEN
100
AcDbLine
 62
7
  6
CONTINUOUS
 10
808.6726253001
 20
201.6557681875
 11
803.4491553391
 21
201.6557681875
  0
LINE
  5
246
100
AcDbEntity
  8
0
100
AcDbLine
 62
7
  6
CONTINUOUS
 10
803.4491553391
 20
201.6557681875
 11
803.3908831892
 21
201.6557681875
  0
LINE
  5
247
100
AcDbEntity
  8
0
100
AcDbLine
 62
7
  6
CONTINUOUS
 10
751.9543674111
 20
201.6557681875
 11
751.8960952611
 21
201.6557681875
  0
LINE
  5
248
100
AcDbEntity
  8
RUNDUNGEN
100
AcDbLine
 62
7
  6
CONTINUOUS
 10
751.8960952611
 20
201.6557681875
 11
746.6726253001
 21
201.6557681875
  0
LINE
  5
249
100
AcDbEntity
  8
BEZUGSACHSEN
100
AcDbLine
 62
7
  6
CONTINUOUS
 10
770.2726253001
 20
213.8807681875
 11
785.0726253001
 21
213.8807681875
  0
LINE
  5
24A
100
AcDbEntity
  8
BEZUGSACHSEN
100
AcDbLine
 62
7
  6
CONTINUOUS
 10
770.2726253001
 20
218.7464033851
 11
785.0726253001
 21
218.7464033851
  0
LINE
  5
24B
100
AcDbEntity
  8
BEZUGSACHSEN
100
AcDbLine
 62
7
  6
CONTINUOUS
 10
770.2726253001
 20
227.3651329899
 11
785.0726253001
 21
227.3651329899
  0
LINE
  5
24C
100
AcDbEntity
  8
BEZUGSACHSEN
100
AcDbLine
 62
7
  6
CONTINUOUS
 10
770.2726253001
 20
232.2307681875
 11
785.0726253001
 21
232.2307681875
  0
LINE
  5
24D
100
AcDbEntity
  8
RUNDUNGEN
100
AcDbLine
 62
7
  6
CONTINUOUS
 10
806.0186861395
 20
197.7090163649
 11
789.1441540271
 21
206.063959991
  0
LINE
  5
24E
100
AcDbEntity
  8
RUNDUNGEN
100
AcDbLine
 62
7
  6
CONTINUOUS
 10
722.8161307667
 20
201.7970849229
 11
726.2862682066
 21
198.2927557326
  0
LINE
  5
24F
100
AcDbEntity
  8
RUNDUNGEN
100
AcDbLine
 62
7
  6
CONTINUOUS
 10
735.6355641192
 20
188.8513398975
 11
753.7701047568
 21
170.5381170903
  0
LINE
  5
250
100
AcDbEntity
  8
RUNDUNGEN
100
AcDbLine
 62
7
  6
CONTINUOUS
 10
784.2258416544
 20
139.78229555
 11
791.4927212241
 21
132.4438143978
  0
LINE
  5
251
100
AcDbEntity
  8
0
100
AcDbLine
 62
7
  6
CONTINUOUS
 10
805.5854873304
 20
247.8888937538
 11
806.126503231
 21
248.0208086433
  0
LINE
  5
252
100
AcDbEntity
  8
0
100
AcDbLine
 62
7
  6
CONTINUOUS
 10
797.4702403091
 20
248.8122979914
 11
796.9292244086
 21
248.6803831136
  0
LINE
  5
253
100
AcDbEntity
  8
0
100
AcDbLine
 62
7
  6
CONTINUOUS
 10
795.170920797
 20
253.1654896086
 11
795.7119374715
 21
253.2974044865
  0
LINE
  5
254
100
AcDbEntity
  8
0
100
AcDbLine
 62
7
  6
CONTINUOUS
 10
764.8211620303
 20
247.8888937538
 11
765.4669958564
 21
248.0208086433
  0
LINE
  5
255
100
AcDbEntity
  8
0
100
AcDbLine
 62
7
  6
CONTINUOUS
 10
758.6211620303
 20
247.8888937538
 11
759.2669951173
 21
248.0208086433
  0
LINE
  5
256
100
AcDbEntity
  8
0
100
AcDbLine
 62
7
  6
CONTINUOUS
 10
806.126503231
 20
248.6803831136
 11
805.4502321944
 21
248.5484682357
  0
LINE
  5
257
100
AcDbEntity
  8
0
100
AcDbLine
 62
7
  6
CONTINUOUS
 10
796.9292244086
 20
247.8888937538
 11
797.6054946712
 21
248.0208086433
  0
LINE
  5
258
100
AcDbEntity
  8
0
100
AcDbLine
 62
7
  6
CONTINUOUS
 10
804.0976916691
 20
253.2974044865
 11
804.7739627057
 21
253.4293193644
  0
LINE
  5
259
100
AcDbEntity
  8
0
100
AcDbLine
 62
7
  6
CONTINUOUS
 10
795.7119374715
 20
254.0888937538
 11
795.0356664349
 21
253.9569788759
  0
LINE
  5
25A
100
AcDbEntity
  8
0
100
AcDbLine
 62
7
  6
CONTINUOUS
 10
804.9092162939
 20
254.0888937538
 11
803.962438081
 21
253.9569788759
  0
LINE
  5
25B
100
AcDbEntity
  8
RUNDUNGEN
100
AcDbLine
 62
7
  6
CONTINUOUS
 10
746.6726253001
 20
237.6557681875
 11
770.2726253001
 21
237.6557681875
  0
LINE
  5
25C
100
AcDbEntity
  8
RUNDUNGEN
100
AcDbLine
 62
7
  6
CONTINUOUS
 10
785.0726253001
 20
237.6557681875
 11
808.6726253001
 21
237.6557681875
  0
LINE
  5
25D
100
AcDbEntity
  8
RUNDUNGEN
100
AcDbLine
 62
7
  6
CONTINUOUS
 10
808.6726253001
 20
245.5105822246
 11
783.4252513335
 21
245.5105822246
  0
LINE
  5
25E
100
AcDbEntity
  8
RUNDUNGEN
100
AcDbLine
 62
7
  6
CONTINUOUS
 10
771.9199992667
 20
245.5105822246
 11
746.6726253001
 21
245.5105822246
  0
LINE
  5
25F
100
AcDbEntity
  8
0
100
AcDbLine
 62
7
  6
CONTINUOUS
 10
750.0961620303
 20
247.8888937538
 11
750.8711620303
 21
247.8888937538
  0
LINE
  5
260
100
AcDbEntity
  8
0
100
AcDbLine
 62
7
  6
CONTINUOUS
 10
754.1003285738
 20
247.8888937538
 11
755.0044954869
 21
247.8888937538
  0
LINE
  5
261
100
AcDbEntity
  8
0
100
AcDbLine
 62
7
  6
CONTINUOUS
 10
758.1044951173
 20
247.8888937538
 11
758.6211620303
 21
247.8888937538
  0
LINE
  5
262
100
AcDbEntity
  8
0
100
AcDbLine
 62
7
  6
CONTINUOUS
 10
761.7211620303
 20
247.8888937538
 11
764.8211620303
 21
247.8888937538
  0
LINE
  5
263
100
AcDbEntity
  8
0
100
AcDbLine
 62
7
  6
CONTINUOUS
 10
785.4326253001
 20
247.8888937538
 11
786.2441499249
 21
247.8888937538
  0
LINE
  5
264
100
AcDbEntity
  8
0
100
AcDbLine
 62
7
  6
CONTINUOUS
 10
787.3261826934
 20
247.8888937538
 11
788.1377073181
 21
247.8888937538
  0
LINE
  5
265
100
AcDbEntity
  8
0
100
AcDbLine
 62
7
  6
CONTINUOUS
 10
791.5190599857
 20
247.8888937538
 11
792.4658389725
 21
247.8888937538
  0
LINE
  5
266
100
AcDbEntity
  8
0
100
AcDbLine
 62
7
  6
CONTINUOUS
 10
795.7119374715
 20
247.8888937538
 11
796.9292244086
 21
247.8888937538
  0
LINE
  5
267
100
AcDbEntity
  8
0
100
AcDbLine
 62
7
  6
CONTINUOUS
 10
800.716339582
 20
247.8888937538
 11
801.5278642067
 21
247.8888937538
  0
LINE
  5
268
100
AcDbEntity
  8
0
100
AcDbLine
 62
7
  6
CONTINUOUS
 10
804.5034539815
 20
247.8888937538
 11
805.5854873304
 21
247.8888937538
  0
LINE
  5
269
100
AcDbEntity
  8
0
100
AcDbLine
 62
7
  6
CONTINUOUS
 10
805.4502321944
 20
248.5484682357
 11
804.6387075697
 21
248.5484682357
  0
LINE
  5
26A
100
AcDbEntity
  8
0
100
AcDbLine
 62
7
  6
CONTINUOUS
 10
796.9292244086
 20
248.6803831136
 11
795.7119374715
 21
248.6803831136
  0
LINE
  5
26B
100
AcDbEntity
  8
0
100
AcDbLine
 62
7
  6
CONTINUOUS
 10
764.8211620303
 20
248.6803831136
 11
762.4961620303
 21
248.6803831136
  0
LINE
  5
26C
100
AcDbEntity
  8
0
100
AcDbLine
 62
7
  6
CONTINUOUS
 10
758.6211620303
 20
248.6803831136
 11
758.1044951173
 21
248.6803831136
  0
LINE
  5
26D
100
AcDbEntity
  8
0
100
AcDbLine
 62
7
  6
CONTINUOUS
 10
803.2861670444
 20
249.3399575954
 11
802.6098960078
 21
249.3399575954
  0
LINE
  5
26E
100
AcDbEntity
  8
0
100
AcDbLine
 62
7
  6
CONTINUOUS
 10
796.7939700465
 20
250.5271916812
 11
798.0112569836
 21
250.5271916812
  0
LINE
  5
26F
100
AcDbEntity
  8
0
100
AcDbLine
 62
7
  6
CONTINUOUS
 10
750.8711620303
 20
250.6591065591
 11
753.0669953021
 21
250.6591065591
  0
LINE
  5
270
100
AcDbEntity
  8
0
100
AcDbLine
 62
7
  6
CONTINUOUS
 10
788.1377073181
 20
250.6591065591
 11
790.4370270237
 21
250.6591065591
  0
LINE
  5
271
100
AcDbEntity
  8
0
100
AcDbLine
 62
7
  6
CONTINUOUS
 10
804.7739627057
 20
250.791021437
 11
805.3149786062
 21
250.791021437
  0
LINE
  5
272
100
AcDbEntity
  8
0
100
AcDbLine
 62
7
  6
CONTINUOUS
 10
805.3149786062
 20
251.3186809486
 11
804.7739627057
 21
251.3186809486
  0
LINE
  5
273
100
AcDbEntity
  8
0
100
AcDbLine
 62
7
  6
CONTINUOUS
 10
798.8227816083
 20
251.3186809486
 11
796.7939700465
 21
251.3186809486
  0
LINE
  5
274
100
AcDbEntity
  8
0
100
AcDbLine
 62
7
  6
CONTINUOUS
 10
790.7075353609
 20
251.4505958264
 11
788.1377073181
 21
251.4505958264
  0
LINE
  5
275
100
AcDbEntity
  8
0
100
AcDbLine
 62
7
  6
CONTINUOUS
 10
753.3253285738
 20
251.4505958264
 11
750.8711620303
 21
251.4505958264
  0
LINE
  5
276
100
AcDbEntity
  8
0
100
AcDbLine
 62
7
  6
CONTINUOUS
 10
798.0112569836
 20
252.5059148496
 11
798.8227816083
 21
252.5059148496
  0
LINE
  5
277
100
AcDbEntity
  8
0
100
AcDbLine
 62
7
  6
CONTINUOUS
 10
802.7451511438
 20
252.637830097
 11
803.4214206326
 21
252.637830097
  0
LINE
  5
278
100
AcDbEntity
  8
0
100
AcDbLine
 62
7
  6
CONTINUOUS
 10
762.4961620303
 20
253.2974044865
 11
764.8211620303
 21
253.2974044865
  0
LINE
  5
279
100
AcDbEntity
  8
0
100
AcDbLine
 62
7
  6
CONTINUOUS
 10
795.7119374715
 20
253.2974044865
 11
796.9292244086
 21
253.2974044865
  0
LINE
  5
27A
100
AcDbEntity
  8
0
100
AcDbLine
 62
7
  6
CONTINUOUS
 10
750.8711620303
 20
253.4293193644
 11
753.3253285738
 21
253.4293193644
  0
LINE
  5
27B
100
AcDbEntity
  8
0
100
AcDbLine
 62
7
  6
CONTINUOUS
 10
788.1377073181
 20
253.4293193644
 11
790.7075353609
 21
253.4293193644
  0
LINE
  5
27C
100
AcDbEntity
  8
0
100
AcDbLine
 62
7
  6
CONTINUOUS
 10
804.7739627057
 20
253.4293193644
 11
805.3149786062
 21
253.4293193644
  0
LINE
  5
27D
100
AcDbEntity
  8
0
100
AcDbLine
 62
7
  6
CONTINUOUS
 10
805.1797250181
 20
254.0888937538
 11
804.9092162939
 21
254.0888937538
  0
LINE
  5
27E
100
AcDbEntity
  8
0
100
AcDbLine
 62
7
  6
CONTINUOUS
 10
801.5278642067
 20
254.0888937538
 11
800.716339582
 21
254.0888937538
  0
LINE
  5
27F
100
AcDbEntity
  8
0
100
AcDbLine
 62
7
  6
CONTINUOUS
 10
796.9292244086
 20
254.0888937538
 11
795.7119374715
 21
254.0888937538
  0
LINE
  5
280
100
AcDbEntity
  8
0
100
AcDbLine
 62
7
  6
CONTINUOUS
 10
790.5722813858
 20
254.0888937538
 11
787.3261826934
 21
254.0888937538
  0
LINE
  5
281
100
AcDbEntity
  8
0
100
AcDbLine
 62
7
  6
CONTINUOUS
 10
786.2441499249
 20
254.0888937538
 11
785.4326253001
 21
254.0888937538
  0
LINE
  5
282
100
AcDbEntity
  8
0
100
AcDbLine
 62
7
  6
CONTINUOUS
 10
764.8211620303
 20
254.0888937538
 11
761.7211620303
 21
254.0888937538
  0
LINE
  5
283
100
AcDbEntity
  8
0
100
AcDbLine
 62
7
  6
CONTINUOUS
 10
760.6878289434
 20
254.0888937538
 11
759.9128289434
 21
254.0888937538
  0
LINE
  5
284
100
AcDbEntity
  8
0
100
AcDbLine
 62
7
  6
CONTINUOUS
 10
756.8128289434
 20
254.0888937538
 11
756.0378285738
 21
254.0888937538
  0
LINE
  5
285
100
AcDbEntity
  8
0
100
AcDbLine
 62
7
  6
CONTINUOUS
 10
753.1961620303
 20
254.0888937538
 11
750.0961620303
 21
254.0888937538
  0
LINE
  5
286
100
AcDbEntity
  8
0
100
AcDbLine
 62
7
  6
CONTINUOUS
 10
795.0356664349
 20
248.0208086433
 11
795.7119374715
 21
247.8888937538
  0
LINE
  5
287
100
AcDbEntity
  8
0
100
AcDbLine
 62
7
  6
CONTINUOUS
 10
757.4586620303
 20
248.0208086433
 11
758.1044951173
 21
247.8888937538
  0
LINE
  5
288
100
AcDbEntity
  8
0
100
AcDbLine
 62
7
  6
CONTINUOUS
 10
753.8419954869
 20
253.9569788759
 11
753.1961620303
 21
254.0888937538
  0
LINE
  5
289
100
AcDbEntity
  8
0
100
AcDbLine
 62
7
  6
CONTINUOUS
 10
765.4669958564
 20
253.9569788759
 11
764.8211620303
 21
254.0888937538
  0
LINE
  5
28A
100
AcDbEntity
  8
0
100
AcDbLine
 62
7
  6
CONTINUOUS
 10
758.1044951173
 20
248.6803831136
 11
757.5878289434
 21
248.8122979914
  0
LINE
  5
28B
100
AcDbEntity
  8
0
100
AcDbLine
 62
7
  6
CONTINUOUS
 10
764.8211620303
 20
253.2974044865
 11
765.3378282043
 21
253.1654896086
  0
LINE
  5
28C
100
AcDbEntity
  8
0
100
AcDbLine
 62
7
  6
CONTINUOUS
 10
753.3253285738
 20
253.4293193644
 11
753.7128285738
 21
253.2974044865
  0
LINE
  5
28D
100
AcDbEntity
  8
RUNDUNGEN
100
AcDbLine
 62
7
  6
CONTINUOUS
 10
805.1881467307
 20
201.6557681875
 11
806.0186861395
 21
201.2445502709
  0
LINE
  5
28E
100
AcDbEntity
  8
RUNDUNGEN
100
AcDbLine
 62
7
  6
CONTINUOUS
 10
834.3322743631
 20
206.0836122903
 11
827.451397191
 21
209.4904825067
  0
LINE
  5
28F
100
AcDbEntity
  8
RUNDUNGEN
100
AcDbLine
 62
7
  6
CONTINUOUS
 10
741.2540631152
 20
196.1219130879
 11
737.8699621407
 21
199.5393580834
  0
LINE
  5
290
100
AcDbEntity
  8
RUNDUNGEN
100
AcDbLine
 62
7
  6
CONTINUOUS
 10
820.5875375659
 20
135.1152021016
 11
801.5751458435
 21
154.3149255834
  0
LINE
  5
291
100
AcDbEntity
  8
RUNDUNGEN
100
AcDbLine
 62
7
  6
CONTINUOUS
 10
820.5875375659
 20
138.6507360075
 11
801.5751458435
 21
157.8504594893
  0
LINE
  5
292
100
AcDbEntity
  8
0
100
AcDbLine
 62
7
  6
CONTINUOUS
 10
765.3378282043
 20
248.8122979914
 11
764.8211620303
 21
248.6803831136
  0
LINE
  5
293
100
AcDbEntity
  8
0
100
AcDbLine
 62
7
  6
CONTINUOUS
 10
759.1378289434
 20
248.8122979914
 11
758.6211620303
 21
248.6803831136
  0
LINE
  5
294
100
AcDbEntity
  8
RUNDUNGEN
100
AcDbLine
 62
7
  6
CONTINUOUS
 10
802.8089265952
 20
261.9652432068
 11
798.5212289931
 21
261.9652432068
  0
LINE
  5
295
100
AcDbEntity
  8
RUNDUNGEN
100
AcDbLine
 62
7
  6
CONTINUOUS
 10
756.8240216072
 20
261.9652432068
 11
752.5363233782
 21
261.9652432068
  0
LINE
  5
296
100
AcDbEntity
  8
RUNDUNGEN
100
AcDbLine
 62
7
  6
CONTINUOUS
 10
764.2158285582
 20
262.1557681875
 11
791.129422042
 21
262.1557681875
  0
LINE
  5
297
100
AcDbEntity
  8
0
100
AcDbLine
 62
7
  6
CONTINUOUS
 10
806.126503231
 20
253.9569788759
 11
805.1797250181
 21
254.0888937538
  0
LINE
  5
298
100
AcDbEntity
  8
0
100
AcDbLine
 62
7
  6
CONTINUOUS
 10
805.3149786062
 20
250.791021437
 11
806.126503231
 21
250.6591065591
  0
LINE
  5
299
100
AcDbEntity
  8
0
100
AcDbLine
 62
7
  6
CONTINUOUS
 10
804.6387075697
 20
248.5484682357
 11
803.962438081
 21
248.6803831136
  0
LINE
  5
29A
100
AcDbEntity
  8
0
100
AcDbLine
 62
7
  6
CONTINUOUS
 10
791.2485516484
 20
253.9569788759
 11
790.5722813858
 21
254.0888937538
  0
LINE
  5
29B
100
AcDbEntity
  8
0
100
AcDbLine
 62
7
  6
CONTINUOUS
 10
797.6054946712
 20
253.9569788759
 11
796.9292244086
 21
254.0888937538
  0
LINE
  5
29C
100
AcDbEntity
  8
0
100
AcDbLine
 62
7
  6
CONTINUOUS
 10
805.3149786062
 20
253.4293193644
 11
805.9912496428
 21
253.2974044865
  0
LINE
  5
29D
100
AcDbEntity
  8
0
100
AcDbLine
 62
7
  6
CONTINUOUS
 10
795.7119374715
 20
248.6803831136
 11
795.170920797
 21
248.8122979914
  0
LINE
  5
29E
100
AcDbEntity
  8
0
100
AcDbLine
 62
7
  6
CONTINUOUS
 10
803.962438081
 20
248.0208086433
 11
804.5034539815
 21
247.8888937538
  0
LINE
  5
29F
100
AcDbEntity
  8
0
100
AcDbLine
 62
7
  6
CONTINUOUS
 10
796.9292244086
 20
253.2974044865
 11
797.4702403091
 21
253.1654896086
  0
LINE
  5
2A0
100
AcDbEntity
  8
0
100
AcDbLine
 62
7
  6
CONTINUOUS
 10
790.7075353609
 20
253.4293193644
 11
791.1132976733
 21
253.2974044865
  0
LINE
  5
2A1
100
AcDbEntity
  8
0
100
AcDbLine
 62
7
  6
CONTINUOUS
 10
807.0732814439
 20
250.791021437
 11
806.3970119552
 21
251.0548511928
  0
LINE
  5
2A2
100
AcDbEntity
  8
0
100
AcDbLine
 62
7
  6
CONTINUOUS
 10
794.4946505344
 20
248.2846384337
 11
795.0356664349
 21
248.0208086433
  0
LINE
  5
2A3
100
AcDbEntity
  8
0
100
AcDbLine
 62
7
  6
CONTINUOUS
 10
803.4214206326
 20
248.2846384337
 11
803.962438081
 21
248.0208086433
  0
LINE
  5
2A4
100
AcDbEntity
  8
RUNDUNGEN
100
AcDbLine
 62
7
  6
CONTINUOUS
 10
834.3322743631
 20
209.6191461962
 11
827.451397191
 21
213.0260164127
  0
LINE
  5
2A5
100
AcDbEntity
  8
0
100
AcDbLine
 62
7
  6
CONTINUOUS
 10
756.9419951173
 20
248.2846384337
 11
757.4586620303
 21
248.0208086433
  0
LINE
  5
2A6
100
AcDbEntity
  8
0
100
AcDbLine
 62
7
  6
CONTINUOUS
 10
765.9836620303
 20
253.6931491201
 11
765.4669958564
 21
253.9569788759
  0
LINE
  5
2A7
100
AcDbEntity
  8
0
100
AcDbLine
 62
7
  6
CONTINUOUS
 10
757.5878289434
 20
248.8122979914
 11
757.2003289434
 21
249.0761278396
  0
LINE
  5
2A8
100
AcDbEntity
  8
0
100
AcDbLine
 62
7
  6
CONTINUOUS
 10
765.3378282043
 20
253.1654896086
 11
765.7253282043
 21
252.9016598528
  0
LINE
  5
2A9
100
AcDbEntity
  8
0
100
AcDbLine
 62
7
  6
CONTINUOUS
 10
754.3586620303
 20
253.5612342423
 11
753.8419954869
 21
253.9569788759
  0
LINE
  5
2AA
100
AcDbEntity
  8
0
100
AcDbLine
 62
7
  6
CONTINUOUS
 10
773.4067189362
 20
187.2594486566
 11
776.2315590282
 21
183.7997402414
  0
LINE
  5
2AB
100
AcDbEntity
  8
0
100
AcDbLine
 62
7
  6
CONTINUOUS
 10
773.4067189362
 20
187.7190680644
 11
776.2315590282
 21
184.2593596492
  0
LINE
  5
2AC
100
AcDbEntity
  8
0
100
AcDbLine
 62
7
  6
CONTINUOUS
 10
777.6726253001
 20
183.7997402414
 11
774.7355120109
 21
187.3969546791
  0
LINE
  5
2AD
100
AcDbEntity
  8
0
100
AcDbLine
 62
7
  6
CONTINUOUS
 10
803.962438081
 20
248.6803831136
 11
803.6919293568
 21
248.8122979914
  0
LINE
  5
2AE
100
AcDbEntity
  8
0
100
AcDbLine
 62
7
  6
CONTINUOUS
 10
798.1465113457
 20
253.6931491201
 11
797.6054946712
 21
253.9569788759
  0
LINE
  5
2AF
100
AcDbEntity
  8
0
100
AcDbLine
 62
7
  6
CONTINUOUS
 10
806.6675191315
 20
253.6931491201
 11
806.126503231
 21
253.9569788759
  0
LINE
  5
2B0
100
AcDbEntity
  8
0
100
AcDbLine
 62
7
  6
CONTINUOUS
 10
795.170920797
 20
248.8122979914
 11
794.7651584846
 21
249.0761278396
  0
LINE
  5
2B1
100
AcDbEntity
  8
0
100
AcDbLine
 62
7
  6
CONTINUOUS
 10
803.0156583202
 20
248.5484682357
 11
803.4214206326
 21
248.2846384337
  0
LINE
  5
2B2
100
AcDbEntity
  8
0
100
AcDbLine
 62
7
  6
CONTINUOUS
 10
797.4702403091
 20
253.1654896086
 11
797.8760026215
 21
252.9016598528
  0
LINE
  5
2B3
100
AcDbEntity
  8
0
100
AcDbLine
 62
7
  6
CONTINUOUS
 10
806.126503231
 20
250.6591065591
 11
806.5322655433
 21
250.3952768033
  0
LINE
  5
2B4
100
AcDbEntity
  8
0
100
AcDbLine
 62
7
  6
CONTINUOUS
 10
805.9912496428
 20
253.2974044865
 11
806.3970119552
 21
253.0335747307
  0
LINE
  5
2B5
100
AcDbEntity
  8
0
100
AcDbLine
 62
7
  6
CONTINUOUS
 10
791.7895683229
 20
253.5612342423
 11
791.2485516484
 21
253.9569788759
  0
LINE
  5
2B6
100
AcDbEntity
  8
0
100
AcDbLine
 62
7
  6
CONTINUOUS
 10
756.4253289434
 20
248.8122979914
 11
756.9419951173
 21
248.2846384337
  0
LINE
  5
2B7
100
AcDbEntity
  8
0
100
AcDbLine
 62
7
  6
CONTINUOUS
 10
753.7128285738
 20
253.2974044865
 11
753.9711620303
 21
253.0335747307
  0
LINE
  5
2B8
100
AcDbEntity
  8
0
100
AcDbLine
 62
7
  6
CONTINUOUS
 10
766.5003282043
 20
253.1654896086
 11
765.9836620303
 21
253.6931491201
  0
LINE
  5
2B9
100
AcDbEntity
  8
RUNDUNGEN
100
AcDbLine
 62
7
  6
CONTINUOUS
 10
746.6726252904
 20
201.6557682033
 11
740.6726253001
 21
211.4057681875
  0
LINE
  5
2BA
100
AcDbEntity
  8
0
100
AcDbLine
 62
7
  6
CONTINUOUS
 10
793.9536338599
 20
248.8122979914
 11
794.4946505344
 21
248.2846384337
  0
LINE
  5
2BB
100
AcDbEntity
  8
0
100
AcDbLine
 62
7
  6
CONTINUOUS
 10
791.1132976733
 20
253.2974044865
 11
791.3838060105
 21
253.0335747307
  0
LINE
  5
2BC
100
AcDbEntity
  8
0
100
AcDbLine
 62
7
  6
CONTINUOUS
 10
798.6875280202
 20
253.1654896086
 11
798.1465113457
 21
253.6931491201
  0
LINE
  5
2BD
100
AcDbEntity
  8
0
100
AcDbLine
 62
7
  6
CONTINUOUS
 10
803.6919293568
 20
248.8122979914
 11
803.4214206326
 21
249.0761278396
  0
LINE
  5
2BE
100
AcDbEntity
  8
0
100
AcDbLine
 62
7
  6
CONTINUOUS
 10
754.7461620303
 20
253.0335747307
 11
754.3586620303
 21
253.5612342423
  0
LINE
  5
2BF
100
AcDbEntity
  8
0
100
AcDbLine
 62
7
  6
CONTINUOUS
 10
757.2003289434
 20
249.0761278396
 11
756.9419951173
 21
249.4718724733
  0
LINE
  5
2C0
100
AcDbEntity
  8
0
100
AcDbLine
 62
7
  6
CONTINUOUS
 10
675.6726253001
 20
629.1557681875
 11
675.6726253001
 21
509.1557681875
  0
LINE
  5
2C1
100
AcDbEntity
  8
0
100
AcDbLine
 62
7
  6
CONTINUOUS
 10
764.6726253001
 20
321.4822492075
 11
755.5177150393
 21
319.0291983963
  0
LINE
  5
2C2
100
AcDbEntity
  8
0
100
AcDbLine
 62
7
  6
CONTINUOUS
 10
799.8275355609
 20
319.0291983963
 11
790.6726253001
 21
321.4822492075
  0
LINE
  5
2C3
100
AcDbEntity
  8
0
100
AcDbLine
 62
7
  6
CONTINUOUS
 10
807.2085365799
 20
253.1654896086
 11
806.6675191315
 21
253.6931491201
  0
LINE
  5
2C4
100
AcDbEntity
  8
0
100
AcDbLine
 62
7
  6
CONTINUOUS
 10
792.1953302483
 20
253.0335747307
 11
791.7895683229
 21
253.5612342423
  0
LINE
  5
2C5
100
AcDbEntity
  8
0
100
AcDbLine
 62
7
  6
CONTINUOUS
 10
794.7651584846
 20
249.0761278396
 11
794.4946505344
 21
249.4718724733
  0
LINE
  5
2C6
100
AcDbEntity
  8
0
100
AcDbLine
 62
7
  6
CONTINUOUS
 10
765.7253282043
 20
252.9016598528
 11
765.9836620303
 21
252.5059148496
  0
LINE
  5
2C7
100
AcDbEntity
  8
0
100
AcDbLine
 62
7
  6
CONTINUOUS
 10
756.1669954869
 20
249.3399575954
 11
756.4253289434
 21
248.8122979914
  0
LINE
  5
2C8
100
AcDbEntity
  8
0
100
AcDbLine
 62
7
  6
CONTINUOUS
 10
766.7586620303
 20
252.637830097
 11
766.5003282043
 21
253.1654896086
  0
LINE
  5
2C9
100
AcDbEntity
  8
0
100
AcDbLine
 62
7
  6
CONTINUOUS
 10
755.0044954869
 20
247.8888937538
 11
753.8419954869
 21
250.9229363149
  0
LINE
  5
2CA
100
AcDbEntity
  8
0
100
AcDbLine
 62
7
  6
CONTINUOUS
 10
753.0669953021
 20
250.6591065591
 11
754.1003285738
 21
247.8888937538
  0
LINE
  5
2CB
100
AcDbEntity
  8
0
100
AcDbLine
 62
7
  6
CONTINUOUS
 10
707.6726253001
 20
629.1557681875
 11
707.6726253001
 21
509.1557681875
  0
LINE
  5
2CC
100
AcDbEntity
  8
0
100
AcDbLine
 62
7
  6
CONTINUOUS
 10
802.7451511438
 20
248.9442128693
 11
803.0156583202
 21
248.5484682357
  0
LINE
  5
2CD
100
AcDbEntity
  8
0
100
AcDbLine
 62
7
  6
CONTINUOUS
 10
807.3437901681
 20
250.3952768033
 11
807.0732814439
 21
250.791021437
  0
LINE
  5
2CE
100
AcDbEntity
  8
0
100
AcDbLine
 62
7
  6
CONTINUOUS
 10
806.3970119552
 20
253.0335747307
 11
806.6675191315
 21
252.637830097
  0
LINE
  5
2CF
100
AcDbEntity
  8
0
100
AcDbLine
 62
7
  6
CONTINUOUS
 10
793.6831259096
 20
249.3399575954
 11
793.9536338599
 21
248.8122979914
  0
LINE
  5
2D0
100
AcDbEntity
  8
0
100
AcDbLine
 62
7
  6
CONTINUOUS
 10
753.9711620303
 20
253.0335747307
 11
754.1003285738
 21
252.637830097
  0
LINE
  5
2D1
100
AcDbEntity
  8
0
100
AcDbLine
 62
7
  6
CONTINUOUS
 10
754.8753285738
 20
252.637830097
 11
754.7461620303
 21
253.0335747307
  0
LINE
  5
2D2
100
AcDbEntity
  8
0
100
AcDbLine
 62
7
  6
CONTINUOUS
 10
733.3628047786
 20
280.6557681875
 11
739.2991950913
 21
258.5008579267
  0
LINE
  5
2D3
100
AcDbEntity
  8
0
100
AcDbLine
 62
7
  6
CONTINUOUS
 10
756.9419951173
 20
249.4718724733
 11
756.8128289434
 21
249.9995319849
  0
LINE
  5
2D4
100
AcDbEntity
  8
0
100
AcDbLine
 62
7
  6
CONTINUOUS
 10
739.2991950913
 20
242.0170187871
 11
740.6726253001
 21
234.2279090135
  0
LINE
  5
2D5
100
AcDbEntity
  8
RUNDUNGEN
100
AcDbLine
 62
7
  6
CONTINUOUS
 10
721.7310430324
 20
204.2305636489
 11
721.7310430324
 21
207.7660975549
  0
LINE
  5
2D6
100
AcDbEntity
  8
RUNDUNGEN
100
AcDbLine
 62
7
  6
CONTINUOUS
 10
733.6726253001
 20
124.1199279093
 11
733.6726253001
 21
136.2172572815
  0
LINE
  5
2D7
100
AcDbEntity
  8
RUNDUNGEN
100
AcDbLine
 62
7
  6
CONTINUOUS
 10
735.2829106055
 20
189.6422204835
 11
735.2829106055
 21
193.1777543894
  0
LINE
  5
2D8
100
AcDbEntity
  8
0
100
AcDbLine
 62
7
  6
CONTINUOUS
 10
816.0460555089
 20
302.8106784483
 11
799.8275355609
 21
319.0291983963
  0
LINE
  5
2D9
100
AcDbEntity
  8
0
100
AcDbLine
 62
7
  6
CONTINUOUS
 10
803.4214206326
 20
249.0761278396
 11
803.2861670444
 21
249.3399575954
  0
LINE
  5
2DA
100
AcDbEntity
  8
0
100
AcDbLine
 62
7
  6
CONTINUOUS
 10
806.5322655433
 20
250.3952768033
 11
806.8027742675
 21
249.867617107
  0
LINE
  5
2DB
100
AcDbEntity
  8
0
100
AcDbLine
 62
7
  6
CONTINUOUS
 10
792.4658389725
 20
247.8888937538
 11
791.2485516484
 21
250.9229363149
  0
LINE
  5
2DC
100
AcDbEntity
  8
0
100
AcDbLine
 62
7
  6
CONTINUOUS
 10
790.4370270237
 20
250.6591065591
 11
791.5190599857
 21
247.8888937538
  0
LINE
  5
2DD
100
AcDbEntity
  8
0
100
AcDbLine
 62
7
  6
CONTINUOUS
 10
791.3838060105
 20
253.0335747307
 11
791.5190599857
 21
252.637830097
  0
LINE
  5
2DE
100
AcDbEntity
  8
0
100
AcDbLine
 62
7
  6
CONTINUOUS
 10
792.3305846104
 20
252.637830097
 11
792.1953302483
 21
253.0335747307
  0
LINE
  5
2DF
100
AcDbEntity
  8
0
100
AcDbLine
 62
7
  6
CONTINUOUS
 10
765.9836620303
 20
252.5059148496
 11
766.1128282043
 21
251.978255338
  0
LINE
  5
2E0
100
AcDbEntity
  8
0
100
AcDbLine
 62
7
  6
CONTINUOUS
 10
756.0378285738
 20
249.9995319849
 11
756.1669954869
 21
249.3399575954
  0
LINE
  5
2E1
100
AcDbEntity
  8
0
100
AcDbLine
 62
7
  6
CONTINUOUS
 10
766.8878282043
 20
251.978255338
 11
766.7586620303
 21
252.637830097
  0
LINE
  5
2E2
100
AcDbEntity
  8
0
100
AcDbLine
 62
7
  6
CONTINUOUS
 10
739.2991950913
 20
242.0170187871
 11
739.2991950913
 21
258.5008579267
  0
LINE
  5
2E3
100
AcDbEntity
  8
RUNDUNGEN
100
AcDbLine
 62
7
  6
CONTINUOUS
 10
740.6726253001
 20
211.4057681875
 11
740.6726253001
 21
254.1557681875
  0
LINE
  5
2E4
100
AcDbEntity
  8
RUNDUNGEN
100
AcDbLine
 62
7
  6
CONTINUOUS
 10
743.6726253001
 20
120.2308406127
 11
743.6726253001
 21
126.2412482528
  0
LINE
  5
2E5
100
AcDbEntity
  8
0
100
AcDbLine
 62
7
  6
CONTINUOUS
 10
750.0961620303
 20
254.0888937538
 11
750.0961620303
 21
247.8888937538
  0
LINE
  5
2E6
100
AcDbEntity
  8
0
100
AcDbLine
 62
7
  6
CONTINUOUS
 10
750.8711620303
 20
247.8888937538
 11
750.8711620303
 21
250.6591065591
  0
LINE
  5
2E7
100
AcDbEntity
  8
0
100
AcDbLine
 62
7
  6
CONTINUOUS
 10
750.8711620303
 20
251.4505958264
 11
750.8711620303
 21
253.4293193644
  0
LINE
  5
2E8
100
AcDbEntity
  8
0
100
AcDbLine
 62
7
  6
CONTINUOUS
 10
754.1003285738
 20
252.637830097
 11
754.1003285738
 21
252.2420850938
  0
LINE
  5
2E9
100
AcDbEntity
  8
0
100
AcDbLine
 62
7
  6
CONTINUOUS
 10
754.8753285738
 20
252.1101702159
 11
754.8753285738
 21
252.637830097
  0
LINE
  5
2EA
100
AcDbEntity
  8
0
100
AcDbLine
 62
7
  6
CONTINUOUS
 10
756.0378285738
 20
254.0888937538
 11
756.0378285738
 21
249.9995319849
  0
LINE
  5
2EB
100
AcDbEntity
  8
KONSTRUKTIONSELEMENTE
100
AcDbLine
 62
7
  6
CONTINUOUS
 10
756.2324760469
 20
223.6557681875
 11
756.2324760469
 21
226.1557681875
  0
LINE
  5
2EC
100
AcDbEntity
  8
0
100
AcDbLine
 62
7
  6
CONTINUOUS
 10
756.8128289434
 20
249.9995319849
 11
756.8128289434
 21
254.0888937538
  0
LINE
  5
2ED
100
AcDbEntity
  8
0
100
AcDbLine
 62
7
  6
CONTINUOUS
 10
758.7091772443
 20
190.4182597133
 11
758.7091772443
 21
184.3512835307
  0
LINE
  5
2EE
100
AcDbEntity
  8
0
100
AcDbLine
 62
7
  6
CONTINUOUS
 10
797.8760026215
 20
252.9016598528
 11
798.0112569836
 21
252.5059148496
  0
LINE
  5
2EF
100
AcDbEntity
  8
0
100
AcDbLine
 62
7
  6
CONTINUOUS
 10
802.6098960078
 20
249.3399575954
 11
802.7451511438
 21
248.9442128693
  0
LINE
  5
2F0
100
AcDbEntity
  8
0
100
AcDbLine
 62
7
  6
CONTINUOUS
 10
794.4946505344
 20
249.4718724733
 11
794.3593961723
 21
249.9995319849
  0
LINE
  5
2F1
100
AcDbEntity
  8
0
100
AcDbLine
 62
7
  6
CONTINUOUS
 10
793.5478715475
 20
249.9995319849
 11
793.6831259096
 21
249.3399575954
  0
LINE
  5
2F2
100
AcDbEntity
  8
0
100
AcDbLine
 62
7
  6
CONTINUOUS
 10
759.9128289434
 20
254.0888937538
 11
759.9128289434
 21
249.9995319849
  0
LINE
  5
2F3
100
AcDbEntity
  8
0
100
AcDbLine
 62
7
  6
CONTINUOUS
 10
760.6878289434
 20
249.9995319849
 11
760.6878289434
 21
254.0888937538
  0
LINE
  5
2F4
100
AcDbEntity
  8
0
100
AcDbLine
 62
7
  6
CONTINUOUS
 10
761.2441772443
 20
185.1785984647
 11
761.2441772443
 21
187.2928477405
  0
LINE
  5
2F5
100
AcDbEntity
  8
0
100
AcDbLine
 62
7
  6
CONTINUOUS
 10
761.2441772443
 20
187.9363149114
 11
761.2441772443
 21
190.0505641871
  0
LINE
  5
2F6
100
AcDbEntity
  8
0
100
AcDbLine
 62
7
  6
CONTINUOUS
 10
761.7211620303
 20
254.0888937538
 11
761.7211620303
 21
247.8888937538
  0
LINE
  5
2F7
100
AcDbEntity
  8
0
100
AcDbLine
 62
7
  6
CONTINUOUS
 10
761.8291772443
 20
189.3427502991
 11
761.8291772443
 21
188.1845093915
  0
LINE
  5
2F8
100
AcDbEntity
  8
0
100
AcDbLine
 62
7
  6
CONTINUOUS
 10
761.8291772443
 20
186.5850338525
 11
761.8291772443
 21
185.4267929449
  0
LINE
  5
2F9
100
AcDbEntity
  8
0
100
AcDbLine
 62
7
  6
CONTINUOUS
 10
762.3166772443
 20
186.5298795236
 11
762.3166772443
 21
186.6953425104
  0
LINE
  5
2FA
100
AcDbEntity
  8
0
100
AcDbLine
 62
7
  6
CONTINUOUS
 10
762.3166772443
 20
187.1089999774
 11
762.3166772443
 21
187.6605432667
  0
LINE
  5
2FB
100
AcDbEntity
  8
0
100
AcDbLine
 62
7
  6
CONTINUOUS
 10
762.3166772443
 20
188.0742007337
 11
762.3166772443
 21
188.6992831283
  0
LINE
  5
2FC
100
AcDbEntity
  8
0
100
AcDbLine
 62
7
  6
CONTINUOUS
 10
762.4961620303
 20
248.6803831136
 11
762.4961620303
 21
253.2974044865
  0
LINE
  5
2FD
100
AcDbEntity
  8
0
100
AcDbLine
 62
7
  6
CONTINUOUS
 10
762.9016772443
 20
187.6605432667
 11
762.9016772443
 21
187.1089999774
  0
LINE
  5
2FE
100
AcDbEntity
  8
0
100
AcDbLine
 62
7
  6
CONTINUOUS
 10
762.9016772443
 20
188.6992831283
 11
762.9016772443
 21
188.0742007337
  0
LINE
  5
2FF
100
AcDbEntity
  8
0
100
AcDbLine
 62
7
  6
CONTINUOUS
 10
762.9016772443
 20
186.6953425104
 11
762.9016772443
 21
186.5298795236
  0
LINE
  5
300
100
AcDbEntity
  8
0
100
AcDbLine
 62
7
  6
CONTINUOUS
 10
763.3891772443
 20
185.4267929449
 11
763.3891772443
 21
186.5850338525
  0
LINE
  5
301
100
AcDbEntity
  8
0
100
AcDbLine
 62
7
  6
CONTINUOUS
 10
763.3891772443
 20
188.1845093915
 11
763.3891772443
 21
189.3427502991
  0
LINE
  5
302
100
AcDbEntity
  8
0
100
AcDbLine
 62
7
  6
CONTINUOUS
 10
763.9741772443
 20
190.0505641871
 11
763.9741772443
 21
187.9363149114
  0
LINE
  5
303
100
AcDbEntity
  8
0
100
AcDbLine
 62
7
  6
CONTINUOUS
 10
763.9741772443
 20
187.2928477405
 11
763.9741772443
 21
185.1785984647
  0
LINE
  5
304
100
AcDbEntity
  8
0
100
AcDbLine
 62
7
  6
CONTINUOUS
 10
764.6726253001
 20
452.0973692638
 11
764.6726253001
 21
286.2141671112
  0
LINE
  5
305
100
AcDbEntity
  8
0
100
AcDbLine
 62
7
  6
CONTINUOUS
 10
766.1128282043
 20
251.978255338
 11
766.1128282043
 21
249.9995319849
  0
LINE
  5
306
100
AcDbEntity
  8
0
100
AcDbLine
 62
7
  6
CONTINUOUS
 10
766.5091772443
 20
184.3512835307
 11
766.5091772443
 21
190.4182597133
  0
LINE
  5
307
100
AcDbEntity
  8
0
100
AcDbLine
 62
7
  6
CONTINUOUS
 10
766.8878282043
 20
249.9995319849
 11
766.8878282043
 21
251.978255338
  0
LINE
  5
308
100
AcDbEntity
  8
0
100
AcDbLine
 62
7
  6
CONTINUOUS
 10
769.0387189362
 20
190.9698030026
 11
769.0387189362
 21
190.1332956805
  0
LINE
  5
309
100
AcDbEntity
  8
0
100
AcDbLine
 62
7
  6
CONTINUOUS
 10
769.0387189362
 20
189.3611350754
 11
769.0387189362
 21
183.7997402414
  0
LINE
  5
30A
100
AcDbEntity
  8
0
100
AcDbLine
 62
7
  6
CONTINUOUS
 10
770.2726253001
 20
223.6557681875
 11
770.2726253001
 21
208.7670222281
  0
LINE
  5
30B
100
AcDbEntity
  8
KONSTRUKTIONSELEMENTE
100
AcDbLine
 62
7
  6
CONTINUOUS
 10
770.2726253001
 20
223.6557681875
 11
770.2726253001
 21
240.8557681875
  0
LINE
  5
30C
100
AcDbEntity
  8
0
100
AcDbLine
 62
7
  6
CONTINUOUS
 10
770.2867189362
 20
183.7997402414
 11
770.2867189362
 21
187.7190680644
  0
LINE
  5
30D
100
AcDbEntity
  8
0
100
AcDbLine
 62
7
  6
CONTINUOUS
 10
770.2867189362
 20
188.1419179195
 11
770.2867189362
 21
189.3611350754
  0
LINE
  5
30E
100
AcDbEntity
  8
0
100
AcDbLine
 62
7
  6
CONTINUOUS
 10
773.4067189362
 20
187.2594486566
 11
773.4067189362
 21
187.7190680644
  0
LINE
  5
30F
100
AcDbEntity
  8
KONSTRUKTIONSELEMENTE
100
AcDbLine
 62
7
  6
CONTINUOUS
 10
774.1726253001
 20
232.2307681875
 11
774.1726253001
 21
232.6608188214
  0
LINE
  5
310
100
AcDbEntity
  8
KONSTRUKTIONSELEMENTE
100
AcDbLine
 62
7
  6
CONTINUOUS
 10
774.1726253001
 20
262.5040673014
 11
774.1726253001
 21
263.7735171936
  0
LINE
  5
311
100
AcDbEntity
  8
0
100
AcDbLine
 62
7
  6
CONTINUOUS
 10
774.7355120109
 20
187.3969546791
 11
774.7355120109
 21
187.8565740868
  0
LINE
  5
312
100
AcDbEntity
  8
KONSTRUKTIONSELEMENTE
100
AcDbLine
 62
7
  6
CONTINUOUS
 10
775.1726253001
 20
201.2509902095
 11
775.1726253001
 21
213.8807681875
  0
LINE
  5
313
100
AcDbEntity
  8
KONSTRUKTIONSELEMENTE
100
AcDbLine
 62
7
  6
CONTINUOUS
 10
775.1726253001
 20
262.4157267822
 11
775.1726253001
 21
273.4053455853
  0
LINE
  5
314
100
AcDbEntity
  8
0
100
AcDbLine
 62
7
  6
CONTINUOUS
 10
775.3348356549
 20
189.5972262078
 11
775.3348356549
 21
189.1376068
  0
LINE
  5
315
100
AcDbEntity
  8
KONSTRUKTIONSELEMENTE
100
AcDbLine
 62
7
  6
CONTINUOUS
 10
775.4226253001
 20
232.2307681875
 11
775.4226253001
 21
247.9012519176
  0
LINE
  5
316
100
AcDbEntity
  8
0
100
AcDbLine
 62
7
  6
CONTINUOUS
 10
776.2315590282
 20
183.7997402414
 11
776.2315590282
 21
184.2593596492
  0
LINE
  5
317
100
AcDbEntity
  8
0
100
AcDbLine
 62
7
  6
CONTINUOUS
 10
778.3987189362
 20
190.9698030026
 11
778.3987189362
 21
186.4332081522
  0
LINE
  5
318
100
AcDbEntity
  8
0
100
AcDbLine
 62
7
  6
CONTINUOUS
 10
779.6467189362
 20
186.4332081522
 11
779.6467189362
 21
190.9698030026
  0
LINE
  5
319
100
AcDbEntity
  8
KONSTRUKTIONSELEMENTE
100
AcDbLine
 62
7
  6
CONTINUOUS
 10
779.9226253001
 20
232.2307681875
 11
779.9226253001
 21
247.9012519176
  0
LINE
  5
31A
100
AcDbEntity
  8
KONSTRUKTIONSELEMENTE
100
AcDbLine
 62
7
  6
CONTINUOUS
 10
780.1726253001
 20
201.2509902095
 11
780.1726253001
 21
213.8807681875
  0
LINE
  5
31B
100
AcDbEntity
  8
KONSTRUKTIONSELEMENTE
100
AcDbLine
 62
7
  6
CONTINUOUS
 10
780.1726253001
 20
262.4157267822
 11
780.1726253001
 21
273.4053455853
  0
LINE
  5
31C
100
AcDbEntity
  8
0
100
AcDbLine
 62
7
  6
CONTINUOUS
 10
739.2991950913
 20
302.8106784483
 11
733.3628047786
 21
280.6557681875
  0
LINE
  5
31D
100
AcDbEntity
  8
0
100
AcDbLine
 62
7
  6
CONTINUOUS
 10
807.4790437563
 20
249.867617107
 11
807.3437901681
 21
250.3952768033
  0
LINE
  5
31E
100
AcDbEntity
  8
0
100
AcDbLine
 62
7
  6
CONTINUOUS
 10
807.3437901681
 20
252.637830097
 11
807.2085365799
 21
253.1654896086
  0
LINE
  5
31F
100
AcDbEntity
  8
0
100
AcDbLine
 62
7
  6
CONTINUOUS
 10
798.8227816083
 20
252.5059148496
 11
798.6875280202
 21
253.1654896086
  0
LINE
  5
320
100
AcDbEntity
  8
KONSTRUKTIONSELEMENTE
100
AcDbLine
 62
7
  6
CONTINUOUS
 10
781.1726253001
 20
263.7735171936
 11
781.1726253001
 21
262.5040673014
  0
LINE
  5
321
100
AcDbEntity
  8
KONSTRUKTIONSELEMENTE
100
AcDbLine
 62
7
  6
CONTINUOUS
 10
781.1726253001
 20
232.6608188214
 11
781.1726253001
 21
232.2307681875
  0
LINE
  5
322
100
AcDbEntity
  8
0
100
AcDbLine
 62
7
  6
CONTINUOUS
 10
784.553094905
 20
190.9698030026
 11
784.553094905
 21
186.4332081522
  0
LINE
  5
323
100
AcDbEntity
  8
0
100
AcDbLine
 62
7
  6
CONTINUOUS
 10
785.0726253001
 20
208.7670222281
 11
785.0726253001
 21
223.6557681875
  0
LINE
  5
324
100
AcDbEntity
  8
KONSTRUKTIONSELEMENTE
100
AcDbLine
 62
7
  6
CONTINUOUS
 10
785.0726253001
 20
223.6557681875
 11
785.0726253001
 21
240.8557683083
  0
LINE
  5
325
100
AcDbEntity
  8
0
100
AcDbLine
 62
7
  6
CONTINUOUS
 10
785.4326253001
 20
254.0888937538
 11
785.4326253001
 21
247.8888937538
  0
LINE
  5
326
100
AcDbEntity
  8
0
100
AcDbLine
 62
7
  6
CONTINUOUS
 10
785.801094905
 20
186.4332081522
 11
785.801094905
 21
190.9698030026
  0
LINE
  5
327
100
AcDbEntity
  8
0
100
AcDbLine
 62
7
  6
CONTINUOUS
 10
786.2441499249
 20
247.8888937538
 11
786.2441499249
 21
254.0888937538
  0
LINE
  5
328
100
AcDbEntity
  8
0
100
AcDbLine
 62
7
  6
CONTINUOUS
 10
787.3261826934
 20
254.0888937538
 11
787.3261826934
 21
247.8888937538
  0
LINE
  5
329
100
AcDbEntity
  8
0
100
AcDbLine
 62
7
  6
CONTINUOUS
 10
788.1377073181
 20
247.8888937538
 11
788.1377073181
 21
250.6591065591
  0
LINE
  5
32A
100
AcDbEntity
  8
0
100
AcDbLine
 62
7
  6
CONTINUOUS
 10
788.1377073181
 20
251.4505958264
 11
788.1377073181
 21
253.4293193644
  0
LINE
  5
32B
100
AcDbEntity
  8
0
100
AcDbLine
 62
7
  6
CONTINUOUS
 10
788.531094905
 20
190.9698030026
 11
788.531094905
 21
190.0873337397
  0
LINE
  5
32C
100
AcDbEntity
  8
0
100
AcDbLine
 62
7
  6
CONTINUOUS
 10
788.531094905
 20
189.3151731347
 11
788.531094905
 21
183.7997402414
  0
LINE
  5
32D
100
AcDbEntity
  8
0
100
AcDbLine
 62
7
  6
CONTINUOUS
 10
789.779094905
 20
184.718979057
 11
789.779094905
 21
189.3151731347
  0
LINE
  5
32E
100
AcDbEntity
  8
0
100
AcDbLine
 62
7
  6
CONTINUOUS
 10
790.6726253001
 20
452.0973692638
 11
790.6726253001
 21
286.2141671112
  0
LINE
  5
32F
100
AcDbEntity
  8
0
100
AcDbLine
 62
7
  6
CONTINUOUS
 10
791.5190599857
 20
252.637830097
 11
791.5190599857
 21
252.2420850938
  0
LINE
  5
330
100
AcDbEntity
  8
0
100
AcDbLine
 62
7
  6
CONTINUOUS
 10
792.3305846104
 20
252.1101702159
 11
792.3305846104
 21
252.637830097
  0
LINE
  5
331
100
AcDbEntity
  8
0
100
AcDbLine
 62
7
  6
CONTINUOUS
 10
793.5478715475
 20
251.978255338
 11
793.5478715475
 21
249.9995319849
  0
LINE
  5
332
100
AcDbEntity
  8
0
100
AcDbLine
 62
7
  6
CONTINUOUS
 10
794.3593961723
 20
249.9995319849
 11
794.3593961723
 21
251.978255338
  0
LINE
  5
333
100
AcDbEntity
  8
0
100
AcDbLine
 62
7
  6
CONTINUOUS
 10
795.1514927837
 20
187.8627758061
 11
795.1514927837
 21
187.4031563983
  0
LINE
  5
334
100
AcDbEntity
  8
0
100
AcDbLine
 62
7
  6
CONTINUOUS
 10
796.7939700465
 20
251.3186809486
 11
796.7939700465
 21
250.5271916812
  0
LINE
  5
335
100
AcDbEntity
  8
0
100
AcDbLine
 62
7
  6
CONTINUOUS
 10
798.0112569836
 20
250.5271916812
 11
798.0112569836
 21
249.4718724733
  0
LINE
  5
336
100
AcDbEntity
  8
0
100
AcDbLine
 62
7
  6
CONTINUOUS
 10
798.8227816083
 20
249.3399575954
 11
798.8227816083
 21
251.3186809486
  0
LINE
  5
337
100
AcDbEntity
  8
KONSTRUKTIONSELEMENTE
100
AcDbLine
 62
7
  6
CONTINUOUS
 10
799.1127745533
 20
223.6557681875
 11
799.1127745533
 21
226.1557681875
  0
LINE
  5
338
100
AcDbEntity
  8
0
100
AcDbLine
 62
7
  6
CONTINUOUS
 10
799.9048149573
 20
253.1654896086
 11
799.9048149573
 21
252.1101702159
  0
LINE
  5
339
100
AcDbEntity
  8
0
100
AcDbLine
 62
7
  6
CONTINUOUS
 10
800.716339582
 20
253.0335747307
 11
800.716339582
 21
247.8888937538
  0
LINE
  5
33A
100
AcDbEntity
  8
0
100
AcDbLine
 62
7
  6
CONTINUOUS
 10
801.5278642067
 20
247.8888937538
 11
801.5278642067
 21
254.0888937538
  0
LINE
  5
33B
100
AcDbEntity
  8
0
100
AcDbLine
 62
7
  6
CONTINUOUS
 10
760.5586620303
 20
249.3399575954
 11
760.6878289434
 21
249.9995319849
  0
LINE
  5
33C
100
AcDbEntity
  8
0
100
AcDbLine
 62
7
  6
CONTINUOUS
 10
766.7586620303
 20
249.3399575954
 11
766.8878282043
 21
249.9995319849
  0
LINE
  5
33D
100
AcDbEntity
  8
0
100
AcDbLine
 62
7
  6
CONTINUOUS
 10
821.9824458217
 20
280.6557681875
 11
816.0460555089
 21
302.8106784483
  0
LINE
  5
33E
100
AcDbEntity
  8
0
100
AcDbLine
 62
7
  6
CONTINUOUS
 10
804.7739627057
 20
251.3186809486
 11
804.7739627057
 21
250.791021437
  0
LINE
  5
33F
100
AcDbEntity
  8
0
100
AcDbLine
 62
7
  6
CONTINUOUS
 10
806.6675191315
 20
252.637830097
 11
806.6675191315
 21
252.3739999717
  0
LINE
  5
340
100
AcDbEntity
  8
0
100
AcDbLine
 62
7
  6
CONTINUOUS
 10
806.8027742675
 20
249.867617107
 11
806.8027742675
 21
249.3399575954
  0
LINE
  5
341
100
AcDbEntity
  8
0
100
AcDbLine
 62
7
  6
CONTINUOUS
 10
807.3437901681
 20
252.3739999717
 11
807.3437901681
 21
252.637830097
  0
LINE
  5
342
100
AcDbEntity
  8
0
100
AcDbLine
 62
7
  6
CONTINUOUS
 10
807.4790437563
 20
249.3399575954
 11
807.4790437563
 21
249.867617107
  0
LINE
  5
343
100
AcDbEntity
  8
RUNDUNGEN
100
AcDbLine
 62
7
  6
CONTINUOUS
 10
811.6726253001
 20
126.2412482528
 11
811.6726253001
 21
120.2308406127
  0
LINE
  5
344
100
AcDbEntity
  8
RUNDUNGEN
100
AcDbLine
 62
7
  6
CONTINUOUS
 10
814.6726253001
 20
211.4057681875
 11
814.6726253001
 21
254.1557681875
  0
LINE
  5
345
100
AcDbEntity
  8
0
100
AcDbLine
 62
7
  6
CONTINUOUS
 10
816.0460555089
 20
242.0170187871
 11
816.0460555089
 21
258.5008579267
  0
LINE
  5
346
100
AcDbEntity
  8
RUNDUNGEN
100
AcDbLine
 62
7
  6
CONTINUOUS
 10
821.6726253001
 20
124.1199279093
 11
821.6726253001
 21
136.2172572815
  0
LINE
  5
347
100
AcDbEntity
  8
0
100
AcDbLine
 62
7
  6
CONTINUOUS
 10
759.9128289434
 20
249.9995319849
 11
759.7836620303
 21
249.4718724733
  0
LINE
  5
348
100
AcDbEntity
  8
0
100
AcDbLine
 62
7
  6
CONTINUOUS
 10
766.1128282043
 20
249.9995319849
 11
765.9836620303
 21
249.4718724733
  0
LINE
  5
349
100
AcDbEntity
  8
0
100
AcDbLine
 62
7
  6
CONTINUOUS
 10
754.1003285738
 20
252.2420850938
 11
753.9711620303
 21
251.8463404601
  0
LINE
  5
34A
100
AcDbEntity
  8
0
100
AcDbLine
 62
7
  6
CONTINUOUS
 10
754.7461620303
 20
251.7144255822
 11
754.8753285738
 21
252.1101702159
  0
LINE
  5
34B
100
AcDbEntity
  8
RUNDUNGEN
100
AcDbLine
 62
7
  6
CONTINUOUS
 10
835.1851214904
 20
204.9251563596
 11
835.1851214904
 21
208.4606902655
  0
LINE
  5
34C
100
AcDbEntity
  8
0
100
AcDbLine
 62
7
  6
CONTINUOUS
 10
793.6831259096
 20
252.637830097
 11
793.5478715475
 21
251.978255338
  0
LINE
  5
34D
100
AcDbEntity
  8
0
100
AcDbLine
 62
7
  6
CONTINUOUS
 10
794.3593961723
 20
251.978255338
 11
794.4946505344
 21
252.5059148496
  0
LINE
  5
34E
100
AcDbEntity
  8
0
100
AcDbLine
 62
7
  6
CONTINUOUS
 10
798.6875280202
 20
248.8122979914
 11
798.8227816083
 21
249.3399575954
  0
LINE
  5
34F
100
AcDbEntity
  8
0
100
AcDbLine
 62
7
  6
CONTINUOUS
 10
802.880404732
 20
253.1654896086
 11
802.7451511438
 21
252.637830097
  0
LINE
  5
350
100
AcDbEntity
  8
0
100
AcDbLine
 62
7
  6
CONTINUOUS
 10
760.3003289434
 20
248.8122979914
 11
760.5586620303
 21
249.3399575954
  0
LINE
  5
351
100
AcDbEntity
  8
0
100
AcDbLine
 62
7
  6
CONTINUOUS
 10
755.5177150393
 20
319.0291983963
 11
739.2991950913
 21
302.8106784483
  0
LINE
  5
352
100
AcDbEntity
  8
0
100
AcDbLine
 62
7
  6
CONTINUOUS
 10
847.6726253001
 20
509.1557681875
 11
847.6726253001
 21
629.1557681875
  0
LINE
  5
353
100
AcDbEntity
  8
0
100
AcDbLine
 62
7
  6
CONTINUOUS
 10
816.0460555089
 20
242.0170187871
 11
814.6726253001
 21
234.2279090135
  0
LINE
  5
354
100
AcDbEntity
  8
0
100
AcDbLine
 62
7
  6
CONTINUOUS
 10
807.2085365799
 20
251.8463404601
 11
807.3437901681
 21
252.3739999717
  0
LINE
  5
355
100
AcDbEntity
  8
0
100
AcDbLine
 62
7
  6
CONTINUOUS
 10
816.0460555089
 20
258.5008579267
 11
821.9824458217
 21
280.6557681875
  0
LINE
  5
356
100
AcDbEntity
  8
0
100
AcDbLine
 62
7
  6
CONTINUOUS
 10
791.5190599857
 20
252.2420850938
 11
791.3838060105
 21
251.8463404601
  0
LINE
  5
357
100
AcDbEntity
  8
0
100
AcDbLine
 62
7
  6
CONTINUOUS
 10
792.1953302483
 20
251.7144255822
 11
792.3305846104
 21
252.1101702159
  0
LINE
  5
358
100
AcDbEntity
  8
0
100
AcDbLine
 62
7
  6
CONTINUOUS
 10
798.0112569836
 20
249.4718724733
 11
797.8760026215
 21
249.0761278396
  0
LINE
  5
359
100
AcDbEntity
  8
0
100
AcDbLine
 62
7
  6
CONTINUOUS
 10
807.3437901681
 20
248.9442128693
 11
807.4790437563
 21
249.3399575954
  0
LINE
  5
35A
100
AcDbEntity
  8
0
100
AcDbLine
 62
7
  6
CONTINUOUS
 10
766.5003282043
 20
248.8122979914
 11
766.7586620303
 21
249.3399575954
  0
LINE
  5
35B
100
AcDbEntity
  8
0
100
AcDbLine
 62
7
  6
CONTINUOUS
 10
759.7836620303
 20
249.4718724733
 11
759.5253289434
 21
249.0761278396
  0
LINE
  5
35C
100
AcDbEntity
  8
0
100
AcDbLine
 62
7
  6
CONTINUOUS
 10
765.9836620303
 20
249.4718724733
 11
765.7253282043
 21
249.0761278396
  0
LINE
  5
35D
100
AcDbEntity
  8
0
100
AcDbLine
 62
7
  6
CONTINUOUS
 10
754.3586620303
 20
251.1867660707
 11
754.7461620303
 21
251.7144255822
  0
LINE
  5
35E
100
AcDbEntity
  8
0
100
AcDbLine
 62
7
  6
CONTINUOUS
 10
879.6726253001
 20
509.1557681875
 11
879.6726253001
 21
629.1557681875
  0
LINE
  5
35F
100
AcDbEntity
  8
0
100
AcDbLine
 62
7
  6
CONTINUOUS
 10
793.9536338599
 20
253.1654896086
 11
793.6831259096
 21
252.637830097
  0
LINE
  5
360
100
AcDbEntity
  8
0
100
AcDbLine
 62
7
  6
CONTINUOUS
 10
806.6675191315
 20
252.3739999717
 11
806.3970119552
 21
251.8463404601
  0
LINE
  5
361
100
AcDbEntity
  8
0
100
AcDbLine
 62
7
  6
CONTINUOUS
 10
806.8027742675
 20
249.3399575954
 11
806.6675191315
 21
249.0761278396
  0
LINE
  5
362
100
AcDbEntity
  8
0
100
AcDbLine
 62
7
  6
CONTINUOUS
 10
753.9711620303
 20
251.8463404601
 11
753.7128285738
 21
251.5825107043
  0
LINE
  5
363
100
AcDbEntity
  8
0
100
AcDbLine
 62
7
  6
CONTINUOUS
 10
794.4946505344
 20
252.5059148496
 11
794.7651584846
 21
252.9016598528
  0
LINE
  5
364
100
AcDbEntity
  8
0
100
AcDbLine
 62
7
  6
CONTINUOUS
 10
803.4214206326
 20
252.637830097
 11
803.6919293568
 21
253.0335747307
  0
LINE
  5
365
100
AcDbEntity
  8
0
100
AcDbLine
 62
7
  6
CONTINUOUS
 10
806.9380278557
 20
251.4505958264
 11
807.2085365799
 21
251.8463404601
  0
LINE
  5
366
100
AcDbEntity
  8
0
100
AcDbLine
 62
7
  6
CONTINUOUS
 10
807.0732814439
 20
248.5484682357
 11
807.3437901681
 21
248.9442128693
  0
LINE
  5
367
100
AcDbEntity
  8
0
100
AcDbLine
 62
7
  6
CONTINUOUS
 10
791.7895683229
 20
251.1867660707
 11
792.1953302483
 21
251.7144255822
  0
LINE
  5
368
100
AcDbEntity
  8
0
100
AcDbLine
 62
7
  6
CONTINUOUS
 10
800.716339582
 20
254.0888937538
 11
799.9048149573
 21
253.1654896086
  0
LINE
  5
369
100
AcDbEntity
  8
0
100
AcDbLine
 62
7
  6
CONTINUOUS
 10
799.9048149573
 20
252.1101702159
 11
800.716339582
 21
253.0335747307
  0
LINE
  5
36A
100
AcDbEntity
  8
0
100
AcDbLine
 62
7
  6
CONTINUOUS
 10
759.7836620303
 20
248.2846384337
 11
760.3003289434
 21
248.8122979914
  0
LINE
  5
36B
100
AcDbEntity
  8
0
100
AcDbLine
 62
7
  6
CONTINUOUS
 10
765.9836620303
 20
248.2846384337
 11
766.5003282043
 21
248.8122979914
  0
LINE
  5
36C
100
AcDbEntity
  8
RUNDUNGEN
100
AcDbLine
 62
7
  6
CONTINUOUS
 10
814.6726253001
 20
211.4057681875
 11
808.6726253001
 21
201.6557681875
  0
LINE
  5
36D
100
AcDbEntity
  8
0
100
AcDbLine
 62
7
  6
CONTINUOUS
 10
791.3838060105
 20
251.8463404601
 11
791.1132976733
 21
251.5825107043
  0
LINE
  5
36E
100
AcDbEntity
  8
0
100
AcDbLine
 62
7
  6
CONTINUOUS
 10
794.4946505344
 20
253.6931491201
 11
793.9536338599
 21
253.1654896086
  0
LINE
  5
36F
100
AcDbEntity
  8
0
100
AcDbLine
 62
7
  6
CONTINUOUS
 10
803.4214206326
 20
253.6931491201
 11
802.880404732
 21
253.1654896086
  0
LINE
  5
370
100
AcDbEntity
  8
0
100
AcDbLine
 62
7
  6
CONTINUOUS
 10
798.1465113457
 20
248.2846384337
 11
798.6875280202
 21
248.8122979914
  0
LINE
  5
371
100
AcDbEntity
  8
0
100
AcDbLine
 62
7
  6
CONTINUOUS
 10
806.3970119552
 20
251.8463404601
 11
806.126503231
 21
251.5825107043
  0
LINE
  5
372
100
AcDbEntity
  8
0
100
AcDbLine
 62
7
  6
CONTINUOUS
 10
806.6675191315
 20
249.0761278396
 11
806.3970119552
 21
248.8122979914
  0
LINE
  5
373
100
AcDbEntity
  8
0
100
AcDbLine
 62
7
  6
CONTINUOUS
 10
759.5253289434
 20
249.0761278396
 11
759.1378289434
 21
248.8122979914
  0
LINE
  5
374
100
AcDbEntity
  8
0
100
AcDbLine
 62
7
  6
CONTINUOUS
 10
765.7253282043
 20
249.0761278396
 11
765.3378282043
 21
248.8122979914
  0
LINE
  5
375
100
AcDbEntity
  8
0
100
AcDbLine
 62
7
  6
CONTINUOUS
 10
753.8419954869
 20
250.9229363149
 11
754.3586620303
 21
251.1867660707
  0
LINE
  5
376
100
AcDbEntity
  8
0
100
AcDbLine
 62
7
  6
CONTINUOUS
 10
759.2669951173
 20
248.0208086433
 11
759.7836620303
 21
248.2846384337
  0
LINE
  5
377
100
AcDbEntity
  8
0
100
AcDbLine
 62
7
  6
CONTINUOUS
 10
765.4669958564
 20
248.0208086433
 11
765.9836620303
 21
248.2846384337
  0
LINE
  5
378
100
AcDbEntity
  8
RUNDUNGEN
100
AcDbLine
 62
7
  6
CONTINUOUS
 10
753.7701047568
 20
157.8504594893
 11
734.7577130344
 21
138.6507360075
  0
LINE
  5
379
100
AcDbEntity
  8
RUNDUNGEN
100
AcDbLine
 62
7
  6
CONTINUOUS
 10
753.7701047568
 20
154.3149255834
 11
734.7577130344
 21
135.1152021016
  0
LINE
  5
37A
100
AcDbEntity
  8
0
100
AcDbLine
 62
7
  6
CONTINUOUS
 10
806.3970119552
 20
251.0548511928
 11
806.9380278557
 21
251.4505958264
  0
LINE
  5
37B
100
AcDbEntity
  8
0
100
AcDbLine
 62
7
  6
CONTINUOUS
 10
794.7651584846
 20
252.9016598528
 11
795.170920797
 21
253.1654896086
  0
LINE
  5
37C
100
AcDbEntity
  8
0
100
AcDbLine
 62
7
  6
CONTINUOUS
 10
803.6919293568
 20
253.0335747307
 11
804.0976916691
 21
253.2974044865
  0
LINE
  5
37D
100
AcDbEntity
  8
0
100
AcDbLine
 62
7
  6
CONTINUOUS
 10
797.8760026215
 20
249.0761278396
 11
797.4702403091
 21
248.8122979914
  0
LINE
  5
37E
100
AcDbEntity
  8
0
100
AcDbLine
 62
7
  6
CONTINUOUS
 10
806.6675191315
 20
248.2846384337
 11
807.0732814439
 21
248.5484682357
  0
LINE
  5
37F
100
AcDbEntity
  8
RUNDUNGEN
100
AcDbLine
 62
7
  6
CONTINUOUS
 10
725.9278885029
 20
212.0526249222
 11
724.2895844143
 21
211.2414653469
  0
LINE
  5
380
100
AcDbEntity
  8
RUNDUNGEN
100
AcDbLine
 62
7
  6
CONTINUOUS
 10
725.9278885029
 20
208.5170910163
 11
724.2895844143
 21
207.705931441
  0
LINE
  5
381
100
AcDbEntity
  8
0
100
AcDbLine
 62
7
  6
CONTINUOUS
 10
795.0356664349
 20
253.9569788759
 11
794.4946505344
 21
253.6931491201
  0
LINE
  5
382
100
AcDbEntity
  8
0
100
AcDbLine
 62
7
  6
CONTINUOUS
 10
791.2485516484
 20
250.9229363149
 11
791.7895683229
 21
251.1867660707
  0
LINE
  5
383
100
AcDbEntity
  8
0
100
AcDbLine
 62
7
  6
CONTINUOUS
 10
803.962438081
 20
253.9569788759
 11
803.4214206326
 21
253.6931491201
  0
LINE
  5
384
100
AcDbEntity
  8
0
100
AcDbLine
 62
7
  6
CONTINUOUS
 10
797.6054946712
 20
248.0208086433
 11
798.1465113457
 21
248.2846384337
  0
LINE
  5
385
100
AcDbEntity
  8
0
100
AcDbLine
 62
7
  6
CONTINUOUS
 10
806.3970119552
 20
248.8122979914
 11
806.126503231
 21
248.6803831136
  0
LINE
  5
386
100
AcDbEntity
  8
0
100
AcDbLine
 62
7
  6
CONTINUOUS
 10
806.126503231
 20
248.0208086433
 11
806.6675191315
 21
248.2846384337
  0
LINE
  5
387
100
AcDbEntity
  8
0
100
AcDbLine
 62
7
  6
CONTINUOUS
 10
753.7128285738
 20
251.5825107043
 11
753.3253285738
 21
251.4505958264
  0
LINE
  5
388
100
AcDbEntity
  8
0
100
AcDbLine
 62
7
  6
CONTINUOUS
 10
791.1132976733
 20
251.5825107043
 11
790.7075353609
 21
251.4505958264
  0
LINE
  5
389
100
AcDbEntity
  8
0
100
AcDbLine
 62
7
  6
CONTINUOUS
 10
806.126503231
 20
251.5825107043
 11
805.3149786062
 21
251.3186809486
  0
LINE
  5
38A
100
AcDbEntity
  8
RUNDUNGEN
100
AcDbLine
 62
7
  6
CONTINUOUS
 10
814.3750570233
 20
202.2864393369
 11
824.6659402297
 21
212.6787200573
  0
LINE
  5
38B
100
AcDbEntity
  8
RUNDUNGEN
100
AcDbLine
 62
7
  6
CONTINUOUS
 10
814.3750570233
 20
198.7509054309
 11
824.6659402297
 21
209.1431861514
  0
LINE
  5
38C
100
AcDbEntity
  8
RUNDUNGEN
100
AcDbLine
 62
7
  6
CONTINUOUS
 10
733.3435945786
 20
200.1037146608
 11
729.0020887439
 21
197.9541417861
  0
LINE
  5
38D
100
AcDbEntity
  8
RUNDUNGEN
100
AcDbLine
 62
7
  6
CONTINUOUS
 10
736.1144365546
 20
194.3072489219
 11
740.4559423894
 21
196.4568217965
  0
LINE
  5
38E
100
AcDbEntity
  8
RUNDUNGEN
100
AcDbLine
 62
7
  6
CONTINUOUS
 10
766.2010965731
 20
206.063959991
 11
760.4670322631
 21
203.2249014773
  0
LINE
  5
38F
100
AcDbEntity
  8
RUNDUNGEN
100
AcDbLine
 62
7
  6
CONTINUOUS
 10
736.1144365546
 20
190.7717150159
 11
740.4559423894
 21
192.9212878906
  0
LINE
  5
390
100
AcDbEntity
  8
RUNDUNGEN
100
AcDbLine
 62
7
  6
CONTINUOUS
 10
763.8525293762
 20
132.4438143978
 11
771.1194089458
 21
139.78229555
  0
LINE
  5
391
100
AcDbEntity
  8
RUNDUNGEN
100
AcDbLine
 62
7
  6
CONTINUOUS
 10
801.5751458435
 20
170.5381170903
 11
834.8234255789
 21
204.1139967842
  0
LINE
  5
392
100
AcDbEntity
  8
0
100
AcDbLine
 62
7
  6
CONTINUOUS
 10
371.5902289613
 20
201.6557681875
 11
374.1902289613
 21
201.6557681875
  0
LINE
  5
393
100
AcDbEntity
  8
0
100
AcDbLine
 62
7
  6
CONTINUOUS
 10
362.7903710079
 20
211.4057681875
 11
382.9900869147
 21
211.4057681875
  0
LINE
  5
394
100
AcDbEntity
  8
0
100
AcDbLine
 62
7
  6
CONTINUOUS
 10
369.6402289613
 20
234.2279090135
 11
376.1402289613
 21
234.2279090135
  0
LINE
  5
395
100
AcDbEntity
  8
0
100
AcDbLine
 62
7
  6
CONTINUOUS
 10
376.1402289613
 20
242.0170187871
 11
369.6402289613
 21
242.0170187871
  0
LINE
  5
396
100
AcDbEntity
  8
0
100
AcDbLine
 62
7
  6
CONTINUOUS
 10
377.370168201
 20
258.5008579267
 11
368.4102897217
 21
258.5008579267
  0
LINE
  5
397
100
AcDbEntity
  8
0
100
AcDbLine
 62
7
  6
CONTINUOUS
 10
386.8902289613
 20
245.5105822246
 11
392.3902289613
 21
237.6557681875
  0
LINE
  5
398
100
AcDbEntity
  8
0
100
AcDbLine
 62
7
  6
CONTINUOUS
 10
314.3902289613
 20
406.6557681875
 11
314.3902289613
 21
331.6557681875
  0
LINE
  5
399
100
AcDbEntity
  8
0
100
AcDbLine
 62
7
  6
CONTINUOUS
 10
376.2219471462
 20
280.6557681875
 11
369.5585107764
 21
280.6557681875
  0
LINE
  5
39A
100
AcDbEntity
  8
0
100
AcDbLine
 62
7
  6
CONTINUOUS
 10
340.3902289613
 20
406.6557681875
 11
340.3902289613
 21
331.6557681875
  0
LINE
  5
39B
100
AcDbEntity
  8
0
100
AcDbLine
 62
7
  6
CONTINUOUS
 10
376.2219471462
 20
302.8106784483
 11
369.5585107764
 21
302.8106784483
  0
LINE
  5
39C
100
AcDbEntity
  8
KONSTRUKTIONSELEMENTE
100
AcDbLine
 62
7
  6
CONTINUOUS
 10
489.492137179
 20
201.5481204492
 11
481.0775664829
 21
209.9626911453
  0
LINE
  5
39D
100
AcDbEntity
  8
KONSTRUKTIONSELEMENTE
100
AcDbLine
 62
7
  6
CONTINUOUS
 10
428.3274006064
 20
262.7128570218
 11
419.9128299102
 21
271.1274277179
  0
LINE
  5
39E
100
AcDbEntity
  8
KONSTRUKTIONSELEMENTE
100
AcDbLine
 62
7
  6
CONTINUOUS
 10
461.2785766097
 20
231.9537120402
 11
450.6719748919
 21
242.560313758
  0
LINE
  5
39F
100
AcDbEntity
  8
KONSTRUKTIONSELEMENTE
100
AcDbLine
 62
7
  6
CONTINUOUS
 10
493.0276710849
 20
205.0836543551
 11
484.6131003888
 21
213.4982250512
  0
LINE
  5
3A0
100
AcDbEntity
  8
KONSTRUKTIONSELEMENTE
100
AcDbLine
 62
7
  6
CONTINUOUS
 10
431.8629345123
 20
266.2483909278
 11
423.4483638162
 21
274.6629616239
  0
LINE
  5
3A1
100
AcDbEntity
  8
KONSTRUKTIONSELEMENTE
100
AcDbLine
 62
7
  6
CONTINUOUS
 10
464.460557125
 20
235.1356925556
 11
453.8539554072
 21
245.7422942734
  0
LINE
  5
3A2
100
AcDbEntity
  8
KONSTRUKTIONSELEMENTE
100
AcDbLine
 62
7
  6
CONTINUOUS
 10
390.9214518816
 20
308.674797799
 11
424.1554705974
 21
275.4407790832
  0
LINE
  5
3A3
100
AcDbEntity
  8
RUNDUNGEN
100
AcDbLine
 62
7
  6
CONTINUOUS
 10
581.1331760208
 20
119.8772872221
 11
490.1914017094
 21
210.8190615335
  0
LINE
  5
3A4
100
AcDbEntity
  8
KONSTRUKTIONSELEMENTE
100
AcDbLine
 62
7
  6
CONTINUOUS
 10
435.1156257058
 20
266.2483909278
 11
453.8243106809
 21
247.5397059526
  0
LINE
  5
3A5
100
AcDbEntity
  8
KONSTRUKTIONSELEMENTE
100
AcDbLine
 62
7
  6
CONTINUOUS
 10
466.228324078
 20
235.1356925556
 11
484.9370090531
 21
216.4270075804
  0
LINE
  5
3A6
100
AcDbEntity
  8
KONSTRUKTIONSELEMENTE
100
AcDbLine
 62
7
  6
CONTINUOUS
 10
438.2976062211
 20
269.4303714431
 11
457.0062911963
 21
250.7216864679
  0
LINE
  5
3A7
100
AcDbEntity
  8
KONSTRUKTIONSELEMENTE
100
AcDbLine
 62
7
  6
CONTINUOUS
 10
469.4103045933
 20
238.3176730709
 11
488.1189895685
 21
219.6089880957
  0
LINE
  5
3A8
100
AcDbEntity
  8
RUNDUNGEN
100
AcDbLine
 62
7
  6
CONTINUOUS
 10
493.7269238415
 20
214.3546072132
 11
494.79699818
 21
213.2845328748
  0
LINE
  5
3A9
100
AcDbEntity
  8
RUNDUNGEN
100
AcDbLine
 62
7
  6
CONTINUOUS
 10
494.7999329914
 20
213.2815980634
 11
584.6687099267
 21
123.4128211281
  0
LINE
  5
3AA
100
AcDbEntity
  8
KONSTRUKTIONSELEMENTE
100
AcDbLine
 62
7
  6
CONTINUOUS
 10
395.8711993499
 20
313.6245452673
 11
429.0587535373
 21
280.4369910799
  0
LINE
  5
3AB
100
AcDbEntity
  8
KONSTRUKTIONSELEMENTE
100
AcDbLine
 62
7
  6
CONTINUOUS
 10
458.8037028755
 20
250.6920417417
 11
469.4103045933
 21
240.0854400239
  0
LINE
  5
3AC
100
AcDbEntity
  8
KONSTRUKTIONSELEMENTE
100
AcDbLine
 62
7
  6
CONTINUOUS
 10
429.883035525
 20
281.0976333327
 11
433.9135441777
 21
277.0671246799
  0
LINE
  5
3AD
100
AcDbEntity
  8
KONSTRUKTIONSELEMENTE
100
AcDbLine
 62
7
  6
CONTINUOUS
 10
434.2670975683
 20
276.7135712893
 11
438.2976062211
 21
272.6830626366
  0
LINE
  5
3AE
100
AcDbEntity
  8
KONSTRUKTIONSELEMENTE
100
AcDbLine
 62
7
  6
CONTINUOUS
 10
491.0477720976
 20
219.93289676
 11
495.0782807504
 21
215.9023881073
  0
LINE
  5
3AF
100
AcDbEntity
  8
KONSTRUKTIONSELEMENTE
100
AcDbLine
 62
7
  6
CONTINUOUS
 10
495.431834141
 20
215.5488347167
 11
499.4623427937
 21
211.5183260639
  0
LINE
  5
3B0
100
AcDbEntity
  8
KONSTRUKTIONSELEMENTE
100
AcDbLine
 62
7
  6
CONTINUOUS
 10
461.9856833908
 20
253.874022257
 11
472.5922851086
 21
243.2674205392
  0
LINE
  5
3B1
100
AcDbEntity
  8
KONSTRUKTIONSELEMENTE
100
AcDbLine
 62
7
  6
CONTINUOUS
 10
433.4185694309
 20
284.6331672386
 11
437.4490780837
 21
280.6026585858
  0
LINE
  5
3B2
100
AcDbEntity
  8
KONSTRUKTIONSELEMENTE
100
AcDbLine
 62
7
  6
CONTINUOUS
 10
437.8026314743
 20
280.2491051953
 11
441.833140127
 21
276.2185965425
  0
LINE
  5
3B3
100
AcDbEntity
  8
KONSTRUKTIONSELEMENTE
100
AcDbLine
 62
7
  6
CONTINUOUS
 10
494.5833060035
 20
223.468430666
 11
498.6138146563
 21
219.4379220132
  0
LINE
  5
3B4
100
AcDbEntity
  8
KONSTRUKTIONSELEMENTE
100
AcDbLine
 62
7
  6
CONTINUOUS
 10
498.9673680469
 20
219.0843686226
 11
502.9978766997
 21
215.0538599699
  0
LINE
  5
3B5
100
AcDbEntity
  8
RUNDUNGEN
100
AcDbLine
 62
7
  6
CONTINUOUS
 10
369.6402289613
 20
234.2279090135
 11
368.1533146719
 21
254.1557681875
  0
LINE
  5
3B6
100
AcDbEntity
  8
0
100
AcDbLine
 62
7
  6
CONTINUOUS
 10
369.6402289613
 20
242.0170187871
 11
368.4102897217
 21
258.5008579267
  0
LINE
  5
3B7
100
AcDbEntity
  8
RUNDUNGEN
100
AcDbLine
 62
7
  6
CONTINUOUS
 10
353.3902289613
 20
219.8557681875
 11
353.3902289613
 21
237.6557681875
  0
LINE
  5
3B8
100
AcDbEntity
  8
0
100
AcDbLine
 62
7
  6
CONTINUOUS
 10
356.8902289613
 20
423.1557681875
 11
356.8902289613
 21
715.1557681875
  0
LINE
  5
3B9
100
AcDbEntity
  8
RUNDUNGEN
100
AcDbLine
 62
7
  6
CONTINUOUS
 10
358.8902289613
 20
245.5105822246
 11
358.8902289613
 21
256.1557681865
  0
LINE
  5
3BA
100
AcDbEntity
  8
BEZUGSACHSEN
100
AcDbLine
 62
7
  6
CONTINUOUS
 10
363.3902289613
 20
308.6557681875
 11
363.3902289613
 21
275.7936192128
  0
LINE
  5
3BB
100
AcDbEntity
  8
RUNDUNGEN
100
AcDbLine
 62
7
  6
CONTINUOUS
 10
363.3902289613
 20
275.793317224
 11
363.3902289613
 21
261.9652432068
  0
LINE
  5
3BC
100
AcDbEntity
  8
0
100
AcDbLine
 62
7
  6
CONTINUOUS
 10
376.2219471462
 20
319.0291983963
 11
369.5585107764
 21
319.0291983963
  0
LINE
  5
3BD
100
AcDbEntity
  8
0
100
AcDbLine
 62
7
  6
CONTINUOUS
 10
369.5585107764
 20
324.9655887091
 11
376.2219471462
 21
324.9655887091
  0
LINE
  5
3BE
100
AcDbEntity
  8
0
100
AcDbLine
 62
7
  6
CONTINUOUS
 10
381.6185684594
 20
312.4062467712
 11
376.2219471462
 21
324.9655887091
  0
LINE
  5
3BF
100
AcDbEntity
  8
0
100
AcDbLine
 62
7
  6
CONTINUOUS
 10
376.8004520685
 20
273.1952366083
 11
377.370168201
 21
258.5008579267
  0
LINE
  5
3C0
100
AcDbEntity
  8
0
100
AcDbLine
 62
7
  6
CONTINUOUS
 10
369.6402289613
 20
242.0170187871
 11
369.6402289613
 21
234.2279090135
  0
LINE
  5
3C1
100
AcDbEntity
  8
0
100
AcDbLine
 62
7
  6
CONTINUOUS
 10
376.1402289613
 20
242.0170187871
 11
376.1402289613
 21
234.2279090135
  0
LINE
  5
3C2
100
AcDbEntity
  8
BEZUGSACHSEN
100
AcDbLine
 62
7
  6
CONTINUOUS
 10
382.3902289613
 20
308.6557681875
 11
382.3902289613
 21
275.7936192128
  0
LINE
  5
3C3
100
AcDbEntity
  8
0
100
AcDbLine
 62
7
  6
CONTINUOUS
 10
382.3902289613
 20
275.793317224
 11
382.3902289613
 21
261.9652432068
  0
LINE
  5
3C4
100
AcDbEntity
  8
0
100
AcDbLine
 62
7
  6
CONTINUOUS
 10
368.9800058542
 20
273.1952366083
 11
368.4102897217
 21
258.5008579267
  0
LINE
  5
3C5
100
AcDbEntity
  8
0
100
AcDbLine
 62
7
  6
CONTINUOUS
 10
386.8902289613
 20
245.5105822246
 11
386.8902289613
 21
256.1557681875
  0
LINE
  5
3C6
100
AcDbEntity
  8
0
100
AcDbLine
 62
7
  6
CONTINUOUS
 10
388.8902289613
 20
423.1557681875
 11
388.8902289613
 21
715.1557681875
  0
LINE
  5
3C7
100
AcDbEntity
  8
0
100
AcDbLine
 62
7
  6
CONTINUOUS
 10
392.3902289613
 20
219.8557681875
 11
392.3902289613
 21
237.6557681875
  0
LINE
  5
3C8
100
AcDbEntity
  8
0
100
AcDbLine
 62
7
  6
CONTINUOUS
 10
405.3902289613
 20
331.6557681875
 11
405.3902289613
 21
406.6557681875
  0
LINE
  5
3C9
100
AcDbEntity
  8
0
100
AcDbLine
 62
7
  6
CONTINUOUS
 10
376.1402289613
 20
242.0170187871
 11
377.370168201
 21
258.5008579267
  0
LINE
  5
3CA
100
AcDbEntity
  8
0
100
AcDbLine
 62
7
  6
CONTINUOUS
 10
376.1402289613
 20
234.2279090135
 11
377.6271432508
 21
254.1557681875
  0
LINE
  5
3CB
100
AcDbEntity
  8
KONSTRUKTIONSELEMENTE
100
AcDbLine
 62
7
  6
CONTINUOUS
 10
369.5585107764
 20
324.9655887091
 11
364.1618894633
 21
312.4062467712
  0
LINE
  5
3CC
100
AcDbEntity
  8
0
100
AcDbLine
 62
7
  6
CONTINUOUS
 10
431.3902289613
 20
331.6557681875
 11
431.3902289613
 21
406.6557681875
  0
LINE
  5
3CD
100
AcDbEntity
  8
RUNDUNGEN
100
AcDbLine
 62
7
  6
CONTINUOUS
 10
358.8902289613
 20
245.5105822246
 11
353.3902289613
 21
237.6557681875
  0
LINE
  5
3CE
100
AcDbEntity
  8
KONSTRUKTIONSELEMENTE
100
AcDbLine
 62
7
  6
CONTINUOUS
 10
437.4490780837
 20
280.6026585858
 11
433.9135441777
 21
277.0671246799
  0
LINE
  5
3CF
100
AcDbEntity
  8
KONSTRUKTIONSELEMENTE
100
AcDbLine
 62
7
  6
CONTINUOUS
 10
437.8026314743
 20
280.2491051953
 11
434.2670975683
 21
276.7135712893
  0
LINE
  5
3D0
100
AcDbEntity
  8
KONSTRUKTIONSELEMENTE
100
AcDbLine
 62
7
  6
CONTINUOUS
 10
498.6138146563
 20
219.4379220132
 11
495.0782807504
 21
215.9023881073
  0
LINE
  5
3D1
100
AcDbEntity
  8
RUNDUNGEN
100
AcDbLine
 62
7
  6
CONTINUOUS
 10
490.1915535414
 20
210.8189097016
 11
493.7270874473
 21
214.3544436075
  0
LINE
  5
3D2
100
AcDbEntity
  8
KONSTRUKTIONSELEMENTE
100
AcDbLine
 62
7
  6
CONTINUOUS
 10
498.9673680469
 20
219.0843686226
 11
495.431834141
 21
215.5488347167
  0
LINE
  5
3D3
100
AcDbEntity
  8
RUNDUNGEN
100
AcDbLine
 62
7
  6
CONTINUOUS
 10
494.7997570104
 20
213.2817740443
 11
491.2642231045
 21
209.7462401384
  0
LINE
  5
3D4
100
AcDbEntity
  8
RUNDUNGEN
100
AcDbLine
 62
7
  6
CONTINUOUS
 10
581.1331760208
 20
119.8772872221
 11
584.6687099267
 21
123.4128211281
  0
ARC
  5
3D5
100
AcDbEntity
  8
RUNDUNGEN
100
AcDbCircle
 62
7
  6
CONTINUOUS
 10
748.6726253001
 20
254.1557681875
 40
8.0
100
AcDbArc
 50
102.037384222
 51
180.0
  0
ARC
  5
3D6
100
AcDbEntity
  8
RUNDUNGEN
100
AcDbCircle
 62
7
  6
CONTINUOUS
 10
748.3485154137
 20
255.64956562
 40
6.4714578049
100
AcDbArc
 50
87.1292556972
 51
101.9891141635
  0
ARC
  5
3D7
100
AcDbEntity
  8
RUNDUNGEN
100
AcDbCircle
 62
7
  6
CONTINUOUS
 10
738.979159672
 20
199.4453275082
 40
3.3334747012
100
AcDbArc
 50
296.2964744357
 51
302.2123623221
  0
CIRCLE
  5
3D8
100
AcDbEntity
  8
BEZUGSACHSEN
100
AcDbCircle
 62
7
  6
CONTINUOUS
 10
753.0726253001
 20
223.0557681875
 40
3.0
  0
ARC
  5
3D9
100
AcDbEntity
  8
0
100
AcDbCircle
 62
7
  6
CONTINUOUS
 10
763.5838866126
 20
187.0265717607
 40
0.5420477023
100
AcDbArc
 50
78.8903114983
 51
89.9692795103
  0
ARC
  5
3DA
100
AcDbEntity
  8
KONSTRUKTIONSELEMENTE
100
AcDbCircle
 62
7
  6
CONTINUOUS
 10
777.6726253001
 20
162.5557681875
 40
46.8
100
AcDbArc
 50
56.6553646926
 51
80.9022287256
  0
ARC
  5
3DB
100
AcDbEntity
  8
KONSTRUKTIONSELEMENTE
100
AcDbCircle
 62
7
  6
CONTINUOUS
 10
777.6726253001
 20
162.5557681875
 40
46.8
100
AcDbArc
 50
99.0977712744
 51
123.3446353074
  0
ARC
  5
3DC
100
AcDbEntity
  8
BEZUGSACHSEN
100
AcDbCircle
 62
7
  6
CONTINUOUS
 10
777.6726253001
 20
280.6557681875
 40
18.5
100
AcDbArc
 50
134.6562818467
 51
45.3437181533
  0
ARC
  5
3DD
100
AcDbEntity
  8
0
100
AcDbCircle
 62
7
  6
CONTINUOUS
 10
777.6726253001
 20
286.1557681875
 40
13.0
100
AcDbArc
 50
180.0
 51
360.0
  0
ARC
  5
3DE
100
AcDbEntity
  8
KONSTRUKTIONSELEMENTE
100
AcDbCircle
 62
7
  6
CONTINUOUS
 10
777.5299084376
 20
256.4251068884
 40
9.5600220347
100
AcDbArc
 50
250.2472929192
 51
257.2525711218
  0
ARC
  5
3DF
100
AcDbEntity
  8
KONSTRUKTIONSELEMENTE
100
AcDbCircle
 62
7
  6
CONTINUOUS
 10
777.8487175197
 20
256.3100889664
 40
9.4404839019
100
AcDbArc
 50
282.7159617125
 51
289.8017277657
  0
ARC
  5
3E0
100
AcDbEntity
  8
RUNDUNGEN
100
AcDbCircle
 62
7
  6
CONTINUOUS
 10
806.6726253001
 20
254.1557681875
 40
8.0
100
AcDbArc
 50
0.0
 51
77.962615778
  0
ARC
  5
3E1
100
AcDbEntity
  8
KONSTRUKTIONSELEMENTE
100
AcDbCircle
 62
7
  6
CONTINUOUS
 10
777.6726253001
 20
240.8557681875
 40
7.4
100
AcDbArc
 50
0.0000004677
 51
180.0
  0
ARC
  5
3E2
100
AcDbEntity
  8
BEZUGSACHSEN
100
AcDbCircle
 62
7
  6
CONTINUOUS
 10
777.9363619683
 20
207.466818864
 40
6.5895200382
100
AcDbArc
 50
289.870427744
 51
290.1415389211
  0
ARC
  5
3E3
100
AcDbEntity
  8
BEZUGSACHSEN
100
AcDbCircle
 62
7
  6
CONTINUOUS
 10
777.4088886309
 20
207.4668188612
 40
6.5895200352
100
AcDbArc
 50
249.8584610788
 51
250.129572256
  0
ARC
  5
3E4
100
AcDbEntity
  8
RUNDUNGEN
100
AcDbCircle
 62
7
  6
CONTINUOUS
 10
806.9967362705
 20
255.6495823732
 40
6.4714411919
100
AcDbArc
 50
78.010864413
 51
92.8686453501
  0
ARC
  5
3E5
100
AcDbEntity
  8
0
100
AcDbCircle
 62
7
  6
CONTINUOUS
 10
793.8742429278
 20
187.847864838
 40
2.7679754318
100
AcDbArc
 50
350.5636876715
 51
355.3957076165
  0
ARC
  5
3E6
100
AcDbEntity
  8
KONSTRUKTIONSELEMENTE
100
AcDbCircle
 62
7
  6
CONTINUOUS
 10
777.6726253001
 20
201.2509902095
 40
2.5
100
AcDbArc
 50
180.0
 51
360.0
  0
ARC
  5
3E7
100
AcDbEntity
  8
KONSTRUKTIONSELEMENTE
100
AcDbCircle
 62
7
  6
CONTINUOUS
 10
777.6726253001
 20
262.4157267822
 40
2.5
100
AcDbArc
 50
358.1688338955
 51
360.0
  0
ARC
  5
3E8
100
AcDbEntity
  8
KONSTRUKTIONSELEMENTE
100
AcDbCircle
 62
7
  6
CONTINUOUS
 10
777.6726253001
 20
262.4157267822
 40
2.5
100
AcDbArc
 50
180.0
 51
181.8311661045
  0
ARC
  5
3E9
100
AcDbEntity
  8
0
100
AcDbCircle
 62
7
  6
CONTINUOUS
 10
777.6726253001
 20
509.1557681875
 40
102.0
100
AcDbArc
 50
180.0
 51
262.6771102687
  0
ARC
  5
3EA
100
AcDbEntity
  8
0
100
AcDbCircle
 62
7
  6
CONTINUOUS
 10
777.6726253001
 20
509.1557681875
 40
102.0
100
AcDbArc
 50
277.3228897313
 51
360.0
  0
ARC
  5
3EB
100
AcDbEntity
  8
0
100
AcDbCircle
 62
7
  6
CONTINUOUS
 10
777.6726253001
 20
629.1557681875
 40
102.0
100
AcDbArc
 50
0.0
 51
180.0
  0
ARC
  5
3EC
100
AcDbEntity
  8
0
100
AcDbCircle
 62
7
  6
CONTINUOUS
 10
777.6726253001
 20
509.1557681875
 40
70.0
100
AcDbArc
 50
180.0
 51
259.294917331
  0
ARC
  5
3ED
100
AcDbEntity
  8
0
100
AcDbCircle
 62
7
  6
CONTINUOUS
 10
777.6726253001
 20
509.1557681875
 40
70.0
100
AcDbArc
 50
280.705082669
 51
360.0
  0
ARC
  5
3EE
100
AcDbEntity
  8
0
100
AcDbCircle
 62
7
  6
CONTINUOUS
 10
777.6726253001
 20
629.1557681875
 40
70.0
100
AcDbArc
 50
0.0
 51
180.0
  0
ARC
  5
3EF
100
AcDbEntity
  8
0
100
AcDbCircle
 62
7
  6
CONTINUOUS
 10
777.6726253001
 20
452.1557681875
 40
13.0
100
AcDbArc
 50
0.0
 51
180.0
  0
ARC
  5
3F0
100
AcDbEntity
  8
0
100
AcDbCircle
 62
7
  6
CONTINUOUS
 10
278.2011211501
 20
269.3023372538
 40
98.6761507302
100
AcDbArc
 50
2.2609779608
 51
6.6069414076
  0
ARC
  5
3F1
100
AcDbEntity
  8
0
100
AcDbCircle
 62
7
  6
CONTINUOUS
 10
374.1902289613
 20
219.8557681875
 40
18.2
100
AcDbArc
 50
270.0
 51
360.0
  0
ARC
  5
3F2
100
AcDbEntity
  8
RUNDUNGEN
100
AcDbCircle
 62
7
  6
CONTINUOUS
 10
371.5902289613
 20
219.8557681875
 40
18.2
100
AcDbArc
 50
180.0
 51
270.0
  0
ARC
  5
3F3
100
AcDbEntity
  8
0
100
AcDbCircle
 62
7
  6
CONTINUOUS
 10
374.1905583589
 20
219.8219443957
 40
18.1661762112
100
AcDbArc
 50
269.9989610864
 51
273.3240615168
  0
ARC
  5
3F4
100
AcDbEntity
  8
0
100
AcDbCircle
 62
7
  6
CONTINUOUS
 10
374.195250284
 20
219.7324962026
 40
18.0766064636
100
AcDbArc
 50
273.3256541448
 51
274.0265161695
  0
ARC
  5
3F5
100
AcDbEntity
  8
0
100
AcDbCircle
 62
7
  6
CONTINUOUS
 10
374.2068942825
 20
219.5822817759
 40
17.925945229
100
AcDbArc
 50
274.0231042362
 51
276.9058832781
  0
ARC
  5
3F6
100
AcDbEntity
  8
0
100
AcDbCircle
 62
7
  6
CONTINUOUS
 10
374.2280034186
 20
219.3979821092
 40
17.7404445604
100
AcDbArc
 50
276.9097717271
 51
277.3787475808
  0
ARC
  5
3F7
100
AcDbEntity
  8
BEZUGSACHSEN
100
AcDbCircle
 62
7
  6
CONTINUOUS
 10
372.8902289613
 20
308.6557681875
 40
9.5
100
AcDbArc
 50
156.7472958606
 51
180.0
  0
ARC
  5
3F8
100
AcDbEntity
  8
BEZUGSACHSEN
100
AcDbCircle
 62
7
  6
CONTINUOUS
 10
372.8902289613
 20
308.6557681875
 40
9.5
100
AcDbArc
 50
0.0
 51
23.2527041394
  0
CIRCLE
  5
3F9
100
AcDbEntity
  8
BEZUGSACHSEN
100
AcDbCircle
 62
7
  6
CONTINUOUS
 10
372.8902289613
 20
223.0557681875
 40
9.25
  0
ARC
  5
3FA
100
AcDbEntity
  8
RUNDUNGEN
100
AcDbCircle
 62
7
  6
CONTINUOUS
 10
364.8902289613
 20
256.1557681875
 40
6.0
100
AcDbArc
 50
96.8519886055
 51
179.9999125493
  0
ARC
  5
3FB
100
AcDbEntity
  8
0
100
AcDbCircle
 62
7
  6
CONTINUOUS
 10
380.8902289613
 20
256.1557681875
 40
6.0
100
AcDbArc
 50
0.0
 51
83.1480113945
  0
ARC
  5
3FC
100
AcDbEntity
  8
0
100
AcDbCircle
 62
7
  6
CONTINUOUS
 10
372.8902289613
 20
331.6557681875
 40
58.5
100
AcDbArc
 50
180.0
 51
260.653043499
  0
ARC
  5
3FD
100
AcDbEntity
  8
0
100
AcDbCircle
 62
7
  6
CONTINUOUS
 10
372.8902289613
 20
331.6557681875
 40
58.5
100
AcDbArc
 50
279.346956501
 51
311.569568572
  0
ARC
  5
3FE
100
AcDbEntity
  8
0
100
AcDbCircle
 62
7
  6
CONTINUOUS
 10
372.8902289613
 20
331.6557681875
 40
58.5
100
AcDbArc
 50
318.430431428
 51
360.0
  0
ARC
  5
3FF
100
AcDbEntity
  8
0
100
AcDbCircle
 62
7
  6
CONTINUOUS
 10
372.8902289613
 20
406.6557681875
 40
58.5
100
AcDbArc
 50
0.0
 51
74.125710962
  0
ARC
  5
400
100
AcDbEntity
  8
0
100
AcDbCircle
 62
7
  6
CONTINUOUS
 10
372.8902289613
 20
406.6557681875
 40
58.5
100
AcDbArc
 50
105.874289038
 51
180.0
  0
ARC
  5
401
100
AcDbEntity
  8
0
100
AcDbCircle
 62
7
  6
CONTINUOUS
 10
372.8902289613
 20
331.6557681875
 40
32.5
100
AcDbArc
 50
180.0
 51
252.9980192948
  0
ARC
  5
402
100
AcDbEntity
  8
0
100
AcDbCircle
 62
7
  6
CONTINUOUS
 10
372.8902289613
 20
331.6557681875
 40
32.5
100
AcDbArc
 50
287.0019807052
 51
308.8171072275
  0
ARC
  5
403
100
AcDbEntity
  8
0
100
AcDbCircle
 62
7
  6
CONTINUOUS
 10
372.8902289613
 20
331.6557681875
 40
32.5
100
AcDbArc
 50
321.1828927725
 51
360.0
  0
ARC
  5
404
100
AcDbEntity
  8
0
100
AcDbCircle
 62
7
  6
CONTINUOUS
 10
372.8902289613
 20
406.6557681875
 40
32.5
100
AcDbArc
 50
0.0
 51
60.4998353695
  0
ARC
  5
405
100
AcDbEntity
  8
0
100
AcDbCircle
 62
7
  6
CONTINUOUS
 10
372.8902289613
 20
406.6557681875
 40
32.5
100
AcDbArc
 50
119.5001646305
 51
180.0
  0
ARC
  5
406
100
AcDbEntity
  8
0
100
AcDbCircle
 62
7
  6
CONTINUOUS
 10
372.8902289613
 20
423.1557681875
 40
16.0
100
AcDbArc
 50
180.0
 51
360.0
  0
ARC
  5
407
100
AcDbEntity
  8
0
100
AcDbCircle
 62
7
  6
CONTINUOUS
 10
372.8902289613
 20
715.1557681875
 40
16.0
100
AcDbArc
 50
0.0
 51
180.0
  0
ARC
  5
408
100
AcDbEntity
  8
KONSTRUKTIONSELEMENTE
100
AcDbCircle
 62
7
  6
CONTINUOUS
 10
435.0802703667
 20
269.4657267822
 40
9.55
100
AcDbArc
 50
328.6297070454
 51
45.0
  0
ARC
  5
409
100
AcDbEntity
  8
KONSTRUKTIONSELEMENTE
100
AcDbCircle
 62
7
  6
CONTINUOUS
 10
435.0802703667
 20
269.4657267822
 40
9.55
100
AcDbArc
 50
225.0
 51
301.3702929546
  0
ARC
  5
40A
100
AcDbEntity
  8
KONSTRUKTIONSELEMENTE
100
AcDbCircle
 62
7
  6
CONTINUOUS
 10
426.6656996706
 20
277.8802974783
 40
9.55
100
AcDbArc
 50
156.5165763377
 51
225.0
  0
ARC
  5
40B
100
AcDbEntity
  8
KONSTRUKTIONSELEMENTE
100
AcDbCircle
 62
7
  6
CONTINUOUS
 10
426.6656996706
 20
277.8802974783
 40
9.55
100
AcDbArc
 50
45.0
 51
113.4834236623
  0
ARC
  5
40C
100
AcDbEntity
  8
KONSTRUKTIONSELEMENTE
100
AcDbCircle
 62
7
  6
CONTINUOUS
 10
435.0802703667
 20
269.4657267822
 40
4.55
100
AcDbArc
 50
344.6522021471
 51
45.0
  0
ARC
  5
40D
100
AcDbEntity
  8
KONSTRUKTIONSELEMENTE
100
AcDbCircle
 62
7
  6
CONTINUOUS
 10
435.0802703667
 20
269.4657267822
 40
4.55
100
AcDbArc
 50
225.0
 51
285.3477978529
  0
ARC
  5
40E
100
AcDbEntity
  8
KONSTRUKTIONSELEMENTE
100
AcDbCircle
 62
7
  6
CONTINUOUS
 10
426.6656996706
 20
277.8802974783
 40
4.55
100
AcDbArc
 50
185.3186932883
 51
225.0
  0
ARC
  5
40F
100
AcDbEntity
  8
KONSTRUKTIONSELEMENTE
100
AcDbCircle
 62
7
  6
CONTINUOUS
 10
426.6656996706
 20
277.8802974783
 40
4.55
100
AcDbArc
 50
45.0
 51
84.6813067117
  0
ARC
  5
410
100
AcDbEntity
  8
KONSTRUKTIONSELEMENTE
100
AcDbCircle
 62
7
  6
CONTINUOUS
 10
393.3963256158
 20
311.1496715331
 40
3.5
100
AcDbArc
 50
45.0
 51
225.0
  0
ARC
  5
411
100
AcDbEntity
  8
KONSTRUKTIONSELEMENTE
100
AcDbCircle
 62
7
  6
CONTINUOUS
 10
426.6303443315
 20
277.9156528173
 40
3.5
100
AcDbArc
 50
225.0
 51
45.0
  0
ARC
  5
412
100
AcDbEntity
  8
KONSTRUKTIONSELEMENTE
100
AcDbCircle
 62
7
  6
CONTINUOUS
 10
436.7066159634
 20
267.8393811854
 40
2.25
100
AcDbArc
 50
45.0
 51
225.0
  0
ARC
  5
413
100
AcDbEntity
  8
KONSTRUKTIONSELEMENTE
100
AcDbCircle
 62
7
  6
CONTINUOUS
 10
496.2450069393
 20
208.3009902095
 40
9.55
100
AcDbArc
 50
330.1951355235
 51
45.0
  0
ARC
  5
414
100
AcDbEntity
  8
KONSTRUKTIONSELEMENTE
100
AcDbCircle
 62
7
  6
CONTINUOUS
 10
496.2450069393
 20
208.3009902095
 40
9.55
100
AcDbArc
 50
225.0
 51
299.8048644765
  0
ARC
  5
415
100
AcDbEntity
  8
KONSTRUKTIONSELEMENTE
100
AcDbCircle
 62
7
  6
CONTINUOUS
 10
487.8304362432
 20
216.7155609056
 40
9.55
100
AcDbArc
 50
148.6297070454
 51
225.0
  0
ARC
  5
416
100
AcDbEntity
  8
KONSTRUKTIONSELEMENTE
100
AcDbCircle
 62
7
  6
CONTINUOUS
 10
487.8304362432
 20
216.7155609056
 40
9.55
100
AcDbArc
 50
45.0
 51
121.3702929546
  0
ARC
  5
417
100
AcDbEntity
  8
KONSTRUKTIONSELEMENTE
100
AcDbCircle
 62
7
  6
CONTINUOUS
 10
466.9354308592
 20
237.6105662897
 40
8.0
100
AcDbArc
 50
331.3642958278
 51
45.0
  0
ARC
  5
418
100
AcDbEntity
  8
KONSTRUKTIONSELEMENTE
100
AcDbCircle
 62
7
  6
CONTINUOUS
 10
466.9354308592
 20
237.6105662897
 40
8.0
100
AcDbArc
 50
225.0
 51
298.6357041722
  0
ARC
  5
419
100
AcDbEntity
  8
KONSTRUKTIONSELEMENTE
100
AcDbCircle
 62
7
  6
CONTINUOUS
 10
456.3288291414
 20
248.2171680075
 40
8.0
100
AcDbArc
 50
151.3642958278
 51
225.0
  0
ARC
  5
41A
100
AcDbEntity
  8
KONSTRUKTIONSELEMENTE
100
AcDbCircle
 62
7
  6
CONTINUOUS
 10
456.3288291414
 20
248.2171680075
 40
8.0
100
AcDbArc
 50
45.0
 51
118.6357041722
  0
ARC
  5
41B
100
AcDbEntity
  8
KONSTRUKTIONSELEMENTE
100
AcDbCircle
 62
7
  6
CONTINUOUS
 10
496.2450069393
 20
208.3009902095
 40
4.55
100
AcDbArc
 50
348.3583327703
 51
45.0
  0
ARC
  5
41C
100
AcDbEntity
  8
KONSTRUKTIONSELEMENTE
100
AcDbCircle
 62
7
  6
CONTINUOUS
 10
496.2450069393
 20
208.3009902095
 40
4.55
100
AcDbArc
 50
225.0
 51
281.6416672297
  0
ARC
  5
41D
100
AcDbEntity
  8
KONSTRUKTIONSELEMENTE
100
AcDbCircle
 62
7
  6
CONTINUOUS
 10
487.8304362432
 20
216.7155609056
 40
4.55
100
AcDbArc
 50
164.6522021471
 51
225.0
  0
ARC
  5
41E
100
AcDbEntity
  8
KONSTRUKTIONSELEMENTE
100
AcDbCircle
 62
7
  6
CONTINUOUS
 10
487.8304362432
 20
216.7155609056
 40
4.55
100
AcDbArc
 50
45.0
 51
105.3477978529
  0
ARC
  5
41F
100
AcDbEntity
  8
KONSTRUKTIONSELEMENTE
100
AcDbCircle
 62
7
  6
CONTINUOUS
 10
466.9354308592
 20
237.6105662897
 40
3.5
100
AcDbArc
 50
355.1538775079
 51
45.0
  0
ARC
  5
420
100
AcDbEntity
  8
KONSTRUKTIONSELEMENTE
100
AcDbCircle
 62
7
  6
CONTINUOUS
 10
466.9354308592
 20
237.6105662897
 40
3.5
100
AcDbArc
 50
225.0
 51
274.8461224921
  0
ARC
  5
421
100
AcDbEntity
  8
KONSTRUKTIONSELEMENTE
100
AcDbCircle
 62
7
  6
CONTINUOUS
 10
456.3288291414
 20
248.2171680075
 40
3.5
100
AcDbArc
 50
175.1538775079
 51
225.0
  0
ARC
  5
422
100
AcDbEntity
  8
KONSTRUKTIONSELEMENTE
100
AcDbCircle
 62
7
  6
CONTINUOUS
 10
456.3288291414
 20
248.2171680075
 40
3.5
100
AcDbArc
 50
45.0
 51
94.8461224921
  0
ARC
  5
423
100
AcDbEntity
  8
KONSTRUKTIONSELEMENTE
100
AcDbCircle
 62
7
  6
CONTINUOUS
 10
467.8193143356
 20
236.7266828132
 40
2.25
100
AcDbArc
 50
45.0
 51
225.0
  0
ARC
  5
424
100
AcDbEntity
  8
KONSTRUKTIONSELEMENTE
100
AcDbCircle
 62
7
  6
CONTINUOUS
 10
486.5576440371
 20
217.9883531118
 40
2.25
100
AcDbArc
 50
225.0
 51
45.0
  0
ARC
  5
425
100
AcDbEntity
  8
KONSTRUKTIONSELEMENTE
100
AcDbCircle
 62
7
  6
CONTINUOUS
 10
455.4449456649
 20
249.101051484
 40
2.25
100
AcDbArc
 50
225.0
 51
45.0
  0
ARC
  5
426
100
AcDbEntity
  8
0
100
AcDbCircle
 62
7
  6
CONTINUOUS
 10
467.5793367725
 20
269.3023372538
 40
98.6761507301
100
AcDbArc
 50
173.3930585924
 51
177.7390220392
  0
SPLINE
  5
427
100
AcDbEntity
  8
KONSTRUKTIONSELEMENTE
100
AcDbSpline
 62
7
  6
CONTINUOUS
 70
0
 71
3
 72
11
 73
7
 74
0
 42
0.0000001
 43
0.0000001
 44
0.0000000001
 40
0.0
 40
0.0
 40
0.0
 40
0.0
 40
0.2390759488
 40
0.4845199689
 40
0.7382329877
 40
1.0
 40
1.0
 40
1.0
 40
1.0
 10
770.2622370884
 20
235.0677905828
 30
0.0
 10
770.4984647578
 20
235.5299655306
 30
0.0
 10
771.1102724125
 20
236.4031601431
 30
0.0
 10
772.3319256587
 20
237.4609637827
 30
0.0
 10
773.7914165027
 20
238.2579818042
 30
0.0
 10
774.8642750026
 20
238.6009011061
 30
0.0
 10
775.4185129796
 20
238.7265849421
 30
0.0
  0
SPLINE
  5
428
100
AcDbEntity
  8
KONSTRUKTIONSELEMENTE
100
AcDbSpline
 62
7
  6
CONTINUOUS
 70
0
 71
3
 72
11
 73
7
 74
0
 42
0.0000001
 43
0.0000001
 44
0.0000000001
 40
0.0
 40
0.0
 40
0.0
 40
0.0
 40
0.2617931805
 40
0.5155111137
 40
0.7609431338
 40
1.0
 40
1.0
 40
1.0
 40
1.0
 10
779.9247960789
 20
238.7270161544
 30
0.0
 10
780.4793424271
 20
238.601354756
 30
0.0
 10
781.5527876392
 20
238.2584928879
 30
0.0
 10
783.0130258163
 20
237.4612527402
 30
0.0
 10
784.2351081163
 20
236.4030002421
 30
0.0
 10
784.8471649384
 20
235.5295030934
 30
0.0
 10
785.0834070359
 20
235.0671369878
 30
0.0
  0
SPLINE
  5
429
100
AcDbEntity
  8
KONSTRUKTIONSELEMENTE
100
AcDbSpline
 62
7
  6
CONTINUOUS
 70
0
 71
3
 72
10
 73
6
 74
0
 42
0.0000001
 43
0.0000001
 44
0.0000000001
 40
0.0
 40
0.0
 40
0.0
 40
0.0
 40
0.3116645009
 40
0.6060899939
 40
1.0
 40
1.0
 40
1.0
 40
1.0
 10
774.1726253001
 20
232.6608188214
 30
0.0
 10
774.1726253001
 20
232.8579736678
 30
0.0
 10
774.3601538567
 20
233.2292998625
 30
0.0
 10
774.8174731263
 20
233.6631729523
 30
0.0
 10
775.1958744385
 20
233.8905829857
 30
0.0
 10
775.4206334118
 20
233.9981711167
 30
0.0
  0
SPLINE
  5
42A
100
AcDbEntity
  8
KONSTRUKTIONSELEMENTE
100
AcDbSpline
 62
7
  6
CONTINUOUS
 70
0
 71
3
 72
10
 73
6
 74
0
 42
0.0000001
 43
0.0000001
 44
0.0000000001
 40
0.0
 40
0.0
 40
0.0
 40
0.0
 40
0.3939255147
 40
0.6883533687
 40
1.0
 40
1.0
 40
1.0
 40
1.0
 10
779.9243745356
 20
233.9982830448
 30
0.0
 10
780.1491824416
 20
233.8906931441
 30
0.0
 10
780.5276449632
 20
233.6632475759
 30
0.0
 10
780.9850864809
 20
233.2293698325
 30
0.0
 10
781.1726253001
 20
232.8579901253
 30
0.0
 10
781.1726253001
 20
232.6608188214
 30
0.0
  0
SPLINE
  5
42B
100
AcDbEntity
  8
KONSTRUKTIONSELEMENTE
100
AcDbSpline
 62
7
  6
CONTINUOUS
 70
0
 71
3
 72
12
 73
8
 74
0
 42
0.0000001
 43
0.0000001
 44
0.0000000001
 40
0.0
 40
0.0
 40
0.0
 40
0.0
 40
0.119660423
 40
0.239791031
 40
0.4831782475
 40
0.7358868616
 40
1.0
 40
1.0
 40
1.0
 40
1.0
 10
769.676891201
 20
263.9823343016
 30
0.0
 10
769.6907867286
 20
264.3224881511
 30
0.0
 10
769.7871710643
 20
265.0033367577
 30
0.0
 10
770.2434141394
 20
266.307750867
 30
0.0
 10
771.2816534895
 20
267.7695413516
 30
0.0
 10
773.050643916
 20
269.0631051233
 30
0.0
 10
774.4410164883
 20
269.5939245508
 30
0.0
 10
775.1692009642
 20
269.7793005358
 30
0.0
  0
SPLINE
  5
42C
100
AcDbEntity
  8
KONSTRUKTIONSELEMENTE
100
AcDbSpline
 62
7
  6
CONTINUOUS
 70
0
 71
3
 72
12
 73
8
 74
0
 42
0.0000001
 43
0.0000001
 44
0.0000000001
 40
0.0
 40
0.0
 40
0.0
 40
0.0
 40
0.2641163723
 40
0.5168081693
 40
0.7601760549
 40
0.8803250158
 40
1.0
 40
1.0
 40
1.0
 40
1.0
 10
780.1769531026
 20
269.7790533463
 30
0.0
 10
780.9050499216
 20
269.5936141236
 30
0.0
 10
782.2952144132
 20
269.0627788776
 30
0.0
 10
784.063786825
 20
267.76923177
 30
0.0
 10
785.1019634372
 20
266.30768908
 30
0.0
 10
785.5580472973
 20
265.0033260206
 30
0.0
 10
785.6544521147
 20
264.3224639742
 30
0.0
 10
785.6683567592
 20
263.9823046541
 30
0.0
  0
SPLINE
  5
42D
100
AcDbEntity
  8
KONSTRUKTIONSELEMENTE
100
AcDbSpline
 62
7
  6
CONTINUOUS
 70
0
 71
3
 72
10
 73
6
 74
0
 42
0.0000001
 43
0.0000001
 44
0.0000000001
 40
0.0
 40
0.0
 40
0.0
 40
0.0
 40
0.3192646009
 40
0.6086079864
 40
1.0
 40
1.0
 40
1.0
 40
1.0
 10
774.1726253001
 20
263.7735171936
 30
0.0
 10
774.1726253001
 20
263.9452569688
 30
0.0
 10
774.3146410867
 20
264.2661081837
 30
0.0
 10
774.6804471013
 20
264.6594605231
 30
0.0
 10
774.9837349341
 20
264.8725004364
 30
0.0
 10
775.1662712351
 20
264.9774150329
 30
0.0
  0
SPLINE
  5
42E
100
AcDbEntity
  8
KONSTRUKTIONSELEMENTE
100
AcDbSpline
 62
7
  6
CONTINUOUS
 70
0
 71
3
 72
10
 73
6
 74
0
 42
0.0000001
 43
0.0000001
 44
0.0000000001
 40
0.0
 40
0.0
 40
0.0
 40
0.0
 40
0.3914026107
 40
0.6807340322
 40
1.0
 40
1.0
 40
1.0
 40
1.0
 10
780.1790709012
 20
264.9773625617
 30
0.0
 10
780.3615981447
 20
264.8724471522
 30
0.0
 10
780.6648377254
 20
264.6593880808
 30
0.0
 10
781.03065843
 20
264.2660897201
 30
0.0
 10
781.1726253001
 20
263.9452469792
 30
0.0
 10
781.1726253001
 20
263.7735171936
 30
0.0
  0
SPLINE
  5
42F
100
AcDbEntity
  8
KONSTRUKTIONSELEMENTE
100
AcDbSpline
 62
7
  6
CONTINUOUS
 70
0
 71
3
 72
9
 73
5
 74
0
 42
0.0000001
 43
0.0000001
 44
0.0000000001
 40
0.0
 40
0.0
 40
0.0
 40
0.0
 40
0.4878890232
 40
1.0
 40
1.0
 40
1.0
 40
1.0
 10
796.1537783505
 20
279.8151079522
 30
0.0
 10
794.4564535684
 20
278.634204577
 30
0.0
 10
790.6737534542
 20
276.6354116103
 30
0.0
 10
786.5727674807
 20
275.4557086608
 30
0.0
 10
784.4407338512
 20
275.0495855752
 30
0.0
  0
SPLINE
  5
430
100
AcDbEntity
  8
KONSTRUKTIONSELEMENTE
100
AcDbSpline
 62
7
  6
CONTINUOUS
 70
0
 71
3
 72
9
 73
5
 74
0
 42
0.0000001
 43
0.0000001
 44
0.0000000001
 40
0.0
 40
0.0
 40
0.0
 40
0.0
 40
0.5121260224
 40
1.0
 40
1.0
 40
1.0
 40
1.0
 10
770.9259896104
 20
275.0455055581
 30
0.0
 10
768.7900208232
 20
275.4510191189
 30
0.0
 10
764.6813941038
 20
276.6306709606
 30
0.0
 10
760.8917525792
 20
278.6321601386
 30
0.0
 10
759.1915920491
 20
279.8150281553
 30
0.0
  0
SPLINE
  5
431
100
AcDbEntity
  8
KONSTRUKTIONSELEMENTE
100
AcDbSpline
 62
7
  6
CONTINUOUS
 70
0
 71
3
 72
9
 73
5
 74
0
 42
0.0000001
 43
0.0000001
 44
0.0000000001
 40
0.0
 40
0.0
 40
0.0
 40
0.0
 40
0.2348418344
 40
1.0
 40
1.0
 40
1.0
 40
1.0
 10
794.7510364817
 20
287.7930010296
 30
0.0
 10
794.4698297649
 20
287.4902469284
 30
0.0
 10
793.215355728
 20
286.2542906763
 30
0.0
 10
791.7549481387
 20
285.2357279518
 30
0.0
 10
790.5813325134
 20
284.5760811459
 30
0.0
  0
SPLINE
  5
432
100
AcDbEntity
  8
KONSTRUKTIONSELEMENTE
100
AcDbSpline
 62
7
  6
CONTINUOUS
 70
0
 71
3
 72
9
 73
5
 74
0
 42
0.0000001
 43
0.0000001
 44
0.0000000001
 40
0.0
 40
0.0
 40
0.0
 40
0.0
 40
0.2654819976
 40
1.0
 40
1.0
 40
1.0
 40
1.0
 10
764.7637938085
 20
284.5761451638
 30
0.0
 10
764.3566125734
 20
284.8050093468
 30
0.0
 10
762.8533404909
 20
285.7186636371
 30
0.0
 10
761.4733575389
 20
286.846434029
 30
0.0
 10
760.593894112
 20
287.7933428592
 30
0.0
  0
SPLINE
  5
433
100
AcDbEntity
  8
0
100
AcDbSpline
 62
7
  6
CONTINUOUS
 70
0
 71
3
 72
11
 73
7
 74
0
 42
0.0000001
 43
0.0000001
 44
0.0000000001
 40
0.0
 40
0.0
 40
0.0
 40
0.0
 40
0.2192989281
 40
0.4548225453
 40
0.7152180566
 40
1.0
 40
1.0
 40
1.0
 40
1.0
 10
796.642050234
 20
187.384771622
 30
0.0
 10
796.642050234
 20
187.7604249582
 30
0.0
 10
796.4731298276
 20
188.5468674501
 30
0.0
 10
795.768243432
 20
189.5782625535
 30
0.0
 10
794.6979641379
 20
190.4083895395
 30
0.0
 10
793.8303550225
 20
190.7801253761
 30
0.0
 10
793.3641811419
 20
190.9238410619
 30
0.0
  0
SPLINE
  5
434
100
AcDbEntity
  8
0
100
AcDbSpline
 62
7
  6
CONTINUOUS
 70
0
 71
3
 72
15
 73
11
 74
0
 42
0.0000001
 43
0.0000001
 44
0.0000000001
 40
0.0
 40
0.0
 40
0.0
 40
0.0
 40
0.1047415988
 40
0.222328371
 40
0.3560160977
 40
0.5
 40
0.6439839023
 40
0.777671629
 40
0.8952584012
 40
1.0
 40
1.0
 40
1.0
 40
1.0
 10
779.6467189362
 20
186.4332081522
 30
0.0
 10
779.6467189362
 20
186.2033264365
 30
0.0
 10
779.796040997
 20
185.7095928619
 30
0.0
 10
780.3675470235
 20
185.1441870119
 30
0.0
 10
781.1711427418
 20
184.7812027263
 30
0.0
 10
782.0999069206
 20
184.6556795352
 30
0.0
 10
783.0286710993
 20
184.7812027263
 30
0.0
 10
783.8322668177
 20
185.1441870119
 30
0.0
 10
784.4037728442
 20
185.7095928619
 30
0.0
 10
784.553094905
 20
186.2033264365
 30
0.0
 10
784.553094905
 20
186.4332081522
 30
0.0
  0
SPLINE
  5
435
100
AcDbEntity
  8
0
100
AcDbSpline
 62
7
  6
CONTINUOUS
 70
0
 71
3
 72
11
 73
7
 74
0
 42
0.0000001
 43
0.0000001
 44
0.0000000001
 40
0.0
 40
0.0
 40
0.0
 40
0.0
 40
0.2094689415
 40
0.4446609502
 40
0.7120169424
 40
1.0
 40
1.0
 40
1.0
 40
1.0
 10
776.5178301016
 20
189.1380184755
 30
0.0
 10
776.5177936842
 20
189.3807802225
 30
0.0
 10
776.3598963123
 20
189.9021494255
 30
0.0
 10
775.7561950109
 20
190.4992028447
 30
0.0
 10
774.9081233031
 20
190.8825511911
 30
0.0
 10
774.2604737663
 20
190.9698030026
 30
0.0
 10
773.9267189362
 20
190.9698030026
 30
0.0
  0
SPLINE
  5
436
100
AcDbEntity
  8
0
100
AcDbSpline
 62
7
  6
CONTINUOUS
 70
0
 71
3
 72
9
 73
5
 74
0
 42
0.0000001
 43
0.0000001
 44
0.0000000001
 40
0.0
 40
0.0
 40
0.0
 40
0.0
 40
0.4402133985
 40
1.0
 40
1.0
 40
1.0
 40
1.0
 10
762.3166772443
 20
186.5298795236
 30
0.0
 10
762.3166772443
 20
186.4997465456
 30
0.0
 10
762.3630843704
 20
186.4341284115
 30
0.0
 10
762.4343593798
 20
186.4195708657
 30
0.0
 10
762.4726772443
 20
186.4195708657
 30
0.0
  0
SPLINE
  5
437
100
AcDbEntity
  8
0
100
AcDbSpline
 62
7
  6
CONTINUOUS
 70
0
 71
3
 72
9
 73
5
 74
0
 42
0.0000001
 43
0.0000001
 44
0.0000000001
 40
0.0
 40
0.0
 40
0.0
 40
0.0
 40
0.4402133985
 40
1.0
 40
1.0
 40
1.0
 40
1.0
 10
763.3891772443
 20
186.5850338525
 30
0.0
 10
763.3891772443
 20
186.6151668305
 30
0.0
 10
763.3427701181
 20
186.6807849646
 30
0.0
 10
763.2714951087
 20
186.6953425104
 30
0.0
 10
763.2331772443
 20
186.6953425104
 30
0.0
  0
SPLINE
  5
438
100
AcDbEntity
  8
0
100
AcDbSpline
 62
7
  6
CONTINUOUS
 70
0
 71
3
 72
9
 73
5
 74
0
 42
0.0000001
 43
0.0000001
 44
0.0000000001
 40
0.0
 40
0.0
 40
0.0
 40
0.0
 40
0.4402133985
 40
1.0
 40
1.0
 40
1.0
 40
1.0
 10
763.3891772443
 20
189.3427502991
 30
0.0
 10
763.3891772443
 20
189.3728832771
 30
0.0
 10
763.3427701181
 20
189.4385014113
 30
0.0
 10
763.2714951087
 20
189.453058957
 30
0.0
 10
763.2331772443
 20
189.453058957
 30
0.0
  0
SPLINE
  5
439
100
AcDbEntity
  8
0
100
AcDbSpline
 62
7
  6
CONTINUOUS
 70
0
 71
3
 72
11
 73
7
 74
0
 42
0.0000001
 43
0.0000001
 44
0.0000000001
 40
0.0
 40
0.0
 40
0.0
 40
0.0
 40
0.2094668498
 40
0.4446559298
 40
0.7120302568
 40
1.0
 40
1.0
 40
1.0
 40
1.0
 10
761.2441772443
 20
187.9363149114
 30
0.0
 10
761.2441772443
 20
187.8997718142
 30
0.0
 10
761.2679093462
 20
187.8212791833
 30
0.0
 10
761.3587879963
 20
187.7313930498
 30
0.0
 10
761.4864447335
 20
187.6736778569
 30
0.0
 10
761.5839387157
 20
187.6605432667
 30
0.0
 10
761.6341772443
 20
187.6605432667
 30
0.0
  0
SPLINE
  5
43A
100
AcDbEntity
  8
0
100
AcDbSpline
 62
7
  6
CONTINUOUS
 70
0
 71
3
 72
11
 73
7
 74
0
 42
0.0000001
 43
0.0000001
 44
0.0000000001
 40
0.0
 40
0.0
 40
0.0
 40
0.0
 40
0.2094668498
 40
0.4446559298
 40
0.7120302568
 40
1.0
 40
1.0
 40
1.0
 40
1.0
 10
761.2441772443
 20
185.1785984647
 30
0.0
 10
761.2441772443
 20
185.1420553675
 30
0.0
 10
761.2679093462
 20
185.0635627367
 30
0.0
 10
761.3587879963
 20
184.9736766032
 30
0.0
 10
761.4864447335
 20
184.9159614103
 30
0.0
 10
761.5839387157
 20
184.9028268201
 30
0.0
 10
761.6341772443
 20
184.9028268201
 30
0.0
  0
SPLINE
  5
43B
100
AcDbEntity
  8
0
100
AcDbSpline
 62
7
  6
CONTINUOUS
 70
0
 71
3
 72
9
 73
5
 74
0
 42
0.0000001
 43
0.0000001
 44
0.0000000001
 40
0.0
 40
0.0
 40
0.0
 40
0.0
 40
0.2432035461
 40
1.0
 40
1.0
 40
1.0
 40
1.0
 10
766.5091772443
 20
190.4182597133
 30
0.0
 10
766.5091772443
 20
190.4399016149
 30
0.0
 10
766.5017775121
 20
190.5288915158
 30
0.0
 10
766.4635363825
 20
190.6140193322
 30
0.0
 10
766.4241636793
 20
190.6686556163
 30
0.0
  0
SPLINE
  5
43C
100
AcDbEntity
  8
0
100
AcDbSpline
 62
7
  6
CONTINUOUS
 70
0
 71
3
 72
9
 73
5
 74
0
 42
0.0000001
 43
0.0000001
 44
0.0000000001
 40
0.0
 40
0.0
 40
0.0
 40
0.0
 40
0.2250156934
 40
1.0
 40
1.0
 40
1.0
 40
1.0
 10
766.4241636793
 20
190.6686556163
 30
0.0
 10
766.390239122
 20
190.7157316767
 30
0.0
 10
766.2040376655
 20
190.8992923747
 30
0.0
 10
765.929027018
 20
190.9698030026
 30
0.0
 10
765.7291772443
 20
190.9698030026
 30
0.0
  0
SPLINE
  5
43D
100
AcDbEntity
  8
RUNDUNGEN
100
AcDbSpline
 62
7
  6
CONTINUOUS
 70
0
 71
3
 72
10
 73
6
 74
0
 42
0.0000001
 43
0.0000001
 44
0.0000000001
 40
0.0
 40
0.0
 40
0.0
 40
0.0
 40
0.2265435863
 40
0.4650408478
 40
1.0
 40
1.0
 40
1.0
 40
1.0
 10
735.2829262001
 20
193.1785226264
 30
0.0
 10
735.2829960049
 20
193.2892893151
 30
0.0
 10
735.3233655027
 20
193.518338523
 30
0.0
 10
735.5611897659
 20
193.95295154
 30
0.0
 10
735.8800308951
 20
194.1911896404
 30
0.0
 10
736.1144365546
 20
194.3072489219
 30
0.0
  0
SPLINE
  5
43E
100
AcDbEntity
  8
RUNDUNGEN
100
AcDbSpline
 62
7
  6
CONTINUOUS
 70
0
 71
3
 72
9
 73
5
 74
0
 42
0.0000001
 43
0.0000001
 44
0.0000000001
 40
0.0
 40
0.0
 40
0.0
 40
0.0
 40
0.4805181646
 40
1.0
 40
1.0
 40
1.0
 40
1.0
 10
735.2829245198
 20
189.6429338766
 30
0.0
 10
735.2828445487
 20
189.5013814465
 30
0.0
 10
735.3501105913
 20
189.2040204132
 30
0.0
 10
735.5278870044
 20
188.96007797
 30
0.0
 10
735.6355641192
 20
188.8513398975
 30
0.0
  0
SPLINE
  5
43F
100
AcDbEntity
  8
RUNDUNGEN
100
AcDbSpline
 62
7
  6
CONTINUOUS
 70
0
 71
3
 72
11
 73
7
 74
0
 42
0.0000001
 43
0.0000001
 44
0.0000000001
 40
0.0
 40
0.0
 40
0.0
 40
0.0
 40
0.2256920307
 40
0.4632775486
 40
0.7205987639
 40
1.0
 40
1.0
 40
1.0
 40
1.0
 10
721.7310459576
 20
207.7653262128
 30
0.0
 10
721.7309796716
 20
208.10637793
 30
0.0
 10
721.8543139259
 20
208.8114923654
 30
0.0
 10
722.3847926148
 20
209.7809045737
 30
0.0
 10
723.2162180874
 20
210.6219364933
 30
0.0
 10
723.9112095037
 20
211.0541237941
 30
0.0
 10
724.2895844143
 20
211.2414653469
 30
0.0
  0
SPLINE
  5
440
100
AcDbEntity
  8
RUNDUNGEN
100
AcDbSpline
 62
7
  6
CONTINUOUS
 70
0
 71
3
 72
9
 73
5
 74
0
 42
0.0000001
 43
0.0000001
 44
0.0000000001
 40
0.0
 40
0.0
 40
0.0
 40
0.0
 40
0.4805190228
 40
1.0
 40
1.0
 40
1.0
 40
1.0
 10
721.7310459576
 20
204.2297923068
 30
0.0
 10
721.7311305194
 20
203.7947093778
 30
0.0
 10
721.9387460527
 20
202.8809731667
 30
0.0
 10
722.4851699574
 20
202.1313067354
 30
0.0
 10
722.8161307667
 20
201.7970849229
 30
0.0
  0
SPLINE
  5
441
100
AcDbEntity
  8
RUNDUNGEN
100
AcDbSpline
 62
7
  6
CONTINUOUS
 70
0
 71
3
 72
11
 73
7
 74
0
 42
0.0000001
 43
0.0000001
 44
0.0000000001
 40
0.0
 40
0.0
 40
0.0
 40
0.0
 40
0.2377805525
 40
0.4809056656
 40
0.7339193662
 40
1.0
 40
1.0
 40
1.0
 40
1.0
 10
797.9581867292
 20
162.4265219251
 30
0.0
 10
797.9581867543
 20
163.1478266125
 30
0.0
 10
798.1181997663
 20
164.6113071851
 30
0.0
 10
798.8276927242
 20
166.7376150103
 30
0.0
 10
799.9849543527
 20
168.7550965088
 30
0.0
 10
801.0072075615
 20
169.9645828328
 30
0.0
 10
801.5751458435
 20
170.5381170903
 30
0.0
  0
SPLINE
  5
442
100
AcDbEntity
  8
RUNDUNGEN
100
AcDbSpline
 62
7
  6
CONTINUOUS
 70
0
 71
3
 72
9
 73
5
 74
0
 42
0.0000001
 43
0.0000001
 44
0.0000000001
 40
0.0
 40
0.0
 40
0.0
 40
0.0
 40
0.4822746168
 40
1.0
 40
1.0
 40
1.0
 40
1.0
 10
798.1152781372
 20
164.1930628216
 30
0.0
 10
798.3214759202
 20
163.0363535399
 30
0.0
 10
799.1752753968
 20
160.7014502882
 30
0.0
 10
800.6876470895
 20
158.7467028928
 30
0.0
 10
801.5751458435
 20
157.8504594893
 30
0.0
  0
SPLINE
  5
443
100
AcDbEntity
  8
RUNDUNGEN
100
AcDbSpline
 62
7
  6
CONTINUOUS
 70
0
 71
3
 72
9
 73
5
 74
0
 42
0.0000001
 43
0.0000001
 44
0.0000000001
 40
0.0
 40
0.0
 40
0.0
 40
0.0
 40
0.4805364501
 40
1.0
 40
1.0
 40
1.0
 40
1.0
 10
733.6726253001
 20
136.2172572815
 30
0.0
 10
733.6726253001
 20
136.6524771956
 30
0.0
 10
733.8800946749
 20
137.5665300297
 30
0.0
 10
734.4266711416
 20
138.3164323126
 30
0.0
 10
734.7577130344
 20
138.6507360075
 30
0.0
  0
SPLINE
  5
444
100
AcDbEntity
  8
BEZUGSACHSEN
100
AcDbSpline
 62
7
  6
CONTINUOUS
 70
0
 71
3
 72
9
 73
5
 74
0
 42
0.0000001
 43
0.0000001
 44
0.0000000001
 40
0.0
 40
0.0
 40
0.0
 40
0.0
 40
0.4744816413
 40
1.0
 40
1.0
 40
1.0
 40
1.0
 10
772.7754506394
 20
202.9622250446
 30
0.0
 10
773.0472815022
 20
202.5863108391
 30
0.0
 10
773.7734510732
 20
201.9016992418
 30
0.0
 10
774.6574732847
 20
201.4572044539
 30
0.0
 10
775.1398504089
 20
201.2802818782
 30
0.0
  0
SPLINE
  5
445
100
AcDbEntity
  8
BEZUGSACHSEN
100
AcDbSpline
 62
7
  6
CONTINUOUS
 70
0
 71
3
 72
9
 73
5
 74
0
 42
0.0000001
 43
0.0000001
 44
0.0000000001
 40
0.0
 40
0.0
 40
0.0
 40
0.0
 40
0.5255183587
 40
1.0
 40
1.0
 40
1.0
 40
1.0
 10
780.2054001913
 20
201.2802818782
 30
0.0
 10
780.6877773156
 20
201.4572044539
 30
0.0
 10
781.571799527
 20
201.9016992418
 30
0.0
 10
782.2979690981
 20
202.5863108391
 30
0.0
 10
782.5697999608
 20
202.9622250446
 30
0.0
  0
SPLINE
  5
446
100
AcDbEntity
  8
BEZUGSACHSEN
100
AcDbSpline
 62
7
  6
CONTINUOUS
 70
0
 71
3
 72
11
 73
7
 74
0
 42
0.0000001
 43
0.0000001
 44
0.0000000001
 40
0.0
 40
0.0
 40
0.0
 40
0.0
 40
0.2211899434
 40
0.4572145773
 40
0.7166495597
 40
1.0
 40
1.0
 40
1.0
 40
1.0
 10
783.1726253001
 20
201.1969151055
 30
0.0
 10
783.1726253001
 20
201.555050123
 30
0.0
 10
783.0214483062
 20
202.3018279541
 30
0.0
 10
782.3843560868
 20
203.2967778043
 30
0.0
 10
781.407125683
 20
204.1179131067
 30
0.0
 10
780.6075680262
 20
204.5038118317
 30
0.0
 10
780.1761015504
 20
204.659749537
 30
0.0
  0
SPLINE
  5
447
100
AcDbEntity
  8
BEZUGSACHSEN
100
AcDbSpline
 62
7
  6
CONTINUOUS
 70
0
 71
3
 72
11
 73
7
 74
0
 42
0.0000001
 43
0.0000001
 44
0.0000000001
 40
0.0
 40
0.0
 40
0.0
 40
0.0
 40
0.2833504403
 40
0.5427854227
 40
0.7788100566
 40
1.0
 40
1.0
 40
1.0
 40
1.0
 10
775.1691490498
 20
204.659749537
 30
0.0
 10
774.7376825741
 20
204.5038118317
 30
0.0
 10
773.9381249172
 20
204.1179131067
 30
0.0
 10
772.9608945135
 20
203.2967778043
 30
0.0
 10
772.3238022941
 20
202.3018279541
 30
0.0
 10
772.1726253001
 20
201.555050123
 30
0.0
 10
772.1726253001
 20
201.1969151055
 30
0.0
  0
SPLINE
  5
448
100
AcDbEntity
  8
RUNDUNGEN
100
AcDbSpline
 62
7
  6
CONTINUOUS
 70
0
 71
3
 72
9
 73
5
 74
0
 42
0.0000001
 43
0.0000001
 44
0.0000000001
 40
0.0
 40
0.0
 40
0.0
 40
0.0
 40
0.5194633855
 40
1.0
 40
1.0
 40
1.0
 40
1.0
 10
820.5875375659
 20
138.6507360075
 30
0.0
 10
820.9185793537
 20
138.3164324186
 30
0.0
 10
821.4651558462
 20
137.5665301837
 30
0.0
 10
821.6726253001
 20
136.6524773443
 30
0.0
 10
821.6726253001
 20
136.2172572815
 30
0.0
  0
SPLINE
  5
449
100
AcDbEntity
  8
RUNDUNGEN
100
AcDbSpline
 62
7
  6
CONTINUOUS
 70
0
 71
3
 72
10
 73
6
 74
0
 42
0.0000001
 43
0.0000001
 44
0.0000000001
 40
0.0
 40
0.0
 40
0.0
 40
0.0
 40
0.5349738236
 40
0.7734707683
 40
1.0
 40
1.0
 40
1.0
 40
1.0
 10
834.3322743631
 20
209.6191461962
 30
0.0
 10
834.5727010695
 20
209.500105765
 30
0.0
 10
834.8997305388
 20
209.2557475387
 30
0.0
 10
835.1436416856
 20
208.8099742486
 30
0.0
 10
835.185039292
 20
208.5750545354
 30
0.0
 10
835.1851070189
 20
208.4614529569
 30
0.0
  0
SPLINE
  5
44A
100
AcDbEntity
  8
RUNDUNGEN
100
AcDbSpline
 62
7
  6
CONTINUOUS
 70
0
 71
3
 72
10
 73
6
 74
0
 42
0.0000001
 43
0.0000001
 44
0.0000000001
 40
0.0
 40
0.0
 40
0.0
 40
0.0
 40
0.480919237
 40
0.7459271749
 40
1.0
 40
1.0
 40
1.0
 40
1.0
 10
824.6659402297
 20
212.6787200573
 30
0.0
 10
824.9980437919
 20
213.0140958824
 30
0.0
 10
825.7468160459
 20
213.3019867363
 30
0.0
 10
826.7293465911
 20
213.2846834793
 30
0.0
 10
827.2279349601
 20
213.1366573673
 30
0.0
 10
827.451397191
 20
213.0260164127
 30
0.0
  0
SPLINE
  5
44B
100
AcDbEntity
  8
0
100
AcDbSpline
 62
7
  6
CONTINUOUS
 70
0
 71
3
 72
9
 73
5
 74
0
 42
0.0000001
 43
0.0000001
 44
0.0000000001
 40
0.0
 40
0.0
 40
0.0
 40
0.0
 40
0.2469303797
 40
1.0
 40
1.0
 40
1.0
 40
1.0
 10
785.0791237586
 20
211.151602956
 30
0.0
 10
784.6838765186
 20
211.2630186493
 30
0.0
 10
783.0724936442
 20
211.6754536234
 30
0.0
 10
781.4224066168
 20
211.9346249671
 30
0.0
 10
780.1749902036
 20
212.0459135355
 30
0.0
  0
SPLINE
  5
44C
100
AcDbEntity
  8
0
100
AcDbSpline
 62
7
  6
CONTINUOUS
 70
0
 71
3
 72
9
 73
5
 74
0
 42
0.0000001
 43
0.0000001
 44
0.0000000001
 40
0.0
 40
0.0
 40
0.0
 40
0.0
 40
0.2528805792
 40
1.0
 40
1.0
 40
1.0
 40
1.0
 10
775.1702603967
 20
212.0459135355
 30
0.0
 10
774.7513839114
 20
212.0085433647
 30
0.0
 10
773.0985688191
 20
211.8234887438
 30
0.0
 10
771.4619818444
 20
211.4887008549
 30
0.0
 10
770.2661268417
 20
211.151602956
 30
0.0
  0
SPLINE
  5
44D
100
AcDbEntity
  8
RUNDUNGEN
100
AcDbSpline
 62
7
  6
CONTINUOUS
 70
0
 71
3
 72
9
 73
5
 74
0
 42
0.0000001
 43
0.0000001
 44
0.0000000001
 40
0.0
 40
0.0
 40
0.0
 40
0.0
 40
0.2416515958
 40
1.0
 40
1.0
 40
1.0
 40
1.0
 10
725.9278885029
 20
212.0526249222
 30
0.0
 10
727.0113396395
 20
212.5890648725
 30
0.0
 10
731.6944727213
 20
214.3912422717
 30
0.0
 10
736.9394435967
 20
214.6336407551
 30
0.0
 10
740.6739655397
 20
213.9644197826
 30
0.0
  0
SPLINE
  5
44E
100
AcDbEntity
  8
0
100
AcDbSpline
 62
7
  6
CONTINUOUS
 70
0
 71
3
 72
11
 73
7
 74
0
 42
0.0000001
 43
0.0000001
 44
0.0000000001
 40
0.0
 40
0.0
 40
0.0
 40
0.0
 40
0.2880052506
 40
0.5553344723
 40
0.7905070702
 40
1.0
 40
1.0
 40
1.0
 40
1.0
 10
759.4891772443
 20
190.9698030026
 30
0.0
 10
759.388688502
 20
190.9698030026
 30
0.0
 10
759.1936938072
 20
190.9435538583
 30
0.0
 10
758.9384347219
 20
190.8280553185
 30
0.0
 10
758.7566307873
 20
190.6483548306
 30
0.0
 10
758.7091772443
 20
190.4913544954
 30
0.0
 10
758.7091772443
 20
190.4182597133
 30
0.0
  0
SPLINE
  5
44F
100
AcDbEntity
  8
0
100
AcDbSpline
 62
7
  6
CONTINUOUS
 70
0
 71
3
 72
11
 73
7
 74
0
 42
0.0000001
 43
0.0000001
 44
0.0000000001
 40
0.0
 40
0.0
 40
0.0
 40
0.0
 40
0.2879697432
 40
0.5553440702
 40
0.7905331502
 40
1.0
 40
1.0
 40
1.0
 40
1.0
 10
763.5841772443
 20
187.6605432667
 30
0.0
 10
763.6344157728
 20
187.6605432667
 30
0.0
 10
763.7319097551
 20
187.6736778569
 30
0.0
 10
763.8595664923
 20
187.7313930498
 30
0.0
 10
763.9504451424
 20
187.8212791833
 30
0.0
 10
763.9741772443
 20
187.8997718142
 30
0.0
 10
763.9741772443
 20
187.9363149114
 30
0.0
  0
SPLINE
  5
450
100
AcDbEntity
  8
0
100
AcDbSpline
 62
7
  6
CONTINUOUS
 70
0
 71
3
 72
11
 73
7
 74
0
 42
0.0000001
 43
0.0000001
 44
0.0000000001
 40
0.0
 40
0.0
 40
0.0
 40
0.0
 40
0.2879697432
 40
0.5553440702
 40
0.7905331502
 40
1.0
 40
1.0
 40
1.0
 40
1.0
 10
763.5841772443
 20
184.9028268201
 30
0.0
 10
763.6344157728
 20
184.9028268201
 30
0.0
 10
763.7319097551
 20
184.9159614103
 30
0.0
 10
763.8595664923
 20
184.9736766032
 30
0.0
 10
763.9504451424
 20
185.0635627367
 30
0.0
 10
763.9741772443
 20
185.1420553675
 30
0.0
 10
763.9741772443
 20
185.1785984647
 30
0.0
  0
SPLINE
  5
451
100
AcDbEntity
  8
0
100
AcDbSpline
 62
7
  6
CONTINUOUS
 70
0
 71
3
 72
9
 73
5
 74
0
 42
0.0000001
 43
0.0000001
 44
0.0000000001
 40
0.0
 40
0.0
 40
0.0
 40
0.0
 40
0.5597866015
 40
1.0
 40
1.0
 40
1.0
 40
1.0
 10
761.9851772443
 20
189.453058957
 30
0.0
 10
761.9468593798
 20
189.453058957
 30
0.0
 10
761.8755843704
 20
189.4385014113
 30
0.0
 10
761.8291772443
 20
189.3728832771
 30
0.0
 10
761.8291772443
 20
189.3427502991
 30
0.0
  0
SPLINE
  5
452
100
AcDbEntity
  8
0
100
AcDbSpline
 62
7
  6
CONTINUOUS
 70
0
 71
3
 72
9
 73
5
 74
0
 42
0.0000001
 43
0.0000001
 44
0.0000000001
 40
0.0
 40
0.0
 40
0.0
 40
0.0
 40
0.5597866015
 40
1.0
 40
1.0
 40
1.0
 40
1.0
 10
761.9851772443
 20
186.6953425104
 30
0.0
 10
761.9468593798
 20
186.6953425104
 30
0.0
 10
761.8755843704
 20
186.6807849646
 30
0.0
 10
761.8291772443
 20
186.6151668305
 30
0.0
 10
761.8291772443
 20
186.5850338525
 30
0.0
  0
SPLINE
  5
453
100
AcDbEntity
  8
0
100
AcDbSpline
 62
7
  6
CONTINUOUS
 70
0
 71
3
 72
9
 73
5
 74
0
 42
0.0000001
 43
0.0000001
 44
0.0000000001
 40
0.0
 40
0.0
 40
0.0
 40
0.0
 40
0.5597866015
 40
1.0
 40
1.0
 40
1.0
 40
1.0
 10
762.7456772443
 20
186.4195708657
 30
0.0
 10
762.7839951087
 20
186.4195708657
 30
0.0
 10
762.8552701181
 20
186.4341284115
 30
0.0
 10
762.9016772443
 20
186.4997465456
 30
0.0
 10
762.9016772443
 20
186.5298795236
 30
0.0
  0
SPLINE
  5
454
100
AcDbEntity
  8
0
100
AcDbSpline
 62
7
  6
CONTINUOUS
 70
0
 71
3
 72
11
 73
7
 74
0
 42
0.0000001
 43
0.0000001
 44
0.0000000001
 40
0.0
 40
0.0
 40
0.0
 40
0.0
 40
0.2880001164
 40
0.5553425139
 40
0.7905343079
 40
1.0
 40
1.0
 40
1.0
 40
1.0
 10
773.9267189362
 20
188.1419179195
 30
0.0
 10
774.1081256741
 20
188.1419179195
 30
0.0
 10
774.4601360567
 20
188.1893354454
 30
0.0
 10
774.9210175011
 20
188.3977579999
 30
0.0
 10
775.2491552645
 20
188.7222555496
 30
0.0
 10
775.3348113483
 20
189.0056676592
 30
0.0
 10
775.3348113483
 20
189.1376068
 30
0.0
  0
SPLINE
  5
455
100
AcDbEntity
  8
0
100
AcDbSpline
 62
7
  6
CONTINUOUS
 70
0
 71
3
 72
8
 73
4
 74
0
 42
0.0000001
 43
0.0000001
 44
0.0000000001
 40
0.0
 40
0.0
 40
0.0
 40
0.0
 40
1.0
 40
1.0
 40
1.0
 40
1.0
 10
793.3641811419
 20
190.9238410619
 30
0.0
 10
793.2638095576
 20
190.9547843894
 30
0.0
 10
793.1574851564
 20
190.9698030026
 30
0.0
 10
793.0524520929
 20
190.9698030026
 30
0.0
  0
SPLINE
  5
456
100
AcDbEntity
  8
0
100
AcDbSpline
 62
7
  6
CONTINUOUS
 70
0
 71
3
 72
11
 73
7
 74
0
 42
0.0000001
 43
0.0000001
 44
0.0000000001
 40
0.0
 40
0.0
 40
0.0
 40
0.0
 40
0.2779817175
 40
0.5346952233
 40
0.772857858
 40
1.0
 40
1.0
 40
1.0
 40
1.0
 10
793.3169183078
 20
184.7758047292
 30
0.0
 10
793.5903146989
 20
184.9238490657
 30
0.0
 10
794.0912215148
 20
185.2599685266
 30
0.0
 10
794.6864714997
 20
185.8988472798
 30
0.0
 10
795.0640498361
 20
186.6252372971
 30
0.0
 10
795.1514693955
 20
187.1491112113
 30
0.0
 10
795.1514693955
 20
187.4031563983
 30
0.0
  0
SPLINE
  5
457
100
AcDbEntity
  8
0
100
AcDbSpline
 62
7
  6
CONTINUOUS
 70
0
 71
3
 72
9
 73
5
 74
0
 42
0.0000001
 43
0.0000001
 44
0.0000000001
 40
0.0
 40
0.0
 40
0.0
 40
0.0
 40
0.2591205677
 40
1.0
 40
1.0
 40
1.0
 40
1.0
 10
793.0797995142
 20
184.718979057
 30
0.0
 10
793.1009761837
 20
184.718979057
 30
0.0
 10
793.1825558477
 20
184.7236529078
 30
0.0
 10
793.2636748073
 20
184.7469733365
 30
0.0
 10
793.3169183078
 20
184.7758047292
 30
0.0
  0
SPLINE
  5
458
100
AcDbEntity
  8
RUNDUNGEN
100
AcDbSpline
 62
7
  6
CONTINUOUS
 70
0
 71
3
 72
11
 73
7
 74
0
 42
0.0000001
 43
0.0000001
 44
0.0000000001
 40
0.0
 40
0.0
 40
0.0
 40
0.0
 40
0.287975155
 40
0.5553539353
 40
0.7905396327
 40
1.0
 40
1.0
 40
1.0
 40
1.0
 10
743.1726253001
 20
119.8772872221
 30
0.0
 10
743.2370348944
 20
119.8772872221
 30
0.0
 10
743.3620294316
 20
119.8941272767
 30
0.0
 10
743.5256927893
 20
119.9681230544
 30
0.0
 10
743.6422016766
 20
120.0833624224
 30
0.0
 10
743.6726253001
 20
120.1839919279
 30
0.0
 10
743.6726253001
 20
120.2308406127
 30
0.0
  0
SPLINE
  5
459
100
AcDbEntity
  8
RUNDUNGEN
100
AcDbSpline
 62
7
  6
CONTINUOUS
 70
0
 71
3
 72
13
 73
9
 74
0
 42
0.0000001
 43
0.0000001
 44
0.0000000001
 40
0.0
 40
0.0
 40
0.0
 40
0.0
 40
0.1034546064
 40
0.2106689685
 40
0.3244963058
 40
0.4464318167
 40
0.7129512659
 40
1.0
 40
1.0
 40
1.0
 40
1.0
 10
733.6726253001
 20
124.1199279093
 30
0.0
 10
733.6726253001
 20
123.8413687335
 30
0.0
 10
733.7534640606
 20
123.2712337169
 30
0.0
 10
734.1072101394
 20
122.4622318019
 30
0.0
 10
734.6746560241
 20
121.723368763
 30
0.0
 10
735.7118298527
 20
120.8425493779
 30
0.0
 10
737.4015987379
 20
120.0785400031
 30
0.0
 10
738.8997253635
 20
119.8772872221
 30
0.0
 10
739.6726253001
 20
119.8772872221
 30
0.0
  0
SPLINE
  5
45A
100
AcDbEntity
  8
RUNDUNGEN
100
AcDbSpline
 62
7
  6
CONTINUOUS
 70
0
 71
3
 72
10
 73
6
 74
0
 42
0.0000001
 43
0.0000001
 44
0.0000000001
 40
0.0
 40
0.0
 40
0.0
 40
0.0
 40
0.4808964563
 40
0.7459158441
 40
1.0
 40
1.0
 40
1.0
 40
1.0
 10
726.2862682066
 20
198.2927557326
 30
0.0
 10
726.6100540658
 20
197.965779566
 30
0.0
 10
727.340086566
 20
197.6850806302
 30
0.0
 10
728.298056063
 20
197.701933747
 30
0.0
 10
728.7842032013
 20
197.8462619698
 30
0.0
 10
729.0020887439
 20
197.9541417861
 30
0.0
  0
SPLINE
  5
45B
100
AcDbEntity
  8
RUNDUNGEN
100
AcDbSpline
 62
7
  6
CONTINUOUS
 70
0
 71
3
 72
9
 73
5
 74
0
 42
0.0000001
 43
0.0000001
 44
0.0000000001
 40
0.0
 40
0.0
 40
0.0
 40
0.0
 40
0.5194816466
 40
1.0
 40
1.0
 40
1.0
 40
1.0
 10
834.8234255789
 20
204.1139967842
 30
0.0
 10
834.9338730954
 20
204.2255325556
 30
0.0
 10
835.1162215767
 20
204.4757547999
 30
0.0
 10
835.1852003515
 20
204.7807735191
 30
0.0
 10
835.1851053663
 20
204.9259680237
 30
0.0
  0
SPLINE
  5
45C
100
AcDbEntity
  8
RUNDUNGEN
100
AcDbSpline
 62
7
  6
CONTINUOUS
 70
0
 71
3
 72
13
 73
9
 74
0
 42
0.0000001
 43
0.0000001
 44
0.0000000001
 40
0.0
 40
0.0
 40
0.0
 40
0.0
 40
0.2870489714
 40
0.5535683803
 40
0.6755038887
 40
0.7893312167
 40
0.8965454657
 40
1.0
 40
1.0
 40
1.0
 40
1.0
 10
815.6726253001
 20
119.8772872221
 30
0.0
 10
816.4455258752
 20
119.8772872221
 30
0.0
 10
817.9436530685
 20
120.0785402058
 30
0.0
 10
819.633422214
 20
120.8425502842
 30
0.0
 10
820.6705956884
 20
121.7233698864
 30
0.0
 10
821.2380410303
 20
122.4622329137
 30
0.0
 10
821.5917867163
 20
123.2712344042
 30
0.0
 10
821.6726253001
 20
123.841368928
 30
0.0
 10
821.6726253001
 20
124.1199279093
 30
0.0
  0
SPLINE
  5
45D
100
AcDbEntity
  8
RUNDUNGEN
100
AcDbSpline
 62
7
  6
CONTINUOUS
 70
0
 71
3
 72
11
 73
7
 74
0
 42
0.0000001
 43
0.0000001
 44
0.0000000001
 40
0.0
 40
0.0
 40
0.0
 40
0.0
 40
0.2094711443
 40
0.4446658249
 40
0.7120384825
 40
1.0
 40
1.0
 40
1.0
 40
1.0
 10
811.6726253001
 20
120.2308406127
 30
0.0
 10
811.6726253001
 20
120.1839895336
 30
0.0
 10
811.703052738
 20
120.0833558211
 30
0.0
 10
811.8195665639
 20
119.9681172872
 30
0.0
 10
811.9832287391
 20
119.8941253327
 30
0.0
 10
812.1082187782
 20
119.8772872221
 30
0.0
 10
812.1726253001
 20
119.8772872221
 30
0.0
  0
SPLINE
  5
45E
100
AcDbEntity
  8
RUNDUNGEN
100
AcDbSpline
 62
7
  6
CONTINUOUS
 70
0
 71
3
 72
9
 73
5
 74
0
 42
0.0000001
 43
0.0000001
 44
0.0000000001
 40
0.0
 40
0.0
 40
0.0
 40
0.0
 40
0.4729729907
 40
1.0
 40
1.0
 40
1.0
 40
1.0
 10
791.4927212241
 20
132.4438143978
 30
0.0
 10
792.133857235
 20
131.7963611839
 30
0.0
 10
793.861812962
 20
130.7943886435
 30
0.0
 10
795.8018934699
 20
130.4838889399
 30
0.0
 10
796.817209512
 20
130.4838889399
 30
0.0
  0
SPLINE
  5
45F
100
AcDbEntity
  8
RUNDUNGEN
100
AcDbSpline
 62
7
  6
CONTINUOUS
 70
0
 71
3
 72
9
 73
5
 74
0
 42
0.0000001
 43
0.0000001
 44
0.0000000001
 40
0.0
 40
0.0
 40
0.0
 40
0.0
 40
0.5270273161
 40
1.0
 40
1.0
 40
1.0
 40
1.0
 10
758.5280410883
 20
130.4838889399
 30
0.0
 10
759.5433577227
 20
130.4838889399
 30
0.0
 10
761.4834382916
 20
130.7943888311
 30
0.0
 10
763.2113937803
 20
131.7963616031
 30
0.0
 10
763.8525293762
 20
132.4438143978
 30
0.0
  0
SPLINE
  5
460
100
AcDbEntity
  8
RUNDUNGEN
100
AcDbSpline
 62
7
  6
CONTINUOUS
 70
0
 71
3
 72
13
 73
9
 74
0
 42
0.0000001
 43
0.0000001
 44
0.0000000001
 40
0.0
 40
0.0
 40
0.0
 40
0.0
 40
0.1034546064
 40
0.2106689685
 40
0.3244963058
 40
0.4464318167
 40
0.7129512659
 40
1.0
 40
1.0
 40
1.0
 40
1.0
 10
743.6726253001
 20
126.2412482528
 30
0.0
 10
743.6726253001
 20
126.5198074285
 30
0.0
 10
743.7534640606
 20
127.0899424452
 30
0.0
 10
744.1072101394
 20
127.8989443602
 30
0.0
 10
744.6746560241
 20
128.6378073991
 30
0.0
 10
745.7118298527
 20
129.5186267842
 30
0.0
 10
747.4015987379
 20
130.282636159
 30
0.0
 10
748.8997253635
 20
130.4838889399
 30
0.0
 10
749.6726253001
 20
130.4838889399
 30
0.0
  0
SPLINE
  5
461
100
AcDbEntity
  8
RUNDUNGEN
100
AcDbSpline
 62
7
  6
CONTINUOUS
 70
0
 71
3
 72
13
 73
9
 74
0
 42
0.0000001
 43
0.0000001
 44
0.0000000001
 40
0.0
 40
0.0
 40
0.0
 40
0.0
 40
0.2870489714
 40
0.5535683803
 40
0.6755038887
 40
0.7893312167
 40
0.8965454657
 40
1.0
 40
1.0
 40
1.0
 40
1.0
 10
805.6726253001
 20
130.4838889399
 30
0.0
 10
806.4455258752
 20
130.4838889399
 30
0.0
 10
807.9436530685
 20
130.2826359563
 30
0.0
 10
809.633422214
 20
129.5186258779
 30
0.0
 10
810.6705956884
 20
128.6378062757
 30
0.0
 10
811.2380410303
 20
127.8989432484
 30
0.0
 10
811.5917867163
 20
127.0899417579
 30
0.0
 10
811.6726253001
 20
126.5198072341
 30
0.0
 10
811.6726253001
 20
126.2412482528
 30
0.0
  0
SPLINE
  5
462
100
AcDbEntity
  8
RUNDUNGEN
100
AcDbSpline
 62
7
  6
CONTINUOUS
 70
0
 71
3
 72
13
 73
9
 74
0
 42
0.0000001
 43
0.0000001
 44
0.0000000001
 40
0.0
 40
0.0
 40
0.0
 40
0.0
 40
0.2360077347
 40
0.3661261322
 40
0.5000000765
 40
0.633874052
 40
0.7639924192
 40
1.0
 40
1.0
 40
1.0
 40
1.0
 10
771.1194089458
 20
139.78229555
 30
0.0
 10
771.9084969375
 20
140.5791585362
 30
0.0
 10
773.4761774192
 20
141.4871276994
 30
0.0
 10
775.7783606132
 20
142.0881545762
 30
0.0
 10
777.6726265754
 20
142.2484465784
 30
0.0
 10
779.5668923612
 20
142.0881541893
 30
0.0
 10
781.8690747348
 20
141.4871269986
 30
0.0
 10
783.4367541773
 20
140.5791580165
 30
0.0
 10
784.2258416544
 20
139.78229555
 30
0.0
  0
SPLINE
  5
463
100
AcDbEntity
  8
RUNDUNGEN
100
AcDbSpline
 62
7
  6
CONTINUOUS
 70
0
 71
3
 72
9
 73
5
 74
0
 42
0.0000001
 43
0.0000001
 44
0.0000000001
 40
0.0
 40
0.0
 40
0.0
 40
0.0
 40
0.5177253986
 40
1.0
 40
1.0
 40
1.0
 40
1.0
 10
753.7701047568
 20
157.8504594893
 30
0.0
 10
754.6576078909
 20
158.7467073161
 30
0.0
 10
756.1699861012
 20
160.701465507
 30
0.0
 10
757.0237841621
 20
163.0363829301
 30
0.0
 10
757.2299788236
 20
164.1930985848
 30
0.0
  0
SPLINE
  5
464
100
AcDbEntity
  8
RUNDUNGEN
100
AcDbSpline
 62
7
  6
CONTINUOUS
 70
0
 71
3
 72
11
 73
7
 74
0
 42
0.0000001
 43
0.0000001
 44
0.0000000001
 40
0.0
 40
0.0
 40
0.0
 40
0.0
 40
0.2660806569
 40
0.5190943725
 40
0.7622194677
 40
1.0
 40
1.0
 40
1.0
 40
1.0
 10
753.7701047568
 20
170.5381170903
 30
0.0
 10
754.338043161
 20
169.9645827094
 30
0.0
 10
755.3602965421
 20
168.7550961081
 30
0.0
 10
756.5175582623
 20
166.7376142416
 30
0.0
 10
757.2270510834
 20
164.6113061293
 30
0.0
 10
757.387063896
 20
163.1478254675
 30
0.0
 10
757.387063871
 20
162.4265207486
 30
0.0
  0
SPLINE
  5
465
100
AcDbEntity
  8
RUNDUNGEN
100
AcDbSpline
 62
7
  6
CONTINUOUS
 70
0
 71
3
 72
10
 73
6
 74
0
 42
0.0000001
 43
0.0000001
 44
0.0000000001
 40
0.0
 40
0.0
 40
0.0
 40
0.0
 40
0.2540843695
 40
0.5191023225
 40
1.0
 40
1.0
 40
1.0
 40
1.0
 10
733.3435945786
 20
200.1037146608
 30
0.0
 10
733.7067374405
 20
200.2835144987
 30
0.0
 10
734.5169808571
 20
200.5240606609
 30
0.0
 10
736.1135963397
 20
200.5521505307
 30
0.0
 10
737.3303176929
 20
200.0843197235
 30
0.0
 10
737.8699621407
 20
199.5393580834
 30
0.0
  0
SPLINE
  5
466
100
AcDbEntity
  8
RUNDUNGEN
100
AcDbSpline
 62
7
  6
CONTINUOUS
 70
0
 71
3
 72
9
 73
5
 74
0
 42
0.0000001
 43
0.0000001
 44
0.0000000001
 40
0.0
 40
0.0
 40
0.0
 40
0.0
 40
0.5194813996
 40
1.0
 40
1.0
 40
1.0
 40
1.0
 10
741.2540631152
 20
196.1219130879
 30
0.0
 10
741.4335288022
 20
195.9406791003
 30
0.0
 10
741.7298278246
 20
195.534097619
 30
0.0
 10
741.8419342579
 20
195.0384824726
 30
0.0
 10
741.8417958398
 20
194.8025563131
 30
0.0
  0
SPLINE
  5
467
100
AcDbEntity
  8
RUNDUNGEN
100
AcDbSpline
 62
7
  6
CONTINUOUS
 70
0
 71
3
 72
11
 73
7
 74
0
 42
0.0000001
 43
0.0000001
 44
0.0000000001
 40
0.0
 40
0.0
 40
0.0
 40
0.0
 40
0.2524374527
 40
0.5157480209
 40
0.7702932627
 40
1.0
 40
1.0
 40
1.0
 40
1.0
 10
806.0186861395
 20
201.2445502709
 30
0.0
 10
806.6890687652
 20
200.9126294206
 30
0.0
 10
808.1797355979
 20
200.4668376965
 30
0.0
 10
810.4885074032
 20
200.4344670156
 30
0.0
 10
812.6581806077
 20
201.0040690307
 30
0.0
 10
813.8960982143
 20
201.8027612796
 30
0.0
 10
814.3750570233
 20
202.2864393369
 30
0.0
  0
SPLINE
  5
468
100
AcDbEntity
  8
0
100
AcDbSpline
 62
7
  6
CONTINUOUS
 70
0
 71
3
 72
9
 73
5
 74
0
 42
0.0000001
 43
0.0000001
 44
0.0000000001
 40
0.0
 40
0.0
 40
0.0
 40
0.0
 40
0.4402133985
 40
1.0
 40
1.0
 40
1.0
 40
1.0
 10
762.9016772443
 20
188.2396637205
 30
0.0
 10
762.9016772443
 20
188.2697966985
 30
0.0
 10
762.8552701181
 20
188.3354148326
 30
0.0
 10
762.7839951087
 20
188.3499723783
 30
0.0
 10
762.7456772443
 20
188.3499723783
 30
0.0
  0
SPLINE
  5
469
100
AcDbEntity
  8
0
100
AcDbSpline
 62
7
  6
CONTINUOUS
 70
0
 71
3
 72
11
 73
7
 74
0
 42
0.0000001
 43
0.0000001
 44
0.0000000001
 40
0.0
 40
0.0
 40
0.0
 40
0.0
 40
0.2094656921
 40
0.4446574861
 40
0.7119998836
 40
1.0
 40
1.0
 40
1.0
 40
1.0
 10
775.3348113483
 20
189.1376068
 30
0.0
 10
775.3348113483
 20
189.2695459408
 30
0.0
 10
775.2491552645
 20
189.5529580504
 30
0.0
 10
774.9210175011
 20
189.8774556001
 30
0.0
 10
774.4601360567
 20
190.0858781546
 30
0.0
 10
774.1081256741
 20
190.1332956805
 30
0.0
 10
773.9267189362
 20
190.1332956805
 30
0.0
  0
SPLINE
  5
46A
100
AcDbEntity
  8
0
100
AcDbSpline
 62
7
  6
CONTINUOUS
 70
0
 71
3
 72
9
 73
5
 74
0
 42
0.0000001
 43
0.0000001
 44
0.0000000001
 40
0.0
 40
0.0
 40
0.0
 40
0.0
 40
0.4402133985
 40
1.0
 40
1.0
 40
1.0
 40
1.0
 10
761.8291772443
 20
188.1845093915
 30
0.0
 10
761.8291772443
 20
188.1543764136
 30
0.0
 10
761.8755843704
 20
188.0887582794
 30
0.0
 10
761.9468593798
 20
188.0742007337
 30
0.0
 10
761.9851772443
 20
188.0742007337
 30
0.0
  0
SPLINE
  5
46B
100
AcDbEntity
  8
0
100
AcDbSpline
 62
7
  6
CONTINUOUS
 70
0
 71
3
 72
11
 73
7
 74
0
 42
0.0000001
 43
0.0000001
 44
0.0000000001
 40
0.0
 40
0.0
 40
0.0
 40
0.0
 40
0.2094929298
 40
0.4446655277
 40
0.7119947494
 40
1.0
 40
1.0
 40
1.0
 40
1.0
 10
758.7091772443
 20
184.3512835307
 30
0.0
 10
758.7091772443
 20
184.2781887486
 30
0.0
 10
758.7566307873
 20
184.1211884134
 30
0.0
 10
758.9384347219
 20
183.9414879255
 30
0.0
 10
759.1936938072
 20
183.8259893857
 30
0.0
 10
759.388688502
 20
183.7997402414
 30
0.0
 10
759.4891772443
 20
183.7997402414
 30
0.0
  0
SPLINE
  5
46C
100
AcDbEntity
  8
0
100
AcDbSpline
 62
7
  6
CONTINUOUS
 70
0
 71
3
 72
11
 73
7
 74
0
 42
0.0000001
 43
0.0000001
 44
0.0000000001
 40
0.0
 40
0.0
 40
0.0
 40
0.0
 40
0.2094668498
 40
0.4446559298
 40
0.7120302568
 40
1.0
 40
1.0
 40
1.0
 40
1.0
 10
763.9741772443
 20
186.8332283327
 30
0.0
 10
763.9741772443
 20
186.8697714299
 30
0.0
 10
763.9504451424
 20
186.9482640607
 30
0.0
 10
763.8595664923
 20
187.0381501942
 30
0.0
 10
763.7319097551
 20
187.0958653871
 30
0.0
 10
763.6344157728
 20
187.1089999774
 30
0.0
 10
763.5841772443
 20
187.1089999774
 30
0.0
  0
SPLINE
  5
46D
100
AcDbEntity
  8
0
100
AcDbSpline
 62
7
  6
CONTINUOUS
 70
0
 71
3
 72
9
 73
5
 74
0
 42
0.0000001
 43
0.0000001
 44
0.0000000001
 40
0.0
 40
0.0
 40
0.0
 40
0.0
 40
0.7407738242
 40
1.0
 40
1.0
 40
1.0
 40
1.0
 10
758.7091772443
 20
184.8109029385
 30
0.0
 10
758.7091772443
 20
184.7564095234
 30
0.0
 10
758.725613198
 20
184.6819194767
 30
0.0
 10
758.7589235344
 20
184.6162970266
 30
0.0
 10
758.7685512089
 20
184.5998364595
 30
0.0
  0
SPLINE
  5
46E
100
AcDbEntity
  8
0
100
AcDbSpline
 62
7
  6
CONTINUOUS
 70
0
 71
3
 72
9
 73
5
 74
0
 42
0.0000001
 43
0.0000001
 44
0.0000000001
 40
0.0
 40
0.0
 40
0.0
 40
0.0
 40
0.461013727
 40
1.0
 40
1.0
 40
1.0
 40
1.0
 10
758.7685512089
 20
184.5998364595
 30
0.0
 10
758.8323571419
 20
184.4907465806
 30
0.0
 10
759.0642229664
 20
184.311229308
 30
0.0
 10
759.3414227287
 20
184.2593596492
 30
0.0
 10
759.4891772443
 20
184.2593596492
 30
0.0
  0
SPLINE
  5
46F
100
AcDbEntity
  8
0
100
AcDbSpline
 62
7
  6
CONTINUOUS
 70
0
 71
3
 72
11
 73
7
 74
0
 42
0.0000001
 43
0.0000001
 44
0.0000000001
 40
0.0
 40
0.0
 40
0.0
 40
0.0
 40
0.2880052506
 40
0.5553344723
 40
0.7905070702
 40
1.0
 40
1.0
 40
1.0
 40
1.0
 10
765.7291772443
 20
183.7997402414
 30
0.0
 10
765.8296659866
 20
183.7997402414
 30
0.0
 10
766.0246606813
 20
183.8259893857
 30
0.0
 10
766.2799197666
 20
183.9414879255
 30
0.0
 10
766.4617237012
 20
184.1211884134
 30
0.0
 10
766.5091772443
 20
184.2781887486
 30
0.0
 10
766.5091772443
 20
184.3512835307
 30
0.0
  0
SPLINE
  5
470
100
AcDbEntity
  8
RUNDUNGEN
100
AcDbSpline
 62
7
  6
CONTINUOUS
 70
0
 71
3
 72
11
 73
7
 74
0
 42
0.0000001
 43
0.0000001
 44
0.0000000001
 40
0.0
 40
0.0
 40
0.0
 40
0.0
 40
0.2377805525
 40
0.4809056656
 40
0.7339193662
 40
1.0
 40
1.0
 40
1.0
 40
1.0
 10
757.387063871
 20
162.4265207486
 30
0.0
 10
757.387063846
 20
161.7052160611
 30
0.0
 10
757.2270508339
 20
160.2417354886
 30
0.0
 10
756.5175578761
 20
158.1154276634
 30
0.0
 10
755.3602962475
 20
156.0979461648
 30
0.0
 10
754.3380430388
 20
154.8884598409
 30
0.0
 10
753.7701047568
 20
154.3149255834
 30
0.0
  0
SPLINE
  5
471
100
AcDbEntity
  8
0
100
AcDbSpline
 62
7
  6
CONTINUOUS
 70
0
 71
3
 72
11
 73
7
 74
0
 42
0.0000001
 43
0.0000001
 44
0.0000000001
 40
0.0
 40
0.0
 40
0.0
 40
0.0
 40
0.2879697432
 40
0.5553440702
 40
0.7905331502
 40
1.0
 40
1.0
 40
1.0
 40
1.0
 10
761.6341772443
 20
187.1089999774
 30
0.0
 10
761.5839387157
 20
187.1089999774
 30
0.0
 10
761.4864447335
 20
187.0958653871
 30
0.0
 10
761.3587879963
 20
187.0381501942
 30
0.0
 10
761.2679093462
 20
186.9482640607
 30
0.0
 10
761.2441772443
 20
186.8697714299
 30
0.0
 10
761.2441772443
 20
186.8332283327
 30
0.0
  0
SPLINE
  5
472
100
AcDbEntity
  8
0
100
AcDbSpline
 62
7
  6
CONTINUOUS
 70
0
 71
3
 72
11
 73
7
 74
0
 42
0.0000001
 43
0.0000001
 44
0.0000000001
 40
0.0
 40
0.0
 40
0.0
 40
0.0
 40
0.2879697432
 40
0.5553440702
 40
0.7905331502
 40
1.0
 40
1.0
 40
1.0
 40
1.0
 10
761.6341772443
 20
189.866716424
 30
0.0
 10
761.5839387157
 20
189.866716424
 30
0.0
 10
761.4864447335
 20
189.8535818337
 30
0.0
 10
761.3587879963
 20
189.7958666409
 30
0.0
 10
761.2679093462
 20
189.7059805074
 30
0.0
 10
761.2441772443
 20
189.6274878765
 30
0.0
 10
761.2441772443
 20
189.5909447793
 30
0.0
  0
SPLINE
  5
473
100
AcDbEntity
  8
0
100
AcDbSpline
 62
7
  6
CONTINUOUS
 70
0
 71
3
 72
9
 73
5
 74
0
 42
0.0000001
 43
0.0000001
 44
0.0000000001
 40
0.0
 40
0.0
 40
0.0
 40
0.0
 40
0.5597866015
 40
1.0
 40
1.0
 40
1.0
 40
1.0
 10
762.4726772443
 20
188.3499723783
 30
0.0
 10
762.4343593798
 20
188.3499723783
 30
0.0
 10
762.3630843704
 20
188.3354148326
 30
0.0
 10
762.3166772443
 20
188.2697966985
 30
0.0
 10
762.3166772443
 20
188.2396637205
 30
0.0
  0
SPLINE
  5
474
100
AcDbEntity
  8
0
100
AcDbSpline
 62
7
  6
CONTINUOUS
 70
0
 71
3
 72
9
 73
5
 74
0
 42
0.0000001
 43
0.0000001
 44
0.0000000001
 40
0.0
 40
0.0
 40
0.0
 40
0.0
 40
0.5597866015
 40
1.0
 40
1.0
 40
1.0
 40
1.0
 10
763.2331772443
 20
188.0742007337
 30
0.0
 10
763.2714951087
 20
188.0742007337
 30
0.0
 10
763.3427701181
 20
188.0887582794
 30
0.0
 10
763.3891772443
 20
188.1543764136
 30
0.0
 10
763.3891772443
 20
188.1845093915
 30
0.0
  0
SPLINE
  5
475
100
AcDbEntity
  8
0
100
AcDbSpline
 62
7
  6
CONTINUOUS
 70
0
 71
3
 72
9
 73
5
 74
0
 42
0.0000001
 43
0.0000001
 44
0.0000000001
 40
0.0
 40
0.0
 40
0.0
 40
0.0
 40
0.5597866015
 40
1.0
 40
1.0
 40
1.0
 40
1.0
 10
763.2331772443
 20
185.3164842871
 30
0.0
 10
763.2714951087
 20
185.3164842871
 30
0.0
 10
763.3427701181
 20
185.3310418328
 30
0.0
 10
763.3891772443
 20
185.3966599669
 30
0.0
 10
763.3891772443
 20
185.4267929449
 30
0.0
  0
SPLINE
  5
476
100
AcDbEntity
  8
RUNDUNGEN
100
AcDbSpline
 62
7
  6
CONTINUOUS
 70
0
 71
3
 72
9
 73
5
 74
0
 42
0.0000001
 43
0.0000001
 44
0.0000000001
 40
0.0
 40
0.0
 40
0.0
 40
0.0
 40
0.4805366145
 40
1.0
 40
1.0
 40
1.0
 40
1.0
 10
821.6726253001
 20
132.6817233756
 30
0.0
 10
821.6726253001
 20
133.1169434383
 30
0.0
 10
821.4651558462
 20
134.0309962778
 30
0.0
 10
820.9185793537
 20
134.7808985126
 30
0.0
 10
820.5875375659
 20
135.1152021016
 30
0.0
  0
SPLINE
  5
477
100
AcDbEntity
  8
0
100
AcDbSpline
 62
7
  6
CONTINUOUS
 70
0
 71
3
 72
11
 73
7
 74
0
 42
0.0000001
 43
0.0000001
 44
0.0000000001
 40
0.0
 40
0.0
 40
0.0
 40
0.0
 40
0.2865059912
 40
0.5484241175
 40
0.7833822346
 40
1.0
 40
1.0
 40
1.0
 40
1.0
 10
774.7355120109
 20
187.3969546791
 30
0.0
 10
774.984051046
 20
187.4546964438
 30
0.0
 10
775.4500136586
 20
187.618991877
 30
0.0
 10
776.0327541768
 20
188.0196567706
 30
0.0
 10
776.422903614
 20
188.5387504137
 30
0.0
 10
776.5178590417
 20
188.9451016636
 30
0.0
 10
776.5178301016
 20
189.1380184755
 30
0.0
  0
SPLINE
  5
478
100
AcDbEntity
  8
0
100
AcDbSpline
 62
7
  6
CONTINUOUS
 70
0
 71
3
 72
8
 73
4
 74
0
 42
0.0000001
 43
0.0000001
 44
0.0000000001
 40
0.0
 40
0.0
 40
0.0
 40
0.0
 40
1.0
 40
1.0
 40
1.0
 40
1.0
 10
793.0524520929
 20
183.7997402414
 30
0.0
 10
793.1574851564
 20
183.7997402414
 30
0.0
 10
793.2638095576
 20
183.8147588547
 30
0.0
 10
793.3641811419
 20
183.8457021822
 30
0.0
  0
SPLINE
  5
479
100
AcDbEntity
  8
0
100
AcDbSpline
 62
7
  6
CONTINUOUS
 70
0
 71
3
 72
11
 73
7
 74
0
 42
0.0000001
 43
0.0000001
 44
0.0000000001
 40
0.0
 40
0.0
 40
0.0
 40
0.0
 40
0.2847819434
 40
0.5451774547
 40
0.7807010719
 40
1.0
 40
1.0
 40
1.0
 40
1.0
 10
793.3641811419
 20
183.8457021822
 30
0.0
 10
793.8303550225
 20
183.989417868
 30
0.0
 10
794.6979641379
 20
184.3611537046
 30
0.0
 10
795.768243432
 20
185.1912806905
 30
0.0
 10
796.4731298276
 20
186.2226757939
 30
0.0
 10
796.642050234
 20
187.0091182859
 30
0.0
 10
796.642050234
 20
187.384771622
 30
0.0
  0
SPLINE
  5
47A
100
AcDbEntity
  8
0
100
AcDbSpline
 62
7
  6
CONTINUOUS
 70
0
 71
3
 72
9
 73
5
 74
0
 42
0.0000001
 43
0.0000001
 44
0.0000000001
 40
0.0
 40
0.0
 40
0.0
 40
0.0
 40
0.239729366
 40
1.0
 40
1.0
 40
1.0
 40
1.0
 10
793.3169183078
 20
190.0305080675
 30
0.0
 10
793.299684978
 20
190.0398399276
 30
0.0
 10
793.2250236374
 20
190.0735518444
 30
0.0
 10
793.1419511968
 20
190.0873337397
 30
0.0
 10
793.0797995142
 20
190.0873337397
 30
0.0
  0
SPLINE
  5
47B
100
AcDbEntity
  8
RUNDUNGEN
100
AcDbSpline
 62
7
  6
CONTINUOUS
 70
0
 71
3
 72
10
 73
6
 74
0
 42
0.0000001
 43
0.0000001
 44
0.0000000001
 40
0.0
 40
0.0
 40
0.0
 40
0.0
 40
0.2265442065
 40
0.4650409693
 40
1.0
 40
1.0
 40
1.0
 40
1.0
 10
835.1851053663
 20
204.9259680237
 30
0.0
 10
835.1850310464
 20
205.0395734445
 30
0.0
 10
835.1436221192
 20
205.2744910711
 30
0.0
 10
834.8996980135
 20
205.7202376569
 30
0.0
 10
834.572686669
 20
205.9645789891
 30
0.0
 10
834.3322743631
 20
206.0836122903
 30
0.0
  0
SPLINE
  5
47C
100
AcDbEntity
  8
RUNDUNGEN
100
AcDbSpline
 62
7
  6
CONTINUOUS
 70
0
 71
3
 72
9
 73
5
 74
0
 42
0.0000001
 43
0.0000001
 44
0.0000000001
 40
0.0
 40
0.0
 40
0.0
 40
0.0
 40
0.5194635499
 40
1.0
 40
1.0
 40
1.0
 40
1.0
 10
734.7577130344
 20
135.1152021016
 30
0.0
 10
734.4266711416
 20
134.7808984066
 30
0.0
 10
733.8800946749
 20
134.0309961237
 30
0.0
 10
733.6726253001
 20
133.1169432896
 30
0.0
 10
733.6726253001
 20
132.6817233756
 30
0.0
  0
SPLINE
  5
47D
100
AcDbEntity
  8
RUNDUNGEN
100
AcDbSpline
 62
7
  6
CONTINUOUS
 70
0
 71
3
 72
10
 73
6
 74
0
 42
0.0000001
 43
0.0000001
 44
0.0000000001
 40
0.0
 40
0.0
 40
0.0
 40
0.0
 40
0.5349741761
 40
0.7734715455
 40
1.0
 40
1.0
 40
1.0
 40
1.0
 10
736.1144365546
 20
190.7717150159
 30
0.0
 10
735.8800156439
 20
190.6556481833
 30
0.0
 10
735.5611551421
 20
190.4173920715
 30
0.0
 10
735.3233443605
 20
189.9827497691
 30
0.0
 10
735.2829870964
 20
189.7536972666
 30
0.0
 10
735.2829245198
 20
189.6429338766
 30
0.0
  0
SPLINE
  5
47E
100
AcDbEntity
  8
0
100
AcDbSpline
 62
7
  6
CONTINUOUS
 70
0
 71
3
 72
9
 73
5
 74
0
 42
0.0000001
 43
0.0000001
 44
0.0000000001
 40
0.0
 40
0.0
 40
0.0
 40
0.0
 40
0.4402133985
 40
1.0
 40
1.0
 40
1.0
 40
1.0
 10
761.8291772443
 20
188.6441287993
 30
0.0
 10
761.8291772443
 20
188.6139958213
 30
0.0
 10
761.8755843704
 20
188.5483776872
 30
0.0
 10
761.9468593798
 20
188.5338201415
 30
0.0
 10
761.9851772443
 20
188.5338201415
 30
0.0
  0
SPLINE
  5
47F
100
AcDbEntity
  8
0
100
AcDbSpline
 62
7
  6
CONTINUOUS
 70
0
 71
3
 72
11
 73
7
 74
0
 42
0.0000001
 43
0.0000001
 44
0.0000000001
 40
0.0
 40
0.0
 40
0.0
 40
0.0
 40
0.2094668498
 40
0.4446559298
 40
0.7120302568
 40
1.0
 40
1.0
 40
1.0
 40
1.0
 10
763.9741772443
 20
189.5909447793
 30
0.0
 10
763.9741772443
 20
189.6274878765
 30
0.0
 10
763.9504451424
 20
189.7059805074
 30
0.0
 10
763.8595664923
 20
189.7958666409
 30
0.0
 10
763.7319097551
 20
189.8535818337
 30
0.0
 10
763.6344157728
 20
189.866716424
 30
0.0
 10
763.5841772443
 20
189.866716424
 30
0.0
  0
SPLINE
  5
480
100
AcDbEntity
  8
BEZUGSACHSEN
100
AcDbSpline
 62
7
  6
CONTINUOUS
 70
0
 71
3
 72
19
 73
15
 74
0
 42
0.0000001
 43
0.0000001
 44
0.0000000001
 40
0.0
 40
0.0
 40
0.0
 40
0.0
 40
0.0517263209
 40
0.1053355973
 40
0.1622490903
 40
0.223216447
 40
0.356475981
 40
0.5
 40
0.643524019
 40
0.776783553
 40
0.8377509097
 40
0.8946644027
 40
0.9482736791
 40
1.0
 40
1.0
 40
1.0
 40
1.0
 10
772.1726253001
 20
201.1969151055
 30
0.0
 10
772.1726253001
 20
200.9415745796
 30
0.0
 10
772.2467464552
 20
200.4189511375
 30
0.0
 10
772.5709793538
 20
199.6773489949
 30
0.0
 10
773.0911951489
 20
199.0000760752
 30
0.0
 10
774.041802616
 20
198.1926515292
 30
0.0
 10
775.5917776412
 20
197.4923300962
 30
0.0
 10
777.6726253001
 20
197.21218539
 30
0.0
 10
779.7534729591
 20
197.4923300962
 30
0.0
 10
781.3034479843
 20
198.1926515292
 30
0.0
 10
782.2540554514
 20
199.0000760752
 30
0.0
 10
782.7742712464
 20
199.6773489949
 30
0.0
 10
783.0985041451
 20
200.4189511375
 30
0.0
 10
783.1726253001
 20
200.9415745796
 30
0.0
 10
783.1726253001
 20
201.1969151055
 30
0.0
  0
SPLINE
  5
481
100
AcDbEntity
  8
RUNDUNGEN
100
AcDbSpline
 62
7
  6
CONTINUOUS
 70
0
 71
3
 72
11
 73
7
 74
0
 42
0.0000001
 43
0.0000001
 44
0.0000000001
 40
0.0
 40
0.0
 40
0.0
 40
0.0
 40
0.2794012361
 40
0.5367224514
 40
0.7743079693
 40
1.0
 40
1.0
 40
1.0
 40
1.0
 10
724.2895844143
 20
207.705931441
 30
0.0
 10
723.9112095037
 20
207.5185898882
 30
0.0
 10
723.2162180874
 20
207.0864025874
 30
0.0
 10
722.3847926148
 20
206.2453706678
 30
0.0
 10
721.8543139259
 20
205.2759584594
 30
0.0
 10
721.7309796716
 20
204.5708440241
 30
0.0
 10
721.7310459576
 20
204.2297923068
 30
0.0
  0
SPLINE
  5
482
100
AcDbEntity
  8
RUNDUNGEN
100
AcDbSpline
 62
7
  6
CONTINUOUS
 70
0
 71
3
 72
9
 73
5
 74
0
 42
0.0000001
 43
0.0000001
 44
0.0000000001
 40
0.0
 40
0.0
 40
0.0
 40
0.0
 40
0.5089429305
 40
1.0
 40
1.0
 40
1.0
 40
1.0
 10
741.3664829623
 20
210.2943479935
 30
0.0
 10
738.7517113956
 20
210.8421905538
 30
0.0
 10
733.4130013104
 20
211.0768972521
 30
0.0
 10
728.2379079538
 20
209.6608313084
 30
0.0
 10
725.9278885029
 20
208.5170910163
 30
0.0
  0
SPLINE
  5
483
100
AcDbEntity
  8
0
100
AcDbSpline
 62
7
  6
CONTINUOUS
 70
0
 71
3
 72
9
 73
5
 74
0
 42
0.0000001
 43
0.0000001
 44
0.0000000001
 40
0.0
 40
0.0
 40
0.0
 40
0.0
 40
0.2415905642
 40
1.0
 40
1.0
 40
1.0
 40
1.0
 10
789.1441540271
 20
206.063959991
 30
0.0
 10
788.4710309511
 20
206.3972376971
 30
0.0
 10
785.6137717243
 20
207.6311789334
 30
0.0
 10
782.523577698
 20
208.3008498066
 30
0.0
 10
780.1749902036
 20
208.5103796296
 30
0.0
  0
SPLINE
  5
484
100
AcDbEntity
  8
0
100
AcDbSpline
 62
7
  6
CONTINUOUS
 70
0
 71
3
 72
9
 73
5
 74
0
 42
0.0000001
 43
0.0000001
 44
0.0000000001
 40
0.0
 40
0.0
 40
0.0
 40
0.0
 40
0.2578604761
 40
1.0
 40
1.0
 40
1.0
 40
1.0
 10
775.1702603967
 20
208.5103796296
 30
0.0
 10
774.371846264
 20
208.4391489123
 30
0.0
 10
771.2901292752
 20
208.030821151
 30
0.0
 10
768.2685726437
 20
207.0876118412
 30
0.0
 10
766.2010965731
 20
206.063959991
 30
0.0
  0
SPLINE
  5
485
100
AcDbEntity
  8
RUNDUNGEN
100
AcDbSpline
 62
7
  6
CONTINUOUS
 70
0
 71
3
 72
10
 73
6
 74
0
 42
0.0000001
 43
0.0000001
 44
0.0000000001
 40
0.0
 40
0.0
 40
0.0
 40
0.0
 40
0.2540840964
 40
0.5191023951
 40
1.0
 40
1.0
 40
1.0
 40
1.0
 10
827.451397191
 20
209.4904825067
 30
0.0
 10
827.2279248996
 20
209.6011284425
 30
0.0
 10
826.7293135831
 20
209.7491571315
 30
0.0
 10
825.7467809214
 20
209.7664429559
 30
0.0
 10
824.9980290722
 20
209.4785471117
 30
0.0
 10
824.6659402297
 20
209.1431861514
 30
0.0
  0
SPLINE
  5
486
100
AcDbEntity
  8
0
100
AcDbSpline
 62
7
  6
CONTINUOUS
 70
0
 71
3
 72
11
 73
7
 74
0
 42
0.0000001
 43
0.0000001
 44
0.0000000001
 40
0.0
 40
0.0
 40
0.0
 40
0.0
 40
0.227142142
 40
0.4653047767
 40
0.7220182825
 40
1.0
 40
1.0
 40
1.0
 40
1.0
 10
795.1514693955
 20
187.4031563983
 30
0.0
 10
795.1514693955
 20
187.6572015854
 30
0.0
 10
795.0640498361
 20
188.1810754995
 30
0.0
 10
794.6864714997
 20
188.9074655169
 30
0.0
 10
794.0912215148
 20
189.5463442701
 30
0.0
 10
793.5903146989
 20
189.882463731
 30
0.0
 10
793.3169183078
 20
190.0305080675
 30
0.0
  0
SPLINE
  5
487
100
AcDbEntity
  8
0
100
AcDbSpline
 62
7
  6
CONTINUOUS
 70
0
 71
3
 72
8
 73
4
 74
0
 42
0.0000001
 43
0.0000001
 44
0.0000000001
 40
0.0
 40
0.0
 40
0.0
 40
0.0
 40
1.0
 40
1.0
 40
1.0
 40
1.0
 10
793.0524520929
 20
184.2593596492
 30
0.0
 10
793.1574851564
 20
184.2593596492
 30
0.0
 10
793.2638095576
 20
184.2743782624
 30
0.0
 10
793.3641811419
 20
184.30532159
 30
0.0
  0
SPLINE
  5
488
100
AcDbEntity
  8
0
100
AcDbSpline
 62
7
  6
CONTINUOUS
 70
0
 71
3
 72
17
 73
13
 74
0
 42
0.0000001
 43
0.0000001
 44
0.0000000001
 40
0.0
 40
0.0
 40
0.0
 40
0.0
 40
0.0517921087
 40
0.1054769531
 40
0.2228492041
 40
0.356284866
 40
0.5
 40
0.643715134
 40
0.7771507959
 40
0.8945230469
 40
0.9482078913
 40
1.0
 40
1.0
 40
1.0
 40
1.0
 10
778.3987189362
 20
186.4332081522
 30
0.0
 10
778.3987189362
 20
186.261388115
 30
0.0
 10
778.44865366
 20
185.9096875794
 30
0.0
 10
778.7476672777
 20
185.2251546889
 30
0.0
 10
779.4861486204
 20
184.4861643085
 30
0.0
 10
780.6986730234
 20
183.9414832488
 30
0.0
 10
782.0999069206
 20
183.7510421997
 30
0.0
 10
783.5011408178
 20
183.9414832488
 30
0.0
 10
784.7136652208
 20
184.4861643085
 30
0.0
 10
785.4521465635
 20
185.2251546889
 30
0.0
 10
785.7511601812
 20
185.9096875794
 30
0.0
 10
785.801094905
 20
186.261388115
 30
0.0
 10
785.801094905
 20
186.4332081522
 30
0.0
  0
SPLINE
  5
489
100
AcDbEntity
  8
0
100
AcDbSpline
 62
7
  6
CONTINUOUS
 70
0
 71
3
 72
9
 73
5
 74
0
 42
0.0000001
 43
0.0000001
 44
0.0000000001
 40
0.0
 40
0.0
 40
0.0
 40
0.0
 40
0.4402133985
 40
1.0
 40
1.0
 40
1.0
 40
1.0
 10
761.8291772443
 20
185.4267929449
 30
0.0
 10
761.8291772443
 20
185.3966599669
 30
0.0
 10
761.8755843704
 20
185.3310418328
 30
0.0
 10
761.9468593798
 20
185.3164842871
 30
0.0
 10
761.9851772443
 20
185.3164842871
 30
0.0
  0
SPLINE
  5
48A
100
AcDbEntity
  8
0
100
AcDbSpline
 62
7
  6
CONTINUOUS
 70
0
 71
3
 72
11
 73
7
 74
0
 42
0.0000001
 43
0.0000001
 44
0.0000000001
 40
0.0
 40
0.0
 40
0.0
 40
0.0
 40
0.2816347582
 40
0.5420479832
 40
0.7798483853
 40
1.0
 40
1.0
 40
1.0
 40
1.0
 10
793.3641811419
 20
184.30532159
 30
0.0
 10
793.78521884
 20
184.4351223447
 30
0.0
 10
794.574691174
 20
184.7640861035
 30
0.0
 10
795.5768894624
 20
185.4806496851
 30
0.0
 10
796.29482601
 20
186.3656738041
 30
0.0
 10
796.5483324186
 20
187.0542996105
 30
0.0
 10
796.6047633684
 20
187.394051975
 30
0.0
  0
SPLINE
  5
48B
100
AcDbEntity
  8
0
100
AcDbSpline
 62
7
  6
CONTINUOUS
 70
0
 71
3
 72
9
 73
5
 74
0
 42
0.0000001
 43
0.0000001
 44
0.0000000001
 40
0.0
 40
0.0
 40
0.0
 40
0.0
 40
0.2591205677
 40
1.0
 40
1.0
 40
1.0
 40
1.0
 10
793.0797995142
 20
190.5469531475
 30
0.0
 10
793.1009761837
 20
190.5469531475
 30
0.0
 10
793.1825558477
 20
190.5422792967
 30
0.0
 10
793.2636748073
 20
190.518958868
 30
0.0
 10
793.3169183078
 20
190.4901274753
 30
0.0
  0
SPLINE
  5
48C
100
AcDbEntity
  8
0
100
AcDbSpline
 62
7
  6
CONTINUOUS
 70
0
 71
3
 72
11
 73
7
 74
0
 42
0.0000001
 43
0.0000001
 44
0.0000000001
 40
0.0
 40
0.0
 40
0.0
 40
0.0
 40
0.2779697373
 40
0.5346991835
 40
0.7728568778
 40
1.0
 40
1.0
 40
1.0
 40
1.0
 10
793.3169183078
 20
190.4901274753
 30
0.0
 10
793.5903038958
 20
190.3420889886
 30
0.0
 10
794.0912047154
 20
190.0059552904
 30
0.0
 10
794.6864942445
 20
189.3671068254
 30
0.0
 10
795.0640581867
 20
188.6406901966
 30
0.0
 10
795.1514927837
 20
188.1168229996
 30
0.0
 10
795.1514927837
 20
187.8627758061
 30
0.0
  0
SPLINE
  5
48D
100
AcDbEntity
  8
0
100
AcDbSpline
 62
7
  6
CONTINUOUS
 70
0
 71
3
 72
9
 73
5
 74
0
 42
0.0000001
 43
0.0000001
 44
0.0000000001
 40
0.0
 40
0.0
 40
0.0
 40
0.0
 40
0.4402133985
 40
1.0
 40
1.0
 40
1.0
 40
1.0
 10
761.8291772443
 20
185.8864123527
 30
0.0
 10
761.8291772443
 20
185.8562793747
 30
0.0
 10
761.8755843704
 20
185.7906612406
 30
0.0
 10
761.9468593798
 20
185.7761036948
 30
0.0
 10
761.9851772443
 20
185.7761036948
 30
0.0
  0
SPLINE
  5
48E
100
AcDbEntity
  8
0
100
AcDbSpline
 62
7
  6
CONTINUOUS
 70
0
 71
3
 72
9
 73
5
 74
0
 42
0.0000001
 43
0.0000001
 44
0.0000000001
 40
0.0
 40
0.0
 40
0.0
 40
0.0
 40
0.5
 40
1.0
 40
1.0
 40
1.0
 40
1.0
 10
778.4261709944
 20
186.5750981581
 30
0.0
 10
778.6724701657
 20
185.1515843718
 30
0.0
 10
782.0999069206
 20
183.399848033
 30
0.0
 10
785.5273436755
 20
185.1515843718
 30
0.0
 10
785.7736428468
 20
186.5750981581
 30
0.0
  0
SPLINE
  5
48F
100
AcDbEntity
  8
0
100
AcDbSpline
 62
7
  6
CONTINUOUS
 70
0
 71
3
 72
9
 73
5
 74
0
 42
0.0000001
 43
0.0000001
 44
0.0000000001
 40
0.0
 40
0.0
 40
0.0
 40
0.0
 40
0.5403772208
 40
1.0
 40
1.0
 40
1.0
 40
1.0
 10
774.7355120109
 20
187.8565740868
 30
0.0
 10
775.1165064846
 20
187.9450885258
 30
0.0
 10
775.8048820624
 20
188.225764595
 30
0.0
 10
776.3082571306
 20
188.8069256628
 30
0.0
 10
776.4274180871
 20
189.1175420878
 30
0.0
  0
SPLINE
  5
490
100
AcDbEntity
  8
0
100
AcDbSpline
 62
7
  6
CONTINUOUS
 70
0
 71
3
 72
8
 73
4
 74
0
 42
0.0000001
 43
0.0000001
 44
0.0000000001
 40
0.0
 40
0.0
 40
0.0
 40
0.0
 40
1.0
 40
1.0
 40
1.0
 40
1.0
 10
776.4274180871
 20
189.1175420878
 30
0.0
 10
776.4572479232
 20
189.1952994116
 30
0.0
 10
776.480376066
 20
189.2760243608
 30
0.0
 10
776.4956347467
 20
189.3578973917
 30
0.0
  0
SPLINE
  5
491
100
AcDbEntity
  8
0
100
AcDbSpline
 62
7
  6
CONTINUOUS
 70
0
 71
3
 72
11
 73
7
 74
0
 42
0.0000001
 43
0.0000001
 44
0.0000000001
 40
0.0
 40
0.0
 40
0.0
 40
0.0
 40
0.2880066977
 40
0.5553334191
 40
0.790532629
 40
1.0
 40
1.0
 40
1.0
 40
1.0
 10
773.9267189362
 20
190.5929150883
 30
0.0
 10
774.1081291287
 20
190.5929150883
 30
0.0
 10
774.4601385887
 20
190.5455160484
 30
0.0
 10
774.9209958664
 20
190.3370441377
 30
0.0
 10
775.2491325653
 20
190.0125740164
 30
0.0
 10
775.3348356549
 20
189.7291659036
 30
0.0
 10
775.3348356549
 20
189.5972262078
 30
0.0
  0
SPLINE
  5
492
100
AcDbEntity
  8
0
100
AcDbSpline
 62
7
  6
CONTINUOUS
 70
0
 71
3
 72
9
 73
5
 74
0
 42
0.0000001
 43
0.0000001
 44
0.0000000001
 40
0.0
 40
0.0
 40
0.0
 40
0.0
 40
0.5597866015
 40
1.0
 40
1.0
 40
1.0
 40
1.0
 10
763.2331772443
 20
185.7761036948
 30
0.0
 10
763.2714951087
 20
185.7761036948
 30
0.0
 10
763.3427701181
 20
185.7906612406
 30
0.0
 10
763.3891772443
 20
185.8562793747
 30
0.0
 10
763.3891772443
 20
185.8864123527
 30
0.0
  0
SPLINE
  5
493
100
AcDbEntity
  8
0
100
AcDbSpline
 62
7
  6
CONTINUOUS
 70
0
 71
3
 72
9
 73
5
 74
0
 42
0.0000001
 43
0.0000001
 44
0.0000000001
 40
0.0
 40
0.0
 40
0.0
 40
0.0
 40
0.4402133985
 40
1.0
 40
1.0
 40
1.0
 40
1.0
 10
762.3166772443
 20
188.6992831283
 30
0.0
 10
762.3166772443
 20
188.7294161062
 30
0.0
 10
762.3630843704
 20
188.7950342404
 30
0.0
 10
762.4343593798
 20
188.8095917861
 30
0.0
 10
762.4726772443
 20
188.8095917861
 30
0.0
  0
SPLINE
  5
494
100
AcDbEntity
  8
RUNDUNGEN
100
AcDbSpline
 62
7
  6
CONTINUOUS
 70
0
 71
3
 72
11
 73
7
 74
0
 42
0.0000001
 43
0.0000001
 44
0.0000000001
 40
0.0
 40
0.0
 40
0.0
 40
0.0
 40
0.2256778953
 40
0.4632795617
 40
0.7206246471
 40
1.0
 40
1.0
 40
1.0
 40
1.0
 10
741.8417958398
 20
194.8025563131
 30
0.0
 10
741.8416875331
 20
194.6179534452
 30
0.0
 10
741.774570669
 20
194.2363347741
 30
0.0
 10
741.4871440616
 20
193.7117368104
 30
0.0
 10
741.0369552791
 20
193.2566031608
 30
0.0
 10
740.6607412651
 20
193.0226882168
 30
0.0
 10
740.4559423894
 20
192.9212878906
 30
0.0
  0
SPLINE
  5
495
100
AcDbEntity
  8
0
100
AcDbSpline
 62
7
  6
CONTINUOUS
 70
0
 71
3
 72
9
 73
5
 74
0
 42
0.0000001
 43
0.0000001
 44
0.0000000001
 40
0.0
 40
0.0
 40
0.0
 40
0.0
 40
0.5597866015
 40
1.0
 40
1.0
 40
1.0
 40
1.0
 10
762.7456772443
 20
188.8095917861
 30
0.0
 10
762.7839951087
 20
188.8095917861
 30
0.0
 10
762.8552701181
 20
188.7950342404
 30
0.0
 10
762.9016772443
 20
188.7294161062
 30
0.0
 10
762.9016772443
 20
188.6992831283
 30
0.0
  0
SPLINE
  5
496
100
AcDbEntity
  8
0
100
AcDbSpline
 62
7
  6
CONTINUOUS
 70
0
 71
3
 72
9
 73
5
 74
0
 42
0.0000001
 43
0.0000001
 44
0.0000000001
 40
0.0
 40
0.0
 40
0.0
 40
0.0
 40
0.5597866015
 40
1.0
 40
1.0
 40
1.0
 40
1.0
 10
763.2331772443
 20
188.5338201415
 30
0.0
 10
763.2714951087
 20
188.5338201415
 30
0.0
 10
763.3427701181
 20
188.5483776872
 30
0.0
 10
763.3891772443
 20
188.6139958213
 30
0.0
 10
763.3891772443
 20
188.6441287993
 30
0.0
  0
SPLINE
  5
497
100
AcDbEntity
  8
0
100
AcDbSpline
 62
7
  6
CONTINUOUS
 70
0
 71
3
 72
11
 73
7
 74
0
 42
0.0000001
 43
0.0000001
 44
0.0000000001
 40
0.0
 40
0.0
 40
0.0
 40
0.0
 40
0.2876567391
 40
0.555407049
 40
0.7907201247
 40
1.0
 40
1.0
 40
1.0
 40
1.0
 10
763.5841772443
 20
190.3263358318
 30
0.0
 10
763.634353897
 20
190.3263358318
 30
0.0
 10
763.7317722716
 20
190.3130020827
 30
0.0
 10
763.8596674908
 20
190.2556548396
 30
0.0
 10
763.9502436094
 20
190.1654369795
 30
0.0
 10
763.9741772443
 20
190.0870693761
 30
0.0
 10
763.9741772443
 20
190.0505641871
 30
0.0
  0
SPLINE
  5
498
100
AcDbEntity
  8
0
100
AcDbSpline
 62
7
  6
CONTINUOUS
 70
0
 71
3
 72
8
 73
4
 74
0
 42
0.0000001
 43
0.0000001
 44
0.0000000001
 40
0.0
 40
0.0
 40
0.0
 40
0.0
 40
1.0
 40
1.0
 40
1.0
 40
1.0
 10
763.6883326442
 20
187.5584615407
 30
0.0
 10
763.7193121878
 20
187.5523807994
 30
0.0
 10
763.7499283856
 20
187.5435562475
 30
0.0
 10
763.7791772443
 20
187.5316729904
 30
0.0
  0
SPLINE
  5
499
100
AcDbEntity
  8
0
100
AcDbSpline
 62
7
  6
CONTINUOUS
 70
0
 71
3
 72
9
 73
5
 74
0
 42
0.0000001
 43
0.0000001
 44
0.0000000001
 40
0.0
 40
0.0
 40
0.0
 40
0.0
 40
0.5424756321
 40
1.0
 40
1.0
 40
1.0
 40
1.0
 10
763.7791772443
 20
187.5316729904
 30
0.0
 10
763.8331687282
 20
187.5097372734
 30
0.0
 10
763.9283807747
 20
187.4500229152
 30
0.0
 10
763.9741772443
 20
187.3419989495
 30
0.0
 10
763.9741772443
 20
187.2928477405
 30
0.0
  0
SPLINE
  5
49A
100
AcDbEntity
  8
0
100
AcDbSpline
 62
7
  6
CONTINUOUS
 70
0
 71
3
 72
9
 73
5
 74
0
 42
0.0000001
 43
0.0000001
 44
0.0000000001
 40
0.0
 40
0.0
 40
0.0
 40
0.0
 40
0.4575243679
 40
1.0
 40
1.0
 40
1.0
 40
1.0
 10
761.2441772443
 20
187.2928477405
 30
0.0
 10
761.2441772443
 20
187.3419989495
 30
0.0
 10
761.2899737139
 20
187.4500229152
 30
0.0
 10
761.3851857604
 20
187.5097372734
 30
0.0
 10
761.4391772443
 20
187.5316729904
 30
0.0
  0
SPLINE
  5
49B
100
AcDbEntity
  8
0
100
AcDbSpline
 62
7
  6
CONTINUOUS
 70
0
 71
3
 72
8
 73
4
 74
0
 42
0.0000001
 43
0.0000001
 44
0.0000000001
 40
0.0
 40
0.0
 40
0.0
 40
0.0
 40
1.0
 40
1.0
 40
1.0
 40
1.0
 10
761.4391772443
 20
187.5316729904
 30
0.0
 10
761.500468284
 20
187.5565743785
 30
0.0
 10
761.5680208336
 20
187.5686193851
 30
0.0
 10
761.6341772443
 20
187.5686193851
 30
0.0
  0
SPLINE
  5
49C
100
AcDbEntity
  8
0
100
AcDbSpline
 62
7
  6
CONTINUOUS
 70
0
 71
3
 72
11
 73
7
 74
0
 42
0.0000001
 43
0.0000001
 44
0.0000000001
 40
0.0
 40
0.0
 40
0.0
 40
0.0
 40
0.2092798753
 40
0.444592951
 40
0.7123432609
 40
1.0
 40
1.0
 40
1.0
 40
1.0
 10
761.2441772443
 20
190.0505641871
 30
0.0
 10
761.2441772443
 20
190.0870693761
 30
0.0
 10
761.2681108792
 20
190.1654369795
 30
0.0
 10
761.3586869977
 20
190.2556548396
 30
0.0
 10
761.4865822169
 20
190.3130020827
 30
0.0
 10
761.5840005916
 20
190.3263358318
 30
0.0
 10
761.6341772443
 20
190.3263358318
 30
0.0
  0
SPLINE
  5
49D
100
AcDbEntity
  8
0
100
AcDbSpline
 62
7
  6
CONTINUOUS
 70
0
 71
3
 72
9
 73
5
 74
0
 42
0.0000001
 43
0.0000001
 44
0.0000000001
 40
0.0
 40
0.0
 40
0.0
 40
0.0
 40
0.538986273
 40
1.0
 40
1.0
 40
1.0
 40
1.0
 10
765.7291772443
 20
184.2593596492
 30
0.0
 10
765.8769317598
 20
184.2593596492
 30
0.0
 10
766.1541315222
 20
184.311229308
 30
0.0
 10
766.3859973467
 20
184.4907465806
 30
0.0
 10
766.4498032796
 20
184.5998364595
 30
0.0
  0
SPLINE
  5
49E
100
AcDbEntity
  8
0
100
AcDbSpline
 62
7
  6
CONTINUOUS
 70
0
 71
3
 72
9
 73
5
 74
0
 42
0.0000001
 43
0.0000001
 44
0.0000000001
 40
0.0
 40
0.0
 40
0.0
 40
0.0
 40
0.2592261758
 40
1.0
 40
1.0
 40
1.0
 40
1.0
 10
766.4498032796
 20
184.5998364595
 30
0.0
 10
766.4594309542
 20
184.6162970266
 30
0.0
 10
766.4927412905
 20
184.6819194767
 30
0.0
 10
766.5091772443
 20
184.7564095234
 30
0.0
 10
766.5091772443
 20
184.8109029385
 30
0.0
  0
SPLINE
  5
49F
100
AcDbEntity
  8
RUNDUNGEN
100
AcDbSpline
 62
7
  6
CONTINUOUS
 70
0
 71
3
 72
9
 73
5
 74
0
 42
0.0000001
 43
0.0000001
 44
0.0000000001
 40
0.0
 40
0.0
 40
0.0
 40
0.0
 40
0.4963806263
 40
1.0
 40
1.0
 40
1.0
 40
1.0
 10
760.4670322631
 20
203.2249014773
 30
0.0
 10
759.5058559448
 20
202.7490024182
 30
0.0
 10
757.3309764048
 20
202.2553114442
 30
0.0
 10
755.132077758
 20
202.5920366035
 30
0.0
 10
754.1187996105
 20
202.9887768301
 30
0.0
  0
SPLINE
  5
4A0
100
AcDbEntity
  8
RUNDUNGEN
100
AcDbSpline
 62
7
  6
CONTINUOUS
 70
0
 71
3
 72
11
 73
7
 74
0
 42
0.0000001
 43
0.0000001
 44
0.0000000001
 40
0.0
 40
0.0
 40
0.0
 40
0.0
 40
0.2660806569
 40
0.5190943725
 40
0.7622194677
 40
1.0
 40
1.0
 40
1.0
 40
1.0
 10
801.5751458435
 20
154.3149255834
 30
0.0
 10
801.0072074392
 20
154.8884599643
 30
0.0
 10
799.9849540582
 20
156.0979465656
 30
0.0
 10
798.8276923379
 20
158.1154284321
 30
0.0
 10
798.1181995168
 20
160.2417365444
 30
0.0
 10
797.9581867042
 20
161.7052172062
 30
0.0
 10
797.9581867292
 20
162.4265219251
 30
0.0
  0
SPLINE
  5
4A1
100
AcDbEntity
  8
RUNDUNGEN
100
AcDbSpline
 62
7
  6
CONTINUOUS
 70
0
 71
3
 72
11
 73
7
 74
0
 42
0.0000001
 43
0.0000001
 44
0.0000000001
 40
0.0
 40
0.0
 40
0.0
 40
0.0
 40
0.2297109036
 40
0.4842558674
 40
0.7475645357
 40
1.0
 40
1.0
 40
1.0
 40
1.0
 10
814.3750570233
 20
198.7509054309
 30
0.0
 10
813.8960895283
 20
198.267218602
 30
0.0
 10
812.6581583086
 20
197.4685233141
 30
0.0
 10
810.4884770152
 20
196.8989305871
 30
0.0
 10
808.1797181992
 20
196.9313081677
 30
0.0
 10
806.6890634834
 20
197.3770981299
 30
0.0
 10
806.0186861395
 20
197.7090163649
 30
0.0
  0
SPLINE
  5
4A2
100
AcDbEntity
  8
KONSTRUKTIONSELEMENTE
100
AcDbSpline
 62
7
  6
CONTINUOUS
 70
0
 71
3
 72
15
 73
11
 74
0
 42
0.0000001
 43
0.0000001
 44
0.0000000001
 40
0.0
 40
0.0
 40
0.0
 40
0.0
 40
0.0624946376
 40
0.1250023376
 40
0.2497593649
 40
0.3747328447
 40
0.4997829526
 40
0.6248643907
 40
0.7499620208
 40
1.0
 40
1.0
 40
1.0
 40
1.0
 10
756.2324760469
 20
226.1557681875
 30
0.0
 10
756.2324760469
 20
226.5493707299
 30
0.0
 10
756.3200953061
 20
227.3391471174
 30
0.0
 10
756.8134064279
 20
228.8421363598
 30
0.0
 10
757.898864551
 20
230.5174732423
 30
0.0
 10
759.5910979945
 20
232.1776288038
 30
0.0
 10
761.5107445594
 20
233.5664170644
 30
0.0
 10
763.5754706857
 20
234.7248766374
 30
0.0
 10
766.4600397209
 20
235.9996008398
 30
0.0
 10
768.7354866163
 20
236.6808775661
 30
0.0
 10
770.2726253001
 20
237.0231505162
 30
0.0
  0
SPLINE
  5
4A3
100
AcDbEntity
  8
KONSTRUKTIONSELEMENTE
100
AcDbSpline
 62
7
  6
CONTINUOUS
 70
0
 71
3
 72
9
 73
5
 74
0
 42
0.0000001
 43
0.0000001
 44
0.0000000001
 40
0.0
 40
0.0
 40
0.0
 40
0.0
 40
0.5000902521
 40
1.0
 40
1.0
 40
1.0
 40
1.0
 10
755.5352416983
 20
219.8557681875
 30
0.0
 10
755.7521891446
 20
220.464713548
 30
0.0
 10
756.1047971277
 20
221.7141949508
 30
0.0
 10
756.2324760469
 20
223.0095646293
 30
0.0
 10
756.2324760469
 20
223.6557681875
 30
0.0
  0
SPLINE
  5
4A4
100
AcDbEntity
  8
KONSTRUKTIONSELEMENTE
100
AcDbSpline
 62
7
  6
CONTINUOUS
 70
0
 71
3
 72
9
 73
5
 74
0
 42
0.0000001
 43
0.0000001
 44
0.0000000001
 40
0.0
 40
0.0
 40
0.0
 40
0.0
 40
0.4999097479
 40
1.0
 40
1.0
 40
1.0
 40
1.0
 10
799.1127745533
 20
223.6557681875
 30
0.0
 10
799.1127745533
 20
223.0095646293
 30
0.0
 10
799.2404534725
 20
221.7141949508
 30
0.0
 10
799.5930614556
 20
220.464713548
 30
0.0
 10
799.810008902
 20
219.8557681875
 30
0.0
  0
SPLINE
  5
4A5
100
AcDbEntity
  8
KONSTRUKTIONSELEMENTE
100
AcDbSpline
 62
7
  6
CONTINUOUS
 70
0
 71
3
 72
15
 73
11
 74
0
 42
0.0000001
 43
0.0000001
 44
0.0000000001
 40
0.0
 40
0.0
 40
0.0
 40
0.0
 40
0.2500415702
 40
0.3751416148
 40
0.5002258421
 40
0.6252778246
 40
0.7502487062
 40
0.8750031602
 40
0.9375084728
 40
1.0
 40
1.0
 40
1.0
 40
1.0
 10
785.0726253001
 20
237.0231505162
 30
0.0
 10
786.6097861488
 20
236.6808726307
 30
0.0
 10
788.8852672059
 20
235.9995777514
 30
0.0
 10
791.7698879327
 20
234.7248321143
 30
0.0
 10
793.8346428614
 20
233.5663312197
 30
0.0
 10
795.7542861774
 20
232.1775157439
 30
0.0
 10
797.4464843795
 20
230.5173534806
 30
0.0
 10
798.5318909979
 20
228.8420401537
 30
0.0
 10
799.025164737
 20
227.3390926999
 30
0.0
 10
799.1127745533
 20
226.5493511628
 30
0.0
 10
799.1127745533
 20
226.1557681875
 30
0.0
  0
SPLINE
  5
4A6
100
AcDbEntity
  8
RUNDUNGEN
100
AcDbSpline
 62
7
  6
CONTINUOUS
 70
0
 71
3
 72
9
 73
5
 74
0
 42
0.0000001
 43
0.0000001
 44
0.0000000001
 40
0.0
 40
0.0
 40
0.0
 40
0.0
 40
0.4907112898
 40
1.0
 40
1.0
 40
1.0
 40
1.0
 10
764.2159114812
 20
262.1557681875
 30
0.0
 10
763.0064129795
 20
262.1557681875
 30
0.0
 10
760.5432363202
 20
262.0459737678
 30
0.0
 10
758.0793094816
 20
261.9652432068
 30
0.0
 10
756.8240216072
 20
261.9652432068
 30
0.0
  0
SPLINE
  5
4A7
100
AcDbEntity
  8
RUNDUNGEN
100
AcDbSpline
 62
7
  6
CONTINUOUS
 70
0
 71
3
 72
15
 73
11
 74
0
 42
0.0000001
 43
0.0000001
 44
0.0000000001
 40
0.0
 40
0.0
 40
0.0
 40
0.0
 40
0.0570233419
 40
0.1293586796
 40
0.2242107455
 40
0.3430879243
 40
0.4844660151
 40
0.6447708672
 40
0.8187803679
 40
1.0
 40
1.0
 40
1.0
 40
1.0
 10
814.6726253001
 20
243.6187894913
 30
0.0
 10
814.6726253001
 20
243.7445349134
 30
0.0
 10
814.5718298483
 20
244.0299015897
 30
0.0
 10
814.2074249324
 20
244.3770566037
 30
0.0
 10
813.6575318166
 20
244.6925281075
 30
0.0
 10
812.9229076739
 20
244.9705870664
 30
0.0
 10
812.0236705852
 20
245.202559577
 30
0.0
 10
810.9882472834
 20
245.3773039505
 30
0.0
 10
809.8558219435
 20
245.4861139948
 30
0.0
 10
809.0722430419
 20
245.5105822246
 30
0.0
 10
808.6726253001
 20
245.5105822246
 30
0.0
  0
SPLINE
  5
4A8
100
AcDbEntity
  8
KONSTRUKTIONSELEMENTE
100
AcDbSpline
 62
7
  6
CONTINUOUS
 70
0
 71
3
 72
20
 73
16
 74
0
 42
0.0000001
 43
0.0000001
 44
0.0000000001
 40
0.0
 40
0.0
 40
0.0
 40
0.0
 40
0.1925074097
 40
0.3784599411
 40
0.5508798646
 40
0.6298138988
 40
0.7027736029
 40
0.7689728188
 40
0.8277038991
 40
0.8783417129
 40
0.9203734727
 40
0.9534317115
 40
0.9665361599
 40
0.9773699474
 40
1.0
 40
1.0
 40
1.0
 40
1.0
 10
755.5352416983
 20
219.8557681875
 30
0.0
 10
755.1313447057
 20
218.7220779606
 30
0.0
 10
754.3956830112
 20
216.4721731854
 30
0.0
 10
753.4698248386
 20
213.1541819834
 30
0.0
 10
752.8360898485
 20
210.4940271478
 30
0.0
 10
752.4220878407
 20
208.5091590116
 30
0.0
 10
752.1690335574
 20
207.1692951188
 30
0.0
 10
751.9640687546
 20
205.9492259443
 30
0.0
 10
751.8073049361
 20
204.8625589667
 30
0.0
 10
751.6981060188
 20
203.9228603659
 30
0.0
 10
751.6372043072
 20
203.1371339529
 30
0.0
 10
751.6222457104
 20
202.5899251119
 30
0.0
 10
751.6416322896
 20
202.2267860569
 30
0.0
 10
751.6716114029
 20
201.9590494378
 30
0.0
 10
751.7546200602
 20
201.6557681875
 30
0.0
 10
751.8960952611
 20
201.6557681875
 30
0.0
  0
SPLINE
  5
4A9
100
AcDbEntity
  8
KONSTRUKTIONSELEMENTE
100
AcDbSpline
 62
7
  6
CONTINUOUS
 70
0
 71
3
 72
20
 73
16
 74
0
 42
0.0000001
 43
0.0000001
 44
0.0000000001
 40
0.0
 40
0.0
 40
0.0
 40
0.0
 40
0.0226300526
 40
0.0334638401
 40
0.0465682885
 40
0.0796265273
 40
0.1216582871
 40
0.1722961009
 40
0.2310271812
 40
0.2972263971
 40
0.3701861012
 40
0.4491201354
 40
0.6215400589
 40
0.8074925903
 40
1.0
 40
1.0
 40
1.0
 40
1.0
 10
803.4491553391
 20
201.6557681875
 30
0.0
 10
803.59063054
 20
201.6557681875
 30
0.0
 10
803.6736391974
 20
201.9590494378
 30
0.0
 10
803.7036183107
 20
202.2267860569
 30
0.0
 10
803.7230048898
 20
202.5899251119
 30
0.0
 10
803.7080462931
 20
203.1371339529
 30
0.0
 10
803.6471445814
 20
203.9228603659
 30
0.0
 10
803.5379456641
 20
204.8625589667
 30
0.0
 10
803.3811818456
 20
205.9492259443
 30
0.0
 10
803.1762170428
 20
207.1692951188
 30
0.0
 10
802.9231627595
 20
208.5091590116
 30
0.0
 10
802.5091607517
 20
210.4940271478
 30
0.0
 10
801.8754257616
 20
213.1541819834
 30
0.0
 10
800.9495675891
 20
216.4721731854
 30
0.0
 10
800.2139058945
 20
218.7220779606
 30
0.0
 10
799.810008902
 20
219.8557681875
 30
0.0
  0
SPLINE
  5
4AA
100
AcDbEntity
  8
RUNDUNGEN
100
AcDbSpline
 62
7
  6
CONTINUOUS
 70
0
 71
3
 72
9
 73
5
 74
0
 42
0.0000001
 43
0.0000001
 44
0.0000000001
 40
0.0
 40
0.0
 40
0.0
 40
0.0
 40
0.5098814585
 40
1.0
 40
1.0
 40
1.0
 40
1.0
 10
752.5363233782
 20
261.9652432068
 30
0.0
 10
751.884136587
 20
261.9652432176
 30
0.0
 10
750.6049488053
 20
262.000077215
 30
0.0
 10
749.3283024556
 20
262.0792904844
 30
0.0
 10
748.7022170349
 20
262.1113976024
 30
0.0
  0
SPLINE
  5
4AB
100
AcDbEntity
  8
RUNDUNGEN
100
AcDbSpline
 62
7
  6
CONTINUOUS
 70
0
 71
3
 72
15
 73
11
 74
0
 42
0.0000001
 43
0.0000001
 44
0.0000000001
 40
0.0
 40
0.0
 40
0.0
 40
0.0
 40
0.0570233419
 40
0.1293586796
 40
0.2242107455
 40
0.3430879243
 40
0.4844660151
 40
0.6447708672
 40
0.8187803679
 40
1.0
 40
1.0
 40
1.0
 40
1.0
 10
814.6726253001
 20
235.7639754542
 30
0.0
 10
814.6726253001
 20
235.8897208763
 30
0.0
 10
814.5718298483
 20
236.1750875526
 30
0.0
 10
814.2074249324
 20
236.5222425667
 30
0.0
 10
813.6575318166
 20
236.8377140705
 30
0.0
 10
812.9229076739
 20
237.1157730294
 30
0.0
 10
812.0236705852
 20
237.3477455399
 30
0.0
 10
810.9882472834
 20
237.5224899134
 30
0.0
 10
809.8558219435
 20
237.6312999577
 30
0.0
 10
809.0722430419
 20
237.6557681875
 30
0.0
 10
808.6726253001
 20
237.6557681875
 30
0.0
  0
SPLINE
  5
4AC
100
AcDbEntity
  8
RUNDUNGEN
100
AcDbSpline
 62
7
  6
CONTINUOUS
 70
0
 71
3
 72
9
 73
5
 74
0
 42
0.0000001
 43
0.0000001
 44
0.0000000001
 40
0.0
 40
0.0
 40
0.0
 40
0.0
 40
0.4901185419
 40
1.0
 40
1.0
 40
1.0
 40
1.0
 10
806.6430334373
 20
262.1113975958
 30
0.0
 10
806.0169479347
 20
262.0792904725
 30
0.0
 10
804.7403014192
 20
262.0000771923
 30
0.0
 10
803.4611134706
 20
261.9652432068
 30
0.0
 10
802.8089265952
 20
261.9652432068
 30
0.0
  0
SPLINE
  5
4AD
100
AcDbEntity
  8
RUNDUNGEN
100
AcDbSpline
 62
7
  6
CONTINUOUS
 70
0
 71
3
 72
15
 73
11
 74
0
 42
0.0000001
 43
0.0000001
 44
0.0000000001
 40
0.0
 40
0.0
 40
0.0
 40
0.0
 40
0.1812196321
 40
0.3552291328
 40
0.5155339849
 40
0.6569120757
 40
0.7757892545
 40
0.8706413204
 40
0.9429766581
 40
1.0
 40
1.0
 40
1.0
 40
1.0
 10
746.6726253001
 20
237.6557681875
 30
0.0
 10
746.2730075583
 20
237.6557681875
 30
0.0
 10
745.4894286568
 20
237.6312999577
 30
0.0
 10
744.3570033168
 20
237.5224899134
 30
0.0
 10
743.321580015
 20
237.3477455399
 30
0.0
 10
742.4223429264
 20
237.1157730294
 30
0.0
 10
741.6877187837
 20
236.8377140705
 30
0.0
 10
741.1378256678
 20
236.5222425667
 30
0.0
 10
740.773420752
 20
236.1750875526
 30
0.0
 10
740.6726253001
 20
235.8897208763
 30
0.0
 10
740.6726253001
 20
235.7639754542
 30
0.0
  0
SPLINE
  5
4AE
100
AcDbEntity
  8
RUNDUNGEN
100
AcDbSpline
 62
7
  6
CONTINUOUS
 70
0
 71
3
 72
15
 73
11
 74
0
 42
0.0000001
 43
0.0000001
 44
0.0000000001
 40
0.0
 40
0.0
 40
0.0
 40
0.0
 40
0.0570233419
 40
0.1293586796
 40
0.2242107455
 40
0.3430879243
 40
0.4844660151
 40
0.6447708672
 40
0.8187803679
 40
1.0
 40
1.0
 40
1.0
 40
1.0
 10
740.6726253001
 20
243.6187894913
 30
0.0
 10
740.6726253001
 20
243.7445349134
 30
0.0
 10
740.773420752
 20
244.0299015897
 30
0.0
 10
741.1378256678
 20
244.3770566037
 30
0.0
 10
741.6877187837
 20
244.6925281075
 30
0.0
 10
742.4223429264
 20
244.9705870664
 30
0.0
 10
743.321580015
 20
245.202559577
 30
0.0
 10
744.3570033168
 20
245.3773039505
 30
0.0
 10
745.4894286568
 20
245.4861139948
 30
0.0
 10
746.2730075583
 20
245.5105822246
 30
0.0
 10
746.6726253001
 20
245.5105822246
 30
0.0
  0
SPLINE
  5
4AF
100
AcDbEntity
  8
RUNDUNGEN
100
AcDbSpline
 62
7
  6
CONTINUOUS
 70
0
 71
3
 72
9
 73
5
 74
0
 42
0.0000001
 43
0.0000001
 44
0.0000000001
 40
0.0
 40
0.0
 40
0.0
 40
0.0
 40
0.5092886403
 40
1.0
 40
1.0
 40
1.0
 40
1.0
 10
798.5212289931
 20
261.9652432068
 30
0.0
 10
797.2659401054
 20
261.9652432068
 30
0.0
 10
794.8020109448
 20
262.0459740272
 30
0.0
 10
792.3388319493
 20
262.1557681875
 30
0.0
 10
791.1293321331
 20
262.1557681875
 30
0.0
  0
SPLINE
  5
4B0
100
AcDbEntity
  8
0
100
AcDbSpline
 62
7
  6
CONTINUOUS
 70
0
 71
3
 72
9
 73
5
 74
0
 42
0.0000001
 43
0.0000001
 44
0.0000000001
 40
0.0
 40
0.0
 40
0.0
 40
0.0
 40
0.5000000006
 40
1.0
 40
1.0
 40
1.0
 40
1.0
 10
369.5585107764
 20
280.6557681875
 30
0.0
 10
369.135442844
 20
284.3303049438
 30
0.0
 10
368.6841209345
 20
291.7332233225
 30
0.0
 10
369.1354428451
 20
299.1361417011
 30
0.0
 10
369.5585107764
 20
302.8106784483
 30
0.0
  0
LINE
  5
4B1
100
AcDbEntity
  8
0
100
AcDbLine
 62
7
  6
CONTINUOUS
 10
386.3902289613
 20
235.7639754542
 11
392.3902289613
 21
237.6557681875
  0
LINE
  5
4B2
100
AcDbEntity
  8
0
100
AcDbLine
 62
7
  6
CONTINUOUS
 10
380.8902289613
 20
243.6187894913
 11
386.8902289613
 21
245.5105822246
  0
SPLINE
  5
4B3
100
AcDbEntity
  8
0
100
AcDbSpline
 62
7
  6
CONTINUOUS
 70
0
 71
3
 72
9
 73
5
 74
0
 42
0.0000001
 43
0.0000001
 44
0.0000000001
 40
0.0
 40
0.0
 40
0.0
 40
0.0
 40
0.515843987
 40
1.0
 40
1.0
 40
1.0
 40
1.0
 10
380.8902289613
 20
261.9798620657
 30
0.0
 10
381.004036987
 20
262.0351337089
 30
0.0
 10
381.2386010285
 20
262.1175119748
 30
0.0
 10
381.4881579272
 20
262.1270730266
 30
0.0
 10
381.606058415
 20
262.1129141647
 30
0.0
  0
SPLINE
  5
4B4
100
AcDbEntity
  8
0
100
AcDbSpline
 62
7
  6
CONTINUOUS
 70
0
 71
3
 72
11
 73
7
 74
0
 42
0.0000001
 43
0.0000001
 44
0.0000000001
 40
0.0
 40
0.0
 40
0.0
 40
0.0
 40
0.2551771482
 40
0.5000000006
 40
0.7448228526
 40
1.0
 40
1.0
 40
1.0
 40
1.0
 10
369.5585107764
 20
319.0291983963
 30
0.0
 10
369.353381224
 20
319.5065882372
 30
0.0
 10
369.0267570278
 20
320.4783487291
 30
0.0
 10
368.852505515
 20
321.9973935558
 30
0.0
 10
369.0267570302
 20
323.51643838
 30
0.0
 10
369.3533812248
 20
324.4881988698
 30
0.0
 10
369.5585107764
 20
324.9655887091
 30
0.0
  0
SPLINE
  5
4B5
100
AcDbEntity
  8
0
100
AcDbSpline
 62
7
  6
CONTINUOUS
 70
0
 71
3
 72
9
 73
5
 74
0
 42
0.0000001
 43
0.0000001
 44
0.0000000001
 40
0.0
 40
0.0
 40
0.0
 40
0.0
 40
0.5000000006
 40
1.0
 40
1.0
 40
1.0
 40
1.0
 10
369.5585107764
 20
302.8106784483
 30
0.0
 10
369.1371971685
 20
305.4894717142
 30
0.0
 10
368.68236661
 20
310.9199384257
 30
0.0
 10
369.1371971696
 20
316.350405137
 30
0.0
 10
369.5585107764
 20
319.0291983963
 30
0.0
  0
SPLINE
  5
4B6
100
AcDbEntity
  8
0
100
AcDbSpline
 62
7
  6
CONTINUOUS
 70
0
 71
3
 72
11
 73
7
 74
0
 42
0.0000001
 43
0.0000001
 44
0.0000000001
 40
0.0
 40
0.0
 40
0.0
 40
0.0
 40
0.2551771482
 40
0.5000000006
 40
0.7448228526
 40
1.0
 40
1.0
 40
1.0
 40
1.0
 10
376.2219471462
 20
319.0291983963
 30
0.0
 10
376.4270766986
 20
319.5065882372
 30
0.0
 10
376.7537008949
 20
320.4783487291
 30
0.0
 10
376.9279524077
 20
321.9973935558
 30
0.0
 10
376.7537008925
 20
323.51643838
 30
0.0
 10
376.4270766979
 20
324.4881988698
 30
0.0
 10
376.2219471462
 20
324.9655887091
 30
0.0
  0
SPLINE
  5
4B7
100
AcDbEntity
  8
0
100
AcDbSpline
 62
7
  6
CONTINUOUS
 70
0
 71
3
 72
9
 73
5
 74
0
 42
0.0000001
 43
0.0000001
 44
0.0000000001
 40
0.0
 40
0.0
 40
0.0
 40
0.0
 40
0.5000000006
 40
1.0
 40
1.0
 40
1.0
 40
1.0
 10
376.2219471462
 20
302.8106784483
 30
0.0
 10
376.6432607541
 20
305.4894717142
 30
0.0
 10
377.0980913127
 20
310.9199384257
 30
0.0
 10
376.6432607531
 20
316.350405137
 30
0.0
 10
376.2219471462
 20
319.0291983963
 30
0.0
  0
SPLINE
  5
4B8
100
AcDbEntity
  8
0
100
AcDbSpline
 62
7
  6
CONTINUOUS
 70
0
 71
3
 72
9
 73
5
 74
0
 42
0.0000001
 43
0.0000001
 44
0.0000000001
 40
0.0
 40
0.0
 40
0.0
 40
0.0
 40
0.5000000006
 40
1.0
 40
1.0
 40
1.0
 40
1.0
 10
376.2219471462
 20
280.6557681875
 30
0.0
 10
376.6450150787
 20
284.3303049438
 30
0.0
 10
377.0963369882
 20
291.7332233225
 30
0.0
 10
376.6450150776
 20
299.1361417011
 30
0.0
 10
376.2219471462
 20
302.8106784483
 30
0.0
  0
LINE
  5
4B9
100
AcDbEntity
  8
RUNDUNGEN
100
AcDbLine
 62
7
  6
CONTINUOUS
 10
359.3902289613
 20
235.7639754542
 11
353.3902289613
 21
237.6557681875
  0
LINE
  5
4BA
100
AcDbEntity
  8
RUNDUNGEN
100
AcDbLine
 62
7
  6
CONTINUOUS
 10
364.8902289613
 20
243.6187894913
 11
358.8902289613
 21
245.5105822246
  0
SPLINE
  5
4BB
100
AcDbEntity
  8
RUNDUNGEN
100
AcDbSpline
 62
7
  6
CONTINUOUS
 70
0
 71
3
 72
9
 73
5
 74
0
 42
0.0000001
 43
0.0000001
 44
0.0000000001
 40
0.0
 40
0.0
 40
0.0
 40
0.0
 40
0.515843987
 40
1.0
 40
1.0
 40
1.0
 40
1.0
 10
364.8902289613
 20
261.9798620657
 30
0.0
 10
364.7764209356
 20
262.0351337089
 30
0.0
 10
364.5418568941
 20
262.1175119748
 30
0.0
 10
364.2922999954
 20
262.1270730266
 30
0.0
 10
364.1743995077
 20
262.1129141647
 30
0.0
  0
SPLINE
  5
4BC
100
AcDbEntity
  8
RUNDUNGEN
100
AcDbSpline
 62
7
  6
CONTINUOUS
 70
0
 71
3
 72
21
 73
17
 74
0
 42
0.0000001
 43
0.0000001
 44
0.0000000001
 40
0.0
 40
0.0
 40
0.0
 40
0.0
 40
0.0660002394
 40
0.0983941011
 40
0.1297349599
 40
0.1597924332
 40
0.1888054653
 40
0.2452498768
 40
0.3021345811
 40
0.3603460358
 40
0.4200424697
 40
0.4811456025
 40
0.6067345986
 40
0.7359521058
 40
0.8674331246
 40
1.0
 40
1.0
 40
1.0
 40
1.0
 10
362.7903710079
 20
211.4057681875
 30
0.0
 10
362.3567653277
 20
211.4057681875
 30
0.0
 10
361.7020856285
 20
211.3481189819
 30
0.0
 10
360.8980469243
 20
211.0481749369
 30
0.0
 10
360.3809735637
 20
210.7004200596
 30
0.0
 10
359.9899528816
 20
210.2432546367
 30
0.0
 10
359.6639897558
 20
209.5490007949
 30
0.0
 10
359.583816671
 20
208.5885716626
 30
0.0
 10
359.868181895
 20
207.4846282275
 30
0.0
 10
360.4088279707
 20
206.4624121398
 30
0.0
 10
361.1404496075
 20
205.5350943908
 30
0.0
 10
362.3211212243
 20
204.4212040168
 30
0.0
 10
364.083018168
 20
203.2900049833
 30
0.0
 10
366.4502343032
 20
202.3429658944
 30
0.0
 10
368.9819433452
 20
201.7799214865
 30
0.0
 10
370.7192965117
 20
201.6557681875
 30
0.0
 10
371.5902289613
 20
201.6557681875
 30
0.0
  0
SPLINE
  5
4BD
100
AcDbEntity
  8
0
100
AcDbSpline
 62
7
  6
CONTINUOUS
 70
0
 71
3
 72
19
 73
15
 74
0
 42
0.0000001
 43
0.0000001
 44
0.0000000001
 40
0.0
 40
0.0
 40
0.0
 40
0.0
 40
0.0666497725
 40
0.1313031996
 40
0.1622622519
 40
0.1921196014
 40
0.2495047454
 40
0.3064810231
 40
0.3643249385
 40
0.4835207494
 40
0.6078156849
 40
0.7360781339
 40
0.8671531413
 40
1.0
 40
1.0
 40
1.0
 40
1.0
 10
382.9900869147
 20
211.4057681875
 30
0.0
 10
383.3762352427
 20
211.4057681875
 30
0.0
 10
384.1402944421
 20
211.3474138872
 30
0.0
 10
385.0391528761
 20
210.9910901584
 30
0.0
 10
385.587470285
 20
210.5030779848
 30
0.0
 10
385.9788055807
 20
209.9334352417
 30
0.0
 10
386.1962294397
 20
209.0995735726
 30
0.0
 10
386.096704525
 20
208.0930734394
 30
0.0
 10
385.6297273128
 20
206.8093626716
 30
0.0
 10
384.5753034655
 20
205.3777452652
 30
0.0
 10
382.8970169341
 20
204.0054139042
 30
0.0
 10
380.9293927486
 20
202.9465953415
 30
0.0
 10
378.7754879063
 20
202.1987921274
 30
0.0
 10
377.2696687663
 20
201.9032978068
 30
0.0
 10
376.5063688402
 20
201.8044485185
 30
0.0
  0
ELLIPSE
  5
4BE
100
AcDbEntity
  8
RUNDUNGEN
100
AcDbEllipse
 62
7
  6
CONTINUOUS
 10
748.0311712604
 20
256.1557681875
 30
0.0
 11
14.2165593702
 21
-0.5423133308
 31
0.0
 40
0.4203155586
 41
1.5396153878
 42
1.5416988386
  0
ELLIPSE
  5
4BF
100
AcDbEntity
  8
RUNDUNGEN
100
AcDbEllipse
 62
7
  6
CONTINUOUS
 10
807.3140793398
 20
256.1557681875
 30
0.0
 11
14.2165593702
 21
0.5423133308
 31
0.0
 40
0.4203155586
 41
1.5998770104
 42
1.6019772748
  0
ELLIPSE
  5
4C0
100
AcDbEntity
  8
0
100
AcDbEllipse
 62
7
  6
CONTINUOUS
 10
381.01243814
 20
254.1557681875
 30
0.0
 11
0.7255286101
 21
7.994185694
 31
0.0
 40
0.4203155586
 41
0.2482200958
 42
1.6089244346
  0
ELLIPSE
  5
4C1
100
AcDbEntity
  8
RUNDUNGEN
100
AcDbEllipse
 62
7
  6
CONTINUOUS
 10
364.7680197827
 20
254.1557681875
 30
0.0
 11
-0.7255286101
 21
7.994185694
 31
0.0
 40
0.4203155586
 41
-1.6089244346
 42
-0.2482200958
  0
ENDSEC
  0
SECTION
  2
OBJECTS
  0
DICTIONARY
  5
C
100
AcDbDictionary
280
0
281
1
  3
ACAD_GROUP
350
D
  3
ACAD_MLINESTYLE
350
17
  3
ACAD_LAYOUT
350
1A
  3
ACAD_PLOTSETTINGS
350
19
  3
ACAD_PLOTSTYLENAME
350
E
  0
DICTIONARY
  5
D
102
{ACAD_REACTORS
330
C
102
}
100
AcDbDictionary
280
0
281
1
  0
ACDBDICTIONARYWDFLT
  5
E
102
{ACAD_REACTORS
330
C
102
}
100
AcDbDictionary
281
1
  3
Normal
350
F
100
AcDbDictionaryWithDefault
340
F
  0
DICTIONARY
  5
17
102
{ACAD_REACTORS
330
C
102
}
100
AcDbDictionary
280
0
281
1
  3
Standard
350
18
  0
DICTIONARY
  5
19
102
{ACAD_REACTORS
330
C
102
}
100
AcDbDictionary
281
1
  0
DICTIONARY
  5
1A
102
{ACAD_REACTORS
330
C
102
}
100
AcDbDictionary
281
1
  3
Model
350
4C2
  3
Layout1
350
4C3
  0
ACDBPLACEHOLDER
  5
F
102
{ACAD_REACTORS
330
E
102
}
  0
MLINESTYLE
  5
18
102
{ACAD_REACTORS
330
17
102
}
100
AcDbMlineStyle
  2
STANDARD
 70
0
  3

 62
256
 51
90.0
 52
90.0
 71
2
 49
0.5
 62
256
  6
BYLAYER
 49
-0.5
 62
256
  6
BYLAYER
  0
LAYOUT
  5
4C2
102
{ACAD_REACTORS
330
1A
102
}
100
AcDbPlotSettings
  1

  2
none_device
  4
ISO_A0_(1189.00_x_841.00_MM)
  6

 40
0.0
 41
0.0
 42
0.0
 43
0.0
 44
1189.0
 45
841.0
 46
0.0
 47
0.0
 48
0.0
 49
0.0
140
0.0
141
0.0
142
1.0
143
1.0
 70
1024
 72
1
 73
0
 74
0
  7

 75
0
147
1.0
148
0.0
149
0.0
100
AcDbLayout
  1
Model
 70
0
 71
0
 10
0.0
 20
0.0
 11
1189.0
 21
841.0
 12
0.0
 22
0.0
 32
0.0
 14
0.0
 24
0.0
 34
0.0
 15
0.0
 25
0.0
 35
0.0
146
0.0
 13
0.0
 23
0.0
 33
0.0
 16
1.0
 26
0.0
 36
0.0
 17
0.0
 27
1.0
 37
0.0
 76
0
330
20B
345
0
346
0
  0
LAYOUT
  5
4C3
102
{ACAD_REACTORS
330
1A
102
}
100
AcDbPlotSettings
  1

  2
none_device
  4
ISO_A0_(1189.00_x_841.00_MM)
  6

 40
0.0
 41
0.0
 42
0.0
 43
0.0
 44
1189.0
 45
841.0
 46
0.0
 47
0.0
 48
0.0
 49
0.0
140
0.0
141
0.0
142
1.0
143
1.0
 70
0
 72
1
 73
0
 74
0
  7

 75
0
147
1.0
148
0.0
149
0.0
100
AcDbLayout
  1
Layout1
 70
0
 71
1
 10
0.0
 20
0.0
 11
1189.0
 21
841.0
 12
0.0
 22
0.0
 32
0.0
 14
0.0
 24
0.0
 34
0.0
 15
0.0
 25
0.0
 35
0.0
146
0.0
 13
0.0
 23
0.0
 33
0.0
 16
1.0
 26
0.0
 36
0.0
 17
0.0
 27
1.0
 37
0.0
 76
0
330
20C
345
0
346
0
  0
ENDSEC
  0
EOF
