999
DXF file: ISAK-RG-1-10_250_7903191_M34585-P-10.dxf
999
Pro/ENGINEER 2010140 by Parametric Technology Corporation
  0
SECTION
  2
HEADER
  9
$ACADVER
  1
AC1015
  9
$DWGCODEPAGE
  3
ANSI_1252
  9
$EXTMAX
 10
1189.0
 20
841.0
 30
0.0
  9
$EXTMIN
 10
0.0
 20
0.0
 30
0.0
  9
$LIMMIN
 10
0.0
 20
0.0
  9
$LIMMAX
 10
1189.0
 20
841.0
  9
$VIEWCTR
 10
594.5
 20
420.5
  9
$VIEWSIZE
 40
841.0
  9
$CLAYER
  8
0
  9
$LTSCALE
 40
65.395
  9
$CELTYPE
  6
BYLAYER
  9
$DIMSCALE
 40
1.0
  9
$DIMASZ
 40
3.5
  9
$DIMEXO
 40
7.43125
  9
$DIMDLI
 40
45.182
  9
$DIMEXE
 40
21.402
  9
$DIMCEN
 40
10.701
  9
$DIMLFAC
 40
1.0
  9
$DIMBLK
  1
_FILLED
  9
$DIMTXT
 40
3.5
  9
$DIMTOL
 70
1
  9
$DIMLIM
 70
0
  9
$DIMTFAC
 40
1.0
  9
$DIMTP
 40
0.005
  9
$DIMTM
 40
0.005
  9
$PDMODE
 70
3
  9
$PDSIZE
 40
0.3125
  9
$HANDSEED
  5
4BA
  9
$TILEMODE
 70
1
  9
$MEASUREMENT
 70
1
  9
$INSUNITS
 70
4
  0
ENDSEC
  0
SECTION
  2
CLASSES
  0
CLASS
  1
ACDBDICTIONARYWDFLT
  2
AcDbDictionaryWithDefault
  3
AutoCAD 2000
 90
0
280
0
281
0
  0
CLASS
  1
ACDBPLACEHOLDER
  2
AcDbPlaceHolder
  3
AutoCAD 2000
 90
0
280
0
281
0
  0
CLASS
  1
LAYOUT
  2
AcDbLayout
  3
AutoCAD 2000
 90
0
280
0
281
0
  0
ENDSEC
  0
SECTION
  2
TABLES
  0
TABLE
  2
VPORT
  5
8
100
AcDbSymbolTable
 70
2
  0
VPORT
  5
1F4
100
AcDbSymbolTableRecord
100
AcDbViewportTableRecord
  2
*ACTIVE
 70
0
 10
0.0
 20
0.0
 11
1.0
 21
1.0
 12
594.5
 22
420.5
 13
0.0
 23
0.0
 14
1.0
 24
1.0
 15
0.0
 25
0.0
 16
0.0
 26
0.0
 36
1.0
 17
0.0
 27
0.0
 37
0.0
 40
841.0
 41
1.4137931034
 42
50.0
 43
0.0
 44
0.0
 50
0.0
 51
0.0
 71
0
 72
100
 73
1
 74
1
 75
0
 76
0
 77
0
 78
0
  0
ENDTAB
  0
TABLE
  2
LTYPE
  5
5
100
AcDbSymbolTable
 70
6
  0
LTYPE
  5
14
100
AcDbSymbolTableRecord
100
AcDbLinetypeTableRecord
  2
BYBLOCK
 70
0
  3

 72
65
 73
0
 40
0.0
  0
LTYPE
  5
15
100
AcDbSymbolTableRecord
100
AcDbLinetypeTableRecord
  2
BYLAYER
 70
0
  3

 72
65
 73
0
 40
0.0
  0
LTYPE
  5
16
100
AcDbSymbolTableRecord
100
AcDbLinetypeTableRecord
  2
CONTINUOUS
 70
64
  3
Solid line
 72
65
 73
0
 40
0.0
  0
LTYPE
  5
1F5
100
AcDbSymbolTableRecord
100
AcDbLinetypeTableRecord
  2
CENTER
 70
64
  3
____ _ ____ _ ____ _ ____ _ ____ _ ____ _ ____
 72
65
 73
4
 40
0.6
 49
0.375
 74
0
 49
-0.075
 74
0
 49
0.075
 74
0
 49
-0.075
 74
0
  0
LTYPE
  5
1F6
100
AcDbSymbolTableRecord
100
AcDbLinetypeTableRecord
  2
HIDDEN
 70
64
  3
- - - - - - - - - - - - - - - - - - - -
 72
65
 73
2
 40
0.2
 49
0.1
 74
0
 49
-0.1
 74
0
  0
LTYPE
  5
1F7
100
AcDbSymbolTableRecord
100
AcDbLinetypeTableRecord
  2
PHANTOM
 70
64
  3
_____ _ _ _____ _ _ _____ _ _ _____
 72
65
 73
6
 40
0.8
 49
0.45
 74
0
 49
-0.05
 74
0
 49
0.1
 74
0
 49
-0.05
 74
0
 49
0.1
 74
0
 49
-0.05
 74
0
  0
LTYPE
  5
1F8
100
AcDbSymbolTableRecord
100
AcDbLinetypeTableRecord
  2
DOT
 70
64
  3
. . . . . . . . . . . . . . . . . . . .
 72
65
 73
2
 40
0.2
 49
0.1
 74
0
 49
-0.1
 74
0
  0
LTYPE
  5
1F9
100
AcDbSymbolTableRecord
100
AcDbLinetypeTableRecord
  2
DASHED
 70
64
  3
- - - - - - - - - - - - - - - - - - - -
 72
65
 73
2
 40
0.2
 49
0.1
 74
0
 49
-0.1
 74
0
  0
ENDTAB
  0
TABLE
  2
LAYER
  5
2
100
AcDbSymbolTable
 70
36
  0
LAYER
  5
10
100
AcDbSymbolTableRecord
100
AcDbLayerTableRecord
  2
0
 70
0
 62
7
  6
CONTINUOUS
370
-3
390
F
  0
LAYER
  5
1FA
100
AcDbSymbolTableRecord
100
AcDbLayerTableRecord
  2
DEFAULT_1
 70
0
 62
7
  6
CENTER
370
-3
390
F
  0
LAYER
  5
1FB
100
AcDbSymbolTableRecord
100
AcDbLayerTableRecord
  2
DEFAULT_2
 70
0
 62
8
  6
HIDDEN
370
-3
390
F
  0
LAYER
  5
1FC
100
AcDbSymbolTableRecord
100
AcDbLayerTableRecord
  2
DEFAULT_3
 70
0
 62
7
  6
PHANTOM
370
-3
390
F
  0
LAYER
  5
1FD
100
AcDbSymbolTableRecord
100
AcDbLayerTableRecord
  2
BEZUGSACHSEN
 70
0
 62
7
  6
CONTINUOUS
370
-3
390
F
  0
LAYER
  5
1FE
100
AcDbSymbolTableRecord
100
AcDbLayerTableRecord
  2
BEZUGSEBENEN
 70
0
 62
7
  6
CONTINUOUS
370
-3
390
F
  0
LAYER
  5
1FF
100
AcDbSymbolTableRecord
100
AcDbLayerTableRecord
  2
BG_STARTBEZUEGE
 70
0
 62
7
  6
CONTINUOUS
370
-3
390
F
  0
LAYER
  5
200
100
AcDbSymbolTableRecord
100
AcDbLayerTableRecord
  2
FASEN
 70
0
 62
7
  6
CONTINUOUS
370
-3
390
F
  0
LAYER
  5
201
100
AcDbSymbolTableRecord
100
AcDbLayerTableRecord
  2
HILFEN
 70
0
 62
7
  6
CONTINUOUS
370
-3
390
F
  0
LAYER
  5
202
100
AcDbSymbolTableRecord
100
AcDbLayerTableRecord
  2
KONSTRUKTIONSELEMENTE
 70
0
 62
7
  6
CONTINUOUS
370
-3
390
F
  0
LAYER
  5
203
100
AcDbSymbolTableRecord
100
AcDbLayerTableRecord
  2
NORM
 70
0
 62
7
  6
CONTINUOUS
370
-3
390
F
  0
LAYER
  5
204
100
AcDbSymbolTableRecord
100
AcDbLayerTableRecord
  2
PLATZIERUNG
 70
0
 62
7
  6
CONTINUOUS
370
-3
390
F
  0
LAYER
  5
205
100
AcDbSymbolTableRecord
100
AcDbLayerTableRecord
  2
RUNDUNGEN
 70
0
 62
7
  6
CONTINUOUS
370
-3
390
F
  0
LAYER
  5
206
100
AcDbSymbolTableRecord
100
AcDbLayerTableRecord
  2
TEIL_STARTBEZUEGE
 70
0
 62
7
  6
CONTINUOUS
370
-3
390
F
  0
LAYER
  5
207
100
AcDbSymbolTableRecord
100
AcDbLayerTableRecord
  2
T_STARTBEZUEGE
 70
0
 62
7
  6
CONTINUOUS
370
-3
390
F
  0
ENDTAB
  0
TABLE
  2
STYLE
  5
3
100
AcDbSymbolTable
 70
1
  0
STYLE
  5
11
100
AcDbSymbolTableRecord
100
AcDbTextStyleTableRecord
  2
STANDARD
 70
0
 40
0.0
 41
0.7
 50
0.0
 71
0
 42
0.2
  3
txt
  4

  0
STYLE
  5
208
100
AcDbSymbolTableRecord
100
AcDbTextStyleTableRecord
  2
TEXTSTYLE_1
 70
0
 40
0.0
 41
0.8
 50
0.0
 71
0
 42
0.2
  3
gdt
  4

  0
ENDTAB
  0
TABLE
  2
VIEW
  5
6
100
AcDbSymbolTable
 70
0
  0
ENDTAB
  0
TABLE
  2
UCS
  5
7
100
AcDbSymbolTable
 70
0
  0
ENDTAB
  0
TABLE
  2
APPID
  5
9
100
AcDbSymbolTable
 70
1
  0
APPID
  5
209
100
AcDbSymbolTableRecord
100
AcDbRegAppTableRecord
  2
ACAD
 70
0
  0
ENDTAB
  0
TABLE
  2
BLOCK_RECORD
  5
1
100
AcDbSymbolTable
 70
0
  0
BLOCK_RECORD
  5
20A
100
AcDbSymbolTableRecord
100
AcDbBlockTableRecord
  2
*Model_Space
  0
BLOCK_RECORD
  5
20B
100
AcDbSymbolTableRecord
100
AcDbBlockTableRecord
  2
*Paper_Space
  0
ENDTAB
  0
TABLE
  2
DIMSTYLE
  5
A
100
AcDbSymbolTable
 70
1
100
AcDbDimStyleTable
 71
0
  0
DIMSTYLE
105
20C
100
AcDbSymbolTableRecord
100
AcDbDimStyleTableRecord
  2
STANDARD
 70
0
  3

  4

 40
1.0
 41
3.5
 42
0.0625
 43
0.38
 44
0.18
 45
0.0
 46
0.0
 47
0.005
 48
0.005
140
3.5
141
0.09
142
0.0
143
25.4
144
1.0
145
0.0
146
1.0
147
0.09
 71
1.0
 72
0.0
 73
0
 74
0
 75
0
 76
0
 77
1
 78
8
170
0
171
2
172
0
173
0
174
0
175
0
176
0
177
0
178
5
270
2
271
3
272
3
273
2
274
2
275
0
280
0
281
0
282
0
283
1
284
8
285
0
286
0
287
3
288
0
340
11
  0
ENDTAB
  0
ENDSEC
  0
SECTION
  2
BLOCKS
  0
BLOCK
  5
20
100
AcDbEntity
  8
0
100
AcDbBlockBegin
  2
*Model_Space
 70
0
 10
0.0
 20
0.0
 30
0.0
  3
*Model_Space
  1

  0
ENDBLK
  5
21
100
AcDbEntity
  8
0
100
AcDbBlockEnd
  0
BLOCK
  5
1C
100
AcDbEntity
  8
0
100
AcDbBlockBegin
  2
*Paper_Space
 70
0
 10
0.0
 20
0.0
 30
0.0
  3
*Paper_Space
  1

  0
ENDBLK
  5
1D
100
AcDbEntity
  8
0
100
AcDbBlockEnd
  0
ENDSEC
  0
SECTION
  2
ENTITIES
  0
MTEXT
  5
20D
100
AcDbEntity
  8
0
100
AcDbMText
 62
5
  6
CONTINUOUS
  7
STANDARD
 71
1
 72
1
 10
585.0846565737
 20
509.9242459715
 30
0.0
 11
0.0
 21
1.0
 31
0.0
 44
0.9
  1
RUD
 40
11.0
 41
29.3333333333
  0
MTEXT
  5
20E
100
AcDbEntity
  8
0
100
AcDbMText
 62
5
  6
CONTINUOUS
  7
STANDARD
 71
1
 72
1
 10
872.6126768291
 20
464.8433084532
 30
0.0
 11
0.0
 21
1.0
 31
0.0
 44
0.9
  1
ISAK-RG 1-10/250
 40
11.0
 41
132.2619047619
  0
MTEXT
  5
20F
100
AcDbEntity
  8
0
100
AcDbMText
 62
5
  6
CONTINUOUS
  7
STANDARD
 71
1
 72
1
 10
259.1927414843
 20
431.8209797753
 30
0.0
 11
0.0
 21
1.0
 31
0.0
 44
0.9
  1
RUD ISAK-RG 1-10/250
 40
11.0
 41
168.1428571429
  0
LINE
  5
210
100
AcDbEntity
  8
0
100
AcDbLine
 62
7
  6
CONTINUOUS
 10
0.0
 20
0.0
 11
0.0
 21
841.0
  0
LINE
  5
211
100
AcDbEntity
  8
0
100
AcDbLine
 62
7
  6
CONTINUOUS
 10
0.0
 20
0.0
 11
1189.0
 21
0.0
  0
LINE
  5
212
100
AcDbEntity
  8
0
100
AcDbLine
 62
7
  6
CONTINUOUS
 10
0.0
 20
841.0
 11
1189.0
 21
841.0
  0
LINE
  5
213
100
AcDbEntity
  8
0
100
AcDbLine
 62
7
  6
CONTINUOUS
 10
1189.0
 20
0.0
 11
1189.0
 21
841.0
  0
LINE
  5
214
100
AcDbEntity
  8
RUNDUNGEN
100
AcDbLine
 62
7
  6
CONTINUOUS
 10
705.1656897134
 20
24.0249402723
 11
707.5156897134
 21
24.0249402723
  0
LINE
  5
215
100
AcDbEntity
  8
RUNDUNGEN
100
AcDbLine
 62
7
  6
CONTINUOUS
 10
760.8156897134
 20
24.0249402723
 11
763.1656897134
 21
24.0249402723
  0
LINE
  5
216
100
AcDbEntity
  8
RUNDUNGEN
100
AcDbLine
 62
7
  6
CONTINUOUS
 10
713.0156897134
 20
32.5102216466
 11
719.8777236212
 21
32.5102216466
  0
LINE
  5
217
100
AcDbEntity
  8
RUNDUNGEN
100
AcDbLine
 62
7
  6
CONTINUOUS
 10
748.4536558055
 20
32.5102216466
 11
755.3156897134
 21
32.5102216466
  0
LINE
  5
218
100
AcDbEntity
  8
0
100
AcDbLine
 62
7
  6
CONTINUOUS
 10
720.1784219781
 20
73.5224149554
 11
724.9784219781
 21
73.5224149554
  0
LINE
  5
219
100
AcDbEntity
  8
0
100
AcDbLine
 62
7
  6
CONTINUOUS
 10
727.5242232796
 20
73.5224149554
 11
728.4842232796
 21
73.5224149554
  0
LINE
  5
21A
100
AcDbEntity
  8
0
100
AcDbLine
 62
7
  6
CONTINUOUS
 10
733.0571771965
 20
73.5224149554
 11
734.1656897134
 21
73.5224149554
  0
LINE
  5
21B
100
AcDbEntity
  8
0
100
AcDbLine
 62
7
  6
CONTINUOUS
 10
742.5183586402
 20
73.5224149554
 11
745.9963257078
 21
73.5224149554
  0
LINE
  5
21C
100
AcDbEntity
  8
0
100
AcDbLine
 62
7
  6
CONTINUOUS
 10
720.1784219781
 20
73.875968346
 11
724.9784219781
 21
73.875968346
  0
LINE
  5
21D
100
AcDbEntity
  8
0
100
AcDbLine
 62
7
  6
CONTINUOUS
 10
727.5242232796
 20
73.875968346
 11
728.4842232796
 21
73.875968346
  0
LINE
  5
21E
100
AcDbEntity
  8
0
100
AcDbLine
 62
7
  6
CONTINUOUS
 10
733.0571771965
 20
73.875968346
 11
733.8770145788
 21
73.875968346
  0
LINE
  5
21F
100
AcDbEntity
  8
0
100
AcDbLine
 62
7
  6
CONTINUOUS
 10
742.5183586402
 20
73.875968346
 11
745.9963257078
 21
73.875968346
  0
LINE
  5
220
100
AcDbEntity
  8
0
100
AcDbLine
 62
7
  6
CONTINUOUS
 10
746.0173621857
 20
74.2295217366
 11
743.4783586402
 21
74.2295217366
  0
LINE
  5
221
100
AcDbEntity
  8
0
100
AcDbLine
 62
7
  6
CONTINUOUS
 10
723.3284219781
 20
74.3709430928
 11
721.8284219781
 21
74.3709430928
  0
LINE
  5
222
100
AcDbEntity
  8
0
100
AcDbLine
 62
7
  6
CONTINUOUS
 10
722.0984219781
 20
74.6891411443
 11
723.0584219781
 21
74.6891411443
  0
LINE
  5
223
100
AcDbEntity
  8
0
100
AcDbLine
 62
7
  6
CONTINUOUS
 10
722.0984219781
 20
75.0426945349
 11
723.0584219781
 21
75.0426945349
  0
LINE
  5
224
100
AcDbEntity
  8
0
100
AcDbLine
 62
7
  6
CONTINUOUS
 10
722.6834219781
 20
75.5376692818
 11
722.4734219781
 21
75.5376692818
  0
LINE
  5
225
100
AcDbEntity
  8
0
100
AcDbLine
 62
7
  6
CONTINUOUS
 10
723.0584219781
 20
75.7498013161
 11
722.8034219781
 21
75.7498013161
  0
LINE
  5
226
100
AcDbEntity
  8
0
100
AcDbLine
 62
7
  6
CONTINUOUS
 10
722.3534219781
 20
75.7498013161
 11
722.0984219781
 21
75.7498013161
  0
LINE
  5
227
100
AcDbEntity
  8
0
100
AcDbLine
 62
7
  6
CONTINUOUS
 10
722.8034219781
 20
76.0679993677
 11
723.3284219781
 21
76.0679993677
  0
LINE
  5
228
100
AcDbEntity
  8
0
100
AcDbLine
 62
7
  6
CONTINUOUS
 10
721.8284219781
 20
76.0679993677
 11
722.3534219781
 21
76.0679993677
  0
LINE
  5
229
100
AcDbEntity
  8
0
100
AcDbLine
 62
7
  6
CONTINUOUS
 10
728.4842232796
 20
76.1837291209
 11
730.8842232796
 21
76.1837291209
  0
LINE
  5
22A
100
AcDbEntity
  8
0
100
AcDbLine
 62
7
  6
CONTINUOUS
 10
722.8034219781
 20
76.4215527583
 11
723.3284219781
 21
76.4215527583
  0
LINE
  5
22B
100
AcDbEntity
  8
0
100
AcDbLine
 62
7
  6
CONTINUOUS
 10
721.8284219781
 20
76.4215527583
 11
722.3534219781
 21
76.4215527583
  0
LINE
  5
22C
100
AcDbEntity
  8
0
100
AcDbLine
 62
7
  6
CONTINUOUS
 10
723.3284219781
 20
76.4922634364
 11
722.8034219781
 21
76.4922634364
  0
LINE
  5
22D
100
AcDbEntity
  8
0
100
AcDbLine
 62
7
  6
CONTINUOUS
 10
722.3534219781
 20
76.4922634364
 11
721.8284219781
 21
76.4922634364
  0
LINE
  5
22E
100
AcDbEntity
  8
0
100
AcDbLine
 62
7
  6
CONTINUOUS
 10
728.4842232796
 20
76.5372825115
 11
730.8842232796
 21
76.5372825115
  0
LINE
  5
22F
100
AcDbEntity
  8
0
100
AcDbLine
 62
7
  6
CONTINUOUS
 10
722.0984219781
 20
76.8104614879
 11
722.3534219781
 21
76.8104614879
  0
LINE
  5
230
100
AcDbEntity
  8
0
100
AcDbLine
 62
7
  6
CONTINUOUS
 10
722.8034219781
 20
76.8104614879
 11
723.0584219781
 21
76.8104614879
  0
LINE
  5
231
100
AcDbEntity
  8
0
100
AcDbLine
 62
7
  6
CONTINUOUS
 10
731.2842232796
 20
76.8625516309
 11
728.4842232796
 21
76.8625516309
  0
LINE
  5
232
100
AcDbEntity
  8
0
100
AcDbLine
 62
7
  6
CONTINUOUS
 10
722.4734219781
 20
77.0225935223
 11
722.6834219781
 21
77.0225935223
  0
LINE
  5
233
100
AcDbEntity
  8
0
100
AcDbLine
 62
7
  6
CONTINUOUS
 10
722.0984219781
 20
77.1640148785
 11
722.3534219781
 21
77.1640148785
  0
LINE
  5
234
100
AcDbEntity
  8
0
100
AcDbLine
 62
7
  6
CONTINUOUS
 10
722.8034219781
 20
77.1640148785
 11
723.0584219781
 21
77.1640148785
  0
LINE
  5
235
100
AcDbEntity
  8
0
100
AcDbLine
 62
7
  6
CONTINUOUS
 10
722.4734219781
 20
77.3761469129
 11
722.6834219781
 21
77.3761469129
  0
LINE
  5
236
100
AcDbEntity
  8
0
100
AcDbLine
 62
7
  6
CONTINUOUS
 10
743.4783586402
 20
77.7650556425
 11
742.5183586402
 21
77.7650556425
  0
LINE
  5
237
100
AcDbEntity
  8
0
100
AcDbLine
 62
7
  6
CONTINUOUS
 10
728.4842232796
 20
77.8004109816
 11
727.5242232796
 21
77.8004109816
  0
LINE
  5
238
100
AcDbEntity
  8
0
100
AcDbLine
 62
7
  6
CONTINUOUS
 10
723.0584219781
 20
77.8711216597
 11
722.0984219781
 21
77.8711216597
  0
LINE
  5
239
100
AcDbEntity
  8
0
100
AcDbLine
 62
7
  6
CONTINUOUS
 10
721.8284219781
 20
78.1893197112
 11
723.3284219781
 21
78.1893197112
  0
LINE
  5
23A
100
AcDbEntity
  8
0
100
AcDbLine
 62
7
  6
CONTINUOUS
 10
742.5183586402
 20
78.3590253387
 11
746.0173621857
 21
78.3590253387
  0
LINE
  5
23B
100
AcDbEntity
  8
0
100
AcDbLine
 62
7
  6
CONTINUOUS
 10
727.5242232796
 20
78.3943806778
 11
731.2842232796
 21
78.3943806778
  0
LINE
  5
23C
100
AcDbEntity
  8
0
100
AcDbLine
 62
7
  6
CONTINUOUS
 10
721.8284219781
 20
78.5428731018
 11
723.3284219781
 21
78.5428731018
  0
LINE
  5
23D
100
AcDbEntity
  8
0
100
AcDbLine
 62
7
  6
CONTINUOUS
 10
742.5183586402
 20
78.7125787293
 11
746.0173621857
 21
78.7125787293
  0
LINE
  5
23E
100
AcDbEntity
  8
0
100
AcDbLine
 62
7
  6
CONTINUOUS
 10
727.5242232796
 20
78.7479340684
 11
731.2842232796
 21
78.7479340684
  0
LINE
  5
23F
100
AcDbEntity
  8
0
100
AcDbLine
 62
7
  6
CONTINUOUS
 10
745.9963257078
 20
79.0378478486
 11
742.5183586402
 21
79.0378478486
  0
LINE
  5
240
100
AcDbEntity
  8
0
100
AcDbLine
 62
7
  6
CONTINUOUS
 10
740.4183586402
 20
79.0378478486
 11
739.4583586402
 21
79.0378478486
  0
LINE
  5
241
100
AcDbEntity
  8
0
100
AcDbLine
 62
7
  6
CONTINUOUS
 10
735.6842232796
 20
79.0378478486
 11
734.7242232796
 21
79.0378478486
  0
LINE
  5
242
100
AcDbEntity
  8
0
100
AcDbLine
 62
7
  6
CONTINUOUS
 10
731.2842232796
 20
79.0378478486
 11
727.5242232796
 21
79.0378478486
  0
LINE
  5
243
100
AcDbEntity
  8
0
100
AcDbLine
 62
7
  6
CONTINUOUS
 10
724.9784219781
 20
79.0378478486
 11
720.1784219781
 21
79.0378478486
  0
LINE
  5
244
100
AcDbEntity
  8
KONSTRUKTIONSELEMENTE
100
AcDbLine
 62
7
  6
CONTINUOUS
 10
758.0516897134
 20
103.9584898185
 11
753.3246430631
 21
103.9584898185
  0
LINE
  5
245
100
AcDbEntity
  8
0
100
AcDbLine
 62
7
  6
CONTINUOUS
 10
753.3246430631
 20
103.9584898185
 11
753.2871612746
 21
103.9584898185
  0
LINE
  5
246
100
AcDbEntity
  8
0
100
AcDbLine
 62
7
  6
CONTINUOUS
 10
715.0442181521
 20
103.9584898185
 11
715.0067363637
 21
103.9584898185
  0
LINE
  5
247
100
AcDbEntity
  8
KONSTRUKTIONSELEMENTE
100
AcDbLine
 62
7
  6
CONTINUOUS
 10
715.0067363637
 20
103.9584898185
 11
710.2796897134
 21
103.9584898185
  0
LINE
  5
248
100
AcDbEntity
  8
BEZUGSACHSEN
100
AcDbLine
 62
7
  6
CONTINUOUS
 10
727.9156897134
 20
114.4029148185
 11
740.4156897134
 21
114.4029148185
  0
LINE
  5
249
100
AcDbEntity
  8
BEZUGSACHSEN
100
AcDbLine
 62
7
  6
CONTINUOUS
 10
727.9156897134
 20
118.1445882854
 11
740.4156897134
 21
118.1445882854
  0
LINE
  5
24A
100
AcDbEntity
  8
BEZUGSACHSEN
100
AcDbLine
 62
7
  6
CONTINUOUS
 10
727.9156897134
 20
124.7723913515
 11
740.4156897134
 21
124.7723913515
  0
LINE
  5
24B
100
AcDbEntity
  8
BEZUGSACHSEN
100
AcDbLine
 62
7
  6
CONTINUOUS
 10
727.9156897134
 20
128.5140648185
 11
740.4156897134
 21
128.5140648185
  0
LINE
  5
24C
100
AcDbEntity
  8
RUNDUNGEN
100
AcDbLine
 62
7
  6
CONTINUOUS
 10
710.1656897134
 20
128.9584898185
 11
721.0515986348
 21
128.9584898185
  0
LINE
  5
24D
100
AcDbEntity
  8
RUNDUNGEN
100
AcDbLine
 62
7
  6
CONTINUOUS
 10
747.279780792
 20
128.9584898185
 11
758.1656897134
 21
128.9584898185
  0
LINE
  5
24E
100
AcDbEntity
  8
RUNDUNGEN
100
AcDbLine
 62
7
  6
CONTINUOUS
 10
753.5821432433
 20
84.6293455547
 11
742.7693362587
 21
89.982998752
  0
LINE
  5
24F
100
AcDbEntity
  8
RUNDUNGEN
100
AcDbLine
 62
7
  6
CONTINUOUS
 10
742.7693362587
 20
93.518532658
 11
753.5821432433
 21
88.1648794607
  0
LINE
  5
250
100
AcDbEntity
  8
0
100
AcDbLine
 62
7
  6
CONTINUOUS
 10
724.6802307467
 20
140.6973612377
 11
724.2829144589
 21
140.5959186966
  0
LINE
  5
251
100
AcDbEntity
  8
0
100
AcDbLine
 62
7
  6
CONTINUOUS
 10
719.9124313151
 20
140.6973612377
 11
719.5151144589
 21
140.5959186966
  0
LINE
  5
252
100
AcDbEntity
  8
0
100
AcDbLine
 62
7
  6
CONTINUOUS
 10
749.3900556553
 20
140.6973612377
 11
748.9740144278
 21
140.5959186966
  0
LINE
  5
253
100
AcDbEntity
  8
0
100
AcDbLine
 62
7
  6
CONTINUOUS
 10
747.6218789505
 20
144.0449655913
 11
748.0379207731
 21
144.1464081324
  0
LINE
  5
254
100
AcDbEntity
  8
0
100
AcDbLine
 62
7
  6
CONTINUOUS
 10
724.2829144589
 20
139.9872633789
 11
724.7795606712
 21
140.0887059289
  0
LINE
  5
255
100
AcDbEntity
  8
0
100
AcDbLine
 62
7
  6
CONTINUOUS
 10
719.5151144589
 20
139.9872633789
 11
720.0117601028
 21
140.0887059289
  0
LINE
  5
256
100
AcDbEntity
  8
0
100
AcDbLine
 62
7
  6
CONTINUOUS
 10
755.734690624
 20
140.5959186966
 11
755.2146381969
 21
140.4944761555
  0
LINE
  5
257
100
AcDbEntity
  8
0
100
AcDbLine
 62
7
  6
CONTINUOUS
 10
748.9740144278
 20
139.9872633789
 11
749.4940662598
 21
140.0887059289
  0
LINE
  5
258
100
AcDbEntity
  8
0
100
AcDbLine
 62
7
  6
CONTINUOUS
 10
754.6945869601
 20
144.1464081324
 11
755.2146381969
 21
144.2478506735
  0
LINE
  5
259
100
AcDbEntity
  8
0
100
AcDbLine
 62
7
  6
CONTINUOUS
 10
748.0379207731
 20
144.7550633789
 11
747.517868346
 21
144.6536208378
  0
LINE
  5
25A
100
AcDbEntity
  8
0
100
AcDbLine
 62
7
  6
CONTINUOUS
 10
755.2146381969
 20
139.9872633789
 11
755.8387006333
 21
140.0887059289
  0
LINE
  5
25B
100
AcDbEntity
  8
0
100
AcDbLine
 62
7
  6
CONTINUOUS
 10
755.2146381969
 20
144.7550633789
 11
754.5905757605
 21
144.6536208378
  0
LINE
  5
25C
100
AcDbEntity
  8
RUNDUNGEN
100
AcDbLine
 62
7
  6
CONTINUOUS
 10
758.1656897134
 20
134.8474625642
 11
740.4064907419
 21
134.8474625642
  0
LINE
  5
25D
100
AcDbEntity
  8
RUNDUNGEN
100
AcDbLine
 62
7
  6
CONTINUOUS
 10
727.9248886849
 20
134.8474625642
 11
710.1656897134
 21
134.8474625642
  0
LINE
  5
25E
100
AcDbEntity
  8
0
100
AcDbLine
 62
7
  6
CONTINUOUS
 10
712.9593894589
 20
139.9872633789
 11
713.5553644589
 21
139.9872633789
  0
LINE
  5
25F
100
AcDbEntity
  8
0
100
AcDbLine
 62
7
  6
CONTINUOUS
 10
716.0385935309
 20
139.9872633789
 11
716.733897887
 21
139.9872633789
  0
LINE
  5
260
100
AcDbEntity
  8
0
100
AcDbLine
 62
7
  6
CONTINUOUS
 10
719.1177976028
 20
139.9872633789
 11
719.5151144589
 21
139.9872633789
  0
LINE
  5
261
100
AcDbEntity
  8
0
100
AcDbLine
 62
7
  6
CONTINUOUS
 10
721.8990144589
 20
139.9872633789
 11
724.2829144589
 21
139.9872633789
  0
LINE
  5
262
100
AcDbEntity
  8
0
100
AcDbLine
 62
7
  6
CONTINUOUS
 10
740.1331297134
 20
139.9872633789
 11
740.7571921498
 21
139.9872633789
  0
LINE
  5
263
100
AcDbEntity
  8
0
100
AcDbLine
 62
7
  6
CONTINUOUS
 10
741.5892753488
 20
139.9872633789
 11
742.2133377852
 21
139.9872633789
  0
LINE
  5
264
100
AcDbEntity
  8
0
100
AcDbLine
 62
7
  6
CONTINUOUS
 10
744.8135979866
 20
139.9872633789
 11
745.5416710274
 21
139.9872633789
  0
LINE
  5
265
100
AcDbEntity
  8
0
100
AcDbLine
 62
7
  6
CONTINUOUS
 10
748.0379207731
 20
139.9872633789
 11
748.9740144278
 21
139.9872633789
  0
LINE
  5
266
100
AcDbEntity
  8
0
100
AcDbLine
 62
7
  6
CONTINUOUS
 10
751.8863059962
 20
139.9872633789
 11
752.5103684326
 21
139.9872633789
  0
LINE
  5
267
100
AcDbEntity
  8
0
100
AcDbLine
 62
7
  6
CONTINUOUS
 10
748.9740144278
 20
140.5959186966
 11
748.0379207731
 21
140.5959186966
  0
LINE
  5
268
100
AcDbEntity
  8
0
100
AcDbLine
 62
7
  6
CONTINUOUS
 10
724.2829144589
 20
140.5959186966
 11
722.4949894589
 21
140.5959186966
  0
LINE
  5
269
100
AcDbEntity
  8
0
100
AcDbLine
 62
7
  6
CONTINUOUS
 10
719.5151144589
 20
140.5959186966
 11
719.1177976028
 21
140.5959186966
  0
LINE
  5
26A
100
AcDbEntity
  8
0
100
AcDbLine
 62
7
  6
CONTINUOUS
 10
748.8700038233
 20
142.0161144851
 11
749.806097478
 21
142.0161144851
  0
LINE
  5
26B
100
AcDbEntity
  8
0
100
AcDbLine
 62
7
  6
CONTINUOUS
 10
713.5553644589
 20
142.1175570262
 11
715.2439602449
 21
142.1175570262
  0
LINE
  5
26C
100
AcDbEntity
  8
0
100
AcDbLine
 62
7
  6
CONTINUOUS
 10
742.2133377852
 20
142.1175570262
 11
743.9815146388
 21
142.1175570262
  0
LINE
  5
26D
100
AcDbEntity
  8
0
100
AcDbLine
 62
7
  6
CONTINUOUS
 10
750.4301599144
 20
142.6247697317
 11
748.8700038233
 21
142.6247697317
  0
LINE
  5
26E
100
AcDbEntity
  8
0
100
AcDbLine
 62
7
  6
CONTINUOUS
 10
744.1895355501
 20
142.7262122728
 11
742.2133377852
 21
142.7262122728
  0
LINE
  5
26F
100
AcDbEntity
  8
0
100
AcDbLine
 62
7
  6
CONTINUOUS
 10
715.4426185309
 20
142.7262122728
 11
713.5553644589
 21
142.7262122728
  0
LINE
  5
270
100
AcDbEntity
  8
0
100
AcDbLine
 62
7
  6
CONTINUOUS
 10
749.806097478
 20
143.5377526016
 11
750.4301599144
 21
143.5377526016
  0
LINE
  5
271
100
AcDbEntity
  8
0
100
AcDbLine
 62
7
  6
CONTINUOUS
 10
722.4949894589
 20
144.1464081324
 11
724.2829144589
 21
144.1464081324
  0
LINE
  5
272
100
AcDbEntity
  8
0
100
AcDbLine
 62
7
  6
CONTINUOUS
 10
748.0379207731
 20
144.1464081324
 11
748.9740144278
 21
144.1464081324
  0
LINE
  5
273
100
AcDbEntity
  8
0
100
AcDbLine
 62
7
  6
CONTINUOUS
 10
713.5553644589
 20
144.2478506735
 11
715.4426185309
 21
144.2478506735
  0
LINE
  5
274
100
AcDbEntity
  8
0
100
AcDbLine
 62
7
  6
CONTINUOUS
 10
742.2133377852
 20
144.2478506735
 11
744.1895355501
 21
144.2478506735
  0
LINE
  5
275
100
AcDbEntity
  8
0
100
AcDbLine
 62
7
  6
CONTINUOUS
 10
752.5103684326
 20
144.7550633789
 11
751.8863059962
 21
144.7550633789
  0
LINE
  5
276
100
AcDbEntity
  8
0
100
AcDbLine
 62
7
  6
CONTINUOUS
 10
748.9740144278
 20
144.7550633789
 11
748.0379207731
 21
144.7550633789
  0
LINE
  5
277
100
AcDbEntity
  8
0
100
AcDbLine
 62
7
  6
CONTINUOUS
 10
744.0855252433
 20
144.7550633789
 11
741.5892753488
 21
144.7550633789
  0
LINE
  5
278
100
AcDbEntity
  8
0
100
AcDbLine
 62
7
  6
CONTINUOUS
 10
740.7571921498
 20
144.7550633789
 11
740.1331297134
 21
144.7550633789
  0
LINE
  5
279
100
AcDbEntity
  8
0
100
AcDbLine
 62
7
  6
CONTINUOUS
 10
724.2829144589
 20
144.7550633789
 11
721.8990144589
 21
144.7550633789
  0
LINE
  5
27A
100
AcDbEntity
  8
0
100
AcDbLine
 62
7
  6
CONTINUOUS
 10
721.1043813151
 20
144.7550633789
 11
720.5084063151
 21
144.7550633789
  0
LINE
  5
27B
100
AcDbEntity
  8
0
100
AcDbLine
 62
7
  6
CONTINUOUS
 10
718.1245063151
 20
144.7550633789
 11
717.5285310309
 21
144.7550633789
  0
LINE
  5
27C
100
AcDbEntity
  8
0
100
AcDbLine
 62
7
  6
CONTINUOUS
 10
715.3432894589
 20
144.7550633789
 11
712.9593894589
 21
144.7550633789
  0
LINE
  5
27D
100
AcDbEntity
  8
RUNDUNGEN
100
AcDbLine
 62
7
  6
CONTINUOUS
 10
754.4805435225
 20
150.8459720122
 11
751.6172096085
 21
150.8459720122
  0
LINE
  5
27E
100
AcDbEntity
  8
RUNDUNGEN
100
AcDbLine
 62
7
  6
CONTINUOUS
 10
716.7141698182
 20
150.8459720122
 11
713.8508356741
 21
150.8459720122
  0
LINE
  5
27F
100
AcDbEntity
  8
RUNDUNGEN
100
AcDbLine
 62
7
  6
CONTINUOUS
 10
722.2113484768
 20
150.9584898185
 11
746.12003095
 21
150.9584898185
  0
LINE
  5
280
100
AcDbEntity
  8
0
100
AcDbLine
 62
7
  6
CONTINUOUS
 10
754.5905757605
 20
140.0887059289
 11
755.2146381969
 21
139.9872633789
  0
LINE
  5
281
100
AcDbEntity
  8
0
100
AcDbLine
 62
7
  6
CONTINUOUS
 10
755.8387006333
 20
144.6536208378
 11
755.2146381969
 21
144.7550633789
  0
LINE
  5
282
100
AcDbEntity
  8
0
100
AcDbLine
 62
7
  6
CONTINUOUS
 10
747.517868346
 20
140.0887059289
 11
748.0379207731
 21
139.9872633789
  0
LINE
  5
283
100
AcDbEntity
  8
0
100
AcDbLine
 62
7
  6
CONTINUOUS
 10
755.2146381969
 20
140.4944761555
 11
754.6945869601
 21
140.5959186966
  0
LINE
  5
284
100
AcDbEntity
  8
0
100
AcDbLine
 62
7
  6
CONTINUOUS
 10
744.6055770752
 20
144.6536208378
 11
744.0855252433
 21
144.7550633789
  0
LINE
  5
285
100
AcDbEntity
  8
0
100
AcDbLine
 62
7
  6
CONTINUOUS
 10
749.4940662598
 20
144.6536208378
 11
748.9740144278
 21
144.7550633789
  0
LINE
  5
286
100
AcDbEntity
  8
0
100
AcDbLine
 62
7
  6
CONTINUOUS
 10
755.2146381969
 20
144.2478506735
 11
755.734690624
 21
144.1464081324
  0
LINE
  5
287
100
AcDbEntity
  8
0
100
AcDbLine
 62
7
  6
CONTINUOUS
 10
718.6211519589
 20
140.0887059289
 11
719.1177976028
 21
139.9872633789
  0
LINE
  5
288
100
AcDbEntity
  8
0
100
AcDbLine
 62
7
  6
CONTINUOUS
 10
715.839935387
 20
144.6536208378
 11
715.3432894589
 21
144.7550633789
  0
LINE
  5
289
100
AcDbEntity
  8
0
100
AcDbLine
 62
7
  6
CONTINUOUS
 10
724.7795606712
 20
144.6536208378
 11
724.2829144589
 21
144.7550633789
  0
LINE
  5
28A
100
AcDbEntity
  8
0
100
AcDbLine
 62
7
  6
CONTINUOUS
 10
748.0379207731
 20
140.5959186966
 11
747.6218789505
 21
140.6973612377
  0
LINE
  5
28B
100
AcDbEntity
  8
0
100
AcDbLine
 62
7
  6
CONTINUOUS
 10
748.9740144278
 20
144.1464081324
 11
749.3900556553
 21
144.0449655913
  0
LINE
  5
28C
100
AcDbEntity
  8
0
100
AcDbLine
 62
7
  6
CONTINUOUS
 10
719.1177976028
 20
140.5959186966
 11
718.7204813151
 21
140.6973612377
  0
LINE
  5
28D
100
AcDbEntity
  8
0
100
AcDbLine
 62
7
  6
CONTINUOUS
 10
724.2829144589
 20
144.1464081324
 11
724.6802307467
 21
144.0449655913
  0
LINE
  5
28E
100
AcDbEntity
  8
0
100
AcDbLine
 62
7
  6
CONTINUOUS
 10
744.1895355501
 20
144.2478506735
 11
744.5015667684
 21
144.1464081324
  0
LINE
  5
28F
100
AcDbEntity
  8
0
100
AcDbLine
 62
7
  6
CONTINUOUS
 10
715.4426185309
 20
144.2478506735
 11
715.7406060309
 21
144.1464081324
  0
LINE
  5
290
100
AcDbEntity
  8
RUNDUNGEN
100
AcDbLine
 62
7
  6
CONTINUOUS
 10
777.8200025327
 20
90.2441371748
 11
770.611464543
 21
93.8132393063
  0
LINE
  5
291
100
AcDbEntity
  8
RUNDUNGEN
100
AcDbLine
 62
7
  6
CONTINUOUS
 10
777.8200025327
 20
93.7796710807
 11
770.611464543
 21
97.3487732122
  0
LINE
  5
292
100
AcDbEntity
  8
RUNDUNGEN
100
AcDbLine
 62
7
  6
CONTINUOUS
 10
692.1505310094
 20
86.7396276666
 11
694.7316249729
 21
84.1331018225
  0
LINE
  5
293
100
AcDbEntity
  8
RUNDUNGEN
100
AcDbLine
 62
7
  6
CONTINUOUS
 10
701.958688071
 20
76.8348294593
 11
715.9336056587
 21
62.7222150506
  0
LINE
  5
294
100
AcDbEntity
  8
RUNDUNGEN
100
AcDbLine
 62
7
  6
CONTINUOUS
 10
739.0806019791
 20
39.3471481324
 11
744.3578955841
 21
34.0178566141
  0
LINE
  5
295
100
AcDbEntity
  8
RUNDUNGEN
100
AcDbLine
 62
7
  6
CONTINUOUS
 10
706.2175986799
 20
82.396379622
 11
703.5791470727
 21
85.0608282626
  0
LINE
  5
296
100
AcDbEntity
  8
0
100
AcDbLine
 62
7
  6
CONTINUOUS
 10
747.1018271185
 20
140.2915910378
 11
747.517868346
 21
140.0887059289
  0
LINE
  5
297
100
AcDbEntity
  8
0
100
AcDbLine
 62
7
  6
CONTINUOUS
 10
749.9101080824
 20
144.4507357556
 11
749.4940662598
 21
144.6536208378
  0
LINE
  5
298
100
AcDbEntity
  8
0
100
AcDbLine
 62
7
  6
CONTINUOUS
 10
718.2238351028
 20
140.2915910378
 11
718.6211519589
 21
140.0887059289
  0
LINE
  5
299
100
AcDbEntity
  8
0
100
AcDbLine
 62
7
  6
CONTINUOUS
 10
725.1768769589
 20
144.4507357556
 11
724.7795606712
 21
144.6536208378
  0
LINE
  5
29A
100
AcDbEntity
  8
0
100
AcDbLine
 62
7
  6
CONTINUOUS
 10
754.0705245236
 20
140.3930335789
 11
754.5905757605
 21
140.0887059289
  0
LINE
  5
29B
100
AcDbEntity
  8
0
100
AcDbLine
 62
7
  6
CONTINUOUS
 10
718.7204813151
 20
140.6973612377
 11
718.4224938151
 21
140.9002463909
  0
LINE
  5
29C
100
AcDbEntity
  8
0
100
AcDbLine
 62
7
  6
CONTINUOUS
 10
724.6802307467
 20
144.0449655913
 11
724.9782182467
 21
143.8420805091
  0
LINE
  5
29D
100
AcDbEntity
  8
0
100
AcDbLine
 62
7
  6
CONTINUOUS
 10
716.2372519589
 20
144.3492932146
 11
715.839935387
 21
144.6536208378
  0
LINE
  5
29E
100
AcDbEntity
  8
RUNDUNGEN
100
AcDbLine
 62
7
  6
CONTINUOUS
 10
767.2614499348
 20
35.5446913699
 11
752.3977737681
 21
50.5548214204
  0
LINE
  5
29F
100
AcDbEntity
  8
RUNDUNGEN
100
AcDbLine
 62
7
  6
CONTINUOUS
 10
714.5026405435
 20
88.823340702
 11
713.6957598223
 21
89.638171732
  0
LINE
  5
2A0
100
AcDbEntity
  8
RUNDUNGEN
100
AcDbLine
 62
7
  6
CONTINUOUS
 10
767.2614499348
 20
39.0802252758
 11
752.3977737681
 21
54.0903553263
  0
LINE
  5
2A1
100
AcDbEntity
  8
RUNDUNGEN
100
AcDbLine
 62
7
  6
CONTINUOUS
 10
714.5026405435
 20
92.3588746079
 11
713.6957598223
 21
93.1737056379
  0
LINE
  5
2A2
100
AcDbEntity
  8
0
100
AcDbLine
 62
7
  6
CONTINUOUS
 10
723.1656897134
 20
198.2016197906
 11
716.695404169
 21
196.4679120041
  0
LINE
  5
2A3
100
AcDbEntity
  8
0
100
AcDbLine
 62
7
  6
CONTINUOUS
 10
751.6359752578
 20
196.4679120041
 11
745.1656897134
 21
198.2016197906
  0
LINE
  5
2A4
100
AcDbEntity
  8
0
100
AcDbLine
 62
7
  6
CONTINUOUS
 10
756.3587530604
 20
144.3492932146
 11
755.8387006333
 21
144.6536208378
  0
LINE
  5
2A5
100
AcDbEntity
  8
0
100
AcDbLine
 62
7
  6
CONTINUOUS
 10
747.6218789505
 20
140.6973612377
 11
747.3098477323
 21
140.9002463909
  0
LINE
  5
2A6
100
AcDbEntity
  8
0
100
AcDbLine
 62
7
  6
CONTINUOUS
 10
754.6945869601
 20
140.5959186966
 11
754.3825557418
 21
140.7988037788
  0
LINE
  5
2A7
100
AcDbEntity
  8
0
100
AcDbLine
 62
7
  6
CONTINUOUS
 10
749.3900556553
 20
144.0449655913
 11
749.7020868735
 21
143.8420805091
  0
LINE
  5
2A8
100
AcDbEntity
  8
0
100
AcDbLine
 62
7
  6
CONTINUOUS
 10
755.734690624
 20
144.1464081324
 11
756.0467218422
 21
143.9435230502
  0
LINE
  5
2A9
100
AcDbEntity
  8
0
100
AcDbLine
 62
7
  6
CONTINUOUS
 10
745.0216188979
 20
144.3492932146
 11
744.6055770752
 21
144.6536208378
  0
LINE
  5
2AA
100
AcDbEntity
  8
0
100
AcDbLine
 62
7
  6
CONTINUOUS
 10
717.8265188151
 20
140.6973612377
 11
718.2238351028
 21
140.2915910378
  0
LINE
  5
2AB
100
AcDbEntity
  8
0
100
AcDbLine
 62
7
  6
CONTINUOUS
 10
715.7406060309
 20
144.1464081324
 11
715.9392644589
 21
143.9435230502
  0
LINE
  5
2AC
100
AcDbEntity
  8
0
100
AcDbLine
 62
7
  6
CONTINUOUS
 10
725.5741932467
 20
144.0449655913
 11
725.1768769589
 21
144.4507357556
  0
LINE
  5
2AD
100
AcDbEntity
  8
0
100
AcDbLine
 62
7
  6
CONTINUOUS
 10
730.8842232796
 20
76.1837291209
 11
733.0571771965
 21
73.5224149554
  0
LINE
  5
2AE
100
AcDbEntity
  8
0
100
AcDbLine
 62
7
  6
CONTINUOUS
 10
730.8842232796
 20
76.5372825115
 11
733.0571771965
 21
73.875968346
  0
LINE
  5
2AF
100
AcDbEntity
  8
0
100
AcDbLine
 62
7
  6
CONTINUOUS
 10
734.1656897134
 20
73.5224149554
 11
731.9063717986
 21
76.2895029844
  0
LINE
  5
2B0
100
AcDbEntity
  8
0
100
AcDbLine
 62
7
  6
CONTINUOUS
 10
746.6857852958
 20
140.6973612377
 11
747.1018271185
 21
140.2915910378
  0
LINE
  5
2B1
100
AcDbEntity
  8
0
100
AcDbLine
 62
7
  6
CONTINUOUS
 10
744.5015667684
 20
144.1464081324
 11
744.7095876797
 21
143.9435230502
  0
LINE
  5
2B2
100
AcDbEntity
  8
0
100
AcDbLine
 62
7
  6
CONTINUOUS
 10
750.3261499051
 20
144.0449655913
 11
749.9101080824
 21
144.4507357556
  0
LINE
  5
2B3
100
AcDbEntity
  8
0
100
AcDbLine
 62
7
  6
CONTINUOUS
 10
753.7584933054
 20
140.6973612377
 11
754.0705245236
 21
140.3930335789
  0
LINE
  5
2B4
100
AcDbEntity
  8
0
100
AcDbLine
 62
7
  6
CONTINUOUS
 10
756.6707842786
 20
144.0449655913
 11
756.3587530604
 21
144.3492932146
  0
LINE
  5
2B5
100
AcDbEntity
  8
0
100
AcDbLine
 62
7
  6
CONTINUOUS
 10
716.5352394589
 20
143.9435230502
 11
716.2372519589
 21
144.3492932146
  0
LINE
  5
2B6
100
AcDbEntity
  8
RUNDUNGEN
100
AcDbLine
 62
7
  6
CONTINUOUS
 10
710.2796897134
 20
103.9584898185
 11
705.6656897134
 21
111.4562398185
  0
LINE
  5
2B7
100
AcDbEntity
  8
0
100
AcDbLine
 62
7
  6
CONTINUOUS
 10
573.1656897134
 20
631.4584898185
 11
573.1656897134
 21
421.4584898185
  0
LINE
  5
2B8
100
AcDbEntity
  8
0
100
AcDbLine
 62
7
  6
CONTINUOUS
 10
764.4251118991
 20
183.6787753629
 11
751.6359752578
 21
196.4679120041
  0
LINE
  5
2B9
100
AcDbEntity
  8
0
100
AcDbLine
 62
7
  6
CONTINUOUS
 10
745.3336498185
 20
143.9435230502
 11
745.0216188979
 21
144.3492932146
  0
LINE
  5
2BA
100
AcDbEntity
  8
0
100
AcDbLine
 62
7
  6
CONTINUOUS
 10
747.3098477323
 20
140.9002463909
 11
747.1018271185
 21
141.2045740142
  0
LINE
  5
2BB
100
AcDbEntity
  8
0
100
AcDbLine
 62
7
  6
CONTINUOUS
 10
718.4224938151
 20
140.9002463909
 11
718.2238351028
 21
141.2045740142
  0
LINE
  5
2BC
100
AcDbEntity
  8
0
100
AcDbLine
 62
7
  6
CONTINUOUS
 10
724.9782182467
 20
143.8420805091
 11
725.1768769589
 21
143.5377526016
  0
LINE
  5
2BD
100
AcDbEntity
  8
0
100
AcDbLine
 62
7
  6
CONTINUOUS
 10
609.1656897134
 20
631.4584898185
 11
609.1656897134
 21
421.4584898185
  0
LINE
  5
2BE
100
AcDbEntity
  8
0
100
AcDbLine
 62
7
  6
CONTINUOUS
 10
754.3825557418
 20
140.7988037788
 11
753.966513324
 21
141.4074590964
  0
LINE
  5
2BF
100
AcDbEntity
  8
0
100
AcDbLine
 62
7
  6
CONTINUOUS
 10
756.0467218422
 20
143.9435230502
 11
756.4627630697
 21
143.3348675194
  0
LINE
  5
2C0
100
AcDbEntity
  8
0
100
AcDbLine
 62
7
  6
CONTINUOUS
 10
746.4777646821
 20
141.1031314731
 11
746.6857852958
 21
140.6973612377
  0
LINE
  5
2C1
100
AcDbEntity
  8
0
100
AcDbLine
 62
7
  6
CONTINUOUS
 10
717.627860387
 20
141.1031314731
 11
717.8265188151
 21
140.6973612377
  0
LINE
  5
2C2
100
AcDbEntity
  8
0
100
AcDbLine
 62
7
  6
CONTINUOUS
 10
725.7728519589
 20
143.6391954269
 11
725.5741932467
 21
144.0449655913
  0
LINE
  5
2C3
100
AcDbEntity
  8
0
100
AcDbLine
 62
7
  6
CONTINUOUS
 10
716.733897887
 20
139.9872633789
 11
715.839935387
 21
142.3204421084
  0
LINE
  5
2C4
100
AcDbEntity
  8
0
100
AcDbLine
 62
7
  6
CONTINUOUS
 10
715.2439602449
 20
142.1175570262
 11
716.0385935309
 21
139.9872633789
  0
LINE
  5
2C5
100
AcDbEntity
  8
0
100
AcDbLine
 62
7
  6
CONTINUOUS
 10
753.5504720965
 20
141.1031314731
 11
753.7584933054
 21
140.6973612377
  0
LINE
  5
2C6
100
AcDbEntity
  8
0
100
AcDbLine
 62
7
  6
CONTINUOUS
 10
756.8788054875
 20
143.6391954269
 11
756.6707842786
 21
144.0449655913
  0
LINE
  5
2C7
100
AcDbEntity
  8
0
100
AcDbLine
 62
7
  6
CONTINUOUS
 10
745.5416710274
 20
139.9872633789
 11
744.6055770752
 21
142.3204421084
  0
LINE
  5
2C8
100
AcDbEntity
  8
0
100
AcDbLine
 62
7
  6
CONTINUOUS
 10
743.9815146388
 20
142.1175570262
 11
744.8135979866
 21
139.9872633789
  0
LINE
  5
2C9
100
AcDbEntity
  8
0
100
AcDbLine
 62
7
  6
CONTINUOUS
 10
715.9392644589
 20
143.9435230502
 11
716.0385935309
 21
143.6391954269
  0
LINE
  5
2CA
100
AcDbEntity
  8
0
100
AcDbLine
 62
7
  6
CONTINUOUS
 10
716.6345685309
 20
143.6391954269
 11
716.5352394589
 21
143.9435230502
  0
LINE
  5
2CB
100
AcDbEntity
  8
0
100
AcDbLine
 62
7
  6
CONTINUOUS
 10
699.2251186245
 20
166.2084898185
 11
703.9062675277
 21
148.738204274
  0
LINE
  5
2CC
100
AcDbEntity
  8
0
100
AcDbLine
 62
7
  6
CONTINUOUS
 10
703.9062675277
 20
138.352986483
 11
705.6656897134
 21
130.7320917331
  0
LINE
  5
2CD
100
AcDbEntity
  8
0
100
AcDbLine
 62
7
  6
CONTINUOUS
 10
744.7095876797
 20
143.9435230502
 11
744.8135979866
 21
143.6391954269
  0
LINE
  5
2CE
100
AcDbEntity
  8
0
100
AcDbLine
 62
7
  6
CONTINUOUS
 10
745.437660423
 20
143.6391954269
 11
745.3336498185
 21
143.9435230502
  0
LINE
  5
2CF
100
AcDbEntity
  8
0
100
AcDbLine
 62
7
  6
CONTINUOUS
 10
749.7020868735
 20
143.8420805091
 11
749.806097478
 21
143.5377526016
  0
LINE
  5
2D0
100
AcDbEntity
  8
0
100
AcDbLine
 62
7
  6
CONTINUOUS
 10
753.4464620872
 20
141.4074590964
 11
753.5504720965
 21
141.1031314731
  0
LINE
  5
2D1
100
AcDbEntity
  8
0
100
AcDbLine
 62
7
  6
CONTINUOUS
 10
756.9828154969
 20
143.3348675194
 11
756.8788054875
 21
143.6391954269
  0
LINE
  5
2D2
100
AcDbEntity
  8
0
100
AcDbLine
 62
7
  6
CONTINUOUS
 10
747.1018271185
 20
141.2045740142
 11
746.9978165141
 21
141.6103441786
  0
LINE
  5
2D3
100
AcDbEntity
  8
0
100
AcDbLine
 62
7
  6
CONTINUOUS
 10
718.2238351028
 20
141.2045740142
 11
718.1245063151
 21
141.6103441786
  0
LINE
  5
2D4
100
AcDbEntity
  8
0
100
AcDbLine
 62
7
  6
CONTINUOUS
 10
725.1768769589
 20
143.5377526016
 11
725.2762057467
 21
143.1319824372
  0
LINE
  5
2D5
100
AcDbEntity
  8
0
100
AcDbLine
 62
7
  6
CONTINUOUS
 10
717.5285310309
 20
141.6103441786
 11
717.627860387
 21
141.1031314731
  0
LINE
  5
2D6
100
AcDbEntity
  8
0
100
AcDbLine
 62
7
  6
CONTINUOUS
 10
725.8721807467
 20
143.1319824372
 11
725.7728519589
 21
143.6391954269
  0
LINE
  5
2D7
100
AcDbEntity
  8
RUNDUNGEN
100
AcDbLine
 62
7
  6
CONTINUOUS
 10
691.2462912308
 20
88.7675266049
 11
691.2462912308
 21
92.3030605109
  0
LINE
  5
2D8
100
AcDbEntity
  8
RUNDUNGEN
100
AcDbLine
 62
7
  6
CONTINUOUS
 10
700.1656897134
 20
27.5604741783
 11
700.1656897134
 21
37.0523263375
  0
LINE
  5
2D9
100
AcDbEntity
  8
RUNDUNGEN
100
AcDbLine
 62
7
  6
CONTINUOUS
 10
701.6874161374
 20
77.4431991408
 11
701.6874161374
 21
80.9787330467
  0
LINE
  5
2DA
100
AcDbEntity
  8
0
100
AcDbLine
 62
7
  6
CONTINUOUS
 10
703.9062675277
 20
138.352986483
 11
703.9062675277
 21
148.738204274
  0
LINE
  5
2DB
100
AcDbEntity
  8
RUNDUNGEN
100
AcDbLine
 62
7
  6
CONTINUOUS
 10
705.6656897134
 20
111.4562398185
 11
705.6656897134
 21
144.4584898185
  0
LINE
  5
2DC
100
AcDbEntity
  8
RUNDUNGEN
100
AcDbLine
 62
7
  6
CONTINUOUS
 10
708.0156897134
 20
24.3784936629
 11
708.0156897134
 21
28.9746877406
  0
LINE
  5
2DD
100
AcDbEntity
  8
0
100
AcDbLine
 62
7
  6
CONTINUOUS
 10
769.1062608022
 20
166.2084898185
 11
764.4251118991
 21
183.6787753629
  0
LINE
  5
2DE
100
AcDbEntity
  8
0
100
AcDbLine
 62
7
  6
CONTINUOUS
 10
746.3737540776
 20
141.6103441786
 11
746.4777646821
 21
141.1031314731
  0
LINE
  5
2DF
100
AcDbEntity
  8
0
100
AcDbLine
 62
7
  6
CONTINUOUS
 10
750.4301599144
 20
143.5377526016
 11
750.3261499051
 21
144.0449655913
  0
LINE
  5
2E0
100
AcDbEntity
  8
0
100
AcDbLine
 62
7
  6
CONTINUOUS
 10
753.3424508876
 20
141.914671944
 11
753.4464620872
 21
141.4074590964
  0
LINE
  5
2E1
100
AcDbEntity
  8
0
100
AcDbLine
 62
7
  6
CONTINUOUS
 10
757.0868255062
 20
142.8276548139
 11
756.9828154969
 21
143.3348675194
  0
LINE
  5
2E2
100
AcDbEntity
  8
0
100
AcDbLine
 62
7
  6
CONTINUOUS
 10
753.966513324
 20
141.4074590964
 11
753.8625033147
 21
142.0161144851
  0
LINE
  5
2E3
100
AcDbEntity
  8
0
100
AcDbLine
 62
7
  6
CONTINUOUS
 10
712.9593894589
 20
144.7550633789
 11
712.9593894589
 21
139.9872633789
  0
LINE
  5
2E4
100
AcDbEntity
  8
0
100
AcDbLine
 62
7
  6
CONTINUOUS
 10
713.5553644589
 20
139.9872633789
 11
713.5553644589
 21
142.1175570262
  0
LINE
  5
2E5
100
AcDbEntity
  8
0
100
AcDbLine
 62
7
  6
CONTINUOUS
 10
713.5553644589
 20
142.7262122728
 11
713.5553644589
 21
144.2478506735
  0
LINE
  5
2E6
100
AcDbEntity
  8
0
100
AcDbLine
 62
7
  6
CONTINUOUS
 10
716.0385935309
 20
143.6391954269
 11
716.0385935309
 21
143.3348675194
  0
LINE
  5
2E7
100
AcDbEntity
  8
0
100
AcDbLine
 62
7
  6
CONTINUOUS
 10
716.6345685309
 20
143.2334249783
 11
716.6345685309
 21
143.6391954269
  0
LINE
  5
2E8
100
AcDbEntity
  8
0
100
AcDbLine
 62
7
  6
CONTINUOUS
 10
717.5285310309
 20
144.7550633789
 11
717.5285310309
 21
141.6103441786
  0
LINE
  5
2E9
100
AcDbEntity
  8
0
100
AcDbLine
 62
7
  6
CONTINUOUS
 10
718.1245063151
 20
141.6103441786
 11
718.1245063151
 21
144.7550633789
  0
LINE
  5
2EA
100
AcDbEntity
  8
KONSTRUKTIONSELEMENTE
100
AcDbLine
 62
7
  6
CONTINUOUS
 10
719.3302294913
 20
121.1584898185
 11
719.3302294913
 21
125.3214898185
  0
LINE
  5
2EB
100
AcDbEntity
  8
0
100
AcDbLine
 62
7
  6
CONTINUOUS
 10
719.5784219781
 20
78.6135837799
 11
719.5784219781
 21
73.9466790241
  0
LINE
  5
2EC
100
AcDbEntity
  8
0
100
AcDbLine
 62
7
  6
CONTINUOUS
 10
720.5084063151
 20
144.7550633789
 11
720.5084063151
 21
141.6103441786
  0
LINE
  5
2ED
100
AcDbEntity
  8
0
100
AcDbLine
 62
7
  6
CONTINUOUS
 10
721.1043813151
 20
141.6103441786
 11
721.1043813151
 21
144.7550633789
  0
LINE
  5
2EE
100
AcDbEntity
  8
0
100
AcDbLine
 62
7
  6
CONTINUOUS
 10
721.5284219781
 20
74.5830751272
 11
721.5284219781
 21
76.2094207239
  0
LINE
  5
2EF
100
AcDbEntity
  8
0
100
AcDbLine
 62
7
  6
CONTINUOUS
 10
721.5284219781
 20
76.7043954707
 11
721.5284219781
 21
78.3307410675
  0
LINE
  5
2F0
100
AcDbEntity
  8
0
100
AcDbLine
 62
7
  6
CONTINUOUS
 10
721.8990144589
 20
144.7550633789
 11
721.8990144589
 21
139.9872633789
  0
LINE
  5
2F1
100
AcDbEntity
  8
0
100
AcDbLine
 62
7
  6
CONTINUOUS
 10
721.9784219781
 20
77.7862688459
 11
721.9784219781
 21
76.8953143016
  0
LINE
  5
2F2
100
AcDbEntity
  8
0
100
AcDbLine
 62
7
  6
CONTINUOUS
 10
721.9784219781
 20
75.6649485024
 11
721.9784219781
 21
74.7739939581
  0
LINE
  5
2F3
100
AcDbEntity
  8
0
100
AcDbLine
 62
7
  6
CONTINUOUS
 10
722.3534219781
 20
75.6225220955
 11
722.3534219781
 21
75.7498013161
  0
LINE
  5
2F4
100
AcDbEntity
  8
0
100
AcDbLine
 62
7
  6
CONTINUOUS
 10
722.3534219781
 20
76.0679993677
 11
722.3534219781
 21
76.4922634364
  0
LINE
  5
2F5
100
AcDbEntity
  8
0
100
AcDbLine
 62
7
  6
CONTINUOUS
 10
722.3534219781
 20
76.8104614879
 11
722.3534219781
 21
77.2912940991
  0
LINE
  5
2F6
100
AcDbEntity
  8
0
100
AcDbLine
 62
7
  6
CONTINUOUS
 10
722.4949894589
 20
140.5959186966
 11
722.4949894589
 21
144.1464081324
  0
LINE
  5
2F7
100
AcDbEntity
  8
0
100
AcDbLine
 62
7
  6
CONTINUOUS
 10
722.8034219781
 20
76.4922634364
 11
722.8034219781
 21
76.0679993677
  0
LINE
  5
2F8
100
AcDbEntity
  8
0
100
AcDbLine
 62
7
  6
CONTINUOUS
 10
722.8034219781
 20
77.2912940991
 11
722.8034219781
 21
76.8104614879
  0
LINE
  5
2F9
100
AcDbEntity
  8
0
100
AcDbLine
 62
7
  6
CONTINUOUS
 10
722.8034219781
 20
75.7498013161
 11
722.8034219781
 21
75.6225220955
  0
LINE
  5
2FA
100
AcDbEntity
  8
0
100
AcDbLine
 62
7
  6
CONTINUOUS
 10
723.1656897134
 20
307.4584898185
 11
723.1656897134
 21
170.4584898185
  0
LINE
  5
2FB
100
AcDbEntity
  8
0
100
AcDbLine
 62
7
  6
CONTINUOUS
 10
723.1784219781
 20
74.7739939581
 11
723.1784219781
 21
75.6649485024
  0
LINE
  5
2FC
100
AcDbEntity
  8
0
100
AcDbLine
 62
7
  6
CONTINUOUS
 10
723.1784219781
 20
76.8953143016
 11
723.1784219781
 21
77.7862688459
  0
LINE
  5
2FD
100
AcDbEntity
  8
0
100
AcDbLine
 62
7
  6
CONTINUOUS
 10
723.6284219781
 20
78.3307410675
 11
723.6284219781
 21
76.7043954707
  0
LINE
  5
2FE
100
AcDbEntity
  8
0
100
AcDbLine
 62
7
  6
CONTINUOUS
 10
723.6284219781
 20
76.2094207239
 11
723.6284219781
 21
74.5830751272
  0
LINE
  5
2FF
100
AcDbEntity
  8
0
100
AcDbLine
 62
7
  6
CONTINUOUS
 10
725.2762057467
 20
143.1319824372
 11
725.2762057467
 21
141.6103441786
  0
LINE
  5
300
100
AcDbEntity
  8
0
100
AcDbLine
 62
7
  6
CONTINUOUS
 10
725.5784219781
 20
73.9466790241
 11
725.5784219781
 21
78.6135837799
  0
LINE
  5
301
100
AcDbEntity
  8
0
100
AcDbLine
 62
7
  6
CONTINUOUS
 10
725.8721807467
 20
141.6103441786
 11
725.8721807467
 21
143.1319824372
  0
LINE
  5
302
100
AcDbEntity
  8
KONSTRUKTIONSELEMENTE
100
AcDbLine
 62
7
  6
CONTINUOUS
 10
726.1656897134
 20
105.6957734994
 11
726.1656897134
 21
108.5400640471
  0
LINE
  5
303
100
AcDbEntity
  8
0
100
AcDbLine
 62
7
  6
CONTINUOUS
 10
727.5242232796
 20
79.0378478486
 11
727.5242232796
 21
78.3943806778
  0
LINE
  5
304
100
AcDbEntity
  8
0
100
AcDbLine
 62
7
  6
CONTINUOUS
 10
727.5242232796
 20
77.8004109816
 11
727.5242232796
 21
73.5224149554
  0
LINE
  5
305
100
AcDbEntity
  8
0
100
AcDbLine
 62
7
  6
CONTINUOUS
 10
727.9156897134
 20
121.1584898185
 11
727.9156897134
 21
108.9118517385
  0
LINE
  5
306
100
AcDbEntity
  8
KONSTRUKTIONSELEMENTE
100
AcDbLine
 62
7
  6
CONTINUOUS
 10
727.9156897134
 20
121.1584898185
 11
727.9156897134
 21
134.5084898185
  0
LINE
  5
307
100
AcDbEntity
  8
0
100
AcDbLine
 62
7
  6
CONTINUOUS
 10
728.4842232796
 20
73.5224149554
 11
728.4842232796
 21
76.5372825115
  0
LINE
  5
308
100
AcDbEntity
  8
0
100
AcDbLine
 62
7
  6
CONTINUOUS
 10
728.4842232796
 20
76.8625516309
 11
728.4842232796
 21
77.8004109816
  0
LINE
  5
309
100
AcDbEntity
  8
KONSTRUKTIONSELEMENTE
100
AcDbLine
 62
7
  6
CONTINUOUS
 10
730.6656897134
 20
105.6957734994
 11
730.6656897134
 21
114.4029148185
  0
LINE
  5
30A
100
AcDbEntity
  8
KONSTRUKTIONSELEMENTE
100
AcDbLine
 62
7
  6
CONTINUOUS
 10
730.6656897134
 20
136.8084718716
 11
730.6656897134
 21
139.6797485345
  0
LINE
  5
30B
100
AcDbEntity
  8
0
100
AcDbLine
 62
7
  6
CONTINUOUS
 10
730.8842232796
 20
76.1837291209
 11
730.8842232796
 21
76.5372825115
  0
LINE
  5
30C
100
AcDbEntity
  8
KONSTRUKTIONSELEMENTE
100
AcDbLine
 62
7
  6
CONTINUOUS
 10
731.6656897134
 20
84.8925466053
 11
731.6656897134
 21
107.3468035741
  0
LINE
  5
30D
100
AcDbEntity
  8
KONSTRUKTIONSELEMENTE
100
AcDbLine
 62
7
  6
CONTINUOUS
 10
731.6656897134
 20
151.1689931087
 11
731.6656897134
 21
159.7489147428
  0
LINE
  5
30E
100
AcDbEntity
  8
0
100
AcDbLine
 62
7
  6
CONTINUOUS
 10
731.9063717986
 20
76.2895029844
 11
731.9063717986
 21
76.6430563749
  0
LINE
  5
30F
100
AcDbEntity
  8
KONSTRUKTIONSELEMENTE
100
AcDbLine
 62
7
  6
CONTINUOUS
 10
731.9156897134
 20
128.5140648185
 11
731.9156897134
 21
137.5595323562
  0
LINE
  5
310
100
AcDbEntity
  8
0
100
AcDbLine
 62
7
  6
CONTINUOUS
 10
732.3673899863
 20
77.9820195449
 11
732.3673899863
 21
77.6284661543
  0
LINE
  5
311
100
AcDbEntity
  8
0
100
AcDbLine
 62
7
  6
CONTINUOUS
 10
733.0571771965
 20
73.5224149554
 11
733.0571771965
 21
73.875968346
  0
LINE
  5
312
100
AcDbEntity
  8
0
100
AcDbLine
 62
7
  6
CONTINUOUS
 10
734.7242232796
 20
79.0378478486
 11
734.7242232796
 21
75.5481595022
  0
LINE
  5
313
100
AcDbEntity
  8
0
100
AcDbLine
 62
7
  6
CONTINUOUS
 10
735.6842232796
 20
75.5481595022
 11
735.6842232796
 21
79.0378478486
  0
LINE
  5
314
100
AcDbEntity
  8
KONSTRUKTIONSELEMENTE
100
AcDbLine
 62
7
  6
CONTINUOUS
 10
736.4156897134
 20
128.5140648185
 11
736.4156897134
 21
137.5595323562
  0
LINE
  5
315
100
AcDbEntity
  8
KONSTRUKTIONSELEMENTE
100
AcDbLine
 62
7
  6
CONTINUOUS
 10
736.6656897134
 20
84.8925466053
 11
736.6656897134
 21
107.3468035741
  0
LINE
  5
316
100
AcDbEntity
  8
KONSTRUKTIONSELEMENTE
100
AcDbLine
 62
7
  6
CONTINUOUS
 10
736.6656897134
 20
151.1689931087
 11
736.6656897134
 21
159.7489147428
  0
LINE
  5
317
100
AcDbEntity
  8
KONSTRUKTIONSELEMENTE
100
AcDbLine
 62
7
  6
CONTINUOUS
 10
737.6656897134
 20
139.6797485345
 11
737.6656897134
 21
136.8084718716
  0
LINE
  5
318
100
AcDbEntity
  8
KONSTRUKTIONSELEMENTE
100
AcDbLine
 62
7
  6
CONTINUOUS
 10
737.6656897134
 20
114.4029148185
 11
737.6656897134
 21
105.6957734994
  0
LINE
  5
319
100
AcDbEntity
  8
0
100
AcDbLine
 62
7
  6
CONTINUOUS
 10
756.4627630697
 20
143.3348675194
 11
756.5667742693
 21
142.7262122728
  0
LINE
  5
31A
100
AcDbEntity
  8
0
100
AcDbLine
 62
7
  6
CONTINUOUS
 10
739.4583586402
 20
79.0378478486
 11
739.4583586402
 21
75.5481595022
  0
LINE
  5
31B
100
AcDbEntity
  8
0
100
AcDbLine
 62
7
  6
CONTINUOUS
 10
740.1331297134
 20
144.7550633789
 11
740.1331297134
 21
139.9872633789
  0
LINE
  5
31C
100
AcDbEntity
  8
0
100
AcDbLine
 62
7
  6
CONTINUOUS
 10
740.4156897134
 20
108.9118517385
 11
740.4156897134
 21
121.1584898185
  0
LINE
  5
31D
100
AcDbEntity
  8
KONSTRUKTIONSELEMENTE
100
AcDbLine
 62
7
  6
CONTINUOUS
 10
740.4156897134
 20
121.1584898185
 11
740.4156897134
 21
134.5084898185
  0
LINE
  5
31E
100
AcDbEntity
  8
0
100
AcDbLine
 62
7
  6
CONTINUOUS
 10
740.4183586402
 20
75.5481595022
 11
740.4183586402
 21
79.0378478486
  0
LINE
  5
31F
100
AcDbEntity
  8
0
100
AcDbLine
 62
7
  6
CONTINUOUS
 10
740.7571921498
 20
139.9872633789
 11
740.7571921498
 21
144.7550633789
  0
LINE
  5
320
100
AcDbEntity
  8
0
100
AcDbLine
 62
7
  6
CONTINUOUS
 10
741.5892753488
 20
144.7550633789
 11
741.5892753488
 21
139.9872633789
  0
LINE
  5
321
100
AcDbEntity
  8
KONSTRUKTIONSELEMENTE
100
AcDbLine
 62
7
  6
CONTINUOUS
 10
742.1656897134
 20
108.5400640471
 11
742.1656897134
 21
105.6957734994
  0
LINE
  5
322
100
AcDbEntity
  8
0
100
AcDbLine
 62
7
  6
CONTINUOUS
 10
742.2133377852
 20
139.9872633789
 11
742.2133377852
 21
142.1175570262
  0
LINE
  5
323
100
AcDbEntity
  8
0
100
AcDbLine
 62
7
  6
CONTINUOUS
 10
742.2133377852
 20
142.7262122728
 11
742.2133377852
 21
144.2478506735
  0
LINE
  5
324
100
AcDbEntity
  8
0
100
AcDbLine
 62
7
  6
CONTINUOUS
 10
742.5183586402
 20
79.0378478486
 11
742.5183586402
 21
78.3590253387
  0
LINE
  5
325
100
AcDbEntity
  8
0
100
AcDbLine
 62
7
  6
CONTINUOUS
 10
742.5183586402
 20
77.7650556425
 11
742.5183586402
 21
73.5224149554
  0
LINE
  5
326
100
AcDbEntity
  8
0
100
AcDbLine
 62
7
  6
CONTINUOUS
 10
743.4783586402
 20
74.2295217366
 11
743.4783586402
 21
77.7650556425
  0
LINE
  5
327
100
AcDbEntity
  8
0
100
AcDbLine
 62
7
  6
CONTINUOUS
 10
744.8135979866
 20
143.6391954269
 11
744.8135979866
 21
143.3348675194
  0
LINE
  5
328
100
AcDbEntity
  8
0
100
AcDbLine
 62
7
  6
CONTINUOUS
 10
745.1656897134
 20
307.4584898185
 11
745.1656897134
 21
170.4584898185
  0
LINE
  5
329
100
AcDbEntity
  8
0
100
AcDbLine
 62
7
  6
CONTINUOUS
 10
745.437660423
 20
143.2334249783
 11
745.437660423
 21
143.6391954269
  0
LINE
  5
32A
100
AcDbEntity
  8
0
100
AcDbLine
 62
7
  6
CONTINUOUS
 10
746.3737540776
 20
143.1319824372
 11
746.3737540776
 21
141.6103441786
  0
LINE
  5
32B
100
AcDbEntity
  8
0
100
AcDbLine
 62
7
  6
CONTINUOUS
 10
746.9978165141
 20
141.6103441786
 11
746.9978165141
 21
143.1319824372
  0
LINE
  5
32C
100
AcDbEntity
  8
0
100
AcDbLine
 62
7
  6
CONTINUOUS
 10
747.6109723931
 20
76.6478269282
 11
747.6109723931
 21
76.2942735376
  0
LINE
  5
32D
100
AcDbEntity
  8
0
100
AcDbLine
 62
7
  6
CONTINUOUS
 10
748.8700038233
 20
142.6247697317
 11
748.8700038233
 21
142.0161144851
  0
LINE
  5
32E
100
AcDbEntity
  8
KONSTRUKTIONSELEMENTE
100
AcDbLine
 62
7
  6
CONTINUOUS
 10
749.0011499354
 20
121.1584898185
 11
749.0011499354
 21
125.3214898185
  0
LINE
  5
32F
100
AcDbEntity
  8
0
100
AcDbLine
 62
7
  6
CONTINUOUS
 10
749.806097478
 20
142.0161144851
 11
749.806097478
 21
141.2045740142
  0
LINE
  5
330
100
AcDbEntity
  8
0
100
AcDbLine
 62
7
  6
CONTINUOUS
 10
750.4301599144
 20
141.1031314731
 11
750.4301599144
 21
142.6247697317
  0
LINE
  5
331
100
AcDbEntity
  8
0
100
AcDbLine
 62
7
  6
CONTINUOUS
 10
751.2622435597
 20
144.0449655913
 11
751.2622435597
 21
143.2334249783
  0
LINE
  5
332
100
AcDbEntity
  8
0
100
AcDbLine
 62
7
  6
CONTINUOUS
 10
751.8863059962
 20
143.9435230502
 11
751.8863059962
 21
139.9872633789
  0
LINE
  5
333
100
AcDbEntity
  8
0
100
AcDbLine
 62
7
  6
CONTINUOUS
 10
752.5103684326
 20
139.9872633789
 11
752.5103684326
 21
144.7550633789
  0
LINE
  5
334
100
AcDbEntity
  8
0
100
AcDbLine
 62
7
  6
CONTINUOUS
 10
753.3424508876
 20
142.8276548139
 11
753.3424508876
 21
141.914671944
  0
LINE
  5
335
100
AcDbEntity
  8
0
100
AcDbLine
 62
7
  6
CONTINUOUS
 10
753.8625033147
 20
142.0161144851
 11
753.8625033147
 21
142.7262122728
  0
LINE
  5
336
100
AcDbEntity
  8
0
100
AcDbLine
 62
7
  6
CONTINUOUS
 10
756.5667742693
 20
142.7262122728
 11
756.5667742693
 21
142.0161144851
  0
LINE
  5
337
100
AcDbEntity
  8
0
100
AcDbLine
 62
7
  6
CONTINUOUS
 10
757.0868255062
 20
141.914671944
 11
757.0868255062
 21
142.8276548139
  0
LINE
  5
338
100
AcDbEntity
  8
RUNDUNGEN
100
AcDbLine
 62
7
  6
CONTINUOUS
 10
760.3156897134
 20
28.9746877406
 11
760.3156897134
 21
24.3784936629
  0
LINE
  5
339
100
AcDbEntity
  8
RUNDUNGEN
100
AcDbLine
 62
7
  6
CONTINUOUS
 10
762.6656897134
 20
111.4562398185
 11
762.6656897134
 21
144.4584898185
  0
LINE
  5
33A
100
AcDbEntity
  8
0
100
AcDbLine
 62
7
  6
CONTINUOUS
 10
764.4251118991
 20
138.352986483
 11
764.4251118991
 21
148.738204274
  0
LINE
  5
33B
100
AcDbEntity
  8
0
100
AcDbLine
 62
7
  6
CONTINUOUS
 10
703.9062675277
 20
183.6787753629
 11
699.2251186245
 21
166.2084898185
  0
LINE
  5
33C
100
AcDbEntity
  8
RUNDUNGEN
100
AcDbLine
 62
7
  6
CONTINUOUS
 10
768.1656897134
 20
27.5604741783
 11
768.1656897134
 21
37.0523263375
  0
LINE
  5
33D
100
AcDbEntity
  8
RUNDUNGEN
100
AcDbLine
 62
7
  6
CONTINUOUS
 10
778.4596378782
 20
89.3752952268
 11
778.4596378782
 21
92.9108291327
  0
LINE
  5
33E
100
AcDbEntity
  8
0
100
AcDbLine
 62
7
  6
CONTINUOUS
 10
721.0050519589
 20
141.1031314731
 11
721.1043813151
 21
141.6103441786
  0
LINE
  5
33F
100
AcDbEntity
  8
0
100
AcDbLine
 62
7
  6
CONTINUOUS
 10
725.7728519589
 20
141.1031314731
 11
725.8721807467
 21
141.6103441786
  0
LINE
  5
340
100
AcDbEntity
  8
0
100
AcDbLine
 62
7
  6
CONTINUOUS
 10
720.5084063151
 20
141.6103441786
 11
720.4090769589
 21
141.2045740142
  0
LINE
  5
341
100
AcDbEntity
  8
0
100
AcDbLine
 62
7
  6
CONTINUOUS
 10
725.2762057467
 20
141.6103441786
 11
725.1768769589
 21
141.2045740142
  0
LINE
  5
342
100
AcDbEntity
  8
0
100
AcDbLine
 62
7
  6
CONTINUOUS
 10
753.8625033147
 20
142.7262122728
 11
753.966513324
 21
143.3348675194
  0
LINE
  5
343
100
AcDbEntity
  8
0
100
AcDbLine
 62
7
  6
CONTINUOUS
 10
756.5667742693
 20
142.0161144851
 11
756.4627630697
 21
141.4074590964
  0
LINE
  5
344
100
AcDbEntity
  8
0
100
AcDbLine
 62
7
  6
CONTINUOUS
 10
746.4777646821
 20
143.6391954269
 11
746.3737540776
 21
143.1319824372
  0
LINE
  5
345
100
AcDbEntity
  8
0
100
AcDbLine
 62
7
  6
CONTINUOUS
 10
753.4464620872
 20
143.3348675194
 11
753.3424508876
 21
142.8276548139
  0
LINE
  5
346
100
AcDbEntity
  8
0
100
AcDbLine
 62
7
  6
CONTINUOUS
 10
756.9828154969
 20
141.4074590964
 11
757.0868255062
 21
141.914671944
  0
LINE
  5
347
100
AcDbEntity
  8
0
100
AcDbLine
 62
7
  6
CONTINUOUS
 10
746.9978165141
 20
143.1319824372
 11
747.1018271185
 21
143.5377526016
  0
LINE
  5
348
100
AcDbEntity
  8
0
100
AcDbLine
 62
7
  6
CONTINUOUS
 10
750.3261499051
 20
140.6973612377
 11
750.4301599144
 21
141.1031314731
  0
LINE
  5
349
100
AcDbEntity
  8
0
100
AcDbLine
 62
7
  6
CONTINUOUS
 10
716.0385935309
 20
143.3348675194
 11
715.9392644589
 21
143.0305398961
  0
LINE
  5
34A
100
AcDbEntity
  8
0
100
AcDbLine
 62
7
  6
CONTINUOUS
 10
716.5352394589
 20
142.929097355
 11
716.6345685309
 21
143.2334249783
  0
LINE
  5
34B
100
AcDbEntity
  8
0
100
AcDbLine
 62
7
  6
CONTINUOUS
 10
764.4251118991
 20
138.352986483
 11
762.6656897134
 21
130.7320917331
  0
LINE
  5
34C
100
AcDbEntity
  8
0
100
AcDbLine
 62
7
  6
CONTINUOUS
 10
764.4251118991
 20
148.738204274
 11
769.1062608022
 21
166.2084898185
  0
LINE
  5
34D
100
AcDbEntity
  8
0
100
AcDbLine
 62
7
  6
CONTINUOUS
 10
744.8135979866
 20
143.3348675194
 11
744.7095876797
 21
143.0305398961
  0
LINE
  5
34E
100
AcDbEntity
  8
0
100
AcDbLine
 62
7
  6
CONTINUOUS
 10
745.3336498185
 20
142.929097355
 11
745.437660423
 21
143.2334249783
  0
LINE
  5
34F
100
AcDbEntity
  8
0
100
AcDbLine
 62
7
  6
CONTINUOUS
 10
749.806097478
 20
141.2045740142
 11
749.7020868735
 21
140.9002463909
  0
LINE
  5
350
100
AcDbEntity
  8
0
100
AcDbLine
 62
7
  6
CONTINUOUS
 10
753.5504720965
 20
143.6391954269
 11
753.4464620872
 21
143.3348675194
  0
LINE
  5
351
100
AcDbEntity
  8
0
100
AcDbLine
 62
7
  6
CONTINUOUS
 10
756.8788054875
 20
141.1031314731
 11
756.9828154969
 21
141.4074590964
  0
LINE
  5
352
100
AcDbEntity
  8
0
100
AcDbLine
 62
7
  6
CONTINUOUS
 10
720.8063938151
 20
140.6973612377
 11
721.0050519589
 21
141.1031314731
  0
LINE
  5
353
100
AcDbEntity
  8
0
100
AcDbLine
 62
7
  6
CONTINUOUS
 10
725.5741932467
 20
140.6973612377
 11
725.7728519589
 21
141.1031314731
  0
LINE
  5
354
100
AcDbEntity
  8
0
100
AcDbLine
 62
7
  6
CONTINUOUS
 10
859.1656897134
 20
421.4584898185
 11
859.1656897134
 21
631.4584898185
  0
LINE
  5
355
100
AcDbEntity
  8
0
100
AcDbLine
 62
7
  6
CONTINUOUS
 10
746.6857852958
 20
144.0449655913
 11
746.4777646821
 21
143.6391954269
  0
LINE
  5
356
100
AcDbEntity
  8
0
100
AcDbLine
 62
7
  6
CONTINUOUS
 10
753.7584933054
 20
144.0449655913
 11
753.5504720965
 21
143.6391954269
  0
LINE
  5
357
100
AcDbEntity
  8
0
100
AcDbLine
 62
7
  6
CONTINUOUS
 10
756.6707842786
 20
140.6973612377
 11
756.8788054875
 21
141.1031314731
  0
LINE
  5
358
100
AcDbEntity
  8
0
100
AcDbLine
 62
7
  6
CONTINUOUS
 10
720.4090769589
 20
141.2045740142
 11
720.2104188151
 21
140.9002463909
  0
LINE
  5
359
100
AcDbEntity
  8
0
100
AcDbLine
 62
7
  6
CONTINUOUS
 10
725.1768769589
 20
141.2045740142
 11
724.9782182467
 21
140.9002463909
  0
LINE
  5
35A
100
AcDbEntity
  8
0
100
AcDbLine
 62
7
  6
CONTINUOUS
 10
716.695404169
 20
196.4679120041
 11
703.9062675277
 21
183.6787753629
  0
LINE
  5
35B
100
AcDbEntity
  8
0
100
AcDbLine
 62
7
  6
CONTINUOUS
 10
895.1656897134
 20
421.4584898185
 11
895.1656897134
 21
631.4584898185
  0
LINE
  5
35C
100
AcDbEntity
  8
0
100
AcDbLine
 62
7
  6
CONTINUOUS
 10
747.1018271185
 20
143.5377526016
 11
747.3098477323
 21
143.8420805091
  0
LINE
  5
35D
100
AcDbEntity
  8
0
100
AcDbLine
 62
7
  6
CONTINUOUS
 10
753.966513324
 20
143.3348675194
 11
754.3825557418
 21
143.9435230502
  0
LINE
  5
35E
100
AcDbEntity
  8
0
100
AcDbLine
 62
7
  6
CONTINUOUS
 10
756.4627630697
 20
141.4074590964
 11
756.0467218422
 21
140.7988037788
  0
LINE
  5
35F
100
AcDbEntity
  8
0
100
AcDbLine
 62
7
  6
CONTINUOUS
 10
716.2372519589
 20
142.5233271906
 11
716.5352394589
 21
142.929097355
  0
LINE
  5
360
100
AcDbEntity
  8
RUNDUNGEN
100
AcDbLine
 62
7
  6
CONTINUOUS
 10
758.0516897134
 20
103.9584898185
 11
762.6656897134
 21
111.4562398185
  0
LINE
  5
361
100
AcDbEntity
  8
0
100
AcDbLine
 62
7
  6
CONTINUOUS
 10
745.0216188979
 20
142.5233271906
 11
745.3336498185
 21
142.929097355
  0
LINE
  5
362
100
AcDbEntity
  8
0
100
AcDbLine
 62
7
  6
CONTINUOUS
 10
751.8863059962
 20
144.7550633789
 11
751.2622435597
 21
144.0449655913
  0
LINE
  5
363
100
AcDbEntity
  8
0
100
AcDbLine
 62
7
  6
CONTINUOUS
 10
751.2622435597
 20
143.2334249783
 11
751.8863059962
 21
143.9435230502
  0
LINE
  5
364
100
AcDbEntity
  8
0
100
AcDbLine
 62
7
  6
CONTINUOUS
 10
715.9392644589
 20
143.0305398961
 11
715.7406060309
 21
142.8276548139
  0
LINE
  5
365
100
AcDbEntity
  8
0
100
AcDbLine
 62
7
  6
CONTINUOUS
 10
720.4090769589
 20
140.2915910378
 11
720.8063938151
 21
140.6973612377
  0
LINE
  5
366
100
AcDbEntity
  8
0
100
AcDbLine
 62
7
  6
CONTINUOUS
 10
725.1768769589
 20
140.2915910378
 11
725.5741932467
 21
140.6973612377
  0
LINE
  5
367
100
AcDbEntity
  8
0
100
AcDbLine
 62
7
  6
CONTINUOUS
 10
744.7095876797
 20
143.0305398961
 11
744.5015667684
 21
142.8276548139
  0
LINE
  5
368
100
AcDbEntity
  8
0
100
AcDbLine
 62
7
  6
CONTINUOUS
 10
747.1018271185
 20
144.4507357556
 11
746.6857852958
 21
144.0449655913
  0
LINE
  5
369
100
AcDbEntity
  8
0
100
AcDbLine
 62
7
  6
CONTINUOUS
 10
754.0705245236
 20
144.3492932146
 11
753.7584933054
 21
144.0449655913
  0
LINE
  5
36A
100
AcDbEntity
  8
0
100
AcDbLine
 62
7
  6
CONTINUOUS
 10
749.9101080824
 20
140.2915910378
 11
750.3261499051
 21
140.6973612377
  0
LINE
  5
36B
100
AcDbEntity
  8
0
100
AcDbLine
 62
7
  6
CONTINUOUS
 10
756.3587530604
 20
140.3930335789
 11
756.6707842786
 21
140.6973612377
  0
LINE
  5
36C
100
AcDbEntity
  8
0
100
AcDbLine
 62
7
  6
CONTINUOUS
 10
720.2104188151
 20
140.9002463909
 11
719.9124313151
 21
140.6973612377
  0
LINE
  5
36D
100
AcDbEntity
  8
0
100
AcDbLine
 62
7
  6
CONTINUOUS
 10
724.9782182467
 20
140.9002463909
 11
724.6802307467
 21
140.6973612377
  0
LINE
  5
36E
100
AcDbEntity
  8
RUNDUNGEN
100
AcDbLine
 62
7
  6
CONTINUOUS
 10
715.9336056587
 20
54.0903553263
 11
701.0699294919
 21
39.0802252758
  0
LINE
  5
36F
100
AcDbEntity
  8
RUNDUNGEN
100
AcDbLine
 62
7
  6
CONTINUOUS
 10
715.9336056587
 20
50.5548214204
 11
701.0699294919
 21
35.5446913699
  0
LINE
  5
370
100
AcDbEntity
  8
RUNDUNGEN
100
AcDbLine
 62
7
  6
CONTINUOUS
 10
760.5457856465
 20
89.033120349
 11
768.522371822
 21
97.0883009457
  0
LINE
  5
371
100
AcDbEntity
  8
RUNDUNGEN
100
AcDbLine
 62
7
  6
CONTINUOUS
 10
760.5457856465
 20
85.4975864431
 11
768.522371822
 21
93.5527670398
  0
LINE
  5
372
100
AcDbEntity
  8
0
100
AcDbLine
 62
7
  6
CONTINUOUS
 10
747.3098477323
 20
143.8420805091
 11
747.6218789505
 21
144.0449655913
  0
LINE
  5
373
100
AcDbEntity
  8
0
100
AcDbLine
 62
7
  6
CONTINUOUS
 10
749.7020868735
 20
140.9002463909
 11
749.3900556553
 21
140.6973612377
  0
LINE
  5
374
100
AcDbEntity
  8
0
100
AcDbLine
 62
7
  6
CONTINUOUS
 10
754.3825557418
 20
143.9435230502
 11
754.6945869601
 21
144.1464081324
  0
LINE
  5
375
100
AcDbEntity
  8
0
100
AcDbLine
 62
7
  6
CONTINUOUS
 10
756.0467218422
 20
140.7988037788
 11
755.734690624
 21
140.5959186966
  0
LINE
  5
376
100
AcDbEntity
  8
0
100
AcDbLine
 62
7
  6
CONTINUOUS
 10
754.5905757605
 20
144.6536208378
 11
754.0705245236
 21
144.3492932146
  0
LINE
  5
377
100
AcDbEntity
  8
0
100
AcDbLine
 62
7
  6
CONTINUOUS
 10
755.8387006333
 20
140.0887059289
 11
756.3587530604
 21
140.3930335789
  0
LINE
  5
378
100
AcDbEntity
  8
0
100
AcDbLine
 62
7
  6
CONTINUOUS
 10
715.839935387
 20
142.3204421084
 11
716.2372519589
 21
142.5233271906
  0
LINE
  5
379
100
AcDbEntity
  8
0
100
AcDbLine
 62
7
  6
CONTINUOUS
 10
720.0117601028
 20
140.0887059289
 11
720.4090769589
 21
140.2915910378
  0
LINE
  5
37A
100
AcDbEntity
  8
0
100
AcDbLine
 62
7
  6
CONTINUOUS
 10
724.7795606712
 20
140.0887059289
 11
725.1768769589
 21
140.2915910378
  0
LINE
  5
37B
100
AcDbEntity
  8
0
100
AcDbLine
 62
7
  6
CONTINUOUS
 10
747.517868346
 20
144.6536208378
 11
747.1018271185
 21
144.4507357556
  0
LINE
  5
37C
100
AcDbEntity
  8
0
100
AcDbLine
 62
7
  6
CONTINUOUS
 10
744.6055770752
 20
142.3204421084
 11
745.0216188979
 21
142.5233271906
  0
LINE
  5
37D
100
AcDbEntity
  8
0
100
AcDbLine
 62
7
  6
CONTINUOUS
 10
749.4940662598
 20
140.0887059289
 11
749.9101080824
 21
140.2915910378
  0
LINE
  5
37E
100
AcDbEntity
  8
0
100
AcDbLine
 62
7
  6
CONTINUOUS
 10
715.7406060309
 20
142.8276548139
 11
715.4426185309
 21
142.7262122728
  0
LINE
  5
37F
100
AcDbEntity
  8
RUNDUNGEN
100
AcDbLine
 62
7
  6
CONTINUOUS
 10
723.9734838427
 20
34.0178566141
 11
729.2507774477
 21
39.3471481324
  0
LINE
  5
380
100
AcDbEntity
  8
RUNDUNGEN
100
AcDbLine
 62
7
  6
CONTINUOUS
 10
752.3977737681
 20
62.7222150506
 11
778.1883659446
 21
88.7669255453
  0
LINE
  5
381
100
AcDbEntity
  8
RUNDUNGEN
100
AcDbLine
 62
7
  6
CONTINUOUS
 10
694.1975610933
 20
95.6047801252
 11
693.3784090491
 21
95.1992003376
  0
LINE
  5
382
100
AcDbEntity
  8
RUNDUNGEN
100
AcDbLine
 62
7
  6
CONTINUOUS
 10
694.1975610933
 20
92.0692462193
 11
693.3784090491
 21
91.6636664316
  0
LINE
  5
383
100
AcDbEntity
  8
RUNDUNGEN
100
AcDbLine
 62
7
  6
CONTINUOUS
 10
700.0973258711
 20
85.4949487067
 11
696.8207176939
 21
83.872629556
  0
LINE
  5
384
100
AcDbEntity
  8
RUNDUNGEN
100
AcDbLine
 62
7
  6
CONTINUOUS
 10
725.5620431681
 20
93.518532658
 11
721.4662829467
 21
91.4906337196
  0
LINE
  5
385
100
AcDbEntity
  8
RUNDUNGEN
100
AcDbLine
 62
7
  6
CONTINUOUS
 10
702.3270514829
 20
81.8475749947
 11
705.3023082188
 21
83.3206885682
  0
LINE
  5
386
100
AcDbEntity
  8
RUNDUNGEN
100
AcDbLine
 62
7
  6
CONTINUOUS
 10
725.5620431681
 20
89.982998752
 11
721.4662829467
 21
87.9550998137
  0
LINE
  5
387
100
AcDbEntity
  8
0
100
AcDbLine
 62
7
  6
CONTINUOUS
 10
744.5015667684
 20
142.8276548139
 11
744.1895355501
 21
142.7262122728
  0
LINE
  5
388
100
AcDbEntity
  8
RUNDUNGEN
100
AcDbLine
 62
7
  6
CONTINUOUS
 10
702.3270514829
 20
78.3120410888
 11
705.60365966
 21
79.9343602395
  0
LINE
  5
389
100
AcDbEntity
  8
0
100
AcDbLine
 62
7
  6
CONTINUOUS
 10
264.3396996136
 20
103.9584898185
 11
266.1396996136
 21
103.9584898185
  0
LINE
  5
38A
100
AcDbEntity
  8
0
100
AcDbLine
 62
7
  6
CONTINUOUS
 10
257.4136080074
 20
111.4562398185
 11
273.0657912198
 21
111.4562398185
  0
LINE
  5
38B
100
AcDbEntity
  8
0
100
AcDbLine
 62
7
  6
CONTINUOUS
 10
262.7404496136
 20
130.7320917331
 11
267.7389496136
 21
130.7320917331
  0
LINE
  5
38C
100
AcDbEntity
  8
0
100
AcDbLine
 62
7
  6
CONTINUOUS
 10
267.7389496136
 20
138.352986483
 11
262.7404496136
 21
138.352986483
  0
LINE
  5
38D
100
AcDbEntity
  8
0
100
AcDbLine
 62
7
  6
CONTINUOUS
 10
268.9584558803
 20
148.738204274
 11
261.5209433468
 21
148.738204274
  0
LINE
  5
38E
100
AcDbEntity
  8
0
100
AcDbLine
 62
7
  6
CONTINUOUS
 10
268.1614811288
 20
166.2084898185
 11
262.3179180983
 21
166.2084898185
  0
LINE
  5
38F
100
AcDbEntity
  8
0
100
AcDbLine
 62
7
  6
CONTINUOUS
 10
268.1614811288
 20
183.6787753629
 11
262.3179180983
 21
183.6787753629
  0
LINE
  5
390
100
AcDbEntity
  8
0
100
AcDbLine
 62
7
  6
CONTINUOUS
 10
268.1614811288
 20
196.4679120041
 11
262.3179180983
 21
196.4679120041
  0
LINE
  5
391
100
AcDbEntity
  8
0
100
AcDbLine
 62
7
  6
CONTINUOUS
 10
262.3179180983
 20
201.1490609073
 11
268.1614811288
 21
201.1490609073
  0
LINE
  5
392
100
AcDbEntity
  8
KONSTRUKTIONSELEMENTE
100
AcDbLine
 62
7
  6
CONTINUOUS
 10
373.0027730664
 20
85.189676845
 11
364.5882023703
 21
93.6042475411
  0
LINE
  5
393
100
AcDbEntity
  8
KONSTRUKTIONSELEMENTE
100
AcDbLine
 62
7
  6
CONTINUOUS
 10
311.8380364938
 20
146.3544134176
 11
303.4234657976
 21
154.7689841137
  0
LINE
  5
394
100
AcDbEntity
  8
KONSTRUKTIONSELEMENTE
100
AcDbLine
 62
7
  6
CONTINUOUS
 10
344.7892124971
 20
115.595268436
 11
334.1826107793
 21
126.2018701538
  0
LINE
  5
395
100
AcDbEntity
  8
KONSTRUKTIONSELEMENTE
100
AcDbLine
 62
7
  6
CONTINUOUS
 10
376.5383069723
 20
88.7252107509
 11
368.1237362762
 21
97.139781447
  0
LINE
  5
396
100
AcDbEntity
  8
KONSTRUKTIONSELEMENTE
100
AcDbLine
 62
7
  6
CONTINUOUS
 10
315.3735703997
 20
149.8899473235
 11
306.9589997036
 21
158.3045180197
  0
LINE
  5
397
100
AcDbEntity
  8
KONSTRUKTIONSELEMENTE
100
AcDbLine
 62
7
  6
CONTINUOUS
 10
347.9711930124
 20
118.7772489513
 11
337.3645912946
 21
129.3838506691
  0
LINE
  5
398
100
AcDbEntity
  8
KONSTRUKTIONSELEMENTE
100
AcDbLine
 62
7
  6
CONTINUOUS
 10
278.6747284561
 20
188.7808202888
 11
307.6661064848
 21
159.7894422601
  0
LINE
  5
399
100
AcDbEntity
  8
RUNDUNGEN
100
AcDbLine
 62
7
  6
CONTINUOUS
 10
444.1377152538
 20
24.0249402723
 11
374.1577485735
 21
94.0049069526
  0
LINE
  5
39A
100
AcDbEntity
  8
KONSTRUKTIONSELEMENTE
100
AcDbLine
 62
7
  6
CONTINUOUS
 10
318.6262615931
 20
149.8899473235
 11
337.3349465683
 21
131.1812623484
  0
LINE
  5
39B
100
AcDbEntity
  8
KONSTRUKTIONSELEMENTE
100
AcDbLine
 62
7
  6
CONTINUOUS
 10
349.7389599654
 20
118.7772489513
 11
368.4476449405
 21
100.0685639761
  0
LINE
  5
39C
100
AcDbEntity
  8
KONSTRUKTIONSELEMENTE
100
AcDbLine
 62
7
  6
CONTINUOUS
 10
321.8082421085
 20
153.0719278389
 11
340.5169270837
 21
134.3632428637
  0
LINE
  5
39D
100
AcDbEntity
  8
KONSTRUKTIONSELEMENTE
100
AcDbLine
 62
7
  6
CONTINUOUS
 10
352.9209404807
 20
121.9592294667
 11
371.6296254559
 21
103.2505444915
  0
LINE
  5
39E
100
AcDbEntity
  8
RUNDUNGEN
100
AcDbLine
 62
7
  6
CONTINUOUS
 10
377.6932639505
 20
97.5404593874
 11
447.6732491597
 21
27.5604741783
  0
LINE
  5
39F
100
AcDbEntity
  8
KONSTRUKTIONSELEMENTE
100
AcDbLine
 62
7
  6
CONTINUOUS
 10
282.9173691432
 20
193.0234609759
 11
311.8592370447
 21
164.0815930745
  0
LINE
  5
3A0
100
AcDbEntity
  8
KONSTRUKTIONSELEMENTE
100
AcDbLine
 62
7
  6
CONTINUOUS
 10
342.3143387629
 20
134.3335981374
 11
352.9209404807
 21
123.7269964196
  0
LINE
  5
3A1
100
AcDbEntity
  8
KONSTRUKTIONSELEMENTE
100
AcDbLine
 62
7
  6
CONTINUOUS
 10
313.3936714124
 20
164.7391897285
 11
317.4241800651
 21
160.7086810757
  0
LINE
  5
3A2
100
AcDbEntity
  8
KONSTRUKTIONSELEMENTE
100
AcDbLine
 62
7
  6
CONTINUOUS
 10
317.7777334557
 20
160.3551276851
 11
321.8082421085
 21
156.3246190323
  0
LINE
  5
3A3
100
AcDbEntity
  8
KONSTRUKTIONSELEMENTE
100
AcDbLine
 62
7
  6
CONTINUOUS
 10
374.558407985
 20
103.5744531558
 11
378.5889166378
 21
99.5439445031
  0
LINE
  5
3A4
100
AcDbEntity
  8
KONSTRUKTIONSELEMENTE
100
AcDbLine
 62
7
  6
CONTINUOUS
 10
378.9424700284
 20
99.1903911125
 11
382.9729786811
 21
95.1598824597
  0
LINE
  5
3A5
100
AcDbEntity
  8
0
100
AcDbLine
 62
7
  6
CONTINUOUS
 10
276.7396996136
 20
134.8474625642
 11
280.1396996136
 21
128.9584898185
  0
LINE
  5
3A6
100
AcDbEntity
  8
KONSTRUKTIONSELEMENTE
100
AcDbLine
 62
7
  6
CONTINUOUS
 10
345.4963192782
 20
137.5155786528
 11
356.102920996
 21
126.908976935
  0
LINE
  5
3A7
100
AcDbEntity
  8
KONSTRUKTIONSELEMENTE
100
AcDbLine
 62
7
  6
CONTINUOUS
 10
316.9292053183
 20
168.2747236344
 11
320.9597139711
 21
164.2442149816
  0
LINE
  5
3A8
100
AcDbEntity
  8
KONSTRUKTIONSELEMENTE
100
AcDbLine
 62
7
  6
CONTINUOUS
 10
321.3132673617
 20
163.890661591
 11
325.3437760144
 21
159.8601529383
  0
LINE
  5
3A9
100
AcDbEntity
  8
KONSTRUKTIONSELEMENTE
100
AcDbLine
 62
7
  6
CONTINUOUS
 10
378.0939418909
 20
107.1099870617
 11
382.1244505437
 21
103.079478409
  0
LINE
  5
3AA
100
AcDbEntity
  8
KONSTRUKTIONSELEMENTE
100
AcDbLine
 62
7
  6
CONTINUOUS
 10
382.4780039343
 20
102.7259250184
 11
386.5085125871
 21
98.6954163656
  0
LINE
  5
3AB
100
AcDbEntity
  8
0
100
AcDbLine
 62
7
  6
CONTINUOUS
 10
272.3315849248
 20
193.1605382693
 11
268.1614811288
 21
201.1490609073
  0
LINE
  5
3AC
100
AcDbEntity
  8
0
100
AcDbLine
 62
7
  6
CONTINUOUS
 10
218.2396996136
 20
271.4584898185
 11
218.2396996136
 21
206.4584898185
  0
LINE
  5
3AD
100
AcDbEntity
  8
0
100
AcDbLine
 62
7
  6
CONTINUOUS
 10
240.2396996136
 20
271.4584898185
 11
240.2396996136
 21
206.4584898185
  0
LINE
  5
3AE
100
AcDbEntity
  8
0
100
AcDbLine
 62
7
  6
CONTINUOUS
 10
247.2396996136
 20
278.4584898185
 11
247.2396996136
 21
774.4584898185
  0
LINE
  5
3AF
100
AcDbEntity
  8
RUNDUNGEN
100
AcDbLine
 62
7
  6
CONTINUOUS
 10
250.3396996136
 20
117.9584898185
 11
250.3396996136
 21
128.9584898185
  0
LINE
  5
3B0
100
AcDbEntity
  8
RUNDUNGEN
100
AcDbLine
 62
7
  6
CONTINUOUS
 10
253.7396996136
 20
134.8474625642
 11
253.7396996136
 21
146.4584898185
  0
LINE
  5
3B1
100
AcDbEntity
  8
RUNDUNGEN
100
AcDbLine
 62
7
  6
CONTINUOUS
 10
262.7404496136
 20
130.7320917331
 11
261.1285981511
 21
144.4584898185
  0
LINE
  5
3B2
100
AcDbEntity
  8
0
100
AcDbLine
 62
7
  6
CONTINUOUS
 10
262.7404496136
 20
138.352986483
 11
261.5209433468
 21
148.738204274
  0
LINE
  5
3B3
100
AcDbEntity
  8
0
100
AcDbLine
 62
7
  6
CONTINUOUS
 10
268.7722345011
 20
158.6117640142
 11
268.9584558803
 21
148.738204274
  0
LINE
  5
3B4
100
AcDbEntity
  8
BEZUGSACHSEN
100
AcDbLine
 62
7
  6
CONTINUOUS
 10
257.2396996136
 20
189.4584898185
 11
257.2396996136
 21
160.978377805
  0
LINE
  5
3B5
100
AcDbEntity
  8
RUNDUNGEN
100
AcDbLine
 62
7
  6
CONTINUOUS
 10
257.2396996136
 20
160.9779974711
 11
257.2396996136
 21
150.8459720122
  0
LINE
  5
3B6
100
AcDbEntity
  8
0
100
AcDbLine
 62
7
  6
CONTINUOUS
 10
262.7404496136
 20
138.352986483
 11
262.7404496136
 21
130.7320917331
  0
LINE
  5
3B7
100
AcDbEntity
  8
0
100
AcDbLine
 62
7
  6
CONTINUOUS
 10
267.7389496136
 20
138.352986483
 11
267.7389496136
 21
130.7320917331
  0
LINE
  5
3B8
100
AcDbEntity
  8
BEZUGSACHSEN
100
AcDbLine
 62
7
  6
CONTINUOUS
 10
273.2396996136
 20
189.4584898185
 11
273.2396996136
 21
160.978377805
  0
LINE
  5
3B9
100
AcDbEntity
  8
0
100
AcDbLine
 62
7
  6
CONTINUOUS
 10
273.2396996136
 20
160.9779974711
 11
273.2396996136
 21
150.8459720122
  0
LINE
  5
3BA
100
AcDbEntity
  8
0
100
AcDbLine
 62
7
  6
CONTINUOUS
 10
276.7396996136
 20
134.8474625642
 11
276.7396996136
 21
146.4584898185
  0
LINE
  5
3BB
100
AcDbEntity
  8
0
100
AcDbLine
 62
7
  6
CONTINUOUS
 10
280.1396996136
 20
128.9584898185
 11
280.1396996136
 21
117.9584898185
  0
LINE
  5
3BC
100
AcDbEntity
  8
0
100
AcDbLine
 62
7
  6
CONTINUOUS
 10
261.707164726
 20
158.6117640142
 11
261.5209433468
 21
148.738204274
  0
LINE
  5
3BD
100
AcDbEntity
  8
0
100
AcDbLine
 62
7
  6
CONTINUOUS
 10
283.2396996136
 20
278.4584898185
 11
283.2396996136
 21
774.4584898185
  0
LINE
  5
3BE
100
AcDbEntity
  8
0
100
AcDbLine
 62
7
  6
CONTINUOUS
 10
290.2396996136
 20
206.4584898185
 11
290.2396996136
 21
271.4584898185
  0
LINE
  5
3BF
100
AcDbEntity
  8
0
100
AcDbLine
 62
7
  6
CONTINUOUS
 10
267.7389496136
 20
138.352986483
 11
268.9584558803
 21
148.738204274
  0
LINE
  5
3C0
100
AcDbEntity
  8
0
100
AcDbLine
 62
7
  6
CONTINUOUS
 10
267.7389496136
 20
130.7320917331
 11
269.350801076
 21
144.4584898185
  0
LINE
  5
3C1
100
AcDbEntity
  8
0
100
AcDbLine
 62
7
  6
CONTINUOUS
 10
312.2396996136
 20
206.4584898185
 11
312.2396996136
 21
271.4584898185
  0
LINE
  5
3C2
100
AcDbEntity
  8
KONSTRUKTIONSELEMENTE
100
AcDbLine
 62
7
  6
CONTINUOUS
 10
262.3179180983
 20
201.1490609073
 11
258.1478143024
 21
193.1605382693
  0
LINE
  5
3C3
100
AcDbEntity
  8
RUNDUNGEN
100
AcDbLine
 62
7
  6
CONTINUOUS
 10
253.7396996136
 20
134.8474625642
 11
250.3396996136
 21
128.9584898185
  0
LINE
  5
3C4
100
AcDbEntity
  8
KONSTRUKTIONSELEMENTE
100
AcDbLine
 62
7
  6
CONTINUOUS
 10
320.9597139711
 20
164.2442149816
 11
317.4241800651
 21
160.7086810757
  0
LINE
  5
3C5
100
AcDbEntity
  8
KONSTRUKTIONSELEMENTE
100
AcDbLine
 62
7
  6
CONTINUOUS
 10
321.3132673617
 20
163.890661591
 11
317.7777334557
 21
160.3551276851
  0
LINE
  5
3C6
100
AcDbEntity
  8
KONSTRUKTIONSELEMENTE
100
AcDbLine
 62
7
  6
CONTINUOUS
 10
382.1244505437
 20
103.079478409
 11
378.5889166378
 21
99.5439445031
  0
LINE
  5
3C7
100
AcDbEntity
  8
KONSTRUKTIONSELEMENTE
100
AcDbLine
 62
7
  6
CONTINUOUS
 10
382.4780039343
 20
102.7259250184
 11
378.9424700284
 21
99.1903911125
  0
LINE
  5
3C8
100
AcDbEntity
  8
RUNDUNGEN
100
AcDbLine
 62
7
  6
CONTINUOUS
 10
377.693131902
 20
97.540591436
 11
374.157597996
 21
94.0050575301
  0
LINE
  5
3C9
100
AcDbEntity
  8
RUNDUNGEN
100
AcDbLine
 62
7
  6
CONTINUOUS
 10
444.1377152538
 20
24.0249402723
 11
447.6732491597
 21
27.5604741783
  0
ARC
  5
3CA
100
AcDbEntity
  8
RUNDUNGEN
100
AcDbCircle
 62
7
  6
CONTINUOUS
 10
712.1656897134
 20
144.4584898185
 40
6.5
100
AcDbArc
 50
110.0629909694
 51
180.0
  0
ARC
  5
3CB
100
AcDbEntity
  8
RUNDUNGEN
100
AcDbCircle
 62
7
  6
CONTINUOUS
 10
711.5399987028
 20
146.1718353756
 40
4.6759818433
100
AcDbArc
 50
107.894809104
 51
110.063564326
  0
CIRCLE
  5
3CC
100
AcDbEntity
  8
BEZUGSACHSEN
100
AcDbCircle
 62
7
  6
CONTINUOUS
 10
716.0656897134
 20
121.4584898185
 40
2.5
  0
ARC
  5
3CD
100
AcDbEntity
  8
0
100
AcDbCircle
 62
7
  6
CONTINUOUS
 10
723.3281984153
 20
76.0045930472
 40
0.416959771
100
AcDbArc
 50
78.8903114983
 51
89.9692795105
  0
ARC
  5
3CE
100
AcDbEntity
  8
KONSTRUKTIONSELEMENTE
100
AcDbCircle
 62
7
  6
CONTINUOUS
 10
734.1656897134
 20
73.4692898185
 40
35.9892
100
AcDbArc
 50
57.8980709415
 51
79.9991254185
  0
ARC
  5
3CF
100
AcDbEntity
  8
KONSTRUKTIONSELEMENTE
100
AcDbCircle
 62
7
  6
CONTINUOUS
 10
734.1656897134
 20
73.4692898185
 40
35.9892
100
AcDbArc
 50
100.0008745815
 51
122.1019290585
  0
ARC
  5
3D0
100
AcDbEntity
  8
BEZUGSACHSEN
100
AcDbCircle
 62
7
  6
CONTINUOUS
 10
734.1656897134
 20
166.2084898185
 40
15.25
100
AcDbArc
 50
136.1992889705
 51
43.8007110295
  0
ARC
  5
3D1
100
AcDbEntity
  8
0
100
AcDbCircle
 62
7
  6
CONTINUOUS
 10
734.1656897134
 20
307.4584898185
 40
11.0
100
AcDbArc
 50
0.0
 51
180.0
  0
ARC
  5
3D2
100
AcDbEntity
  8
0
100
AcDbCircle
 62
7
  6
CONTINUOUS
 10
734.1656897134
 20
170.4584898185
 40
11.0
100
AcDbArc
 50
180.0
 51
360.0
  0
ARC
  5
3D3
100
AcDbEntity
  8
RUNDUNGEN
100
AcDbCircle
 62
7
  6
CONTINUOUS
 10
756.1656897134
 20
144.4584898185
 40
6.5
100
AcDbArc
 50
0.0
 51
69.9370090306
  0
ARC
  5
3D4
100
AcDbEntity
  8
KONSTRUKTIONSELEMENTE
100
AcDbCircle
 62
7
  6
CONTINUOUS
 10
734.1656897134
 20
134.5084898185
 40
6.25
100
AcDbArc
 50
0.0
 51
180.0
  0
ARC
  5
3D5
100
AcDbEntity
  8
RUNDUNGEN
100
AcDbCircle
 62
7
  6
CONTINUOUS
 10
756.791380724
 20
146.1718353756
 40
4.6759818433
100
AcDbArc
 50
69.936435674
 51
72.105190896
  0
ARC
  5
3D6
100
AcDbEntity
  8
KONSTRUKTIONSELEMENTE
100
AcDbCircle
 62
7
  6
CONTINUOUS
 10
734.1656897134
 20
84.8925466053
 40
2.5
100
AcDbArc
 50
180.0
 51
360.0
  0
ARC
  5
3D7
100
AcDbEntity
  8
KONSTRUKTIONSELEMENTE
100
AcDbCircle
 62
7
  6
CONTINUOUS
 10
734.1656897134
 20
107.4071173014
 40
2.5
100
AcDbArc
 50
0.0
 51
180.0
  0
ARC
  5
3D8
100
AcDbEntity
  8
KONSTRUKTIONSELEMENTE
100
AcDbCircle
 62
7
  6
CONTINUOUS
 10
734.1656897134
 20
115.5021226855
 40
2.25
100
AcDbArc
 50
209.2743903904
 51
330.7256096096
  0
ARC
  5
3D9
100
AcDbEntity
  8
KONSTRUKTIONSELEMENTE
100
AcDbCircle
 62
7
  6
CONTINUOUS
 10
734.1656897134
 20
137.6087244033
 40
2.25
100
AcDbArc
 50
0.0
 51
180.0
  0
ARC
  5
3DA
100
AcDbEntity
  8
0
100
AcDbCircle
 62
7
  6
CONTINUOUS
 10
746.6284725039
 20
76.6363569527
 40
2.1292118706
100
AcDbArc
 50
350.5636876715
 51
355.3957076166
  0
ARC
  5
3DB
100
AcDbEntity
  8
0
100
AcDbCircle
 62
7
  6
CONTINUOUS
 10
734.1656897134
 20
421.4584898185
 40
161.0
100
AcDbArc
 50
180.0
 51
266.0820200243
  0
ARC
  5
3DC
100
AcDbEntity
  8
0
100
AcDbCircle
 62
7
  6
CONTINUOUS
 10
734.1656897134
 20
421.4584898185
 40
161.0
100
AcDbArc
 50
273.9179799757
 51
360.0
  0
ARC
  5
3DD
100
AcDbEntity
  8
0
100
AcDbCircle
 62
7
  6
CONTINUOUS
 10
734.1656897134
 20
631.4584898185
 40
161.0
100
AcDbArc
 50
0.0
 51
180.0
  0
ARC
  5
3DE
100
AcDbEntity
  8
0
100
AcDbCircle
 62
7
  6
CONTINUOUS
 10
734.1656897134
 20
421.4584898185
 40
125.0
100
AcDbArc
 50
180.0
 51
264.9510772198
  0
ARC
  5
3DF
100
AcDbEntity
  8
0
100
AcDbCircle
 62
7
  6
CONTINUOUS
 10
734.1656897134
 20
421.4584898185
 40
125.0
100
AcDbArc
 50
275.0489227802
 51
360.0
  0
ARC
  5
3E0
100
AcDbEntity
  8
0
100
AcDbCircle
 62
7
  6
CONTINUOUS
 10
734.1656897134
 20
631.4584898185
 40
125.0
100
AcDbArc
 50
0.0
 51
180.0
  0
ARC
  5
3E1
100
AcDbEntity
  8
0
100
AcDbCircle
 62
7
  6
CONTINUOUS
 10
205.2391006951
 20
157.3268098559
 40
63.5461265413
100
AcDbArc
 50
1.1586460452
 51
8.0343897168
  0
ARC
  5
3E2
100
AcDbEntity
  8
0
100
AcDbCircle
 62
7
  6
CONTINUOUS
 10
266.1396996136
 20
117.9584898185
 40
14.0
100
AcDbArc
 50
283.4241551657
 51
360.0
  0
ARC
  5
3E3
100
AcDbEntity
  8
0
100
AcDbCircle
 62
7
  6
CONTINUOUS
 10
266.1396996136
 20
117.9584898185
 40
14.0
100
AcDbArc
 50
270.0
 51
279.3310985005
  0
ARC
  5
3E4
100
AcDbEntity
  8
RUNDUNGEN
100
AcDbCircle
 62
7
  6
CONTINUOUS
 10
264.3396996136
 20
117.9584898185
 40
14.0
100
AcDbArc
 50
180.0
 51
270.0
  0
ARC
  5
3E5
100
AcDbEntity
  8
BEZUGSACHSEN
100
AcDbCircle
 62
7
  6
CONTINUOUS
 10
265.2396996136
 20
189.4584898185
 40
8.0
100
AcDbArc
 50
152.4349057266
 51
180.0
  0
ARC
  5
3E6
100
AcDbEntity
  8
BEZUGSACHSEN
100
AcDbCircle
 62
7
  6
CONTINUOUS
 10
265.2396996136
 20
189.4584898185
 40
8.0
100
AcDbArc
 50
0.0
 51
27.5650942734
  0
CIRCLE
  5
3E7
100
AcDbEntity
  8
BEZUGSACHSEN
100
AcDbCircle
 62
7
  6
CONTINUOUS
 10
265.2396996136
 20
121.4584898185
 40
7.11325
  0
ARC
  5
3E8
100
AcDbEntity
  8
0
100
AcDbCircle
 62
7
  6
CONTINUOUS
 10
272.2396996136
 20
146.4584898185
 40
4.5
100
AcDbArc
 50
0.0
 51
79.3577329759
  0
ARC
  5
3E9
100
AcDbEntity
  8
RUNDUNGEN
100
AcDbCircle
 62
7
  6
CONTINUOUS
 10
258.2396996136
 20
146.4584898185
 40
4.5
100
AcDbArc
 50
100.6422670241
 51
180.0
  0
ARC
  5
3EA
100
AcDbEntity
  8
KONSTRUKTIONSELEMENTE
100
AcDbCircle
 62
7
  6
CONTINUOUS
 10
280.7960487997
 20
190.9021406324
 40
3.0
100
AcDbArc
 50
45.0
 51
225.0
  0
ARC
  5
3EB
100
AcDbEntity
  8
0
100
AcDbCircle
 62
7
  6
CONTINUOUS
 10
273.407416153
 20
148.8020813571
 40
2.1137820271
100
AcDbArc
 50
120.594603582
 51
123.5338792281
  0
ARC
  5
3EC
100
AcDbEntity
  8
RUNDUNGEN
100
AcDbCircle
 62
7
  6
CONTINUOUS
 10
257.0719830741
 20
148.8020813571
 40
2.1137820271
100
AcDbArc
 50
56.4661207719
 51
59.405396418
  0
ARC
  5
3ED
100
AcDbEntity
  8
0
100
AcDbCircle
 62
7
  6
CONTINUOUS
 10
265.2396996136
 20
206.4584898185
 40
47.0
100
AcDbArc
 50
180.0
 51
260.1961109843
  0
ARC
  5
3EE
100
AcDbEntity
  8
0
100
AcDbCircle
 62
7
  6
CONTINUOUS
 10
265.2396996136
 20
206.4584898185
 40
47.0
100
AcDbArc
 50
279.8038890157
 51
311.3385477827
  0
ARC
  5
3EF
100
AcDbEntity
  8
0
100
AcDbCircle
 62
7
  6
CONTINUOUS
 10
265.2396996136
 20
206.4584898185
 40
47.0
100
AcDbArc
 50
318.6614522173
 51
360.0
  0
ARC
  5
3F0
100
AcDbEntity
  8
0
100
AcDbCircle
 62
7
  6
CONTINUOUS
 10
265.2396996136
 20
271.4584898185
 40
47.0
100
AcDbArc
 50
0.0
 51
67.4724957631
  0
ARC
  5
3F1
100
AcDbEntity
  8
0
100
AcDbCircle
 62
7
  6
CONTINUOUS
 10
265.2396996136
 20
271.4584898185
 40
47.0
100
AcDbArc
 50
112.5275042369
 51
180.0
  0
ARC
  5
3F2
100
AcDbEntity
  8
0
100
AcDbCircle
 62
7
  6
CONTINUOUS
 10
265.2396996136
 20
206.4584898185
 40
25.0
100
AcDbArc
 50
180.0
 51
251.3310699785
  0
ARC
  5
3F3
100
AcDbEntity
  8
0
100
AcDbCircle
 62
7
  6
CONTINUOUS
 10
265.2396996136
 20
206.4584898185
 40
25.0
100
AcDbArc
 50
288.6689300215
 51
308.104478947
  0
ARC
  5
3F4
100
AcDbEntity
  8
0
100
AcDbCircle
 62
7
  6
CONTINUOUS
 10
265.2396996136
 20
206.4584898185
 40
25.0
100
AcDbArc
 50
321.895521053
 51
360.0
  0
ARC
  5
3F5
100
AcDbEntity
  8
0
100
AcDbCircle
 62
7
  6
CONTINUOUS
 10
265.2396996136
 20
271.4584898185
 40
25.0
100
AcDbArc
 50
0.0
 51
43.9268336975
  0
ARC
  5
3F6
100
AcDbEntity
  8
0
100
AcDbCircle
 62
7
  6
CONTINUOUS
 10
265.2396996136
 20
271.4584898185
 40
25.0
100
AcDbArc
 50
136.0731663025
 51
180.0
  0
ARC
  5
3F7
100
AcDbEntity
  8
0
100
AcDbCircle
 62
7
  6
CONTINUOUS
 10
265.2396996136
 20
278.4584898185
 40
18.0
100
AcDbArc
 50
180.0
 51
360.0
  0
ARC
  5
3F8
100
AcDbEntity
  8
0
100
AcDbCircle
 62
7
  6
CONTINUOUS
 10
265.2396996136
 20
774.4584898185
 40
18.0
100
AcDbArc
 50
0.0
 51
180.0
  0
ARC
  5
3F9
100
AcDbEntity
  8
0
100
AcDbCircle
 62
7
  6
CONTINUOUS
 10
325.240298532
 20
157.3268098559
 40
63.5461265413
100
AcDbArc
 50
171.9656102832
 51
178.8413539548
  0
ARC
  5
3FA
100
AcDbEntity
  8
KONSTRUKTIONSELEMENTE
100
AcDbCircle
 62
7
  6
CONTINUOUS
 10
318.5909062541
 20
153.1072831779
 40
9.55
100
AcDbArc
 50
328.6297070454
 51
45.0
  0
ARC
  5
3FB
100
AcDbEntity
  8
KONSTRUKTIONSELEMENTE
100
AcDbCircle
 62
7
  6
CONTINUOUS
 10
318.5909062541
 20
153.1072831779
 40
9.55
100
AcDbArc
 50
225.0
 51
301.3702929546
  0
ARC
  5
3FC
100
AcDbEntity
  8
KONSTRUKTIONSELEMENTE
100
AcDbCircle
 62
7
  6
CONTINUOUS
 10
310.176335558
 20
161.5218538741
 40
9.55
100
AcDbArc
 50
153.3390960058
 51
225.0
  0
ARC
  5
3FD
100
AcDbEntity
  8
KONSTRUKTIONSELEMENTE
100
AcDbCircle
 62
7
  6
CONTINUOUS
 10
310.176335558
 20
161.5218538741
 40
9.55
100
AcDbArc
 50
45.0
 51
116.6609039942
  0
ARC
  5
3FE
100
AcDbEntity
  8
KONSTRUKTIONSELEMENTE
100
AcDbCircle
 62
7
  6
CONTINUOUS
 10
339.8394650287
 20
131.8587244033
 40
8.0
100
AcDbArc
 50
151.3642958278
 51
225.0
  0
ARC
  5
3FF
100
AcDbEntity
  8
KONSTRUKTIONSELEMENTE
100
AcDbCircle
 62
7
  6
CONTINUOUS
 10
339.8394650287
 20
131.8587244033
 40
8.0
100
AcDbArc
 50
45.0
 51
118.6357041722
  0
ARC
  5
400
100
AcDbEntity
  8
KONSTRUKTIONSELEMENTE
100
AcDbCircle
 62
7
  6
CONTINUOUS
 10
318.5909062541
 20
153.1072831779
 40
4.55
100
AcDbArc
 50
344.6522021471
 51
45.0
  0
ARC
  5
401
100
AcDbEntity
  8
KONSTRUKTIONSELEMENTE
100
AcDbCircle
 62
7
  6
CONTINUOUS
 10
318.5909062541
 20
153.1072831779
 40
4.55
100
AcDbArc
 50
225.0
 51
285.3477978529
  0
ARC
  5
402
100
AcDbEntity
  8
KONSTRUKTIONSELEMENTE
100
AcDbCircle
 62
7
  6
CONTINUOUS
 10
310.176335558
 20
161.5218538741
 40
4.55
100
AcDbArc
 50
176.2724010126
 51
225.0
  0
ARC
  5
403
100
AcDbEntity
  8
KONSTRUKTIONSELEMENTE
100
AcDbCircle
 62
7
  6
CONTINUOUS
 10
310.176335558
 20
161.5218538741
 40
4.55
100
AcDbArc
 50
45.0
 51
93.7275989874
  0
ARC
  5
404
100
AcDbEntity
  8
KONSTRUKTIONSELEMENTE
100
AcDbCircle
 62
7
  6
CONTINUOUS
 10
339.8394650287
 20
131.8587244033
 40
3.5
100
AcDbArc
 50
175.1538775079
 51
225.0
  0
ARC
  5
405
100
AcDbEntity
  8
KONSTRUKTIONSELEMENTE
100
AcDbCircle
 62
7
  6
CONTINUOUS
 10
339.8394650287
 20
131.8587244033
 40
3.5
100
AcDbArc
 50
45.0
 51
94.8461224921
  0
ARC
  5
406
100
AcDbEntity
  8
KONSTRUKTIONSELEMENTE
100
AcDbCircle
 62
7
  6
CONTINUOUS
 10
309.7874268283
 20
161.9107626037
 40
3.0
100
AcDbArc
 50
225.0
 51
45.0
  0
ARC
  5
407
100
AcDbEntity
  8
KONSTRUKTIONSELEMENTE
100
AcDbCircle
 62
7
  6
CONTINUOUS
 10
320.2172518508
 20
151.4809375812
 40
2.25
100
AcDbArc
 50
45.0
 51
225.0
  0
ARC
  5
408
100
AcDbEntity
  8
KONSTRUKTIONSELEMENTE
100
AcDbCircle
 62
7
  6
CONTINUOUS
 10
338.9555815523
 20
132.7426078798
 40
2.25
100
AcDbArc
 50
225.0
 51
45.0
  0
ARC
  5
409
100
AcDbEntity
  8
KONSTRUKTIONSELEMENTE
100
AcDbCircle
 62
7
  6
CONTINUOUS
 10
379.7556428267
 20
91.9425466053
 40
9.55
100
AcDbArc
 50
330.1951355235
 51
45.0
  0
ARC
  5
40A
100
AcDbEntity
  8
KONSTRUKTIONSELEMENTE
100
AcDbCircle
 62
7
  6
CONTINUOUS
 10
379.7556428267
 20
91.9425466053
 40
9.55
100
AcDbArc
 50
225.0
 51
299.8048644765
  0
ARC
  5
40B
100
AcDbEntity
  8
KONSTRUKTIONSELEMENTE
100
AcDbCircle
 62
7
  6
CONTINUOUS
 10
371.3410721306
 20
100.3571173014
 40
9.55
100
AcDbArc
 50
148.6297070454
 51
225.0
  0
ARC
  5
40C
100
AcDbEntity
  8
KONSTRUKTIONSELEMENTE
100
AcDbCircle
 62
7
  6
CONTINUOUS
 10
371.3410721306
 20
100.3571173014
 40
9.55
100
AcDbArc
 50
45.0
 51
121.3702929546
  0
ARC
  5
40D
100
AcDbEntity
  8
KONSTRUKTIONSELEMENTE
100
AcDbCircle
 62
7
  6
CONTINUOUS
 10
350.4460667465
 20
121.2521226855
 40
8.0
100
AcDbArc
 50
331.3642958278
 51
45.0
  0
ARC
  5
40E
100
AcDbEntity
  8
KONSTRUKTIONSELEMENTE
100
AcDbCircle
 62
7
  6
CONTINUOUS
 10
350.4460667465
 20
121.2521226855
 40
8.0
100
AcDbArc
 50
225.0
 51
298.6357041722
  0
ARC
  5
40F
100
AcDbEntity
  8
KONSTRUKTIONSELEMENTE
100
AcDbCircle
 62
7
  6
CONTINUOUS
 10
379.7556428267
 20
91.9425466053
 40
4.55
100
AcDbArc
 50
348.3583327703
 51
45.0
  0
ARC
  5
410
100
AcDbEntity
  8
KONSTRUKTIONSELEMENTE
100
AcDbCircle
 62
7
  6
CONTINUOUS
 10
379.7556428267
 20
91.9425466053
 40
4.55
100
AcDbArc
 50
225.0
 51
281.6416672297
  0
ARC
  5
411
100
AcDbEntity
  8
KONSTRUKTIONSELEMENTE
100
AcDbCircle
 62
7
  6
CONTINUOUS
 10
371.3410721306
 20
100.3571173014
 40
4.55
100
AcDbArc
 50
164.6522021471
 51
225.0
  0
ARC
  5
412
100
AcDbEntity
  8
KONSTRUKTIONSELEMENTE
100
AcDbCircle
 62
7
  6
CONTINUOUS
 10
371.3410721306
 20
100.3571173014
 40
4.55
100
AcDbArc
 50
45.0
 51
105.3477978529
  0
ARC
  5
413
100
AcDbEntity
  8
KONSTRUKTIONSELEMENTE
100
AcDbCircle
 62
7
  6
CONTINUOUS
 10
350.4460667465
 20
121.2521226855
 40
3.5
100
AcDbArc
 50
355.1538775079
 51
45.0
  0
ARC
  5
414
100
AcDbEntity
  8
KONSTRUKTIONSELEMENTE
100
AcDbCircle
 62
7
  6
CONTINUOUS
 10
350.4460667465
 20
121.2521226855
 40
3.5
100
AcDbArc
 50
225.0
 51
274.8461224921
  0
ARC
  5
415
100
AcDbEntity
  8
KONSTRUKTIONSELEMENTE
100
AcDbCircle
 62
7
  6
CONTINUOUS
 10
351.329950223
 20
120.368239209
 40
2.25
100
AcDbArc
 50
45.0
 51
225.0
  0
ARC
  5
416
100
AcDbEntity
  8
KONSTRUKTIONSELEMENTE
100
AcDbCircle
 62
7
  6
CONTINUOUS
 10
370.0682799245
 20
101.6299095076
 40
2.25
100
AcDbArc
 50
225.0
 51
45.0
  0
SPLINE
  5
417
100
AcDbEntity
  8
KONSTRUKTIONSELEMENTE
100
AcDbSpline
 62
7
  6
CONTINUOUS
 70
0
 71
3
 72
10
 73
6
 74
0
 42
0.0000001
 43
0.0000001
 44
0.0000000001
 40
0.0
 40
0.0
 40
0.0
 40
0.0
 40
0.3192646009
 40
0.6086079864
 40
1.0
 40
1.0
 40
1.0
 40
1.0
 10
737.6656897134
 20
105.6957734994
 30
0.0
 10
737.6656897134
 20
105.5240337242
 30
0.0
 10
737.5236739268
 20
105.2031825092
 30
0.0
 10
737.1578679122
 20
104.8098301698
 30
0.0
 10
736.8545800794
 20
104.5967902566
 30
0.0
 10
736.6720437784
 20
104.4918756601
 30
0.0
  0
SPLINE
  5
418
100
AcDbEntity
  8
KONSTRUKTIONSELEMENTE
100
AcDbSpline
 62
7
  6
CONTINUOUS
 70
0
 71
3
 72
10
 73
6
 74
0
 42
0.0000001
 43
0.0000001
 44
0.0000000001
 40
0.0
 40
0.0
 40
0.0
 40
0.0
 40
0.3914026107
 40
0.6807340322
 40
1.0
 40
1.0
 40
1.0
 40
1.0
 10
731.6592441123
 20
104.4919281312
 30
0.0
 10
731.4767168688
 20
104.5968435408
 30
0.0
 10
731.1734772881
 20
104.8099026122
 30
0.0
 10
730.8076565835
 20
105.2032009728
 30
0.0
 10
730.6656897134
 20
105.5240437137
 30
0.0
 10
730.6656897134
 20
105.6957734994
 30
0.0
  0
SPLINE
  5
419
100
AcDbEntity
  8
KONSTRUKTIONSELEMENTE
100
AcDbSpline
 62
7
  6
CONTINUOUS
 70
0
 71
3
 72
13
 73
9
 74
0
 42
0.0000001
 43
0.0000001
 44
0.0000000001
 40
0.0
 40
0.0
 40
0.0
 40
0.0
 40
0.1197290731
 40
0.2397365246
 40
0.3609040964
 40
0.4836831257
 40
0.7359942557
 40
1.0
 40
1.0
 40
1.0
 40
1.0
 10
742.1656897134
 20
105.6957734994
 30
0.0
 10
742.1656897134
 20
105.3465597973
 30
0.0
 10
742.0935860916
 20
104.6452187613
 30
0.0
 10
741.7753007568
 20
103.6350005131
 30
0.0
 10
741.2659172152
 20
102.6964222945
 30
0.0
 10
740.3541166866
 20
101.5636477878
 30
0.0
 10
738.838225421
 20
100.4265043717
 30
0.0
 10
737.415338571
 20
99.8799586477
 30
0.0
 10
736.6691140493
 20
99.6899901571
 30
0.0
  0
SPLINE
  5
41A
100
AcDbEntity
  8
KONSTRUKTIONSELEMENTE
100
AcDbSpline
 62
7
  6
CONTINUOUS
 70
0
 71
3
 72
13
 73
9
 74
0
 42
0.0000001
 43
0.0000001
 44
0.0000000001
 40
0.0
 40
0.0
 40
0.0
 40
0.0
 40
0.2640112835
 40
0.5163080567
 40
0.6390830379
 40
0.7602378991
 40
0.8802701562
 40
1.0
 40
1.0
 40
1.0
 40
1.0
 10
731.6613619109
 20
99.6902373467
 30
0.0
 10
730.9152220886
 20
99.880271948
 30
0.0
 10
729.4925456472
 20
100.4268385792
 30
0.0
 10
727.9769555801
 20
101.5639839201
 30
0.0
 10
727.0653653027
 20
102.6965994287
 30
0.0
 10
726.5559743868
 20
103.6350767153
 30
0.0
 10
726.2378376678
 20
104.6452648184
 30
0.0
 10
726.1656897134
 20
105.3465947019
 30
0.0
 10
726.1656897134
 20
105.6957734994
 30
0.0
  0
SPLINE
  5
41B
100
AcDbEntity
  8
KONSTRUKTIONSELEMENTE
100
AcDbSpline
 62
7
  6
CONTINUOUS
 70
0
 71
3
 72
9
 73
5
 74
0
 42
0.0000001
 43
0.0000001
 44
0.0000000001
 40
0.0
 40
0.0
 40
0.0
 40
0.0
 40
0.2444683944
 40
1.0
 40
1.0
 40
1.0
 40
1.0
 10
728.6399904004
 20
152.0102346871
 30
0.0
 10
728.858455929
 20
152.1736113091
 30
0.0
 10
729.7887669837
 20
152.7924239223
 30
0.0
 10
730.8452379606
 20
153.2128639474
 30
0.0
 10
731.6622653775
 20
153.4208569316
 30
0.0
  0
SPLINE
  5
41C
100
AcDbEntity
  8
KONSTRUKTIONSELEMENTE
100
AcDbSpline
 62
7
  6
CONTINUOUS
 70
0
 71
3
 72
9
 73
5
 74
0
 42
0.0000001
 43
0.0000001
 44
0.0000000001
 40
0.0
 40
0.0
 40
0.0
 40
0.0
 40
0.2564950214
 40
1.0
 40
1.0
 40
1.0
 40
1.0
 10
736.6700175159
 20
153.4206097421
 30
0.0
 10
736.9475354826
 20
153.3499285982
 30
0.0
 10
738.0163162199
 20
153.0270826205
 30
0.0
 10
739.0296868047
 20
152.5055943277
 30
0.0
 10
739.6942311201
 20
152.0081114351
 30
0.0
  0
SPLINE
  5
41D
100
AcDbEntity
  8
KONSTRUKTIONSELEMENTE
100
AcDbSpline
 62
7
  6
CONTINUOUS
 70
0
 71
3
 72
10
 73
6
 74
0
 42
0.0000001
 43
0.0000001
 44
0.0000000001
 40
0.0
 40
0.0
 40
0.0
 40
0.0
 40
0.3116645009
 40
0.6060899939
 40
1.0
 40
1.0
 40
1.0
 40
1.0
 10
737.6656897134
 20
136.8084718716
 30
0.0
 10
737.6656897134
 20
136.6113170251
 30
0.0
 10
737.4781611569
 20
136.2399908305
 30
0.0
 10
737.0208418872
 20
135.8061177407
 30
0.0
 10
736.642440575
 20
135.5787077073
 30
0.0
 10
736.4176816017
 20
135.4711195763
 30
0.0
  0
SPLINE
  5
41E
100
AcDbEntity
  8
KONSTRUKTIONSELEMENTE
100
AcDbSpline
 62
7
  6
CONTINUOUS
 70
0
 71
3
 72
10
 73
6
 74
0
 42
0.0000001
 43
0.0000001
 44
0.0000000001
 40
0.0
 40
0.0
 40
0.0
 40
0.0
 40
0.3939255147
 40
0.6883533687
 40
1.0
 40
1.0
 40
1.0
 40
1.0
 10
731.9139404779
 20
135.4710076482
 30
0.0
 10
731.6891325719
 20
135.5785975488
 30
0.0
 10
731.3106700503
 20
135.8060431171
 30
0.0
 10
730.8532285326
 20
136.2399208605
 30
0.0
 10
730.6656897134
 20
136.6113005677
 30
0.0
 10
730.6656897134
 20
136.8084718716
 30
0.0
  0
SPLINE
  5
41F
100
AcDbEntity
  8
KONSTRUKTIONSELEMENTE
100
AcDbSpline
 62
7
  6
CONTINUOUS
 70
0
 71
3
 72
9
 73
5
 74
0
 42
0.0000001
 43
0.0000001
 44
0.0000000001
 40
0.0
 40
0.0
 40
0.0
 40
0.0
 40
0.4887193927
 40
1.0
 40
1.0
 40
1.0
 40
1.0
 10
740.4263402114
 20
132.844997791
 30
0.0
 10
739.8973334092
 20
132.3215804962
 30
0.0
 10
738.6312379046
 20
131.4286694711
 30
0.0
 10
737.1790658527
 20
130.9148830344
 30
0.0
 10
736.4198020339
 20
130.7427057509
 30
0.0
  0
SPLINE
  5
420
100
AcDbEntity
  8
KONSTRUKTIONSELEMENTE
100
AcDbSpline
 62
7
  6
CONTINUOUS
 70
0
 71
3
 72
9
 73
5
 74
0
 42
0.0000001
 43
0.0000001
 44
0.0000000001
 40
0.0
 40
0.0
 40
0.0
 40
0.0
 40
0.5112935852
 40
1.0
 40
1.0
 40
1.0
 40
1.0
 10
731.9135189346
 20
130.7422745386
 30
0.0
 10
731.1546375825
 20
130.9142386896
 30
0.0
 10
729.7031651508
 20
131.4272864514
 30
0.0
 10
728.4373494337
 20
132.3190032886
 30
0.0
 10
727.908312353
 20
132.8417638662
 30
0.0
  0
SPLINE
  5
421
100
AcDbEntity
  8
KONSTRUKTIONSELEMENTE
100
AcDbSpline
 62
7
  6
CONTINUOUS
 70
0
 71
3
 72
9
 73
5
 74
0
 42
0.0000001
 43
0.0000001
 44
0.0000000001
 40
0.0
 40
0.0
 40
0.0
 40
0.0
 40
0.4883932588
 40
1.0
 40
1.0
 40
1.0
 40
1.0
 10
749.041428231
 20
162.8225934487
 30
0.0
 10
747.2255988815
 20
161.7246140004
 30
0.0
 10
743.1929888253
 20
159.977156025
 30
0.0
 10
738.8836708551
 20
159.1832768246
 30
0.0
 10
736.6676838954
 20
159.0088985788
 30
0.0
  0
SPLINE
  5
422
100
AcDbEntity
  8
KONSTRUKTIONSELEMENTE
100
AcDbSpline
 62
7
  6
CONTINUOUS
 70
0
 71
3
 72
9
 73
5
 74
0
 42
0.0000001
 43
0.0000001
 44
0.0000000001
 40
0.0
 40
0.0
 40
0.0
 40
0.0
 40
0.5116009649
 40
1.0
 40
1.0
 40
1.0
 40
1.0
 10
731.6643690632
 20
159.0088382463
 30
0.0
 10
729.4493009226
 20
159.1830825409
 30
0.0
 10
725.1417212779
 20
159.9764094229
 30
0.0
 10
721.11047851
 20
161.7223969378
 30
0.0
 10
719.2950889147
 20
162.8194889657
 30
0.0
  0
SPLINE
  5
423
100
AcDbEntity
  8
KONSTRUKTIONSELEMENTE
100
AcDbSpline
 62
7
  6
CONTINUOUS
 70
0
 71
3
 72
9
 73
5
 74
0
 42
0.0000001
 43
0.0000001
 44
0.0000000001
 40
0.0
 40
0.0
 40
0.0
 40
0.0
 40
0.2342381365
 40
1.0
 40
1.0
 40
1.0
 40
1.0
 10
748.8721424367
 20
170.2492030593
 30
0.0
 10
748.59131654
 20
169.9627273247
 30
0.0
 10
747.3344046131
 20
168.7968443019
 30
0.0
 10
745.8712420237
 20
167.8632718953
 30
0.0
 10
744.69958338
 20
167.2740720686
 30
0.0
  0
SPLINE
  5
424
100
AcDbEntity
  8
KONSTRUKTIONSELEMENTE
100
AcDbSpline
 62
7
  6
CONTINUOUS
 70
0
 71
3
 72
9
 73
5
 74
0
 42
0.0000001
 43
0.0000001
 44
0.0000000001
 40
0.0
 40
0.0
 40
0.0
 40
0.0
 40
0.2660085388
 40
1.0
 40
1.0
 40
1.0
 40
1.0
 10
723.6306877755
 20
167.2746240673
 30
0.0
 10
723.2238207135
 20
167.4792581255
 30
0.0
 10
721.7232090182
 20
168.3027834598
 30
0.0
 10
720.3387103786
 20
169.3519958903
 30
0.0
 10
719.45903178
 20
170.2494089563
 30
0.0
  0
SPLINE
  5
425
100
AcDbEntity
  8
0
100
AcDbSpline
 62
7
  6
CONTINUOUS
 70
0
 71
3
 72
11
 73
7
 74
0
 42
0.0000001
 43
0.0000001
 44
0.0000000001
 40
0.0
 40
0.0
 40
0.0
 40
0.0
 40
0.2192989281
 40
0.4548225453
 40
0.7152180566
 40
1.0
 40
1.0
 40
1.0
 40
1.0
 10
748.7575550471
 20
76.280131402
 30
0.0
 10
748.7575550471
 20
76.5690955067
 30
0.0
 10
748.627616273
 20
77.1740512698
 30
0.0
 10
748.0853959687
 20
77.9674321185
 30
0.0
 10
747.262104204
 20
78.6059913385
 30
0.0
 10
746.5947125767
 20
78.891941982
 30
0.0
 10
746.236117284
 20
79.0024925096
 30
0.0
  0
SPLINE
  5
426
100
AcDbEntity
  8
0
100
AcDbSpline
 62
7
  6
CONTINUOUS
 70
0
 71
3
 72
15
 73
11
 74
0
 42
0.0000001
 43
0.0000001
 44
0.0000000001
 40
0.0
 40
0.0
 40
0.0
 40
0.0
 40
0.1047415988
 40
0.222328371
 40
0.3560160977
 40
0.5
 40
0.6439839023
 40
0.777671629
 40
0.8952584012
 40
1.0
 40
1.0
 40
1.0
 40
1.0
 10
735.6842232796
 20
75.5481595022
 30
0.0
 10
735.6842232796
 20
75.3713274131
 30
0.0
 10
735.7990864033
 20
74.9915323558
 30
0.0
 10
736.2387064237
 20
74.5566047788
 30
0.0
 10
736.8568569762
 20
74.2773860976
 30
0.0
 10
737.5712909599
 20
74.1808297968
 30
0.0
 10
738.2857249436
 20
74.2773860976
 30
0.0
 10
738.9038754961
 20
74.5566047788
 30
0.0
 10
739.3434955165
 20
74.9915323558
 30
0.0
 10
739.4583586402
 20
75.3713274131
 30
0.0
 10
739.4583586402
 20
75.5481595022
 30
0.0
  0
SPLINE
  5
427
100
AcDbEntity
  8
0
100
AcDbSpline
 62
7
  6
CONTINUOUS
 70
0
 71
3
 72
11
 73
7
 74
0
 42
0.0000001
 43
0.0000001
 44
0.0000000001
 40
0.0
 40
0.0
 40
0.0
 40
0.0
 40
0.2094689415
 40
0.4446609502
 40
0.7120169424
 40
1.0
 40
1.0
 40
1.0
 40
1.0
 10
733.2773857145
 20
77.6287828277
 30
0.0
 10
733.2773577011
 20
77.8155226332
 30
0.0
 10
733.1558981843
 20
78.2165758662
 30
0.0
 10
732.6915125678
 20
78.6758477271
 30
0.0
 10
732.0391497157
 20
78.9707310706
 30
0.0
 10
731.5409577643
 20
79.0378478486
 30
0.0
 10
731.2842232796
 20
79.0378478486
 30
0.0
  0
SPLINE
  5
428
100
AcDbEntity
  8
0
100
AcDbSpline
 62
7
  6
CONTINUOUS
 70
0
 71
3
 72
9
 73
5
 74
0
 42
0.0000001
 43
0.0000001
 44
0.0000000001
 40
0.0
 40
0.0
 40
0.0
 40
0.0
 40
0.4402133985
 40
1.0
 40
1.0
 40
1.0
 40
1.0
 10
722.3534219781
 20
75.6225220955
 30
0.0
 10
722.3534219781
 20
75.5993428817
 30
0.0
 10
722.3891197675
 20
75.5488673939
 30
0.0
 10
722.4439466978
 20
75.5376692818
 30
0.0
 10
722.4734219781
 20
75.5376692818
 30
0.0
  0
SPLINE
  5
429
100
AcDbEntity
  8
0
100
AcDbSpline
 62
7
  6
CONTINUOUS
 70
0
 71
3
 72
9
 73
5
 74
0
 42
0.0000001
 43
0.0000001
 44
0.0000000001
 40
0.0
 40
0.0
 40
0.0
 40
0.0
 40
0.4402133985
 40
1.0
 40
1.0
 40
1.0
 40
1.0
 10
723.1784219781
 20
75.6649485024
 30
0.0
 10
723.1784219781
 20
75.6881277162
 30
0.0
 10
723.1427241888
 20
75.738603204
 30
0.0
 10
723.0878972585
 20
75.7498013161
 30
0.0
 10
723.0584219781
 20
75.7498013161
 30
0.0
  0
SPLINE
  5
42A
100
AcDbEntity
  8
0
100
AcDbSpline
 62
7
  6
CONTINUOUS
 70
0
 71
3
 72
9
 73
5
 74
0
 42
0.0000001
 43
0.0000001
 44
0.0000000001
 40
0.0
 40
0.0
 40
0.0
 40
0.0
 40
0.4402133985
 40
1.0
 40
1.0
 40
1.0
 40
1.0
 10
723.1784219781
 20
77.7862688459
 30
0.0
 10
723.1784219781
 20
77.8094480598
 30
0.0
 10
723.1427241888
 20
77.8599235476
 30
0.0
 10
723.0878972585
 20
77.8711216597
 30
0.0
 10
723.0584219781
 20
77.8711216597
 30
0.0
  0
SPLINE
  5
42B
100
AcDbEntity
  8
0
100
AcDbSpline
 62
7
  6
CONTINUOUS
 70
0
 71
3
 72
11
 73
7
 74
0
 42
0.0000001
 43
0.0000001
 44
0.0000000001
 40
0.0
 40
0.0
 40
0.0
 40
0.0
 40
0.2094668498
 40
0.4446559298
 40
0.7120302568
 40
1.0
 40
1.0
 40
1.0
 40
1.0
 10
721.5284219781
 20
76.7043954707
 30
0.0
 10
721.5284219781
 20
76.676285396
 30
0.0
 10
721.5466774411
 20
76.6159064492
 30
0.0
 10
721.616584095
 20
76.5467632695
 30
0.0
 10
721.7147815852
 20
76.5023669673
 30
0.0
 10
721.7897769562
 20
76.4922634364
 30
0.0
 10
721.8284219781
 20
76.4922634364
 30
0.0
  0
SPLINE
  5
42C
100
AcDbEntity
  8
0
100
AcDbSpline
 62
7
  6
CONTINUOUS
 70
0
 71
3
 72
11
 73
7
 74
0
 42
0.0000001
 43
0.0000001
 44
0.0000000001
 40
0.0
 40
0.0
 40
0.0
 40
0.0
 40
0.2094668498
 40
0.4446559298
 40
0.7120302568
 40
1.0
 40
1.0
 40
1.0
 40
1.0
 10
721.5284219781
 20
74.5830751272
 30
0.0
 10
721.5284219781
 20
74.5549650524
 30
0.0
 10
721.5466774411
 20
74.4945861056
 30
0.0
 10
721.616584095
 20
74.425442926
 30
0.0
 10
721.7147815852
 20
74.3810466238
 30
0.0
 10
721.7897769562
 20
74.3709430928
 30
0.0
 10
721.8284219781
 20
74.3709430928
 30
0.0
  0
SPLINE
  5
42D
100
AcDbEntity
  8
0
100
AcDbSpline
 62
7
  6
CONTINUOUS
 70
0
 71
3
 72
9
 73
5
 74
0
 42
0.0000001
 43
0.0000001
 44
0.0000000001
 40
0.0
 40
0.0
 40
0.0
 40
0.0
 40
0.2432035461
 40
1.0
 40
1.0
 40
1.0
 40
1.0
 10
725.5784219781
 20
78.6135837799
 30
0.0
 10
725.5784219781
 20
78.6302313965
 30
0.0
 10
725.5727298764
 20
78.6986851664
 30
0.0
 10
725.5433136229
 20
78.7641681022
 30
0.0
 10
725.5130269282
 20
78.806196013
 30
0.0
  0
SPLINE
  5
42E
100
AcDbEntity
  8
0
100
AcDbSpline
 62
7
  6
CONTINUOUS
 70
0
 71
3
 72
9
 73
5
 74
0
 42
0.0000001
 43
0.0000001
 44
0.0000000001
 40
0.0
 40
0.0
 40
0.0
 40
0.0
 40
0.2250156934
 40
1.0
 40
1.0
 40
1.0
 40
1.0
 10
725.5130269282
 20
78.806196013
 30
0.0
 10
725.4869311148
 20
78.8424083671
 30
0.0
 10
725.3436992252
 20
78.9836089041
 30
0.0
 10
725.1321525733
 20
79.0378478486
 30
0.0
 10
724.9784219781
 20
79.0378478486
 30
0.0
  0
SPLINE
  5
42F
100
AcDbEntity
  8
RUNDUNGEN
100
AcDbSpline
 62
7
  6
CONTINUOUS
 70
0
 71
3
 72
10
 73
6
 74
0
 42
0.0000001
 43
0.0000001
 44
0.0000000001
 40
0.0
 40
0.0
 40
0.0
 40
0.0
 40
0.2265435863
 40
0.4650408478
 40
1.0
 40
1.0
 40
1.0
 40
1.0
 10
701.6874281332
 20
80.9793239982
 30
0.0
 10
701.6874818292
 20
81.0645291434
 30
0.0
 10
701.718535289
 20
81.2407208418
 30
0.0
 10
701.90147703
 20
81.5750385471
 30
0.0
 10
702.146739437
 20
81.7582986244
 30
0.0
 10
702.3270514829
 20
81.8475749947
 30
0.0
  0
SPLINE
  5
430
100
AcDbEntity
  8
RUNDUNGEN
100
AcDbSpline
 62
7
  6
CONTINUOUS
 70
0
 71
3
 72
9
 73
5
 74
0
 42
0.0000001
 43
0.0000001
 44
0.0000000001
 40
0.0
 40
0.0
 40
0.0
 40
0.0
 40
0.4805181646
 40
1.0
 40
1.0
 40
1.0
 40
1.0
 10
701.6874268407
 20
77.4437479047
 30
0.0
 10
701.6873653245
 20
77.33486142
 30
0.0
 10
701.7391084342
 20
77.1061221636
 30
0.0
 10
701.8758595212
 20
76.9184741304
 30
0.0
 10
701.958688071
 20
76.8348294593
 30
0.0
  0
SPLINE
  5
431
100
AcDbEntity
  8
RUNDUNGEN
100
AcDbSpline
 62
7
  6
CONTINUOUS
 70
0
 71
3
 72
11
 73
7
 74
0
 42
0.0000001
 43
0.0000001
 44
0.0000000001
 40
0.0
 40
0.0
 40
0.0
 40
0.0
 40
0.2256919297
 40
0.4632773963
 40
0.7205986282
 40
1.0
 40
1.0
 40
1.0
 40
1.0
 10
691.2462936568
 20
92.3024215911
 30
0.0
 10
691.2462388249
 20
92.5866309418
 30
0.0
 10
691.3490180195
 20
93.1742253441
 30
0.0
 10
691.7910835793
 20
93.9820675339
 30
0.0
 10
692.4839376677
 20
94.6829266873
 30
0.0
 10
693.0630967883
 20
95.0430824585
 30
0.0
 10
693.3784090491
 20
95.1992003376
 30
0.0
  0
SPLINE
  5
432
100
AcDbEntity
  8
RUNDUNGEN
100
AcDbSpline
 62
7
  6
CONTINUOUS
 70
0
 71
3
 72
9
 73
5
 74
0
 42
0.0000001
 43
0.0000001
 44
0.0000000001
 40
0.0
 40
0.0
 40
0.0
 40
0.0
 40
0.4805188659
 40
1.0
 40
1.0
 40
1.0
 40
1.0
 10
691.2462936568
 20
88.7668876852
 30
0.0
 10
691.2463636066
 20
88.4043180889
 30
0.0
 10
691.4193758709
 20
87.6428696722
 30
0.0
 10
691.87472979
 20
87.018146394
 30
0.0
 10
692.1505310094
 20
86.7396276666
 30
0.0
  0
SPLINE
  5
433
100
AcDbEntity
  8
RUNDUNGEN
100
AcDbSpline
 62
7
  6
CONTINUOUS
 70
0
 71
3
 72
11
 73
7
 74
0
 42
0.0000001
 43
0.0000001
 44
0.0000000001
 40
0.0
 40
0.0
 40
0.0
 40
0.0
 40
0.237780559
 40
0.4809056754
 40
0.7339193747
 40
1.0
 40
1.0
 40
1.0
 40
1.0
 10
749.6850544324
 20
56.6385186865
 30
0.0
 10
749.6850544516
 20
57.1794972161
 30
0.0
 10
749.8050642171
 20
58.2771076665
 30
0.0
 10
750.3371839561
 20
59.8718385463
 30
0.0
 10
751.205130175
 20
61.3849496515
 30
0.0
 10
751.9718200708
 20
62.2920643718
 30
0.0
 10
752.3977737681
 20
62.7222150506
 30
0.0
  0
SPLINE
  5
434
100
AcDbEntity
  8
RUNDUNGEN
100
AcDbSpline
 62
7
  6
CONTINUOUS
 70
0
 71
3
 72
9
 73
5
 74
0
 42
0.0000001
 43
0.0000001
 44
0.0000000001
 40
0.0
 40
0.0
 40
0.0
 40
0.0
 40
0.483225943
 40
1.0
 40
1.0
 40
1.0
 40
1.0
 10
749.8950433632
 20
58.4055143485
 30
0.0
 10
750.0837283158
 20
57.6166787967
 30
0.0
 10
750.7349175523
 20
56.0395964809
 30
0.0
 10
751.7874450242
 20
54.7066977249
 30
0.0
 10
752.3977737681
 20
54.0903553263
 30
0.0
  0
SPLINE
  5
435
100
AcDbEntity
  8
RUNDUNGEN
100
AcDbSpline
 62
7
  6
CONTINUOUS
 70
0
 71
3
 72
9
 73
5
 74
0
 42
0.0000001
 43
0.0000001
 44
0.0000000001
 40
0.0
 40
0.0
 40
0.0
 40
0.0
 40
0.4805364547
 40
1.0
 40
1.0
 40
1.0
 40
1.0
 10
700.1656897134
 20
37.0523263375
 30
0.0
 10
700.1656897134
 20
37.4150096026
 30
0.0
 10
700.3385808609
 20
38.1767202978
 30
0.0
 10
700.7940612503
 20
38.8016388658
 30
0.0
 10
701.0699294919
 20
39.0802252758
 30
0.0
  0
SPLINE
  5
436
100
AcDbEntity
  8
BEZUGSACHSEN
100
AcDbSpline
 62
7
  6
CONTINUOUS
 70
0
 71
3
 72
9
 73
5
 74
0
 42
0.0000001
 43
0.0000001
 44
0.0000000001
 40
0.0
 40
0.0
 40
0.0
 40
0.0
 40
0.4742612099
 40
1.0
 40
1.0
 40
1.0
 40
1.0
 10
729.2677187341
 20
86.950082684
 30
0.0
 10
729.5423929724
 20
86.5698802382
 30
0.0
 10
730.2784646353
 20
85.8783481981
 30
0.0
 10
731.1747485436
 20
85.4324516442
 30
0.0
 10
731.663774871
 20
85.2558057828
 30
0.0
  0
SPLINE
  5
437
100
AcDbEntity
  8
BEZUGSACHSEN
100
AcDbSpline
 62
7
  6
CONTINUOUS
 70
0
 71
3
 72
9
 73
5
 74
0
 42
0.0000001
 43
0.0000001
 44
0.0000000001
 40
0.0
 40
0.0
 40
0.0
 40
0.0
 40
0.5257387901
 40
1.0
 40
1.0
 40
1.0
 40
1.0
 10
736.6676045558
 20
85.2558057828
 30
0.0
 10
737.1566308832
 20
85.4324516442
 30
0.0
 10
738.0529147915
 20
85.8783481981
 30
0.0
 10
738.7889864543
 20
86.5698802382
 30
0.0
 10
739.0636606927
 20
86.950082684
 30
0.0
  0
SPLINE
  5
438
100
AcDbEntity
  8
BEZUGSACHSEN
100
AcDbSpline
 62
7
  6
CONTINUOUS
 70
0
 71
3
 72
11
 73
7
 74
0
 42
0.0000001
 43
0.0000001
 44
0.0000000001
 40
0.0
 40
0.0
 40
0.0
 40
0.0
 40
0.2211778223
 40
0.4572018266
 40
0.7166414314
 40
1.0
 40
1.0
 40
1.0
 40
1.0
 10
739.6656897134
 20
85.1836665685
 30
0.0
 10
739.6656897134
 20
85.541903403
 30
0.0
 10
739.514406582
 20
86.288910274
 30
0.0
 10
738.8769862877
 20
87.2841201521
 30
0.0
 10
737.8992033294
 20
88.1053246967
 30
0.0
 10
737.0992564545
 20
88.491140163
 30
0.0
 10
736.6676045558
 20
88.64706126
 30
0.0
  0
SPLINE
  5
439
100
AcDbEntity
  8
BEZUGSACHSEN
100
AcDbSpline
 62
7
  6
CONTINUOUS
 70
0
 71
3
 72
11
 73
7
 74
0
 42
0.0000001
 43
0.0000001
 44
0.0000000001
 40
0.0
 40
0.0
 40
0.0
 40
0.0
 40
0.2833585686
 40
0.5427981734
 40
0.7788221777
 40
1.0
 40
1.0
 40
1.0
 40
1.0
 10
731.663774871
 20
88.64706126
 30
0.0
 10
731.2321229723
 20
88.491140163
 30
0.0
 10
730.4321760974
 20
88.1053246967
 30
0.0
 10
729.4543931391
 20
87.2841201521
 30
0.0
 10
728.8169728448
 20
86.288910274
 30
0.0
 10
728.6656897134
 20
85.541903403
 30
0.0
 10
728.6656897134
 20
85.1836665685
 30
0.0
  0
SPLINE
  5
43A
100
AcDbEntity
  8
RUNDUNGEN
100
AcDbSpline
 62
7
  6
CONTINUOUS
 70
0
 71
3
 72
9
 73
5
 74
0
 42
0.0000001
 43
0.0000001
 44
0.0000000001
 40
0.0
 40
0.0
 40
0.0
 40
0.0
 40
0.5194633901
 40
1.0
 40
1.0
 40
1.0
 40
1.0
 10
767.2614499348
 20
39.0802252758
 30
0.0
 10
767.5373180938
 20
38.8016389492
 30
0.0
 10
767.9927985036
 20
38.1767204191
 30
0.0
 10
768.1656897134
 20
37.4150097197
 30
0.0
 10
768.1656897134
 20
37.0523263375
 30
0.0
  0
SPLINE
  5
43B
100
AcDbEntity
  8
RUNDUNGEN
100
AcDbSpline
 62
7
  6
CONTINUOUS
 70
0
 71
3
 72
10
 73
6
 74
0
 42
0.0000001
 43
0.0000001
 44
0.0000000001
 40
0.0
 40
0.0
 40
0.0
 40
0.0
 40
0.5349737816
 40
0.7734707301
 40
1.0
 40
1.0
 40
1.0
 40
1.0
 10
777.8200025327
 20
93.7796710807
 30
0.0
 10
778.0003226294
 20
93.6903907242
 30
0.0
 10
778.2455948202
 20
93.5071219483
 30
0.0
 10
778.4285281726
 20
93.1727917734
 30
0.0
 10
778.4595762896
 20
92.9966018661
 30
0.0
 10
778.4596270185
 20
92.9114006295
 30
0.0
  0
SPLINE
  5
43C
100
AcDbEntity
  8
RUNDUNGEN
100
AcDbSpline
 62
7
  6
CONTINUOUS
 70
0
 71
3
 72
10
 73
6
 74
0
 42
0.0000001
 43
0.0000001
 44
0.0000000001
 40
0.0
 40
0.0
 40
0.0
 40
0.0
 40
0.4809192537
 40
0.7459271807
 40
1.0
 40
1.0
 40
1.0
 40
1.0
 10
768.522371822
 20
97.0883009457
 30
0.0
 10
768.7714495025
 20
97.3398328234
 30
0.0
 10
769.3330287019
 20
97.5557509574
 30
0.0
 10
770.0699266122
 20
97.5427735196
 30
0.0
 10
770.4438678734
 20
97.4317539264
 30
0.0
 10
770.611464543
 20
97.3487732122
 30
0.0
  0
SPLINE
  5
43D
100
AcDbEntity
  8
0
100
AcDbSpline
 62
7
  6
CONTINUOUS
 70
0
 71
3
 72
9
 73
5
 74
0
 42
0.0000001
 43
0.0000001
 44
0.0000000001
 40
0.0
 40
0.0
 40
0.0
 40
0.0
 40
0.2419317135
 40
1.0
 40
1.0
 40
1.0
 40
1.0
 10
742.7693362587
 20
93.518532658
 30
0.0
 10
742.3082651687
 20
93.7468188669
 30
0.0
 10
740.358025026
 20
94.5994229572
 30
0.0
 10
738.2592244388
 20
95.0984107659
 30
0.0
 10
736.6584473614
 20
95.2891897059
 30
0.0
  0
SPLINE
  5
43E
100
AcDbEntity
  8
0
100
AcDbSpline
 62
7
  6
CONTINUOUS
 70
0
 71
3
 72
9
 73
5
 74
0
 42
0.0000001
 43
0.0000001
 44
0.0000000001
 40
0.0
 40
0.0
 40
0.0
 40
0.0
 40
0.2576205058
 40
1.0
 40
1.0
 40
1.0
 40
1.0
 10
731.6729320653
 20
95.2891897059
 30
0.0
 10
731.1289873385
 20
95.2243629415
 30
0.0
 10
729.0290387022
 20
94.8898588704
 30
0.0
 10
726.9767057684
 20
94.2189625245
 30
0.0
 10
725.5620431681
 20
93.518532658
 30
0.0
  0
SPLINE
  5
43F
100
AcDbEntity
  8
RUNDUNGEN
100
AcDbSpline
 62
7
  6
CONTINUOUS
 70
0
 71
3
 72
12
 73
8
 74
0
 42
0.0000001
 43
0.0000001
 44
0.0000000001
 40
0.0
 40
0.0
 40
0.0
 40
0.0
 40
0.2522581101
 40
0.5153826173
 40
0.6451774834
 40
0.7704539294
 40
1.0
 40
1.0
 40
1.0
 40
1.0
 10
694.1975610933
 20
95.6047801252
 30
0.0
 10
695.7617790942
 20
96.3792580858
 30
0.0
 10
699.2389646121
 20
97.418884276
 30
0.0
 10
703.7582661759
 20
97.4842192318
 30
0.0
 10
707.2897361122
 20
96.7925392967
 30
0.0
 10
710.4552254873
 20
95.6721233782
 30
0.0
 10
712.5781827706
 20
94.3022943328
 30
0.0
 10
713.6957598223
 20
93.1737056379
 30
0.0
  0
SPLINE
  5
440
100
AcDbEntity
  8
0
100
AcDbSpline
 62
7
  6
CONTINUOUS
 70
0
 71
3
 72
11
 73
7
 74
0
 42
0.0000001
 43
0.0000001
 44
0.0000000001
 40
0.0
 40
0.0
 40
0.0
 40
0.0
 40
0.2880052506
 40
0.5553344723
 40
0.7905070702
 40
1.0
 40
1.0
 40
1.0
 40
1.0
 10
720.1784219781
 20
79.0378478486
 30
0.0
 10
720.1011229456
 20
79.0378478486
 30
0.0
 10
719.9511270266
 20
79.0176561992
 30
0.0
 10
719.754773884
 20
78.9288111686
 30
0.0
 10
719.6149247036
 20
78.790580024
 30
0.0
 10
719.5784219781
 20
78.6698105354
 30
0.0
 10
719.5784219781
 20
78.6135837799
 30
0.0
  0
SPLINE
  5
441
100
AcDbEntity
  8
0
100
AcDbSpline
 62
7
  6
CONTINUOUS
 70
0
 71
3
 72
11
 73
7
 74
0
 42
0.0000001
 43
0.0000001
 44
0.0000000001
 40
0.0
 40
0.0
 40
0.0
 40
0.0
 40
0.2879697432
 40
0.5553440702
 40
0.7905331502
 40
1.0
 40
1.0
 40
1.0
 40
1.0
 10
723.3284219781
 20
76.4922634364
 30
0.0
 10
723.3670670001
 20
76.4922634364
 30
0.0
 10
723.442062371
 20
76.5023669673
 30
0.0
 10
723.5402598612
 20
76.5467632695
 30
0.0
 10
723.6101665151
 20
76.6159064492
 30
0.0
 10
723.6284219781
 20
76.676285396
 30
0.0
 10
723.6284219781
 20
76.7043954707
 30
0.0
  0
SPLINE
  5
442
100
AcDbEntity
  8
0
100
AcDbSpline
 62
7
  6
CONTINUOUS
 70
0
 71
3
 72
11
 73
7
 74
0
 42
0.0000001
 43
0.0000001
 44
0.0000000001
 40
0.0
 40
0.0
 40
0.0
 40
0.0
 40
0.2879697432
 40
0.5553440702
 40
0.7905331502
 40
1.0
 40
1.0
 40
1.0
 40
1.0
 10
723.3284219781
 20
74.3709430928
 30
0.0
 10
723.3670670001
 20
74.3709430928
 30
0.0
 10
723.442062371
 20
74.3810466238
 30
0.0
 10
723.5402598612
 20
74.425442926
 30
0.0
 10
723.6101665151
 20
74.4945861056
 30
0.0
 10
723.6284219781
 20
74.5549650524
 30
0.0
 10
723.6284219781
 20
74.5830751272
 30
0.0
  0
SPLINE
  5
443
100
AcDbEntity
  8
0
100
AcDbSpline
 62
7
  6
CONTINUOUS
 70
0
 71
3
 72
9
 73
5
 74
0
 42
0.0000001
 43
0.0000001
 44
0.0000000001
 40
0.0
 40
0.0
 40
0.0
 40
0.0
 40
0.5597866015
 40
1.0
 40
1.0
 40
1.0
 40
1.0
 10
722.0984219781
 20
77.8711216597
 30
0.0
 10
722.0689466978
 20
77.8711216597
 30
0.0
 10
722.0141197675
 20
77.8599235476
 30
0.0
 10
721.9784219781
 20
77.8094480598
 30
0.0
 10
721.9784219781
 20
77.7862688459
 30
0.0
  0
SPLINE
  5
444
100
AcDbEntity
  8
0
100
AcDbSpline
 62
7
  6
CONTINUOUS
 70
0
 71
3
 72
9
 73
5
 74
0
 42
0.0000001
 43
0.0000001
 44
0.0000000001
 40
0.0
 40
0.0
 40
0.0
 40
0.0
 40
0.5597866015
 40
1.0
 40
1.0
 40
1.0
 40
1.0
 10
722.0984219781
 20
75.7498013161
 30
0.0
 10
722.0689466978
 20
75.7498013161
 30
0.0
 10
722.0141197675
 20
75.738603204
 30
0.0
 10
721.9784219781
 20
75.6881277162
 30
0.0
 10
721.9784219781
 20
75.6649485024
 30
0.0
  0
SPLINE
  5
445
100
AcDbEntity
  8
0
100
AcDbSpline
 62
7
  6
CONTINUOUS
 70
0
 71
3
 72
9
 73
5
 74
0
 42
0.0000001
 43
0.0000001
 44
0.0000000001
 40
0.0
 40
0.0
 40
0.0
 40
0.0
 40
0.5597866015
 40
1.0
 40
1.0
 40
1.0
 40
1.0
 10
722.6834219781
 20
75.5376692818
 30
0.0
 10
722.7128972585
 20
75.5376692818
 30
0.0
 10
722.7677241888
 20
75.5488673939
 30
0.0
 10
722.8034219781
 20
75.5993428817
 30
0.0
 10
722.8034219781
 20
75.6225220955
 30
0.0
  0
SPLINE
  5
446
100
AcDbEntity
  8
0
100
AcDbSpline
 62
7
  6
CONTINUOUS
 70
0
 71
3
 72
11
 73
7
 74
0
 42
0.0000001
 43
0.0000001
 44
0.0000000001
 40
0.0
 40
0.0
 40
0.0
 40
0.0
 40
0.2880001164
 40
0.5553425139
 40
0.7905343079
 40
1.0
 40
1.0
 40
1.0
 40
1.0
 10
731.2842232796
 20
76.8625516309
 30
0.0
 10
731.4237669242
 20
76.8625516309
 30
0.0
 10
731.6945441415
 20
76.8990266508
 30
0.0
 10
732.0490683295
 20
77.0593516927
 30
0.0
 10
732.3014819937
 20
77.3089651924
 30
0.0
 10
732.3673712889
 20
77.5269745075
 30
0.0
 10
732.3673712889
 20
77.6284661543
 30
0.0
  0
SPLINE
  5
447
100
AcDbEntity
  8
0
100
AcDbSpline
 62
7
  6
CONTINUOUS
 70
0
 71
3
 72
8
 73
4
 74
0
 42
0.0000001
 43
0.0000001
 44
0.0000000001
 40
0.0
 40
0.0
 40
0.0
 40
0.0
 40
1.0
 40
1.0
 40
1.0
 40
1.0
 10
746.236117284
 20
79.0024925096
 30
0.0
 10
746.158908373
 20
79.0262950692
 30
0.0
 10
746.0771203721
 20
79.0378478486
 30
0.0
 10
745.9963257078
 20
79.0378478486
 30
0.0
  0
SPLINE
  5
448
100
AcDbEntity
  8
0
100
AcDbSpline
 62
7
  6
CONTINUOUS
 70
0
 71
3
 72
11
 73
7
 74
0
 42
0.0000001
 43
0.0000001
 44
0.0000000001
 40
0.0
 40
0.0
 40
0.0
 40
0.0
 40
0.2779817175
 40
0.5346952233
 40
0.772857858
 40
1.0
 40
1.0
 40
1.0
 40
1.0
 10
746.1997612578
 20
74.2732337921
 30
0.0
 10
746.410066174
 20
74.387114051
 30
0.0
 10
746.7953791093
 20
74.6456674824
 30
0.0
 10
747.2532637131
 20
75.1371126772
 30
0.0
 10
747.5437085873
 20
75.695874229
 30
0.0
 10
747.6109544021
 20
76.098854163
 30
0.0
 10
747.6109544021
 20
76.2942735376
 30
0.0
  0
SPLINE
  5
449
100
AcDbEntity
  8
0
100
AcDbSpline
 62
7
  6
CONTINUOUS
 70
0
 71
3
 72
9
 73
5
 74
0
 42
0.0000001
 43
0.0000001
 44
0.0000000001
 40
0.0
 40
0.0
 40
0.0
 40
0.0
 40
0.2591205677
 40
1.0
 40
1.0
 40
1.0
 40
1.0
 10
746.0173621857
 20
74.2295217366
 30
0.0
 10
746.0336519315
 20
74.2295217366
 30
0.0
 10
746.0964055192
 20
74.2331170064
 30
0.0
 10
746.1588047189
 20
74.2510557978
 30
0.0
 10
746.1997612578
 20
74.2732337921
 30
0.0
  0
SPLINE
  5
44A
100
AcDbEntity
  8
RUNDUNGEN
100
AcDbSpline
 62
7
  6
CONTINUOUS
 70
0
 71
3
 72
11
 73
7
 74
0
 42
0.0000001
 43
0.0000001
 44
0.0000000001
 40
0.0
 40
0.0
 40
0.0
 40
0.0
 40
0.2880068215
 40
0.5553366529
 40
0.7905059061
 40
1.0
 40
1.0
 40
1.0
 40
1.0
 10
707.5156897134
 20
24.0249402723
 30
0.0
 10
707.5801059337
 20
24.0249402723
 30
0.0
 10
707.7051028663
 20
24.0417672876
 30
0.0
 10
707.8687307579
 20
24.1158039947
 30
0.0
 10
707.9852705572
 20
24.2309971532
 30
0.0
 10
708.0156897134
 20
24.3316377668
 30
0.0
 10
708.0156897134
 20
24.3784936629
 30
0.0
  0
SPLINE
  5
44B
100
AcDbEntity
  8
RUNDUNGEN
100
AcDbSpline
 62
7
  6
CONTINUOUS
 70
0
 71
3
 72
13
 73
9
 74
0
 42
0.0000001
 43
0.0000001
 44
0.0000000001
 40
0.0
 40
0.0
 40
0.0
 40
0.0
 40
0.1034546555
 40
0.2106690395
 40
0.3244963599
 40
0.4464318111
 40
0.7129511617
 40
1.0
 40
1.0
 40
1.0
 40
1.0
 10
700.1656897134
 20
27.5604741783
 30
0.0
 10
700.1656897134
 20
27.3283414218
 30
0.0
 10
700.2330554271
 20
26.853228751
 30
0.0
 10
700.5278439373
 20
26.1790604032
 30
0.0
 10
701.0007155271
 20
25.5633413754
 30
0.0
 10
701.8650267609
 20
24.8293255076
 30
0.0
 10
703.2731673184
 20
24.1926509758
 30
0.0
 10
704.5216061991
 20
24.0249402723
 30
0.0
 10
705.1656897134
 20
24.0249402723
 30
0.0
  0
SPLINE
  5
44C
100
AcDbEntity
  8
RUNDUNGEN
100
AcDbSpline
 62
7
  6
CONTINUOUS
 70
0
 71
3
 72
10
 73
6
 74
0
 42
0.0000001
 43
0.0000001
 44
0.0000000001
 40
0.0
 40
0.0
 40
0.0
 40
0.0
 40
0.4808964563
 40
0.7459158441
 40
1.0
 40
1.0
 40
1.0
 40
1.0
 10
694.7316249729
 20
84.1331018225
 30
0.0
 10
694.9806910184
 20
83.8815816944
 30
0.0
 10
695.5422544801
 20
83.6656594361
 30
0.0
 10
696.2791540932
 20
83.6786233721
 30
0.0
 10
696.6531134304
 20
83.7896450819
 30
0.0
 10
696.8207176939
 20
83.872629556
 30
0.0
  0
SPLINE
  5
44D
100
AcDbEntity
  8
RUNDUNGEN
100
AcDbSpline
 62
7
  6
CONTINUOUS
 70
0
 71
3
 72
9
 73
5
 74
0
 42
0.0000001
 43
0.0000001
 44
0.0000000001
 40
0.0
 40
0.0
 40
0.0
 40
0.0
 40
0.5194816775
 40
1.0
 40
1.0
 40
1.0
 40
1.0
 10
778.1883659446
 20
88.7669255453
 30
0.0
 10
778.2712014997
 20
88.8505772907
 30
0.0
 10
778.4079627585
 20
89.0382437359
 30
0.0
 10
778.4596969063
 20
89.267007484
 30
0.0
 10
778.4596257808
 20
89.375903241
 30
0.0
  0
SPLINE
  5
44E
100
AcDbEntity
  8
RUNDUNGEN
100
AcDbSpline
 62
7
  6
CONTINUOUS
 70
0
 71
3
 72
13
 73
9
 74
0
 42
0.0000001
 43
0.0000001
 44
0.0000000001
 40
0.0
 40
0.0
 40
0.0
 40
0.0
 40
0.2870490624
 40
0.5535683755
 40
0.6755038246
 40
0.7893311355
 40
0.8965454157
 40
1.0
 40
1.0
 40
1.0
 40
1.0
 10
763.1656897134
 20
24.0249402723
 30
0.0
 10
763.8097737303
 20
24.0249402723
 30
0.0
 10
765.0582130591
 20
24.1926511355
 30
0.0
 10
766.4663538232
 20
24.8293262224
 30
0.0
 10
767.3306647776
 20
25.5633422621
 30
0.0
 10
767.8035359424
 20
26.1790612857
 30
0.0
 10
768.0983241421
 20
26.8532292987
 30
0.0
 10
768.1656897134
 20
27.3283415816
 30
0.0
 10
768.1656897134
 20
27.5604741783
 30
0.0
  0
SPLINE
  5
44F
100
AcDbEntity
  8
RUNDUNGEN
100
AcDbSpline
 62
7
  6
CONTINUOUS
 70
0
 71
3
 72
11
 73
7
 74
0
 42
0.0000001
 43
0.0000001
 44
0.0000000001
 40
0.0
 40
0.0
 40
0.0
 40
0.0
 40
0.2094942263
 40
0.444667264
 40
0.7119932261
 40
1.0
 40
1.0
 40
1.0
 40
1.0
 10
760.3156897134
 20
24.3784936629
 30
0.0
 10
760.3156897134
 20
24.3316377411
 30
0.0
 10
760.3461094539
 20
24.2309963547
 30
0.0
 10
760.4626495624
 20
24.1158034245
 30
0.0
 10
760.626277419
 20
24.0417669426
 30
0.0
 10
760.7512735091
 20
24.0249402723
 30
0.0
 10
760.8156897134
 20
24.0249402723
 30
0.0
  0
SPLINE
  5
450
100
AcDbEntity
  8
RUNDUNGEN
100
AcDbSpline
 62
7
  6
CONTINUOUS
 70
0
 71
3
 72
9
 73
5
 74
0
 42
0.0000001
 43
0.0000001
 44
0.0000000001
 40
0.0
 40
0.0
 40
0.0
 40
0.0
 40
0.4729729907
 40
1.0
 40
1.0
 40
1.0
 40
1.0
 10
744.3578955841
 20
34.0178566141
 30
0.0
 10
744.851077131
 20
33.5198156804
 30
0.0
 10
746.1802738441
 20
32.7490675724
 30
0.0
 10
747.6726434655
 20
32.5102216466
 30
0.0
 10
748.4536558055
 20
32.5102216466
 30
0.0
  0
SPLINE
  5
451
100
AcDbEntity
  8
RUNDUNGEN
100
AcDbSpline
 62
7
  6
CONTINUOUS
 70
0
 71
3
 72
9
 73
5
 74
0
 42
0.0000001
 43
0.0000001
 44
0.0000000001
 40
0.0
 40
0.0
 40
0.0
 40
0.0
 40
0.5270273161
 40
1.0
 40
1.0
 40
1.0
 40
1.0
 10
719.8777236212
 20
32.5102216466
 30
0.0
 10
720.6587364169
 20
32.5102216466
 30
0.0
 10
722.1511060853
 20
32.7490677167
 30
0.0
 10
723.4803026151
 20
33.5198160028
 30
0.0
 10
723.9734838427
 20
34.0178566141
 30
0.0
  0
SPLINE
  5
452
100
AcDbEntity
  8
RUNDUNGEN
100
AcDbSpline
 62
7
  6
CONTINUOUS
 70
0
 71
3
 72
13
 73
9
 74
0
 42
0.0000001
 43
0.0000001
 44
0.0000000001
 40
0.0
 40
0.0
 40
0.0
 40
0.0
 40
0.1034546555
 40
0.2106690395
 40
0.3244963599
 40
0.4464318111
 40
0.7129511617
 40
1.0
 40
1.0
 40
1.0
 40
1.0
 10
708.0156897134
 20
28.9746877406
 30
0.0
 10
708.0156897134
 20
29.2068204971
 30
0.0
 10
708.0830554271
 20
29.6819331679
 30
0.0
 10
708.3778439373
 20
30.3561015157
 30
0.0
 10
708.8507155271
 20
30.9718205435
 30
0.0
 10
709.7150267609
 20
31.7058364113
 30
0.0
 10
711.1231673184
 20
32.3425109431
 30
0.0
 10
712.3716061991
 20
32.5102216466
 30
0.0
 10
713.0156897134
 20
32.5102216466
 30
0.0
  0
SPLINE
  5
453
100
AcDbEntity
  8
RUNDUNGEN
100
AcDbSpline
 62
7
  6
CONTINUOUS
 70
0
 71
3
 72
13
 73
9
 74
0
 42
0.0000001
 43
0.0000001
 44
0.0000000001
 40
0.0
 40
0.0
 40
0.0
 40
0.0
 40
0.2870490624
 40
0.5535683755
 40
0.6755038246
 40
0.7893311355
 40
0.8965454157
 40
1.0
 40
1.0
 40
1.0
 40
1.0
 10
755.3156897134
 20
32.5102216466
 30
0.0
 10
755.9597737303
 20
32.5102216466
 30
0.0
 10
757.2082130591
 20
32.3425107834
 30
0.0
 10
758.6163538232
 20
31.7058356965
 30
0.0
 10
759.4806647776
 20
30.9718196568
 30
0.0
 10
759.9535359424
 20
30.3561006332
 30
0.0
 10
760.2483241421
 20
29.6819326202
 30
0.0
 10
760.3156897134
 20
29.2068203373
 30
0.0
 10
760.3156897134
 20
28.9746877406
 30
0.0
  0
SPLINE
  5
454
100
AcDbEntity
  8
RUNDUNGEN
100
AcDbSpline
 62
7
  6
CONTINUOUS
 70
0
 71
3
 72
13
 73
9
 74
0
 42
0.0000001
 43
0.0000001
 44
0.0000000001
 40
0.0
 40
0.0
 40
0.0
 40
0.0
 40
0.2360077172
 40
0.3661261163
 40
0.500000078
 40
0.6338740716
 40
0.7639924399
 40
1.0
 40
1.0
 40
1.0
 40
1.0
 10
729.2507774477
 20
39.3471481324
 30
0.0
 10
729.8425933981
 20
39.9447953283
 30
0.0
 10
731.0183536891
 20
40.625772192
 30
0.0
 10
732.7449910826
 20
41.0765423905
 30
0.0
 10
734.1656906888
 20
41.1967614136
 30
0.0
 10
735.5863901604
 20
41.0765420942
 30
0.0
 10
737.3130269268
 20
40.6257716561
 30
0.0
 10
738.4887864226
 20
39.9447949305
 30
0.0
 10
739.0806019791
 20
39.3471481324
 30
0.0
  0
SPLINE
  5
455
100
AcDbEntity
  8
RUNDUNGEN
100
AcDbSpline
 62
7
  6
CONTINUOUS
 70
0
 71
3
 72
9
 73
5
 74
0
 42
0.0000001
 43
0.0000001
 44
0.0000000001
 40
0.0
 40
0.0
 40
0.0
 40
0.0
 40
0.5167739528
 40
1.0
 40
1.0
 40
1.0
 40
1.0
 10
715.9336056587
 20
54.0903553263
 30
0.0
 10
716.5439306702
 20
54.7066939557
 30
0.0
 10
717.5964526122
 20
56.0395839144
 30
0.0
 10
718.247642185
 20
57.6166547419
 30
0.0
 10
718.4363290734
 20
58.4054850788
 30
0.0
  0
SPLINE
  5
456
100
AcDbEntity
  8
RUNDUNGEN
100
AcDbSpline
 62
7
  6
CONTINUOUS
 70
0
 71
3
 72
11
 73
7
 74
0
 42
0.0000001
 43
0.0000001
 44
0.0000000001
 40
0.0
 40
0.0
 40
0.0
 40
0.0
 40
0.2660806488
 40
0.5190943636
 40
0.7622194616
 40
1.0
 40
1.0
 40
1.0
 40
1.0
 10
715.9336056587
 20
62.7222150506
 30
0.0
 10
716.3595594495
 20
62.2920642774
 30
0.0
 10
717.1262494775
 20
61.3849493445
 30
0.0
 10
717.9941957668
 20
59.8718379572
 30
0.0
 10
718.526315401
 20
58.2771068569
 30
0.0
 10
718.6463250135
 20
57.1794963382
 30
0.0
 10
718.6463249943
 20
56.6385177845
 30
0.0
  0
SPLINE
  5
457
100
AcDbEntity
  8
RUNDUNGEN
100
AcDbSpline
 62
7
  6
CONTINUOUS
 70
0
 71
3
 72
10
 73
6
 74
0
 42
0.0000001
 43
0.0000001
 44
0.0000000001
 40
0.0
 40
0.0
 40
0.0
 40
0.0
 40
0.2540843695
 40
0.5191023225
 40
1.0
 40
1.0
 40
1.0
 40
1.0
 10
700.0973258711
 20
85.4949487067
 30
0.0
 10
700.376666534
 20
85.6332562744
 30
0.0
 10
700.9999307006
 20
85.8182917838
 30
0.0
 10
702.2280964565
 20
85.8398993759
 30
0.0
 10
703.164035959
 20
85.4800295242
 30
0.0
 10
703.5791470727
 20
85.0608282626
 30
0.0
  0
SPLINE
  5
458
100
AcDbEntity
  8
RUNDUNGEN
100
AcDbSpline
 62
7
  6
CONTINUOUS
 70
0
 71
3
 72
9
 73
5
 74
0
 42
0.0000001
 43
0.0000001
 44
0.0000000001
 40
0.0
 40
0.0
 40
0.0
 40
0.0
 40
0.5194825986
 40
1.0
 40
1.0
 40
1.0
 40
1.0
 10
706.2175986799
 20
82.396379622
 30
0.0
 10
706.3556580515
 20
82.2569599321
 30
0.0
 10
706.5835929115
 20
81.9441826526
 30
0.0
 10
706.6698171149
 20
81.5629103206
 30
0.0
 10
706.6696986142
 20
81.3814179134
 30
0.0
  0
SPLINE
  5
459
100
AcDbEntity
  8
RUNDUNGEN
100
AcDbSpline
 62
7
  6
CONTINUOUS
 70
0
 71
3
 72
11
 73
7
 74
0
 42
0.0000001
 43
0.0000001
 44
0.0000000001
 40
0.0
 40
0.0
 40
0.0
 40
0.0
 40
0.2524375529
 40
0.5157480446
 40
0.7702932073
 40
1.0
 40
1.0
 40
1.0
 40
1.0
 10
753.5821432433
 20
88.1648794607
 30
0.0
 10
754.1407956532
 20
87.8882786423
 30
0.0
 10
755.3830181109
 20
87.516785585
 30
0.0
 10
757.3069944622
 20
87.4898101591
 30
0.0
 10
759.1150552125
 20
87.9644783983
 30
0.0
 10
760.1466532093
 20
88.630055204
 30
0.0
 10
760.5457856465
 20
89.033120349
 30
0.0
  0
SPLINE
  5
45A
100
AcDbEntity
  8
RUNDUNGEN
100
AcDbSpline
 62
7
  6
CONTINUOUS
 70
0
 71
3
 72
11
 73
7
 74
0
 42
0.0000001
 43
0.0000001
 44
0.0000000001
 40
0.0
 40
0.0
 40
0.0
 40
0.0
 40
0.2297109937
 40
0.4842558728
 40
0.7475644511
 40
1.0
 40
1.0
 40
1.0
 40
1.0
 10
714.5026405435
 20
92.3588746079
 30
0.0
 10
714.9017802793
 20
91.9558020923
 30
0.0
 10
715.9333897085
 20
91.2902227384
 30
0.0
 10
717.741457251
 20
90.8155622996
 30
0.0
 10
719.6654226886
 20
90.8425435188
 30
0.0
 10
720.9076349728
 20
91.2140350976
 30
0.0
 10
721.4662829467
 20
91.4906337196
 30
0.0
  0
SPLINE
  5
45B
100
AcDbEntity
  8
0
100
AcDbSpline
 62
7
  6
CONTINUOUS
 70
0
 71
3
 72
11
 73
7
 74
0
 42
0.0000001
 43
0.0000001
 44
0.0000000001
 40
0.0
 40
0.0
 40
0.0
 40
0.0
 40
0.2094656921
 40
0.4446574861
 40
0.7119998836
 40
1.0
 40
1.0
 40
1.0
 40
1.0
 10
732.3673712889
 20
77.6284661543
 30
0.0
 10
732.3673712889
 20
77.7299578011
 30
0.0
 10
732.3014819937
 20
77.9479671162
 30
0.0
 10
732.0490683295
 20
78.1975806159
 30
0.0
 10
731.6945441415
 20
78.3579056579
 30
0.0
 10
731.4237669242
 20
78.3943806778
 30
0.0
 10
731.2842232796
 20
78.3943806778
 30
0.0
  0
SPLINE
  5
45C
100
AcDbEntity
  8
0
100
AcDbSpline
 62
7
  6
CONTINUOUS
 70
0
 71
3
 72
9
 73
5
 74
0
 42
0.0000001
 43
0.0000001
 44
0.0000000001
 40
0.0
 40
0.0
 40
0.0
 40
0.0
 40
0.4402133985
 40
1.0
 40
1.0
 40
1.0
 40
1.0
 10
721.9784219781
 20
76.8953143016
 30
0.0
 10
721.9784219781
 20
76.8721350878
 30
0.0
 10
722.0141197675
 20
76.8216596
 30
0.0
 10
722.0689466978
 20
76.8104614879
 30
0.0
 10
722.0984219781
 20
76.8104614879
 30
0.0
  0
SPLINE
  5
45D
100
AcDbEntity
  8
0
100
AcDbSpline
 62
7
  6
CONTINUOUS
 70
0
 71
3
 72
11
 73
7
 74
0
 42
0.0000001
 43
0.0000001
 44
0.0000000001
 40
0.0
 40
0.0
 40
0.0
 40
0.0
 40
0.2094929298
 40
0.4446655277
 40
0.7119947494
 40
1.0
 40
1.0
 40
1.0
 40
1.0
 10
719.5784219781
 20
73.9466790241
 30
0.0
 10
719.5784219781
 20
73.8904522686
 30
0.0
 10
719.6149247036
 20
73.76968278
 30
0.0
 10
719.754773884
 20
73.6314516355
 30
0.0
 10
719.9511270266
 20
73.5426066049
 30
0.0
 10
720.1011229456
 20
73.5224149554
 30
0.0
 10
720.1784219781
 20
73.5224149554
 30
0.0
  0
SPLINE
  5
45E
100
AcDbEntity
  8
0
100
AcDbSpline
 62
7
  6
CONTINUOUS
 70
0
 71
3
 72
11
 73
7
 74
0
 42
0.0000001
 43
0.0000001
 44
0.0000000001
 40
0.0
 40
0.0
 40
0.0
 40
0.0
 40
0.2094668498
 40
0.4446559298
 40
0.7120302568
 40
1.0
 40
1.0
 40
1.0
 40
1.0
 10
723.6284219781
 20
75.8558673333
 30
0.0
 10
723.6284219781
 20
75.8839774081
 30
0.0
 10
723.6101665151
 20
75.9443563549
 30
0.0
 10
723.5402598612
 20
76.0134995345
 30
0.0
 10
723.442062371
 20
76.0578958367
 30
0.0
 10
723.3670670001
 20
76.0679993677
 30
0.0
 10
723.3284219781
 20
76.0679993677
 30
0.0
  0
SPLINE
  5
45F
100
AcDbEntity
  8
0
100
AcDbSpline
 62
7
  6
CONTINUOUS
 70
0
 71
3
 72
11
 73
7
 74
0
 42
0.0000001
 43
0.0000001
 44
0.0000000001
 40
0.0
 40
0.0
 40
0.0
 40
0.0
 40
0.2880052506
 40
0.5553344723
 40
0.7905070702
 40
1.0
 40
1.0
 40
1.0
 40
1.0
 10
724.9784219781
 20
73.5224149554
 30
0.0
 10
725.0557210106
 20
73.5224149554
 30
0.0
 10
725.2057169297
 20
73.5426066049
 30
0.0
 10
725.4020700722
 20
73.6314516355
 30
0.0
 10
725.5419192527
 20
73.76968278
 30
0.0
 10
725.5784219781
 20
73.8904522686
 30
0.0
 10
725.5784219781
 20
73.9466790241
 30
0.0
  0
SPLINE
  5
460
100
AcDbEntity
  8
0
100
AcDbSpline
 62
7
  6
CONTINUOUS
 70
0
 71
3
 72
9
 73
5
 74
0
 42
0.0000001
 43
0.0000001
 44
0.0000000001
 40
0.0
 40
0.0
 40
0.0
 40
0.0
 40
0.7407738242
 40
1.0
 40
1.0
 40
1.0
 40
1.0
 10
719.5784219781
 20
74.3002324147
 30
0.0
 10
719.5784219781
 20
74.2583144031
 30
0.0
 10
719.5910650195
 20
74.2010143672
 30
0.0
 10
719.6166883551
 20
74.1505355594
 30
0.0
 10
719.6240942586
 20
74.1378735846
 30
0.0
  0
SPLINE
  5
461
100
AcDbEntity
  8
0
100
AcDbSpline
 62
7
  6
CONTINUOUS
 70
0
 71
3
 72
9
 73
5
 74
0
 42
0.0000001
 43
0.0000001
 44
0.0000000001
 40
0.0
 40
0.0
 40
0.0
 40
0.0
 40
0.461013727
 40
1.0
 40
1.0
 40
1.0
 40
1.0
 10
719.6240942586
 20
74.1378735846
 30
0.0
 10
719.6731757455
 20
74.0539582932
 30
0.0
 10
719.851534072
 20
73.9158680835
 30
0.0
 10
720.0647646585
 20
73.875968346
 30
0.0
 10
720.1784219781
 20
73.875968346
 30
0.0
  0
SPLINE
  5
462
100
AcDbEntity
  8
0
100
AcDbSpline
 62
7
  6
CONTINUOUS
 70
0
 71
3
 72
11
 73
7
 74
0
 42
0.0000001
 43
0.0000001
 44
0.0000000001
 40
0.0
 40
0.0
 40
0.0
 40
0.0
 40
0.2879697432
 40
0.5553440702
 40
0.7905331502
 40
1.0
 40
1.0
 40
1.0
 40
1.0
 10
721.8284219781
 20
76.0679993677
 30
0.0
 10
721.7897769562
 20
76.0679993677
 30
0.0
 10
721.7147815852
 20
76.0578958367
 30
0.0
 10
721.616584095
 20
76.0134995345
 30
0.0
 10
721.5466774411
 20
75.9443563549
 30
0.0
 10
721.5284219781
 20
75.8839774081
 30
0.0
 10
721.5284219781
 20
75.8558673333
 30
0.0
  0
SPLINE
  5
463
100
AcDbEntity
  8
RUNDUNGEN
100
AcDbSpline
 62
7
  6
CONTINUOUS
 70
0
 71
3
 72
11
 73
7
 74
0
 42
0.0000001
 43
0.0000001
 44
0.0000000001
 40
0.0
 40
0.0
 40
0.0
 40
0.0
 40
0.237780559
 40
0.4809056754
 40
0.7339193747
 40
1.0
 40
1.0
 40
1.0
 40
1.0
 10
718.6463249943
 20
56.6385177845
 30
0.0
 10
718.6463249752
 20
56.0975392549
 30
0.0
 10
718.5263152096
 20
54.9999288045
 30
0.0
 10
717.9941954707
 20
53.4051979247
 30
0.0
 10
717.1262492518
 20
51.8920868195
 30
0.0
 10
716.359559356
 20
50.9849720992
 30
0.0
 10
715.9336056587
 20
50.5548214204
 30
0.0
  0
SPLINE
  5
464
100
AcDbEntity
  8
0
100
AcDbSpline
 62
7
  6
CONTINUOUS
 70
0
 71
3
 72
11
 73
7
 74
0
 42
0.0000001
 43
0.0000001
 44
0.0000000001
 40
0.0
 40
0.0
 40
0.0
 40
0.0
 40
0.2879697432
 40
0.5553440702
 40
0.7905331502
 40
1.0
 40
1.0
 40
1.0
 40
1.0
 10
721.8284219781
 20
78.1893197112
 30
0.0
 10
721.7897769562
 20
78.1893197112
 30
0.0
 10
721.7147815852
 20
78.1792161803
 30
0.0
 10
721.616584095
 20
78.134819878
 30
0.0
 10
721.5466774411
 20
78.0656766984
 30
0.0
 10
721.5284219781
 20
78.0052977516
 30
0.0
 10
721.5284219781
 20
77.9771876769
 30
0.0
  0
SPLINE
  5
465
100
AcDbEntity
  8
0
100
AcDbSpline
 62
7
  6
CONTINUOUS
 70
0
 71
3
 72
9
 73
5
 74
0
 42
0.0000001
 43
0.0000001
 44
0.0000000001
 40
0.0
 40
0.0
 40
0.0
 40
0.0
 40
0.5597866015
 40
1.0
 40
1.0
 40
1.0
 40
1.0
 10
722.4734219781
 20
77.0225935223
 30
0.0
 10
722.4439466978
 20
77.0225935223
 30
0.0
 10
722.3891197675
 20
77.0113954101
 30
0.0
 10
722.3534219781
 20
76.9609199223
 30
0.0
 10
722.3534219781
 20
76.9377407085
 30
0.0
  0
SPLINE
  5
466
100
AcDbEntity
  8
0
100
AcDbSpline
 62
7
  6
CONTINUOUS
 70
0
 71
3
 72
9
 73
5
 74
0
 42
0.0000001
 43
0.0000001
 44
0.0000000001
 40
0.0
 40
0.0
 40
0.0
 40
0.0
 40
0.5597866015
 40
1.0
 40
1.0
 40
1.0
 40
1.0
 10
723.0584219781
 20
76.8104614879
 30
0.0
 10
723.0878972585
 20
76.8104614879
 30
0.0
 10
723.1427241888
 20
76.8216596
 30
0.0
 10
723.1784219781
 20
76.8721350878
 30
0.0
 10
723.1784219781
 20
76.8953143016
 30
0.0
  0
SPLINE
  5
467
100
AcDbEntity
  8
RUNDUNGEN
100
AcDbSpline
 62
7
  6
CONTINUOUS
 70
0
 71
3
 72
9
 73
5
 74
0
 42
0.0000001
 43
0.0000001
 44
0.0000000001
 40
0.0
 40
0.0
 40
0.0
 40
0.0
 40
0.4805366099
 40
1.0
 40
1.0
 40
1.0
 40
1.0
 10
768.1656897134
 20
33.5167924315
 30
0.0
 10
768.1656897134
 20
33.8794758137
 30
0.0
 10
767.9927985036
 20
34.6411865131
 30
0.0
 10
767.5373180938
 20
35.2661050433
 30
0.0
 10
767.2614499348
 20
35.5446913699
 30
0.0
  0
SPLINE
  5
468
100
AcDbEntity
  8
0
100
AcDbSpline
 62
7
  6
CONTINUOUS
 70
0
 71
3
 72
9
 73
5
 74
0
 42
0.0000001
 43
0.0000001
 44
0.0000000001
 40
0.0
 40
0.0
 40
0.0
 40
0.0
 40
0.5597866015
 40
1.0
 40
1.0
 40
1.0
 40
1.0
 10
723.0584219781
 20
74.6891411443
 30
0.0
 10
723.0878972585
 20
74.6891411443
 30
0.0
 10
723.1427241888
 20
74.7003392565
 30
0.0
 10
723.1784219781
 20
74.7508147443
 30
0.0
 10
723.1784219781
 20
74.7739939581
 30
0.0
  0
SPLINE
  5
469
100
AcDbEntity
  8
RUNDUNGEN
100
AcDbSpline
 62
7
  6
CONTINUOUS
 70
0
 71
3
 72
10
 73
6
 74
0
 42
0.0000001
 43
0.0000001
 44
0.0000000001
 40
0.0
 40
0.0
 40
0.0
 40
0.0
 40
0.2265442612
 40
0.4650409816
 40
1.0
 40
1.0
 40
1.0
 40
1.0
 10
778.4596257808
 20
89.375903241
 30
0.0
 10
778.4595701296
 20
89.4611073812
 30
0.0
 10
778.4285135475
 20
89.6372957505
 30
0.0
 10
778.2455705273
 20
89.9716060052
 30
0.0
 10
778.0003118723
 20
90.1548621444
 30
0.0
 10
777.8200025327
 20
90.2441371748
 30
0.0
  0
SPLINE
  5
46A
100
AcDbEntity
  8
0
100
AcDbSpline
 62
7
  6
CONTINUOUS
 70
0
 71
3
 72
11
 73
7
 74
0
 42
0.0000001
 43
0.0000001
 44
0.0000000001
 40
0.0
 40
0.0
 40
0.0
 40
0.0
 40
0.2865059912
 40
0.5484241175
 40
0.7833822346
 40
1.0
 40
1.0
 40
1.0
 40
1.0
 10
731.9063717986
 20
76.2895029844
 30
0.0
 10
732.0975556717
 20
76.3339197264
 30
0.0
 10
732.4559884507
 20
76.4603008289
 30
0.0
 10
732.9042503877
 20
76.7685045932
 30
0.0
 10
733.2043653394
 20
77.1678073956
 30
0.0
 10
733.2774079761
 20
77.4803852802
 30
0.0
 10
733.2773857145
 20
77.6287828277
 30
0.0
  0
SPLINE
  5
46B
100
AcDbEntity
  8
0
100
AcDbSpline
 62
7
  6
CONTINUOUS
 70
0
 71
3
 72
9
 73
5
 74
0
 42
0.0000001
 43
0.0000001
 44
0.0000000001
 40
0.0
 40
0.0
 40
0.0
 40
0.0
 40
0.4402133985
 40
1.0
 40
1.0
 40
1.0
 40
1.0
 10
721.9784219781
 20
77.2488676922
 30
0.0
 10
721.9784219781
 20
77.2256884784
 30
0.0
 10
722.0141197675
 20
77.1752129906
 30
0.0
 10
722.0689466978
 20
77.1640148785
 30
0.0
 10
722.0984219781
 20
77.1640148785
 30
0.0
  0
SPLINE
  5
46C
100
AcDbEntity
  8
0
100
AcDbSpline
 62
7
  6
CONTINUOUS
 70
0
 71
3
 72
8
 73
4
 74
0
 42
0.0000001
 43
0.0000001
 44
0.0000000001
 40
0.0
 40
0.0
 40
0.0
 40
0.0
 40
1.0
 40
1.0
 40
1.0
 40
1.0
 10
745.9963257078
 20
73.5224149554
 30
0.0
 10
746.0771203721
 20
73.5224149554
 30
0.0
 10
746.158908373
 20
73.5339677348
 30
0.0
 10
746.236117284
 20
73.5577702944
 30
0.0
  0
SPLINE
  5
46D
100
AcDbEntity
  8
0
100
AcDbSpline
 62
7
  6
CONTINUOUS
 70
0
 71
3
 72
11
 73
7
 74
0
 42
0.0000001
 43
0.0000001
 44
0.0000000001
 40
0.0
 40
0.0
 40
0.0
 40
0.0
 40
0.2847819434
 40
0.5451774547
 40
0.7807010719
 40
1.0
 40
1.0
 40
1.0
 40
1.0
 10
746.236117284
 20
73.5577702944
 30
0.0
 10
746.5947125767
 20
73.668320822
 30
0.0
 10
747.262104204
 20
73.9542714655
 30
0.0
 10
748.0853959687
 20
74.5928306855
 30
0.0
 10
748.627616273
 20
75.3862115342
 30
0.0
 10
748.7575550471
 20
75.9911672973
 30
0.0
 10
748.7575550471
 20
76.280131402
 30
0.0
  0
SPLINE
  5
46E
100
AcDbEntity
  8
0
100
AcDbSpline
 62
7
  6
CONTINUOUS
 70
0
 71
3
 72
9
 73
5
 74
0
 42
0.0000001
 43
0.0000001
 44
0.0000000001
 40
0.0
 40
0.0
 40
0.0
 40
0.0
 40
0.239729366
 40
1.0
 40
1.0
 40
1.0
 40
1.0
 10
746.1997612578
 20
78.3153132831
 30
0.0
 10
746.1865048502
 20
78.3224916371
 30
0.0
 10
746.1290730497
 20
78.3484238808
 30
0.0
 10
746.0651711724
 20
78.3590253387
 30
0.0
 10
746.0173621857
 20
78.3590253387
 30
0.0
  0
SPLINE
  5
46F
100
AcDbEntity
  8
RUNDUNGEN
100
AcDbSpline
 62
7
  6
CONTINUOUS
 70
0
 71
3
 72
9
 73
5
 74
0
 42
0.0000001
 43
0.0000001
 44
0.0000000001
 40
0.0
 40
0.0
 40
0.0
 40
0.0
 40
0.5194635453
 40
1.0
 40
1.0
 40
1.0
 40
1.0
 10
701.0699294919
 20
35.5446913699
 30
0.0
 10
700.7940612503
 20
35.2661049599
 30
0.0
 10
700.3385808609
 20
34.6411863919
 30
0.0
 10
700.1656897134
 20
33.8794756967
 30
0.0
 10
700.1656897134
 20
33.5167924315
 30
0.0
  0
SPLINE
  5
470
100
AcDbEntity
  8
RUNDUNGEN
100
AcDbSpline
 62
7
  6
CONTINUOUS
 70
0
 71
3
 72
10
 73
6
 74
0
 42
0.0000001
 43
0.0000001
 44
0.0000000001
 40
0.0
 40
0.0
 40
0.0
 40
0.0
 40
0.5349741761
 40
0.7734715455
 40
1.0
 40
1.0
 40
1.0
 40
1.0
 10
702.3270514829
 20
78.3120410888
 30
0.0
 10
702.1467277054
 20
78.2227589099
 30
0.0
 10
701.9014503963
 20
78.0394849777
 30
0.0
 10
701.7185190258
 20
77.705144745
 30
0.0
 10
701.6874749765
 20
77.5289505124
 30
0.0
 10
701.6874268407
 20
77.4437479047
 30
0.0
  0
SPLINE
  5
471
100
AcDbEntity
  8
0
100
AcDbSpline
 62
7
  6
CONTINUOUS
 70
0
 71
3
 72
11
 73
7
 74
0
 42
0.0000001
 43
0.0000001
 44
0.0000000001
 40
0.0
 40
0.0
 40
0.0
 40
0.0
 40
0.2094668498
 40
0.4446559298
 40
0.7120302568
 40
1.0
 40
1.0
 40
1.0
 40
1.0
 10
723.6284219781
 20
77.9771876769
 30
0.0
 10
723.6284219781
 20
78.0052977516
 30
0.0
 10
723.6101665151
 20
78.0656766984
 30
0.0
 10
723.5402598612
 20
78.134819878
 30
0.0
 10
723.442062371
 20
78.1792161803
 30
0.0
 10
723.3670670001
 20
78.1893197112
 30
0.0
 10
723.3284219781
 20
78.1893197112
 30
0.0
  0
SPLINE
  5
472
100
AcDbEntity
  8
RUNDUNGEN
100
AcDbSpline
 62
7
  6
CONTINUOUS
 70
0
 71
3
 72
11
 73
7
 74
0
 42
0.0000001
 43
0.0000001
 44
0.0000000001
 40
0.0
 40
0.0
 40
0.0
 40
0.0
 40
0.2794013718
 40
0.5367226037
 40
0.7743080703
 40
1.0
 40
1.0
 40
1.0
 40
1.0
 10
693.3784090491
 20
91.6636664316
 30
0.0
 10
693.0630967883
 20
91.5075485526
 30
0.0
 10
692.4839376677
 20
91.1473927814
 30
0.0
 10
691.7910835793
 20
90.446533628
 30
0.0
 10
691.3490180195
 20
89.6386914382
 30
0.0
 10
691.2462388249
 20
89.0510970359
 30
0.0
 10
691.2462936568
 20
88.7668876852
 30
0.0
  0
SPLINE
  5
473
100
AcDbEntity
  8
RUNDUNGEN
100
AcDbSpline
 62
7
  6
CONTINUOUS
 70
0
 71
3
 72
12
 73
8
 74
0
 42
0.0000001
 43
0.0000001
 44
0.0000000001
 40
0.0
 40
0.0
 40
0.0
 40
0.0
 40
0.2295487337
 40
0.3548258227
 40
0.4846200261
 40
0.7477431889
 40
1.0
 40
1.0
 40
1.0
 40
1.0
 10
713.6957598223
 20
89.638171732
 30
0.0
 10
712.5781698331
 20
90.7667734919
 30
0.0
 10
710.4551871719
 20
92.1366089517
 30
0.0
 10
707.2896774495
 20
93.2570212932
 30
0.0
 10
703.7582146374
 20
93.9486876317
 30
0.0
 10
699.2389370875
 20
93.8833441815
 30
0.0
 10
695.761771
 20
92.8437201723
 30
0.0
 10
694.1975610933
 20
92.0692462193
 30
0.0
  0
SPLINE
  5
474
100
AcDbEntity
  8
0
100
AcDbSpline
 62
7
  6
CONTINUOUS
 70
0
 71
3
 72
9
 73
5
 74
0
 42
0.0000001
 43
0.0000001
 44
0.0000000001
 40
0.0
 40
0.0
 40
0.0
 40
0.0
 40
0.2419366003
 40
1.0
 40
1.0
 40
1.0
 40
1.0
 10
742.7693362587
 20
89.982998752
 30
0.0
 10
742.3088340655
 20
90.211003288
 30
0.0
 10
740.3610934942
 20
91.0626495128
 30
0.0
 10
738.2651222079
 20
91.5615453704
 30
0.0
 10
736.6664366662
 20
91.7527020762
 30
0.0
  0
SPLINE
  5
475
100
AcDbEntity
  8
0
100
AcDbSpline
 62
7
  6
CONTINUOUS
 70
0
 71
3
 72
9
 73
5
 74
0
 42
0.0000001
 43
0.0000001
 44
0.0000000001
 40
0.0
 40
0.0
 40
0.0
 40
0.0
 40
0.2576167678
 40
1.0
 40
1.0
 40
1.0
 40
1.0
 10
731.6649427605
 20
91.7527020762
 30
0.0
 10
731.1217129433
 20
91.6877474497
 30
0.0
 10
729.0245114372
 20
91.3529430028
 30
0.0
 10
726.9749393056
 20
90.6825540048
 30
0.0
 10
725.5620431681
 20
89.982998752
 30
0.0
  0
SPLINE
  5
476
100
AcDbEntity
  8
RUNDUNGEN
100
AcDbSpline
 62
7
  6
CONTINUOUS
 70
0
 71
3
 72
10
 73
6
 74
0
 42
0.0000001
 43
0.0000001
 44
0.0000000001
 40
0.0
 40
0.0
 40
0.0
 40
0.0
 40
0.2540841022
 40
0.5191024011
 40
1.0
 40
1.0
 40
1.0
 40
1.0
 10
770.611464543
 20
93.8132393063
 30
0.0
 10
770.4438603205
 20
93.8962237601
 30
0.0
 10
770.0699018309
 20
94.0072452898
 30
0.0
 10
769.3330023324
 20
94.0202096305
 30
0.0
 10
768.771438451
 20
93.8042877571
 30
0.0
 10
768.522371822
 20
93.5527670398
 30
0.0
  0
SPLINE
  5
477
100
AcDbEntity
  8
BEZUGSACHSEN
100
AcDbSpline
 62
7
  6
CONTINUOUS
 70
0
 71
3
 72
19
 73
15
 74
0
 42
0.0000001
 43
0.0000001
 44
0.0000000001
 40
0.0
 40
0.0
 40
0.0
 40
0.0
 40
0.0517279957
 40
0.105334459
 40
0.1622489926
 40
0.2232158543
 40
0.3564755372
 40
0.5
 40
0.6435244628
 40
0.7767841457
 40
0.8377510074
 40
0.894665541
 40
0.9482720043
 40
1.0
 40
1.0
 40
1.0
 40
1.0
 10
728.6656897134
 20
85.1836665685
 30
0.0
 10
728.6656897134
 20
84.9283172434
 30
0.0
 10
728.7397947178
 20
84.4056936537
 30
0.0
 10
729.0640586522
 20
83.664105248
 30
0.0
 10
729.5842373455
 20
82.986817911
 30
0.0
 10
730.5348638604
 20
82.1794016014
 30
0.0
 10
732.0848296519
 20
81.4790611106
 30
0.0
 10
734.1656897134
 20
81.1989175182
 30
0.0
 10
736.2465497749
 20
81.4790611106
 30
0.0
 10
737.7965155664
 20
82.1794016014
 30
0.0
 10
738.7471420813
 20
82.986817911
 30
0.0
 10
739.2673207746
 20
83.664105248
 30
0.0
 10
739.591584709
 20
84.4056936537
 30
0.0
 10
739.6656897134
 20
84.9283172434
 30
0.0
 10
739.6656897134
 20
85.1836665685
 30
0.0
  0
SPLINE
  5
478
100
AcDbEntity
  8
0
100
AcDbSpline
 62
7
  6
CONTINUOUS
 70
0
 71
3
 72
11
 73
7
 74
0
 42
0.0000001
 43
0.0000001
 44
0.0000000001
 40
0.0
 40
0.0
 40
0.0
 40
0.0
 40
0.227142142
 40
0.4653047767
 40
0.7220182825
 40
1.0
 40
1.0
 40
1.0
 40
1.0
 10
747.6109544021
 20
76.2942735376
 30
0.0
 10
747.6109544021
 20
76.4896929123
 30
0.0
 10
747.5437085873
 20
76.8926728462
 30
0.0
 10
747.2532637131
 20
77.4514343981
 30
0.0
 10
746.7953791093
 20
77.9428795928
 30
0.0
 10
746.410066174
 20
78.2014330243
 30
0.0
 10
746.1997612578
 20
78.3153132831
 30
0.0
  0
SPLINE
  5
479
100
AcDbEntity
  8
0
100
AcDbSpline
 62
7
  6
CONTINUOUS
 70
0
 71
3
 72
17
 73
13
 74
0
 42
0.0000001
 43
0.0000001
 44
0.0000000001
 40
0.0
 40
0.0
 40
0.0
 40
0.0
 40
0.0517921087
 40
0.1054769531
 40
0.2228492041
 40
0.356284866
 40
0.5
 40
0.643715134
 40
0.7771507959
 40
0.8945230469
 40
0.9482078913
 40
1.0
 40
1.0
 40
1.0
 40
1.0
 10
734.7242232796
 20
75.5481595022
 30
0.0
 10
734.7242232796
 20
75.4159902428
 30
0.0
 10
734.7626346056
 20
75.1454513692
 30
0.0
 10
734.9926450807
 20
74.6188876073
 30
0.0
 10
735.560707652
 20
74.0504334686
 30
0.0
 10
736.4934187313
 20
73.631448038
 30
0.0
 10
737.5712909599
 20
73.4849549233
 30
0.0
 10
738.6491631885
 20
73.631448038
 30
0.0
 10
739.5818742678
 20
74.0504334686
 30
0.0
 10
740.1499368391
 20
74.6188876073
 30
0.0
 10
740.3799473142
 20
75.1454513692
 30
0.0
 10
740.4183586402
 20
75.4159902428
 30
0.0
 10
740.4183586402
 20
75.5481595022
 30
0.0
  0
SPLINE
  5
47A
100
AcDbEntity
  8
0
100
AcDbSpline
 62
7
  6
CONTINUOUS
 70
0
 71
3
 72
9
 73
5
 74
0
 42
0.0000001
 43
0.0000001
 44
0.0000000001
 40
0.0
 40
0.0
 40
0.0
 40
0.0
 40
0.4402133985
 40
1.0
 40
1.0
 40
1.0
 40
1.0
 10
721.9784219781
 20
74.7739939581
 30
0.0
 10
721.9784219781
 20
74.7508147443
 30
0.0
 10
722.0141197675
 20
74.7003392565
 30
0.0
 10
722.0689466978
 20
74.6891411443
 30
0.0
 10
722.0984219781
 20
74.6891411443
 30
0.0
  0
SPLINE
  5
47B
100
AcDbEntity
  8
0
100
AcDbSpline
 62
7
  6
CONTINUOUS
 70
0
 71
3
 72
9
 73
5
 74
0
 42
0.0000001
 43
0.0000001
 44
0.0000000001
 40
0.0
 40
0.0
 40
0.0
 40
0.0
 40
0.4402133985
 40
1.0
 40
1.0
 40
1.0
 40
1.0
 10
721.9784219781
 20
75.1275473487
 30
0.0
 10
721.9784219781
 20
75.1043681349
 30
0.0
 10
722.0141197675
 20
75.0538926471
 30
0.0
 10
722.0689466978
 20
75.0426945349
 30
0.0
 10
722.0984219781
 20
75.0426945349
 30
0.0
  0
SPLINE
  5
47C
100
AcDbEntity
  8
0
100
AcDbSpline
 62
7
  6
CONTINUOUS
 70
0
 71
3
 72
9
 73
5
 74
0
 42
0.0000001
 43
0.0000001
 44
0.0000000001
 40
0.0
 40
0.0
 40
0.0
 40
0.0
 40
0.5
 40
1.0
 40
1.0
 40
1.0
 40
1.0
 10
734.7453402474
 20
75.6573056605
 30
0.0
 10
734.9348011485
 20
74.5622950557
 30
0.0
 10
737.5712909599
 20
73.2148055643
 30
0.0
 10
740.2077807713
 20
74.5622950557
 30
0.0
 10
740.3972416724
 20
75.6573056605
 30
0.0
  0
SPLINE
  5
47D
100
AcDbEntity
  8
0
100
AcDbSpline
 62
7
  6
CONTINUOUS
 70
0
 71
3
 72
8
 73
4
 74
0
 42
0.0000001
 43
0.0000001
 44
0.0000000001
 40
0.0
 40
0.0
 40
0.0
 40
0.0
 40
1.0
 40
1.0
 40
1.0
 40
1.0
 10
745.9963257078
 20
73.875968346
 30
0.0
 10
746.0771203721
 20
73.875968346
 30
0.0
 10
746.158908373
 20
73.8875211254
 30
0.0
 10
746.236117284
 20
73.911323685
 30
0.0
  0
SPLINE
  5
47E
100
AcDbEntity
  8
0
100
AcDbSpline
 62
7
  6
CONTINUOUS
 70
0
 71
3
 72
11
 73
7
 74
0
 42
0.0000001
 43
0.0000001
 44
0.0000000001
 40
0.0
 40
0.0
 40
0.0
 40
0.0
 40
0.2816347582
 40
0.5420479832
 40
0.7798483853
 40
1.0
 40
1.0
 40
1.0
 40
1.0
 10
746.236117284
 20
73.911323685
 30
0.0
 10
746.5599924364
 20
74.0111704194
 30
0.0
 10
747.1672788471
 20
74.2642194647
 30
0.0
 10
747.9382006074
 20
74.8154222198
 30
0.0
 10
748.4904594902
 20
75.4962100036
 30
0.0
 10
748.6854644199
 20
76.0259221624
 30
0.0
 10
748.7288728428
 20
76.287270135
 30
0.0
  0
SPLINE
  5
47F
100
AcDbEntity
  8
0
100
AcDbSpline
 62
7
  6
CONTINUOUS
 70
0
 71
3
 72
9
 73
5
 74
0
 42
0.0000001
 43
0.0000001
 44
0.0000000001
 40
0.0
 40
0.0
 40
0.0
 40
0.0
 40
0.2591205677
 40
1.0
 40
1.0
 40
1.0
 40
1.0
 10
746.0173621857
 20
78.7125787293
 30
0.0
 10
746.0336519315
 20
78.7125787293
 30
0.0
 10
746.0964055192
 20
78.7089834594
 30
0.0
 10
746.1588047189
 20
78.6910446681
 30
0.0
 10
746.1997612578
 20
78.6688666737
 30
0.0
  0
SPLINE
  5
480
100
AcDbEntity
  8
0
100
AcDbSpline
 62
7
  6
CONTINUOUS
 70
0
 71
3
 72
11
 73
7
 74
0
 42
0.0000001
 43
0.0000001
 44
0.0000000001
 40
0.0
 40
0.0
 40
0.0
 40
0.0
 40
0.2779697373
 40
0.5346991835
 40
0.7728568778
 40
1.0
 40
1.0
 40
1.0
 40
1.0
 10
746.1997612578
 20
78.6688666737
 30
0.0
 10
746.4100578639
 20
78.5549909148
 30
0.0
 10
746.7953661867
 20
78.2964265315
 30
0.0
 10
747.2532812091
 20
77.8050046354
 30
0.0
 10
747.5437150107
 20
77.2462226132
 30
0.0
 10
747.6109723931
 20
76.8432478463
 30
0.0
 10
747.6109723931
 20
76.6478269282
 30
0.0
  0
SPLINE
  5
481
100
AcDbEntity
  8
0
100
AcDbSpline
 62
7
  6
CONTINUOUS
 70
0
 71
3
 72
9
 73
5
 74
0
 42
0.0000001
 43
0.0000001
 44
0.0000000001
 40
0.0
 40
0.0
 40
0.0
 40
0.0
 40
0.5403772208
 40
1.0
 40
1.0
 40
1.0
 40
1.0
 10
731.9063717986
 20
76.6430563749
 30
0.0
 10
732.1994444707
 20
76.7111444049
 30
0.0
 10
732.7289641459
 20
76.9270490735
 30
0.0
 10
733.1161757369
 20
77.3740960487
 30
0.0
 10
733.207838011
 20
77.6130317603
 30
0.0
  0
SPLINE
  5
482
100
AcDbEntity
  8
0
100
AcDbSpline
 62
7
  6
CONTINUOUS
 70
0
 71
3
 72
8
 73
4
 74
0
 42
0.0000001
 43
0.0000001
 44
0.0000000001
 40
0.0
 40
0.0
 40
0.0
 40
0.0
 40
1.0
 40
1.0
 40
1.0
 40
1.0
 10
733.207838011
 20
77.6130317603
 30
0.0
 10
733.2307840388
 20
77.6728450863
 30
0.0
 10
733.2485749179
 20
77.7349412011
 30
0.0
 10
733.2603123646
 20
77.7979204556
 30
0.0
  0
SPLINE
  5
483
100
AcDbEntity
  8
0
100
AcDbSpline
 62
7
  6
CONTINUOUS
 70
0
 71
3
 72
11
 73
7
 74
0
 42
0.0000001
 43
0.0000001
 44
0.0000000001
 40
0.0
 40
0.0
 40
0.0
 40
0.0
 40
0.2880066977
 40
0.5553334191
 40
0.790532629
 40
1.0
 40
1.0
 40
1.0
 40
1.0
 10
731.2842232796
 20
78.7479340684
 30
0.0
 10
731.4237695815
 20
78.7479340684
 30
0.0
 10
731.6945460892
 20
78.7114732685
 30
0.0
 10
732.0490516875
 20
78.5511102602
 30
0.0
 10
732.3014645328
 20
78.3015178592
 30
0.0
 10
732.3673899863
 20
78.0835116186
 30
0.0
 10
732.3673899863
 20
77.9820195449
 30
0.0
  0
SPLINE
  5
484
100
AcDbEntity
  8
RUNDUNGEN
100
AcDbSpline
 62
7
  6
CONTINUOUS
 70
0
 71
3
 72
11
 73
7
 74
0
 42
0.0000001
 43
0.0000001
 44
0.0000000001
 40
0.0
 40
0.0
 40
0.0
 40
0.0
 40
0.2256927635
 40
0.4632951072
 40
0.7206222905
 40
1.0
 40
1.0
 40
1.0
 40
1.0
 10
706.6696986142
 20
81.3814179134
 30
0.0
 10
706.6696058951
 20
81.239411805
 30
0.0
 10
706.6179619892
 20
80.9458631366
 30
0.0
 10
706.3968517603
 20
80.5423561881
 30
0.0
 10
706.0505700338
 20
80.1922785501
 30
0.0
 10
705.7611925428
 20
80.0123581564
 30
0.0
 10
705.60365966
 20
79.9343602395
 30
0.0
  0
SPLINE
  5
485
100
AcDbEntity
  8
0
100
AcDbSpline
 62
7
  6
CONTINUOUS
 70
0
 71
3
 72
9
 73
5
 74
0
 42
0.0000001
 43
0.0000001
 44
0.0000000001
 40
0.0
 40
0.0
 40
0.0
 40
0.0
 40
0.5597866015
 40
1.0
 40
1.0
 40
1.0
 40
1.0
 10
723.0584219781
 20
75.0426945349
 30
0.0
 10
723.0878972585
 20
75.0426945349
 30
0.0
 10
723.1427241888
 20
75.0538926471
 30
0.0
 10
723.1784219781
 20
75.1043681349
 30
0.0
 10
723.1784219781
 20
75.1275473487
 30
0.0
  0
SPLINE
  5
486
100
AcDbEntity
  8
0
100
AcDbSpline
 62
7
  6
CONTINUOUS
 70
0
 71
3
 72
9
 73
5
 74
0
 42
0.0000001
 43
0.0000001
 44
0.0000000001
 40
0.0
 40
0.0
 40
0.0
 40
0.0
 40
0.4402133985
 40
1.0
 40
1.0
 40
1.0
 40
1.0
 10
722.3534219781
 20
77.2912940991
 30
0.0
 10
722.3534219781
 20
77.3144733129
 30
0.0
 10
722.3891197675
 20
77.3649488007
 30
0.0
 10
722.4439466978
 20
77.3761469129
 30
0.0
 10
722.4734219781
 20
77.3761469129
 30
0.0
  0
SPLINE
  5
487
100
AcDbEntity
  8
0
100
AcDbSpline
 62
7
  6
CONTINUOUS
 70
0
 71
3
 72
9
 73
5
 74
0
 42
0.0000001
 43
0.0000001
 44
0.0000000001
 40
0.0
 40
0.0
 40
0.0
 40
0.0
 40
0.5597866015
 40
1.0
 40
1.0
 40
1.0
 40
1.0
 10
722.6834219781
 20
77.3761469129
 30
0.0
 10
722.7128972585
 20
77.3761469129
 30
0.0
 10
722.7677241888
 20
77.3649488007
 30
0.0
 10
722.8034219781
 20
77.3144733129
 30
0.0
 10
722.8034219781
 20
77.2912940991
 30
0.0
  0
SPLINE
  5
488
100
AcDbEntity
  8
0
100
AcDbSpline
 62
7
  6
CONTINUOUS
 70
0
 71
3
 72
9
 73
5
 74
0
 42
0.0000001
 43
0.0000001
 44
0.0000000001
 40
0.0
 40
0.0
 40
0.0
 40
0.0
 40
0.5597866015
 40
1.0
 40
1.0
 40
1.0
 40
1.0
 10
723.0584219781
 20
77.1640148785
 30
0.0
 10
723.0878972585
 20
77.1640148785
 30
0.0
 10
723.1427241888
 20
77.1752129906
 30
0.0
 10
723.1784219781
 20
77.2256884784
 30
0.0
 10
723.1784219781
 20
77.2488676922
 30
0.0
  0
SPLINE
  5
489
100
AcDbEntity
  8
0
100
AcDbSpline
 62
7
  6
CONTINUOUS
 70
0
 71
3
 72
11
 73
7
 74
0
 42
0.0000001
 43
0.0000001
 44
0.0000000001
 40
0.0
 40
0.0
 40
0.0
 40
0.0
 40
0.2876567391
 40
0.555407049
 40
0.7907201247
 40
1.0
 40
1.0
 40
1.0
 40
1.0
 10
723.3284219781
 20
78.5428731018
 30
0.0
 10
723.3670194033
 20
78.5428731018
 30
0.0
 10
723.4419566145
 20
78.5326163718
 30
0.0
 10
723.5403375524
 20
78.4885031079
 30
0.0
 10
723.6100114898
 20
78.4191047539
 30
0.0
 10
723.6284219781
 20
78.3588219821
 30
0.0
 10
723.6284219781
 20
78.3307410675
 30
0.0
  0
SPLINE
  5
48A
100
AcDbEntity
  8
0
100
AcDbSpline
 62
7
  6
CONTINUOUS
 70
0
 71
3
 72
8
 73
4
 74
0
 42
0.0000001
 43
0.0000001
 44
0.0000000001
 40
0.0
 40
0.0
 40
0.0
 40
0.0
 40
1.0
 40
1.0
 40
1.0
 40
1.0
 10
723.4085415166
 20
76.4137390318
 30
0.0
 10
723.4323719346
 20
76.4090615384
 30
0.0
 10
723.4559228561
 20
76.4022734216
 30
0.0
 10
723.4784219781
 20
76.3931324546
 30
0.0
  0
SPLINE
  5
48B
100
AcDbEntity
  8
0
100
AcDbSpline
 62
7
  6
CONTINUOUS
 70
0
 71
3
 72
9
 73
5
 74
0
 42
0.0000001
 43
0.0000001
 44
0.0000000001
 40
0.0
 40
0.0
 40
0.0
 40
0.0
 40
0.5424756321
 40
1.0
 40
1.0
 40
1.0
 40
1.0
 10
723.4784219781
 20
76.3931324546
 30
0.0
 10
723.5199538888
 20
76.3762588262
 30
0.0
 10
723.5931939246
 20
76.3303247044
 30
0.0
 10
723.6284219781
 20
76.2472293462
 30
0.0
 10
723.6284219781
 20
76.2094207239
 30
0.0
  0
SPLINE
  5
48C
100
AcDbEntity
  8
0
100
AcDbSpline
 62
7
  6
CONTINUOUS
 70
0
 71
3
 72
9
 73
5
 74
0
 42
0.0000001
 43
0.0000001
 44
0.0000000001
 40
0.0
 40
0.0
 40
0.0
 40
0.0
 40
0.4575243679
 40
1.0
 40
1.0
 40
1.0
 40
1.0
 10
721.5284219781
 20
76.2094207239
 30
0.0
 10
721.5284219781
 20
76.2472293462
 30
0.0
 10
721.5636500316
 20
76.3303247044
 30
0.0
 10
721.6368900674
 20
76.3762588262
 30
0.0
 10
721.6784219781
 20
76.3931324546
 30
0.0
  0
SPLINE
  5
48D
100
AcDbEntity
  8
0
100
AcDbSpline
 62
7
  6
CONTINUOUS
 70
0
 71
3
 72
8
 73
4
 74
0
 42
0.0000001
 43
0.0000001
 44
0.0000000001
 40
0.0
 40
0.0
 40
0.0
 40
0.0
 40
1.0
 40
1.0
 40
1.0
 40
1.0
 10
721.6784219781
 20
76.3931324546
 30
0.0
 10
721.7255689317
 20
76.4122873686
 30
0.0
 10
721.7775324314
 20
76.4215527583
 30
0.0
 10
721.8284219781
 20
76.4215527583
 30
0.0
  0
SPLINE
  5
48E
100
AcDbEntity
  8
0
100
AcDbSpline
 62
7
  6
CONTINUOUS
 70
0
 71
3
 72
11
 73
7
 74
0
 42
0.0000001
 43
0.0000001
 44
0.0000000001
 40
0.0
 40
0.0
 40
0.0
 40
0.0
 40
0.2092798753
 40
0.444592951
 40
0.7123432609
 40
1.0
 40
1.0
 40
1.0
 40
1.0
 10
721.5284219781
 20
78.3307410675
 30
0.0
 10
721.5284219781
 20
78.3588219821
 30
0.0
 10
721.5468324665
 20
78.4191047539
 30
0.0
 10
721.6165064039
 20
78.4885031079
 30
0.0
 10
721.7148873417
 20
78.5326163718
 30
0.0
 10
721.7898245529
 20
78.5428731018
 30
0.0
 10
721.8284219781
 20
78.5428731018
 30
0.0
  0
SPLINE
  5
48F
100
AcDbEntity
  8
RUNDUNGEN
100
AcDbSpline
 62
7
  6
CONTINUOUS
 70
0
 71
3
 72
11
 73
7
 74
0
 42
0.0000001
 43
0.0000001
 44
0.0000000001
 40
0.0
 40
0.0
 40
0.0
 40
0.0
 40
0.2660806488
 40
0.5190943636
 40
0.7622194616
 40
1.0
 40
1.0
 40
1.0
 40
1.0
 10
752.3977737681
 20
50.5548214204
 30
0.0
 10
751.9718199773
 20
50.9849721936
 30
0.0
 10
751.2051299492
 20
51.8920871265
 30
0.0
 10
750.33718366
 20
53.4051985138
 30
0.0
 10
749.8050640258
 20
54.9999296141
 30
0.0
 10
749.6850544133
 20
56.0975401328
 30
0.0
 10
749.6850544324
 20
56.6385186865
 30
0.0
  0
SPLINE
  5
490
100
AcDbEntity
  8
0
100
AcDbSpline
 62
7
  6
CONTINUOUS
 70
0
 71
3
 72
9
 73
5
 74
0
 42
0.0000001
 43
0.0000001
 44
0.0000000001
 40
0.0
 40
0.0
 40
0.0
 40
0.0
 40
0.538986273
 40
1.0
 40
1.0
 40
1.0
 40
1.0
 10
724.9784219781
 20
73.875968346
 30
0.0
 10
725.0920792978
 20
73.875968346
 30
0.0
 10
725.3053098842
 20
73.9158680835
 30
0.0
 10
725.4836682107
 20
74.0539582932
 30
0.0
 10
725.5327496976
 20
74.1378735846
 30
0.0
  0
SPLINE
  5
491
100
AcDbEntity
  8
0
100
AcDbSpline
 62
7
  6
CONTINUOUS
 70
0
 71
3
 72
9
 73
5
 74
0
 42
0.0000001
 43
0.0000001
 44
0.0000000001
 40
0.0
 40
0.0
 40
0.0
 40
0.0
 40
0.2592261758
 40
1.0
 40
1.0
 40
1.0
 40
1.0
 10
725.5327496976
 20
74.1378735846
 30
0.0
 10
725.5401556011
 20
74.1505355594
 30
0.0
 10
725.5657789368
 20
74.2010143672
 30
0.0
 10
725.5784219781
 20
74.2583144031
 30
0.0
 10
725.5784219781
 20
74.3002324147
 30
0.0
  0
SPLINE
  5
492
100
AcDbEntity
  8
RUNDUNGEN
100
AcDbSpline
 62
7
  6
CONTINUOUS
 70
0
 71
3
 72
11
 73
7
 74
0
 42
0.0000001
 43
0.0000001
 44
0.0000000001
 40
0.0
 40
0.0
 40
0.0
 40
0.0
 40
0.2297109937
 40
0.4842558728
 40
0.7475644511
 40
1.0
 40
1.0
 40
1.0
 40
1.0
 10
760.5457856465
 20
85.4975864431
 30
0.0
 10
760.1466459106
 20
85.0945139275
 30
0.0
 10
759.1150364814
 20
84.4289345736
 30
0.0
 10
757.306968939
 20
83.9542741347
 30
0.0
 10
755.3830035013
 20
83.981255354
 30
0.0
 10
754.1407912172
 20
84.3527469328
 30
0.0
 10
753.5821432433
 20
84.6293455547
 30
0.0
  0
SPLINE
  5
493
100
AcDbEntity
  8
0
100
AcDbSpline
 62
7
  6
CONTINUOUS
 70
0
 71
3
 72
9
 73
5
 74
0
 42
0.0000001
 43
0.0000001
 44
0.0000000001
 40
0.0
 40
0.0
 40
0.0
 40
0.0
 40
0.4402133985
 40
1.0
 40
1.0
 40
1.0
 40
1.0
 10
722.8034219781
 20
76.9377407085
 30
0.0
 10
722.8034219781
 20
76.9609199223
 30
0.0
 10
722.7677241888
 20
77.0113954101
 30
0.0
 10
722.7128972585
 20
77.0225935223
 30
0.0
 10
722.6834219781
 20
77.0225935223
 30
0.0
  0
SPLINE
  5
494
100
AcDbEntity
  8
RUNDUNGEN
100
AcDbSpline
 62
7
  6
CONTINUOUS
 70
0
 71
3
 72
11
 73
7
 74
0
 42
0.0000001
 43
0.0000001
 44
0.0000000001
 40
0.0
 40
0.0
 40
0.0
 40
0.0
 40
0.2524375529
 40
0.5157480446
 40
0.7702932073
 40
1.0
 40
1.0
 40
1.0
 40
1.0
 10
721.4662829467
 20
87.9550998137
 30
0.0
 10
720.9076305368
 20
87.6784989953
 30
0.0
 10
719.6654080791
 20
87.307005938
 30
0.0
 10
717.7414317277
 20
87.2800305121
 30
0.0
 10
715.9333709774
 20
87.7546987513
 30
0.0
 10
714.9017729806
 20
88.420275557
 30
0.0
 10
714.5026405435
 20
88.823340702
 30
0.0
  0
SPLINE
  5
495
100
AcDbEntity
  8
KONSTRUKTIONSELEMENTE
100
AcDbSpline
 62
7
  6
CONTINUOUS
 70
0
 71
3
 72
9
 73
5
 74
0
 42
0.0000001
 43
0.0000001
 44
0.0000000001
 40
0.0
 40
0.0
 40
0.0
 40
0.0
 40
0.2519249475
 40
1.0
 40
1.0
 40
1.0
 40
1.0
 10
740.4156897134
 20
130.9654833624
 30
0.0
 10
741.0077365953
 20
130.8607202505
 30
0.0
 10
743.3461651824
 20
130.3838426305
 30
0.0
 10
745.637703061
 20
129.6592606861
 30
0.0
 10
747.279780792
 20
128.9584898185
 30
0.0
  0
SPLINE
  5
496
100
AcDbEntity
  8
RUNDUNGEN
100
AcDbSpline
 62
7
  6
CONTINUOUS
 70
0
 71
3
 72
15
 73
11
 74
0
 42
0.0000001
 43
0.0000001
 44
0.0000000001
 40
0.0
 40
0.0
 40
0.0
 40
0.0
 40
0.0506580437
 40
0.0823029949
 40
0.1197229212
 40
0.2136507622
 40
0.3333912895
 40
0.4767107866
 40
0.6395049098
 40
1.0
 40
1.0
 40
1.0
 40
1.0
 10
762.6656897134
 20
133.6416911983
 30
0.0
 10
762.6656897134
 20
133.7236945671
 30
0.0
 10
762.6086399718
 20
133.8563873269
 30
0.0
 10
762.4742538262
 20
133.995710299
 30
0.0
 10
762.2615784935
 20
134.1541559707
 30
0.0
 10
761.8921994897
 20
134.3301625781
 30
0.0
 10
761.3411196735
 20
134.5066648159
 30
0.0
 10
760.6665638853
 20
134.6532639436
 30
0.0
 10
759.5977061045
 20
134.8053400946
 30
0.0
 10
758.7492458415
 20
134.8474625642
 30
0.0
 10
758.1656897134
 20
134.8474625642
 30
0.0
  0
SPLINE
  5
497
100
AcDbEntity
  8
KONSTRUKTIONSELEMENTE
100
AcDbSpline
 62
7
  6
CONTINUOUS
 70
0
 71
3
 72
9
 73
5
 74
0
 42
0.0000001
 43
0.0000001
 44
0.0000000001
 40
0.0
 40
0.0
 40
0.0
 40
0.0
 40
0.2481912135
 40
1.0
 40
1.0
 40
1.0
 40
1.0
 10
721.0515986348
 20
128.9584898185
 30
0.0
 10
721.5964434416
 20
129.19100705
 30
0.0
 10
723.8223563665
 20
130.0552942698
 30
0.0
 10
726.1487155788
 20
130.6528160473
 30
0.0
 10
727.9156897134
 20
130.9654833624
 30
0.0
  0
SPLINE
  5
498
100
AcDbEntity
  8
KONSTRUKTIONSELEMENTE
100
AcDbSpline
 62
7
  6
CONTINUOUS
 70
0
 71
3
 72
11
 73
7
 74
0
 42
0.0000001
 43
0.0000001
 44
0.0000000001
 40
0.0
 40
0.0
 40
0.0
 40
0.0
 40
0.2498418809
 40
0.4997992424
 40
0.7498631476
 40
1.0
 40
1.0
 40
1.0
 40
1.0
 10
719.3302294913
 20
125.3214898185
 30
0.0
 10
719.3302294913
 20
125.6647228969
 30
0.0
 10
719.4219418694
 20
126.3542480924
 30
0.0
 10
719.8012992806
 20
127.3203764552
 30
0.0
 10
720.3578590127
 20
128.1935485935
 30
0.0
 10
720.8109869213
 20
128.7131466061
 30
0.0
 10
721.0515986348
 20
128.9584898185
 30
0.0
  0
SPLINE
  5
499
100
AcDbEntity
  8
KONSTRUKTIONSELEMENTE
100
AcDbSpline
 62
7
  6
CONTINUOUS
 70
0
 71
3
 72
9
 73
5
 74
0
 42
0.0000001
 43
0.0000001
 44
0.0000000001
 40
0.0
 40
0.0
 40
0.0
 40
0.0
 40
0.5001839413
 40
1.0
 40
1.0
 40
1.0
 40
1.0
 10
718.6011224599
 20
117.9584898185
 30
0.0
 10
718.82176529
 20
118.4625094139
 30
0.0
 10
719.1907541506
 20
119.5053775525
 30
0.0
 10
719.3302294913
 20
120.608695422
 30
0.0
 10
719.3302294913
 20
121.1584898185
 30
0.0
  0
SPLINE
  5
49A
100
AcDbEntity
  8
KONSTRUKTIONSELEMENTE
100
AcDbSpline
 62
7
  6
CONTINUOUS
 70
0
 71
3
 72
9
 73
5
 74
0
 42
0.0000001
 43
0.0000001
 44
0.0000000001
 40
0.0
 40
0.0
 40
0.0
 40
0.0
 40
0.4998160587
 40
1.0
 40
1.0
 40
1.0
 40
1.0
 10
749.0011499354
 20
121.1584898185
 30
0.0
 10
749.0011499354
 20
120.608695422
 30
0.0
 10
749.1406252761
 20
119.5053775525
 30
0.0
 10
749.5096141368
 20
118.4625094139
 30
0.0
 10
749.7302569669
 20
117.9584898185
 30
0.0
  0
SPLINE
  5
49B
100
AcDbEntity
  8
KONSTRUKTIONSELEMENTE
100
AcDbSpline
 62
7
  6
CONTINUOUS
 70
0
 71
3
 72
11
 73
7
 74
0
 42
0.0000001
 43
0.0000001
 44
0.0000000001
 40
0.0
 40
0.0
 40
0.0
 40
0.0
 40
0.2501369337
 40
0.5002009564
 40
0.7501583912
 40
1.0
 40
1.0
 40
1.0
 40
1.0
 10
747.279780792
 20
128.9584898185
 30
0.0
 10
747.5203925836
 20
128.7131465264
 30
0.0
 10
747.9735206621
 20
128.1935483013
 30
0.0
 10
748.5300805656
 20
127.3203758099
 30
0.0
 10
748.9094376219
 20
126.3542474223
 30
0.0
 10
749.0011499354
 20
125.664722523
 30
0.0
 10
749.0011499354
 20
125.3214898185
 30
0.0
  0
SPLINE
  5
49C
100
AcDbEntity
  8
KONSTRUKTIONSELEMENTE
100
AcDbSpline
 62
7
  6
CONTINUOUS
 70
0
 71
3
 72
9
 73
5
 74
0
 42
0.0000001
 43
0.0000001
 44
0.0000000001
 40
0.0
 40
0.0
 40
0.0
 40
0.0
 40
0.7206016381
 40
1.0
 40
1.0
 40
1.0
 40
1.0
 10
753.3246430631
 20
103.9584898185
 30
0.0
 10
753.3465610457
 20
103.9584898185
 30
0.0
 10
753.3778706773
 20
103.9718968862
 30
0.0
 10
753.3977172881
 20
103.9949377192
 30
0.0
 10
753.4028314698
 20
104.0017248611
 30
0.0
  0
SPLINE
  5
49D
100
AcDbEntity
  8
KONSTRUKTIONSELEMENTE
100
AcDbSpline
 62
7
  6
CONTINUOUS
 70
0
 71
3
 72
18
 73
14
 74
0
 42
0.0000001
 43
0.0000001
 44
0.0000000001
 40
0.0
 40
0.0
 40
0.0
 40
0.0
 40
0.0122889573
 40
0.0325889573
 40
0.0613346189
 40
0.0984327877
 40
0.1435860424
 40
0.1963596956
 40
0.3225785801
 40
0.4720017517
 40
0.6387680168
 40
0.8167334978
 40
1.0
 40
1.0
 40
1.0
 40
1.0
 10
753.4028314698
 20
104.0017248611
 30
0.0
 10
753.4386583976
 20
104.0492715579
 30
0.0
 10
753.4760596108
 20
104.210333931
 30
0.0
 10
753.4895427537
 20
104.5041845267
 30
0.0
 10
753.4674797192
 20
104.9229497383
 30
0.0
 10
753.4090495504
 20
105.4570036873
 30
0.0
 10
753.3130491247
 20
106.1044044395
 30
0.0
 10
753.1227356604
 20
107.1734770848
 30
0.0
 10
752.7866264042
 20
108.7291848769
 30
0.0
 10
752.2551872103
 20
110.8059332581
 30
0.0
 10
751.5726995235
 20
113.10123172
 30
0.0
 10
750.7392979136
 20
115.5203989022
 30
0.0
 10
750.0862984806
 20
117.1451758323
 30
0.0
 10
749.7302569669
 20
117.9584898185
 30
0.0
  0
SPLINE
  5
49E
100
AcDbEntity
  8
RUNDUNGEN
100
AcDbSpline
 62
7
  6
CONTINUOUS
 70
0
 71
3
 72
9
 73
5
 74
0
 42
0.0000001
 43
0.0000001
 44
0.0000000001
 40
0.0
 40
0.0
 40
0.0
 40
0.0
 40
0.4924379896
 40
1.0
 40
1.0
 40
1.0
 40
1.0
 10
722.2114146317
 20
150.9584898185
 30
0.0
 10
721.308873656
 20
150.9584898185
 30
0.0
 10
719.4768395382
 20
150.8930741947
 30
0.0
 10
717.6444301186
 20
150.8459720122
 30
0.0
 10
716.7141698182
 20
150.8459720122
 30
0.0
  0
SPLINE
  5
49F
100
AcDbEntity
  8
KONSTRUKTIONSELEMENTE
100
AcDbSpline
 62
7
  6
CONTINUOUS
 70
0
 71
3
 72
23
 73
19
 74
0
 42
0.0000001
 43
0.0000001
 44
0.0000000001
 40
0.0
 40
0.0
 40
0.0
 40
0.0
 40
0.1913883967
 40
0.3766246146
 40
0.5488640185
 40
0.6278902988
 40
0.7010327486
 40
0.7674747476
 40
0.8264735617
 40
0.877366161
 40
0.9196012785
 40
0.9527687179
 40
0.9658757704
 40
0.976666218
 40
0.9851857148
 40
0.9915683673
 40
0.9961893417
 40
1.0
 40
1.0
 40
1.0
 40
1.0
 10
718.6011224599
 20
117.9584898185
 30
0.0
 10
718.2269250791
 20
117.1037019591
 30
0.0
 10
717.5443177822
 20
115.3977067543
 30
0.0
 10
716.6815052503
 20
112.8637084121
 30
0.0
 10
716.0850794785
 20
110.8201184123
 30
0.0
 10
715.6893369412
 20
109.288702472
 30
0.0
 10
715.4435809162
 20
108.2515162314
 30
0.0
 10
715.2401003069
 20
107.3048763493
 30
0.0
 10
715.0788487469
 20
106.4603485394
 30
0.0
 10
714.9594819115
 20
105.7281928304
 30
0.0
 10
714.8819301676
 20
105.1172416686
 30
0.0
 10
714.8486354973
 20
104.6866108807
 30
0.0
 10
714.846624276
 20
104.4082455362
 30
0.0
 10
714.8555969933
 20
104.2503627212
 30
0.0
 10
714.8747208491
 20
104.126110544
 30
0.0
 10
714.9039545225
 20
104.0352790079
 30
0.0
 10
714.9461296369
 20
103.9733469172
 30
0.0
 10
714.9881576698
 20
103.9584898185
 30
0.0
 10
715.0067363637
 20
103.9584898185
 30
0.0
  0
SPLINE
  5
4A0
100
AcDbEntity
  8
RUNDUNGEN
100
AcDbSpline
 62
7
  6
CONTINUOUS
 70
0
 71
3
 72
15
 73
11
 74
0
 42
0.0000001
 43
0.0000001
 44
0.0000000001
 40
0.0
 40
0.0
 40
0.0
 40
0.0
 40
0.0506580437
 40
0.0823029949
 40
0.1197229212
 40
0.2136507622
 40
0.3333912895
 40
0.4767107866
 40
0.6395049098
 40
1.0
 40
1.0
 40
1.0
 40
1.0
 10
705.6656897134
 20
133.6416911983
 30
0.0
 10
705.6656897134
 20
133.7236945671
 30
0.0
 10
705.722739455
 20
133.8563873269
 30
0.0
 10
705.8571256006
 20
133.995710299
 30
0.0
 10
706.0698009333
 20
134.1541559707
 30
0.0
 10
706.4391799371
 20
134.3301625781
 30
0.0
 10
706.9902597533
 20
134.5066648159
 30
0.0
 10
707.6648155415
 20
134.6532639436
 30
0.0
 10
708.7336733222
 20
134.8053400946
 30
0.0
 10
709.5821335852
 20
134.8474625642
 30
0.0
 10
710.1656897134
 20
134.8474625642
 30
0.0
  0
SPLINE
  5
4A1
100
AcDbEntity
  8
RUNDUNGEN
100
AcDbSpline
 62
7
  6
CONTINUOUS
 70
0
 71
3
 72
9
 73
5
 74
0
 42
0.0000001
 43
0.0000001
 44
0.0000000001
 40
0.0
 40
0.0
 40
0.0
 40
0.0
 40
0.2404036222
 40
1.0
 40
1.0
 40
1.0
 40
1.0
 10
758.228171553
 20
150.6216037193
 30
0.0
 10
758.0692923759
 20
150.672902407
 30
0.0
 10
757.3972317996
 20
150.8513469556
 30
0.0
 10
756.6942874135
 20
150.9009499606
 30
0.0
 10
756.16713694
 20
150.8810870328
 30
0.0
  0
SPLINE
  5
4A2
100
AcDbEntity
  8
RUNDUNGEN
100
AcDbSpline
 62
7
  6
CONTINUOUS
 70
0
 71
3
 72
9
 73
5
 74
0
 42
0.0000001
 43
0.0000001
 44
0.0000000001
 40
0.0
 40
0.0
 40
0.0
 40
0.0
 40
0.2515165758
 40
1.0
 40
1.0
 40
1.0
 40
1.0
 10
713.8508356741
 20
150.8459720122
 30
0.0
 10
713.7095189833
 20
150.845972013
 30
0.0
 10
713.1476575793
 20
150.8491946054
 30
0.0
 10
712.585929938
 20
150.8651121041
 30
0.0
 10
712.1656897134
 20
150.8810321927
 30
0.0
  0
SPLINE
  5
4A3
100
AcDbEntity
  8
RUNDUNGEN
100
AcDbSpline
 62
7
  6
CONTINUOUS
 70
0
 71
3
 72
9
 73
5
 74
0
 42
0.0000001
 43
0.0000001
 44
0.0000000001
 40
0.0
 40
0.0
 40
0.0
 40
0.0
 40
0.2478013891
 40
1.0
 40
1.0
 40
1.0
 40
1.0
 10
756.1671369485
 20
150.8810870331
 30
0.0
 10
756.0278890076
 20
150.8758090948
 30
0.0
 10
755.4659012308
 20
150.856123403
 30
0.0
 10
754.9035327558
 20
150.8459720122
 30
0.0
 10
754.4805435225
 20
150.8459720122
 30
0.0
  0
SPLINE
  5
4A4
100
AcDbEntity
  8
RUNDUNGEN
100
AcDbSpline
 62
7
  6
CONTINUOUS
 70
0
 71
3
 72
15
 73
11
 74
0
 42
0.0000001
 43
0.0000001
 44
0.0000000001
 40
0.0
 40
0.0
 40
0.0
 40
0.0
 40
0.0506580437
 40
0.0823029949
 40
0.1197229212
 40
0.2136507622
 40
0.3333912895
 40
0.4767107866
 40
0.6395049098
 40
1.0
 40
1.0
 40
1.0
 40
1.0
 10
762.6656897134
 20
127.7527184525
 30
0.0
 10
762.6656897134
 20
127.8347218214
 30
0.0
 10
762.6086399718
 20
127.9674145812
 30
0.0
 10
762.4742538262
 20
128.1067375532
 30
0.0
 10
762.2615784935
 20
128.265183225
 30
0.0
 10
761.8921994897
 20
128.4411898324
 30
0.0
 10
761.3411196735
 20
128.6176920702
 30
0.0
 10
760.6665638853
 20
128.7642911979
 30
0.0
 10
759.5977061045
 20
128.9163673489
 30
0.0
 10
758.7492458415
 20
128.9584898185
 30
0.0
 10
758.1656897134
 20
128.9584898185
 30
0.0
  0
SPLINE
  5
4A5
100
AcDbEntity
  8
RUNDUNGEN
100
AcDbSpline
 62
7
  6
CONTINUOUS
 70
0
 71
3
 72
9
 73
5
 74
0
 42
0.0000001
 43
0.0000001
 44
0.0000000001
 40
0.0
 40
0.0
 40
0.0
 40
0.0
 40
0.5075627293
 40
1.0
 40
1.0
 40
1.0
 40
1.0
 10
751.6172096085
 20
150.8459720122
 30
0.0
 10
750.6869664008
 20
150.8459720122
 30
0.0
 10
748.8545931942
 20
150.8930708189
 30
0.0
 10
747.0225954354
 20
150.9584898185
 30
0.0
 10
746.1200736388
 20
150.9584898185
 30
0.0
  0
SPLINE
  5
4A6
100
AcDbEntity
  8
RUNDUNGEN
100
AcDbSpline
 62
7
  6
CONTINUOUS
 70
0
 71
3
 72
15
 73
11
 74
0
 42
0.0000001
 43
0.0000001
 44
0.0000000001
 40
0.0
 40
0.0
 40
0.0
 40
0.0
 40
0.3604950902
 40
0.5232892134
 40
0.6666087105
 40
0.7863492378
 40
0.8802770788
 40
0.9176970051
 40
0.9493419563
 40
1.0
 40
1.0
 40
1.0
 40
1.0
 10
710.1656897134
 20
128.9584898185
 30
0.0
 10
709.5821335852
 20
128.9584898185
 30
0.0
 10
708.7336733222
 20
128.9163673489
 30
0.0
 10
707.6648155415
 20
128.7642911979
 30
0.0
 10
706.9902597533
 20
128.6176920702
 30
0.0
 10
706.4391799371
 20
128.4411898324
 30
0.0
 10
706.0698009333
 20
128.265183225
 30
0.0
 10
705.8571256006
 20
128.1067375532
 30
0.0
 10
705.722739455
 20
127.9674145812
 30
0.0
 10
705.6656897134
 20
127.8347218214
 30
0.0
 10
705.6656897134
 20
127.7527184525
 30
0.0
  0
SPLINE
  5
4A7
100
AcDbEntity
  8
RUNDUNGEN
100
AcDbSpline
 62
7
  6
CONTINUOUS
 70
0
 71
3
 72
9
 73
5
 74
0
 42
0.0000001
 43
0.0000001
 44
0.0000000001
 40
0.0
 40
0.0
 40
0.0
 40
0.0
 40
0.259310087
 40
1.0
 40
1.0
 40
1.0
 40
1.0
 10
712.1656897134
 20
150.8810321927
 30
0.0
 10
711.9856537874
 20
150.8878525486
 30
0.0
 10
711.2910827287
 20
150.8878552199
 30
0.0
 10
710.5929345817
 20
150.7797259974
 30
0.0
 10
710.1032078738
 20
150.6216037193
 30
0.0
  0
LINE
  5
4A8
100
AcDbEntity
  8
0
100
AcDbLine
 62
7
  6
CONTINUOUS
 10
275.6396996136
 20
127.7527184525
 11
280.1396996136
 21
128.9584898185
  0
LINE
  5
4A9
100
AcDbEntity
  8
0
100
AcDbLine
 62
7
  6
CONTINUOUS
 10
272.2396996136
 20
133.6416911983
 11
276.7396996136
 21
134.8474625642
  0
SPLINE
  5
4AA
100
AcDbEntity
  8
0
100
AcDbSpline
 62
7
  6
CONTINUOUS
 70
0
 71
3
 72
10
 73
6
 74
0
 42
0.0000001
 43
0.0000001
 44
0.0000000001
 40
0.0
 40
0.0
 40
0.0
 40
0.0
 40
0.62119975
 40
0.8379889831
 40
1.0
 40
1.0
 40
1.0
 40
1.0
 10
272.3315849248
 20
150.6216037193
 30
0.0
 10
272.4732029611
 20
150.7052660496
 30
0.0
 10
272.6710811546
 20
150.8108823484
 30
0.0
 10
272.9261948871
 20
150.8839681497
 30
0.0
 10
273.0285747681
 20
150.8889637862
 30
0.0
 10
273.0707434628
 20
150.8810870328
 30
0.0
  0
SPLINE
  5
4AB
100
AcDbEntity
  8
0
100
AcDbSpline
 62
7
  6
CONTINUOUS
 70
0
 71
3
 72
9
 73
5
 74
0
 42
0.0000001
 43
0.0000001
 44
0.0000000001
 40
0.0
 40
0.0
 40
0.0
 40
0.0
 40
0.5000000009
 40
1.0
 40
1.0
 40
1.0
 40
1.0
 10
262.3179180983
 20
183.6787753629
 30
0.0
 10
261.9160006071
 20
185.7822887666
 30
0.0
 10
261.4768510616
 20
190.0733436874
 30
0.0
 10
261.9160006085
 20
194.3643986077
 30
0.0
 10
262.3179180983
 20
196.4679120041
 30
0.0
  0
SPLINE
  5
4AC
100
AcDbEntity
  8
0
100
AcDbSpline
 62
7
  6
CONTINUOUS
 70
0
 71
3
 72
9
 73
5
 74
0
 42
0.0000001
 43
0.0000001
 44
0.0000000001
 40
0.0
 40
0.0
 40
0.0
 40
0.0
 40
0.5000000009
 40
1.0
 40
1.0
 40
1.0
 40
1.0
 10
262.3179180983
 20
166.2084898185
 30
0.0
 10
261.9135557337
 20
169.0994218453
 30
0.0
 10
261.4792959351
 20
174.9436325958
 30
0.0
 10
261.9135557351
 20
180.7878433461
 30
0.0
 10
262.3179180983
 20
183.6787753629
 30
0.0
  0
SPLINE
  5
4AD
100
AcDbEntity
  8
0
100
AcDbSpline
 62
7
  6
CONTINUOUS
 70
0
 71
3
 72
11
 73
7
 74
0
 42
0.0000001
 43
0.0000001
 44
0.0000000001
 40
0.0
 40
0.0
 40
0.0
 40
0.0
 40
0.2574351421
 40
0.5000000008
 40
0.7425648595
 40
1.0
 40
1.0
 40
1.0
 40
1.0
 10
262.3179180983
 20
196.4679120041
 30
0.0
 10
262.1241524862
 20
196.8391020403
 30
0.0
 10
261.811486229
 20
197.5980606046
 30
0.0
 10
261.6406066189
 20
198.8084864599
 30
0.0
 10
261.811486226
 20
200.0189123137
 30
0.0
 10
262.1241524874
 20
200.7778708736
 30
0.0
 10
262.3179180983
 20
201.1490609073
 30
0.0
  0
SPLINE
  5
4AE
100
AcDbEntity
  8
0
100
AcDbSpline
 62
7
  6
CONTINUOUS
 70
0
 71
3
 72
11
 73
7
 74
0
 42
0.0000001
 43
0.0000001
 44
0.0000000001
 40
0.0
 40
0.0
 40
0.0
 40
0.0
 40
0.2574351421
 40
0.5000000008
 40
0.7425648595
 40
1.0
 40
1.0
 40
1.0
 40
1.0
 10
268.1614811288
 20
196.4679120041
 30
0.0
 10
268.355246741
 20
196.8391020403
 30
0.0
 10
268.6679129981
 20
197.5980606046
 30
0.0
 10
268.8387926082
 20
198.8084864599
 30
0.0
 10
268.6679130011
 20
200.0189123137
 30
0.0
 10
268.3552467397
 20
200.7778708736
 30
0.0
 10
268.1614811288
 20
201.1490609073
 30
0.0
  0
SPLINE
  5
4AF
100
AcDbEntity
  8
0
100
AcDbSpline
 62
7
  6
CONTINUOUS
 70
0
 71
3
 72
9
 73
5
 74
0
 42
0.0000001
 43
0.0000001
 44
0.0000000001
 40
0.0
 40
0.0
 40
0.0
 40
0.0
 40
0.5000000009
 40
1.0
 40
1.0
 40
1.0
 40
1.0
 10
268.1614811288
 20
183.6787753629
 30
0.0
 10
268.56339862
 20
185.7822887666
 30
0.0
 10
269.0025481655
 20
190.0733436874
 30
0.0
 10
268.5633986186
 20
194.3643986077
 30
0.0
 10
268.1614811288
 20
196.4679120041
 30
0.0
  0
SPLINE
  5
4B0
100
AcDbEntity
  8
0
100
AcDbSpline
 62
7
  6
CONTINUOUS
 70
0
 71
3
 72
9
 73
5
 74
0
 42
0.0000001
 43
0.0000001
 44
0.0000000001
 40
0.0
 40
0.0
 40
0.0
 40
0.0
 40
0.5000000009
 40
1.0
 40
1.0
 40
1.0
 40
1.0
 10
268.1614811288
 20
166.2084898185
 30
0.0
 10
268.5658434935
 20
169.0994218453
 30
0.0
 10
269.000103292
 20
174.9436325958
 30
0.0
 10
268.5658434921
 20
180.7878433461
 30
0.0
 10
268.1614811288
 20
183.6787753629
 30
0.0
  0
LINE
  5
4B1
100
AcDbEntity
  8
RUNDUNGEN
100
AcDbLine
 62
7
  6
CONTINUOUS
 10
254.8396996136
 20
127.7527184525
 11
250.3396996136
 21
128.9584898185
  0
LINE
  5
4B2
100
AcDbEntity
  8
RUNDUNGEN
100
AcDbLine
 62
7
  6
CONTINUOUS
 10
258.2396996136
 20
133.6416911983
 11
253.7396996136
 21
134.8474625642
  0
SPLINE
  5
4B3
100
AcDbEntity
  8
RUNDUNGEN
100
AcDbSpline
 62
7
  6
CONTINUOUS
 70
0
 71
3
 72
10
 73
6
 74
0
 42
0.0000001
 43
0.0000001
 44
0.0000000001
 40
0.0
 40
0.0
 40
0.0
 40
0.0
 40
0.62119975
 40
0.8379889831
 40
1.0
 40
1.0
 40
1.0
 40
1.0
 10
258.1478143024
 20
150.6216037193
 30
0.0
 10
258.006196266
 20
150.7052660496
 30
0.0
 10
257.8083180725
 20
150.8108823484
 30
0.0
 10
257.55320434
 20
150.8839681497
 30
0.0
 10
257.450824459
 20
150.8889637862
 30
0.0
 10
257.4086557643
 20
150.8810870328
 30
0.0
  0
SPLINE
  5
4B4
100
AcDbEntity
  8
RUNDUNGEN
100
AcDbSpline
 62
7
  6
CONTINUOUS
 70
0
 71
3
 72
19
 73
15
 74
0
 42
0.0000001
 43
0.0000001
 44
0.0000000001
 40
0.0
 40
0.0
 40
0.0
 40
0.0
 40
0.0667865092
 40
0.1315853146
 40
0.1626314279
 40
0.1925855735
 40
0.2501504315
 40
0.3072260605
 40
0.3650919934
 40
0.4841807767
 40
0.6082591498
 40
0.7362936521
 40
0.8671969929
 40
1.0
 40
1.0
 40
1.0
 40
1.0
 10
257.4136080074
 20
111.4562398185
 30
0.0
 10
257.1264321468
 20
111.4562398185
 30
0.0
 10
256.5580899308
 20
111.4121161516
 30
0.0
 10
255.8899846605
 20
111.1468387373
 30
0.0
 10
255.4805415145
 20
110.7855774325
 30
0.0
 10
255.1858086246
 20
110.3640585846
 30
0.0
 10
255.0156524401
 20
109.7463730497
 30
0.0
 10
255.0762999557
 20
108.9970549478
 30
0.0
 10
255.4039108473
 20
108.0376907236
 30
0.0
 10
256.161905435
 20
106.9595909537
 30
0.0
 10
257.3806427108
 20
105.9130904285
 30
0.0
 10
258.8173815124
 20
105.0907623603
 30
0.0
 10
260.39736655
 20
104.4908634793
 30
0.0
 10
261.5062628847
 20
104.2363280415
 30
0.0
 10
262.0697475353
 20
104.1437398185
 30
0.0
  0
SPLINE
  5
4B5
100
AcDbEntity
  8
0
100
AcDbSpline
 62
7
  6
CONTINUOUS
 70
0
 71
3
 72
19
 73
15
 74
0
 42
0.0000001
 43
0.0000001
 44
0.0000000001
 40
0.0
 40
0.0
 40
0.0
 40
0.0
 40
0.0667865092
 40
0.1315853146
 40
0.1626314279
 40
0.1925855735
 40
0.2501504315
 40
0.3072260605
 40
0.3650919934
 40
0.4841807767
 40
0.6082591498
 40
0.7362936521
 40
0.8671969929
 40
1.0
 40
1.0
 40
1.0
 40
1.0
 10
273.0657912198
 20
111.4562398185
 30
0.0
 10
273.3529670803
 20
111.4562398185
 30
0.0
 10
273.9213092963
 20
111.4121161516
 30
0.0
 10
274.5894145667
 20
111.1468387373
 30
0.0
 10
274.9988577126
 20
110.7855774325
 30
0.0
 10
275.2935906026
 20
110.3640585846
 30
0.0
 10
275.4637467871
 20
109.7463730497
 30
0.0
 10
275.4030992714
 20
108.9970549478
 30
0.0
 10
275.0754883798
 20
108.0376907236
 30
0.0
 10
274.3174937921
 20
106.9595909537
 30
0.0
 10
273.0987565163
 20
105.9130904285
 30
0.0
 10
271.6620177147
 20
105.0907623603
 30
0.0
 10
270.0820326771
 20
104.4908634793
 30
0.0
 10
268.9731363425
 20
104.2363280415
 30
0.0
 10
268.4096516918
 20
104.1437398185
 30
0.0
  0
ELLIPSE
  5
4B6
100
AcDbEntity
  8
0
100
AcDbEllipse
 62
7
  6
CONTINUOUS
 10
272.6569140064
 20
144.4584898185
 30
0.0
 11
1.020028169
 21
6.4800083213
 31
0.0
 40
0.4994016261
 41
0.4286154991
 42
1.6492465757
  0
ELLIPSE
  5
4B7
100
AcDbEntity
  8
RUNDUNGEN
100
AcDbEllipse
 62
7
  6
CONTINUOUS
 10
257.8224852207
 20
144.4584898185
 30
0.0
 11
-1.020028169
 21
6.4800083213
 31
0.0
 40
0.4994016261
 41
-1.6492465757
 42
-0.4286154991
  0
ENDSEC
  0
SECTION
  2
OBJECTS
  0
DICTIONARY
  5
C
100
AcDbDictionary
280
0
281
1
  3
ACAD_GROUP
350
D
  3
ACAD_MLINESTYLE
350
17
  3
ACAD_LAYOUT
350
1A
  3
ACAD_PLOTSETTINGS
350
19
  3
ACAD_PLOTSTYLENAME
350
E
  0
DICTIONARY
  5
D
102
{ACAD_REACTORS
330
C
102
}
100
AcDbDictionary
280
0
281
1
  0
ACDBDICTIONARYWDFLT
  5
E
102
{ACAD_REACTORS
330
C
102
}
100
AcDbDictionary
281
1
  3
Normal
350
F
100
AcDbDictionaryWithDefault
340
F
  0
DICTIONARY
  5
17
102
{ACAD_REACTORS
330
C
102
}
100
AcDbDictionary
280
0
281
1
  3
Standard
350
18
  0
DICTIONARY
  5
19
102
{ACAD_REACTORS
330
C
102
}
100
AcDbDictionary
281
1
  0
DICTIONARY
  5
1A
102
{ACAD_REACTORS
330
C
102
}
100
AcDbDictionary
281
1
  3
Model
350
4B8
  3
Layout1
350
4B9
  0
ACDBPLACEHOLDER
  5
F
102
{ACAD_REACTORS
330
E
102
}
  0
MLINESTYLE
  5
18
102
{ACAD_REACTORS
330
17
102
}
100
AcDbMlineStyle
  2
STANDARD
 70
0
  3

 62
256
 51
90.0
 52
90.0
 71
2
 49
0.5
 62
256
  6
BYLAYER
 49
-0.5
 62
256
  6
BYLAYER
  0
LAYOUT
  5
4B8
102
{ACAD_REACTORS
330
1A
102
}
100
AcDbPlotSettings
  1

  2
none_device
  4
ISO_A0_(1189.00_x_841.00_MM)
  6

 40
0.0
 41
0.0
 42
0.0
 43
0.0
 44
1189.0
 45
841.0
 46
0.0
 47
0.0
 48
0.0
 49
0.0
140
0.0
141
0.0
142
1.0
143
1.0
 70
1024
 72
1
 73
0
 74
0
  7

 75
0
147
1.0
148
0.0
149
0.0
100
AcDbLayout
  1
Model
 70
0
 71
0
 10
0.0
 20
0.0
 11
1189.0
 21
841.0
 12
0.0
 22
0.0
 32
0.0
 14
0.0
 24
0.0
 34
0.0
 15
0.0
 25
0.0
 35
0.0
146
0.0
 13
0.0
 23
0.0
 33
0.0
 16
1.0
 26
0.0
 36
0.0
 17
0.0
 27
1.0
 37
0.0
 76
0
330
20A
345
0
346
0
  0
LAYOUT
  5
4B9
102
{ACAD_REACTORS
330
1A
102
}
100
AcDbPlotSettings
  1

  2
none_device
  4
ISO_A0_(1189.00_x_841.00_MM)
  6

 40
0.0
 41
0.0
 42
0.0
 43
0.0
 44
1189.0
 45
841.0
 46
0.0
 47
0.0
 48
0.0
 49
0.0
140
0.0
141
0.0
142
1.0
143
1.0
 70
0
 72
1
 73
0
 74
0
  7

 75
0
147
1.0
148
0.0
149
0.0
100
AcDbLayout
  1
Layout1
 70
0
 71
1
 10
0.0
 20
0.0
 11
1189.0
 21
841.0
 12
0.0
 22
0.0
 32
0.0
 14
0.0
 24
0.0
 34
0.0
 15
0.0
 25
0.0
 35
0.0
146
0.0
 13
0.0
 23
0.0
 33
0.0
 16
1.0
 26
0.0
 36
0.0
 17
0.0
 27
1.0
 37
0.0
 76
0
330
20B
345
0
346
0
  0
ENDSEC
  0
EOF
