999
DXF file: ISAK-RG-1-10_190_7903188_M34585-P-7.dxf
999
Pro/ENGINEER 2010140 by Parametric Technology Corporation
  0
SECTION
  2
HEADER
  9
$ACADVER
  1
AC1015
  9
$DWGCODEPAGE
  3
ANSI_1252
  9
$EXTMAX
 10
1189.0
 20
841.0
 30
0.0
  9
$EXTMIN
 10
0.0
 20
0.0
 30
0.0
  9
$LIMMIN
 10
0.0
 20
0.0
  9
$LIMMAX
 10
1189.0
 20
841.0
  9
$VIEWCTR
 10
594.5
 20
420.5
  9
$VIEWSIZE
 40
841.0
  9
$CLAYER
  8
0
  9
$LTSCALE
 40
65.395
  9
$CELTYPE
  6
BYLAYER
  9
$DIMSCALE
 40
1.0
  9
$DIMASZ
 40
3.5
  9
$DIMEXO
 40
7.43125
  9
$DIMDLI
 40
45.182
  9
$DIMEXE
 40
21.402
  9
$DIMCEN
 40
10.701
  9
$DIMLFAC
 40
1.0
  9
$DIMBLK
  1
_FILLED
  9
$DIMTXT
 40
3.5
  9
$DIMTOL
 70
1
  9
$DIMLIM
 70
0
  9
$DIMTFAC
 40
1.0
  9
$DIMTP
 40
0.005
  9
$DIMTM
 40
0.005
  9
$PDMODE
 70
3
  9
$PDSIZE
 40
0.3125
  9
$HANDSEED
  5
4BA
  9
$TILEMODE
 70
1
  9
$MEASUREMENT
 70
1
  9
$INSUNITS
 70
4
  0
ENDSEC
  0
SECTION
  2
CLASSES
  0
CLASS
  1
ACDBDICTIONARYWDFLT
  2
AcDbDictionaryWithDefault
  3
AutoCAD 2000
 90
0
280
0
281
0
  0
CLASS
  1
ACDBPLACEHOLDER
  2
AcDbPlaceHolder
  3
AutoCAD 2000
 90
0
280
0
281
0
  0
CLASS
  1
LAYOUT
  2
AcDbLayout
  3
AutoCAD 2000
 90
0
280
0
281
0
  0
ENDSEC
  0
SECTION
  2
TABLES
  0
TABLE
  2
VPORT
  5
8
100
AcDbSymbolTable
 70
2
  0
VPORT
  5
1F4
100
AcDbSymbolTableRecord
100
AcDbViewportTableRecord
  2
*ACTIVE
 70
0
 10
0.0
 20
0.0
 11
1.0
 21
1.0
 12
594.5
 22
420.5
 13
0.0
 23
0.0
 14
1.0
 24
1.0
 15
0.0
 25
0.0
 16
0.0
 26
0.0
 36
1.0
 17
0.0
 27
0.0
 37
0.0
 40
841.0
 41
1.4137931034
 42
50.0
 43
0.0
 44
0.0
 50
0.0
 51
0.0
 71
0
 72
100
 73
1
 74
1
 75
0
 76
0
 77
0
 78
0
  0
ENDTAB
  0
TABLE
  2
LTYPE
  5
5
100
AcDbSymbolTable
 70
6
  0
LTYPE
  5
14
100
AcDbSymbolTableRecord
100
AcDbLinetypeTableRecord
  2
BYBLOCK
 70
0
  3

 72
65
 73
0
 40
0.0
  0
LTYPE
  5
15
100
AcDbSymbolTableRecord
100
AcDbLinetypeTableRecord
  2
BYLAYER
 70
0
  3

 72
65
 73
0
 40
0.0
  0
LTYPE
  5
16
100
AcDbSymbolTableRecord
100
AcDbLinetypeTableRecord
  2
CONTINUOUS
 70
64
  3
Solid line
 72
65
 73
0
 40
0.0
  0
LTYPE
  5
1F5
100
AcDbSymbolTableRecord
100
AcDbLinetypeTableRecord
  2
CENTER
 70
64
  3
____ _ ____ _ ____ _ ____ _ ____ _ ____ _ ____
 72
65
 73
4
 40
0.6
 49
0.375
 74
0
 49
-0.075
 74
0
 49
0.075
 74
0
 49
-0.075
 74
0
  0
LTYPE
  5
1F6
100
AcDbSymbolTableRecord
100
AcDbLinetypeTableRecord
  2
HIDDEN
 70
64
  3
- - - - - - - - - - - - - - - - - - - -
 72
65
 73
2
 40
0.2
 49
0.1
 74
0
 49
-0.1
 74
0
  0
LTYPE
  5
1F7
100
AcDbSymbolTableRecord
100
AcDbLinetypeTableRecord
  2
PHANTOM
 70
64
  3
_____ _ _ _____ _ _ _____ _ _ _____
 72
65
 73
6
 40
0.8
 49
0.45
 74
0
 49
-0.05
 74
0
 49
0.1
 74
0
 49
-0.05
 74
0
 49
0.1
 74
0
 49
-0.05
 74
0
  0
LTYPE
  5
1F8
100
AcDbSymbolTableRecord
100
AcDbLinetypeTableRecord
  2
DOT
 70
64
  3
. . . . . . . . . . . . . . . . . . . .
 72
65
 73
2
 40
0.2
 49
0.1
 74
0
 49
-0.1
 74
0
  0
LTYPE
  5
1F9
100
AcDbSymbolTableRecord
100
AcDbLinetypeTableRecord
  2
DASHED
 70
64
  3
- - - - - - - - - - - - - - - - - - - -
 72
65
 73
2
 40
0.2
 49
0.1
 74
0
 49
-0.1
 74
0
  0
ENDTAB
  0
TABLE
  2
LAYER
  5
2
100
AcDbSymbolTable
 70
36
  0
LAYER
  5
10
100
AcDbSymbolTableRecord
100
AcDbLayerTableRecord
  2
0
 70
0
 62
7
  6
CONTINUOUS
370
-3
390
F
  0
LAYER
  5
1FA
100
AcDbSymbolTableRecord
100
AcDbLayerTableRecord
  2
DEFAULT_1
 70
0
 62
7
  6
CENTER
370
-3
390
F
  0
LAYER
  5
1FB
100
AcDbSymbolTableRecord
100
AcDbLayerTableRecord
  2
DEFAULT_2
 70
0
 62
8
  6
HIDDEN
370
-3
390
F
  0
LAYER
  5
1FC
100
AcDbSymbolTableRecord
100
AcDbLayerTableRecord
  2
DEFAULT_3
 70
0
 62
7
  6
PHANTOM
370
-3
390
F
  0
LAYER
  5
1FD
100
AcDbSymbolTableRecord
100
AcDbLayerTableRecord
  2
BEZUGSACHSEN
 70
0
 62
7
  6
CONTINUOUS
370
-3
390
F
  0
LAYER
  5
1FE
100
AcDbSymbolTableRecord
100
AcDbLayerTableRecord
  2
BEZUGSEBENEN
 70
0
 62
7
  6
CONTINUOUS
370
-3
390
F
  0
LAYER
  5
1FF
100
AcDbSymbolTableRecord
100
AcDbLayerTableRecord
  2
BG_STARTBEZUEGE
 70
0
 62
7
  6
CONTINUOUS
370
-3
390
F
  0
LAYER
  5
200
100
AcDbSymbolTableRecord
100
AcDbLayerTableRecord
  2
FASEN
 70
0
 62
7
  6
CONTINUOUS
370
-3
390
F
  0
LAYER
  5
201
100
AcDbSymbolTableRecord
100
AcDbLayerTableRecord
  2
HILFEN
 70
0
 62
7
  6
CONTINUOUS
370
-3
390
F
  0
LAYER
  5
202
100
AcDbSymbolTableRecord
100
AcDbLayerTableRecord
  2
KONSTRUKTIONSELEMENTE
 70
0
 62
7
  6
CONTINUOUS
370
-3
390
F
  0
LAYER
  5
203
100
AcDbSymbolTableRecord
100
AcDbLayerTableRecord
  2
NORM
 70
0
 62
7
  6
CONTINUOUS
370
-3
390
F
  0
LAYER
  5
204
100
AcDbSymbolTableRecord
100
AcDbLayerTableRecord
  2
PLATZIERUNG
 70
0
 62
7
  6
CONTINUOUS
370
-3
390
F
  0
LAYER
  5
205
100
AcDbSymbolTableRecord
100
AcDbLayerTableRecord
  2
RUNDUNGEN
 70
0
 62
7
  6
CONTINUOUS
370
-3
390
F
  0
LAYER
  5
206
100
AcDbSymbolTableRecord
100
AcDbLayerTableRecord
  2
TEIL_STARTBEZUEGE
 70
0
 62
7
  6
CONTINUOUS
370
-3
390
F
  0
LAYER
  5
207
100
AcDbSymbolTableRecord
100
AcDbLayerTableRecord
  2
T_STARTBEZUEGE
 70
0
 62
7
  6
CONTINUOUS
370
-3
390
F
  0
ENDTAB
  0
TABLE
  2
STYLE
  5
3
100
AcDbSymbolTable
 70
1
  0
STYLE
  5
11
100
AcDbSymbolTableRecord
100
AcDbTextStyleTableRecord
  2
STANDARD
 70
0
 40
0.0
 41
0.7
 50
0.0
 71
0
 42
0.2
  3
txt
  4

  0
STYLE
  5
208
100
AcDbSymbolTableRecord
100
AcDbTextStyleTableRecord
  2
TEXTSTYLE_1
 70
0
 40
0.0
 41
0.8
 50
0.0
 71
0
 42
0.2
  3
gdt
  4

  0
ENDTAB
  0
TABLE
  2
VIEW
  5
6
100
AcDbSymbolTable
 70
0
  0
ENDTAB
  0
TABLE
  2
UCS
  5
7
100
AcDbSymbolTable
 70
0
  0
ENDTAB
  0
TABLE
  2
APPID
  5
9
100
AcDbSymbolTable
 70
1
  0
APPID
  5
209
100
AcDbSymbolTableRecord
100
AcDbRegAppTableRecord
  2
ACAD
 70
0
  0
ENDTAB
  0
TABLE
  2
BLOCK_RECORD
  5
1
100
AcDbSymbolTable
 70
0
  0
BLOCK_RECORD
  5
20A
100
AcDbSymbolTableRecord
100
AcDbBlockTableRecord
  2
*Model_Space
  0
BLOCK_RECORD
  5
20B
100
AcDbSymbolTableRecord
100
AcDbBlockTableRecord
  2
*Paper_Space
  0
ENDTAB
  0
TABLE
  2
DIMSTYLE
  5
A
100
AcDbSymbolTable
 70
1
100
AcDbDimStyleTable
 71
0
  0
DIMSTYLE
105
20C
100
AcDbSymbolTableRecord
100
AcDbDimStyleTableRecord
  2
STANDARD
 70
0
  3

  4

 40
1.0
 41
3.5
 42
0.0625
 43
0.38
 44
0.18
 45
0.0
 46
0.0
 47
0.005
 48
0.005
140
3.5
141
0.09
142
0.0
143
25.4
144
1.0
145
0.0
146
1.0
147
0.09
 71
1.0
 72
0.0
 73
0
 74
0
 75
0
 76
0
 77
1
 78
8
170
0
171
2
172
0
173
0
174
0
175
0
176
0
177
0
178
5
270
2
271
3
272
3
273
2
274
2
275
0
280
0
281
0
282
0
283
1
284
8
285
0
286
0
287
3
288
0
340
11
  0
ENDTAB
  0
ENDSEC
  0
SECTION
  2
BLOCKS
  0
BLOCK
  5
20
100
AcDbEntity
  8
0
100
AcDbBlockBegin
  2
*Model_Space
 70
0
 10
0.0
 20
0.0
 30
0.0
  3
*Model_Space
  1

  0
ENDBLK
  5
21
100
AcDbEntity
  8
0
100
AcDbBlockEnd
  0
BLOCK
  5
1C
100
AcDbEntity
  8
0
100
AcDbBlockBegin
  2
*Paper_Space
 70
0
 10
0.0
 20
0.0
 30
0.0
  3
*Paper_Space
  1

  0
ENDBLK
  5
1D
100
AcDbEntity
  8
0
100
AcDbBlockEnd
  0
ENDSEC
  0
SECTION
  2
ENTITIES
  0
MTEXT
  5
20D
100
AcDbEntity
  8
0
100
AcDbMText
 62
5
  6
CONTINUOUS
  7
STANDARD
 71
1
 72
1
 10
592.0568176509
 20
525.9609016493
 30
0.0
 11
0.0
 21
1.0
 31
0.0
 44
0.9
  1
RUD
 40
11.0
 41
29.3333333333
  0
MTEXT
  5
20E
100
AcDbEntity
  8
0
100
AcDbMText
 62
5
  6
CONTINUOUS
  7
STANDARD
 71
1
 72
1
 10
814.5059783765
 20
471.9647003615
 30
0.0
 11
0.0
 21
1.0
 31
0.0
 44
0.9
  1
ISAK-RG 1-10/190
 40
11.0
 41
130.6904761905
  0
MTEXT
  5
20F
100
AcDbEntity
  8
0
100
AcDbMText
 62
5
  6
CONTINUOUS
  7
STANDARD
 71
1
 72
1
 10
319.7731843255
 20
462.7051506935
 30
0.0
 11
0.0
 21
1.0
 31
0.0
 44
0.9
  1
RUD ISAK-RG 1-10/190
 40
11.0
 41
166.5714285714
  0
LINE
  5
210
100
AcDbEntity
  8
0
100
AcDbLine
 62
7
  6
CONTINUOUS
 10
0.0
 20
0.0
 11
0.0
 21
841.0
  0
LINE
  5
211
100
AcDbEntity
  8
0
100
AcDbLine
 62
7
  6
CONTINUOUS
 10
0.0
 20
0.0
 11
1189.0
 21
0.0
  0
LINE
  5
212
100
AcDbEntity
  8
0
100
AcDbLine
 62
7
  6
CONTINUOUS
 10
0.0
 20
841.0
 11
1189.0
 21
841.0
  0
LINE
  5
213
100
AcDbEntity
  8
0
100
AcDbLine
 62
7
  6
CONTINUOUS
 10
1189.0
 20
0.0
 11
1189.0
 21
841.0
  0
LINE
  5
214
100
AcDbEntity
  8
RUNDUNGEN
100
AcDbLine
 62
7
  6
CONTINUOUS
 10
679.125509149
 20
91.6457510185
 11
681.475509149
 21
91.6457510185
  0
LINE
  5
215
100
AcDbEntity
  8
RUNDUNGEN
100
AcDbLine
 62
7
  6
CONTINUOUS
 10
734.775509149
 20
91.6457510185
 11
737.125509149
 21
91.6457510185
  0
LINE
  5
216
100
AcDbEntity
  8
RUNDUNGEN
100
AcDbLine
 62
7
  6
CONTINUOUS
 10
686.975509149
 20
100.1310323927
 11
693.8375430568
 21
100.1310323927
  0
LINE
  5
217
100
AcDbEntity
  8
RUNDUNGEN
100
AcDbLine
 62
7
  6
CONTINUOUS
 10
722.4134752411
 20
100.1310323927
 11
729.275509149
 21
100.1310323927
  0
LINE
  5
218
100
AcDbEntity
  8
0
100
AcDbLine
 62
7
  6
CONTINUOUS
 10
694.1382414137
 20
141.1432257016
 11
698.9382414137
 21
141.1432257016
  0
LINE
  5
219
100
AcDbEntity
  8
0
100
AcDbLine
 62
7
  6
CONTINUOUS
 10
701.4840427152
 20
141.1432257016
 11
702.4440427152
 21
141.1432257016
  0
LINE
  5
21A
100
AcDbEntity
  8
0
100
AcDbLine
 62
7
  6
CONTINUOUS
 10
707.0169966321
 20
141.1432257016
 11
708.125509149
 21
141.1432257016
  0
LINE
  5
21B
100
AcDbEntity
  8
0
100
AcDbLine
 62
7
  6
CONTINUOUS
 10
716.4781780758
 20
141.1432257016
 11
719.9561451434
 21
141.1432257016
  0
LINE
  5
21C
100
AcDbEntity
  8
0
100
AcDbLine
 62
7
  6
CONTINUOUS
 10
694.1382414137
 20
141.4967790922
 11
698.9382414137
 21
141.4967790922
  0
LINE
  5
21D
100
AcDbEntity
  8
0
100
AcDbLine
 62
7
  6
CONTINUOUS
 10
701.4840427152
 20
141.4967790922
 11
702.4440427152
 21
141.4967790922
  0
LINE
  5
21E
100
AcDbEntity
  8
0
100
AcDbLine
 62
7
  6
CONTINUOUS
 10
707.0169966321
 20
141.4967790922
 11
707.8368340144
 21
141.4967790922
  0
LINE
  5
21F
100
AcDbEntity
  8
0
100
AcDbLine
 62
7
  6
CONTINUOUS
 10
716.4781780758
 20
141.4967790922
 11
719.9561451434
 21
141.4967790922
  0
LINE
  5
220
100
AcDbEntity
  8
0
100
AcDbLine
 62
7
  6
CONTINUOUS
 10
719.9771816213
 20
141.8503324827
 11
717.4381780758
 21
141.8503324827
  0
LINE
  5
221
100
AcDbEntity
  8
0
100
AcDbLine
 62
7
  6
CONTINUOUS
 10
697.2882414137
 20
141.991753839
 11
695.7882414137
 21
141.991753839
  0
LINE
  5
222
100
AcDbEntity
  8
0
100
AcDbLine
 62
7
  6
CONTINUOUS
 10
696.0582414137
 20
142.3099518905
 11
697.0182414137
 21
142.3099518905
  0
LINE
  5
223
100
AcDbEntity
  8
0
100
AcDbLine
 62
7
  6
CONTINUOUS
 10
696.0582414137
 20
142.6635052811
 11
697.0182414137
 21
142.6635052811
  0
LINE
  5
224
100
AcDbEntity
  8
0
100
AcDbLine
 62
7
  6
CONTINUOUS
 10
696.6432414137
 20
143.1584800279
 11
696.4332414137
 21
143.1584800279
  0
LINE
  5
225
100
AcDbEntity
  8
0
100
AcDbLine
 62
7
  6
CONTINUOUS
 10
697.0182414137
 20
143.3706120623
 11
696.7632414137
 21
143.3706120623
  0
LINE
  5
226
100
AcDbEntity
  8
0
100
AcDbLine
 62
7
  6
CONTINUOUS
 10
696.3132414137
 20
143.3706120623
 11
696.0582414137
 21
143.3706120623
  0
LINE
  5
227
100
AcDbEntity
  8
0
100
AcDbLine
 62
7
  6
CONTINUOUS
 10
695.7882414137
 20
143.6888101138
 11
696.3132414137
 21
143.6888101138
  0
LINE
  5
228
100
AcDbEntity
  8
0
100
AcDbLine
 62
7
  6
CONTINUOUS
 10
696.7632414137
 20
143.6888101138
 11
697.2882414137
 21
143.6888101138
  0
LINE
  5
229
100
AcDbEntity
  8
0
100
AcDbLine
 62
7
  6
CONTINUOUS
 10
702.4440427152
 20
143.8045398671
 11
704.8440427152
 21
143.8045398671
  0
LINE
  5
22A
100
AcDbEntity
  8
0
100
AcDbLine
 62
7
  6
CONTINUOUS
 10
695.7882414137
 20
144.0423635044
 11
696.3132414137
 21
144.0423635044
  0
LINE
  5
22B
100
AcDbEntity
  8
0
100
AcDbLine
 62
7
  6
CONTINUOUS
 10
696.7632414137
 20
144.0423635044
 11
697.2882414137
 21
144.0423635044
  0
LINE
  5
22C
100
AcDbEntity
  8
0
100
AcDbLine
 62
7
  6
CONTINUOUS
 10
697.2882414137
 20
144.1130741825
 11
696.7632414137
 21
144.1130741825
  0
LINE
  5
22D
100
AcDbEntity
  8
0
100
AcDbLine
 62
7
  6
CONTINUOUS
 10
696.3132414137
 20
144.1130741825
 11
695.7882414137
 21
144.1130741825
  0
LINE
  5
22E
100
AcDbEntity
  8
0
100
AcDbLine
 62
7
  6
CONTINUOUS
 10
702.4440427152
 20
144.1580932577
 11
704.8440427152
 21
144.1580932577
  0
LINE
  5
22F
100
AcDbEntity
  8
0
100
AcDbLine
 62
7
  6
CONTINUOUS
 10
696.0582414137
 20
144.4312722341
 11
696.3132414137
 21
144.4312722341
  0
LINE
  5
230
100
AcDbEntity
  8
0
100
AcDbLine
 62
7
  6
CONTINUOUS
 10
696.7632414137
 20
144.4312722341
 11
697.0182414137
 21
144.4312722341
  0
LINE
  5
231
100
AcDbEntity
  8
0
100
AcDbLine
 62
7
  6
CONTINUOUS
 10
705.2440427152
 20
144.483362377
 11
702.4440427152
 21
144.483362377
  0
LINE
  5
232
100
AcDbEntity
  8
0
100
AcDbLine
 62
7
  6
CONTINUOUS
 10
696.4332414137
 20
144.6434042684
 11
696.6432414137
 21
144.6434042684
  0
LINE
  5
233
100
AcDbEntity
  8
0
100
AcDbLine
 62
7
  6
CONTINUOUS
 10
696.0582414137
 20
144.7848256247
 11
696.3132414137
 21
144.7848256247
  0
LINE
  5
234
100
AcDbEntity
  8
0
100
AcDbLine
 62
7
  6
CONTINUOUS
 10
696.7632414137
 20
144.7848256247
 11
697.0182414137
 21
144.7848256247
  0
LINE
  5
235
100
AcDbEntity
  8
0
100
AcDbLine
 62
7
  6
CONTINUOUS
 10
696.4332414137
 20
144.996957659
 11
696.6432414137
 21
144.996957659
  0
LINE
  5
236
100
AcDbEntity
  8
0
100
AcDbLine
 62
7
  6
CONTINUOUS
 10
717.4381780758
 20
145.3858663887
 11
716.4781780758
 21
145.3858663887
  0
LINE
  5
237
100
AcDbEntity
  8
0
100
AcDbLine
 62
7
  6
CONTINUOUS
 10
702.4440427152
 20
145.4212217277
 11
701.4840427152
 21
145.4212217277
  0
LINE
  5
238
100
AcDbEntity
  8
0
100
AcDbLine
 62
7
  6
CONTINUOUS
 10
697.0182414137
 20
145.4919324059
 11
696.0582414137
 21
145.4919324059
  0
LINE
  5
239
100
AcDbEntity
  8
0
100
AcDbLine
 62
7
  6
CONTINUOUS
 10
695.7882414137
 20
145.8101304574
 11
697.2882414137
 21
145.8101304574
  0
LINE
  5
23A
100
AcDbEntity
  8
0
100
AcDbLine
 62
7
  6
CONTINUOUS
 10
716.4781780758
 20
145.9798360849
 11
719.9771816213
 21
145.9798360849
  0
LINE
  5
23B
100
AcDbEntity
  8
0
100
AcDbLine
 62
7
  6
CONTINUOUS
 10
701.4840427152
 20
146.0151914239
 11
705.2440427152
 21
146.0151914239
  0
LINE
  5
23C
100
AcDbEntity
  8
0
100
AcDbLine
 62
7
  6
CONTINUOUS
 10
695.7882414137
 20
146.163683848
 11
697.2882414137
 21
146.163683848
  0
LINE
  5
23D
100
AcDbEntity
  8
0
100
AcDbLine
 62
7
  6
CONTINUOUS
 10
716.4781780758
 20
146.3333894755
 11
719.9771816213
 21
146.3333894755
  0
LINE
  5
23E
100
AcDbEntity
  8
0
100
AcDbLine
 62
7
  6
CONTINUOUS
 10
701.4840427152
 20
146.3687448145
 11
705.2440427152
 21
146.3687448145
  0
LINE
  5
23F
100
AcDbEntity
  8
0
100
AcDbLine
 62
7
  6
CONTINUOUS
 10
719.9561451434
 20
146.6586585948
 11
716.4781780758
 21
146.6586585948
  0
LINE
  5
240
100
AcDbEntity
  8
0
100
AcDbLine
 62
7
  6
CONTINUOUS
 10
714.3781780758
 20
146.6586585948
 11
713.4181780758
 21
146.6586585948
  0
LINE
  5
241
100
AcDbEntity
  8
0
100
AcDbLine
 62
7
  6
CONTINUOUS
 10
709.6440427152
 20
146.6586585948
 11
708.6840427152
 21
146.6586585948
  0
LINE
  5
242
100
AcDbEntity
  8
0
100
AcDbLine
 62
7
  6
CONTINUOUS
 10
705.2440427152
 20
146.6586585948
 11
701.4840427152
 21
146.6586585948
  0
LINE
  5
243
100
AcDbEntity
  8
0
100
AcDbLine
 62
7
  6
CONTINUOUS
 10
698.9382414137
 20
146.6586585948
 11
694.1382414137
 21
146.6586585948
  0
LINE
  5
244
100
AcDbEntity
  8
KONSTRUKTIONSELEMENTE
100
AcDbLine
 62
7
  6
CONTINUOUS
 10
732.011509149
 20
171.5793005646
 11
727.2844624986
 21
171.5793005646
  0
LINE
  5
245
100
AcDbEntity
  8
0
100
AcDbLine
 62
7
  6
CONTINUOUS
 10
727.2844624986
 20
171.5793005646
 11
727.2469807102
 21
171.5793005646
  0
LINE
  5
246
100
AcDbEntity
  8
0
100
AcDbLine
 62
7
  6
CONTINUOUS
 10
689.0040375877
 20
171.5793005646
 11
688.9665557993
 21
171.5793005646
  0
LINE
  5
247
100
AcDbEntity
  8
KONSTRUKTIONSELEMENTE
100
AcDbLine
 62
7
  6
CONTINUOUS
 10
688.9665557993
 20
171.5793005646
 11
684.239509149
 21
171.5793005646
  0
LINE
  5
248
100
AcDbEntity
  8
BEZUGSACHSEN
100
AcDbLine
 62
7
  6
CONTINUOUS
 10
701.875509149
 20
182.0237255646
 11
714.375509149
 21
182.0237255646
  0
LINE
  5
249
100
AcDbEntity
  8
BEZUGSACHSEN
100
AcDbLine
 62
7
  6
CONTINUOUS
 10
701.875509149
 20
185.7653990316
 11
714.375509149
 21
185.7653990316
  0
LINE
  5
24A
100
AcDbEntity
  8
0
100
AcDbLine
 62
7
  6
CONTINUOUS
 10
723.3498750909
 20
208.3181719839
 11
722.9338338634
 21
208.2167294428
  0
LINE
  5
24B
100
AcDbEntity
  8
0
100
AcDbLine
 62
7
  6
CONTINUOUS
 10
729.6945100596
 20
208.2167294428
 11
729.1744576325
 21
208.1152869017
  0
LINE
  5
24C
100
AcDbEntity
  8
0
100
AcDbLine
 62
7
  6
CONTINUOUS
 10
722.9338338634
 20
207.6080741251
 11
723.4538856953
 21
207.7095166751
  0
LINE
  5
24D
100
AcDbEntity
  8
0
100
AcDbLine
 62
7
  6
CONTINUOUS
 10
729.1744576325
 20
207.6080741251
 11
729.7985200689
 21
207.7095166751
  0
LINE
  5
24E
100
AcDbEntity
  8
BEZUGSACHSEN
100
AcDbLine
 62
7
  6
CONTINUOUS
 10
701.875509149
 20
192.3932020977
 11
714.375509149
 21
192.3932020977
  0
LINE
  5
24F
100
AcDbEntity
  8
BEZUGSACHSEN
100
AcDbLine
 62
7
  6
CONTINUOUS
 10
701.875509149
 20
196.1348755646
 11
714.375509149
 21
196.1348755646
  0
LINE
  5
250
100
AcDbEntity
  8
RUNDUNGEN
100
AcDbLine
 62
7
  6
CONTINUOUS
 10
684.125509149
 20
196.5793005646
 11
695.0114180704
 21
196.5793005646
  0
LINE
  5
251
100
AcDbEntity
  8
RUNDUNGEN
100
AcDbLine
 62
7
  6
CONTINUOUS
 10
721.2396002276
 20
196.5793005646
 11
732.125509149
 21
196.5793005646
  0
LINE
  5
252
100
AcDbEntity
  8
RUNDUNGEN
100
AcDbLine
 62
7
  6
CONTINUOUS
 10
732.125509149
 20
202.4682733104
 11
714.3663101775
 21
202.4682733104
  0
LINE
  5
253
100
AcDbEntity
  8
RUNDUNGEN
100
AcDbLine
 62
7
  6
CONTINUOUS
 10
701.8847081204
 20
202.4682733104
 11
684.125509149
 21
202.4682733104
  0
LINE
  5
254
100
AcDbEntity
  8
0
100
AcDbLine
 62
7
  6
CONTINUOUS
 10
686.9192088945
 20
207.6080741251
 11
687.5151838945
 21
207.6080741251
  0
LINE
  5
255
100
AcDbEntity
  8
0
100
AcDbLine
 62
7
  6
CONTINUOUS
 10
689.9984129665
 20
207.6080741251
 11
690.6937173226
 21
207.6080741251
  0
LINE
  5
256
100
AcDbEntity
  8
0
100
AcDbLine
 62
7
  6
CONTINUOUS
 10
693.0776170384
 20
207.6080741251
 11
693.4749338945
 21
207.6080741251
  0
LINE
  5
257
100
AcDbEntity
  8
0
100
AcDbLine
 62
7
  6
CONTINUOUS
 10
695.8588338945
 20
207.6080741251
 11
698.2427338945
 21
207.6080741251
  0
LINE
  5
258
100
AcDbEntity
  8
0
100
AcDbLine
 62
7
  6
CONTINUOUS
 10
714.092949149
 20
207.6080741251
 11
714.7170115854
 21
207.6080741251
  0
LINE
  5
259
100
AcDbEntity
  8
0
100
AcDbLine
 62
7
  6
CONTINUOUS
 10
715.5490947844
 20
207.6080741251
 11
716.1731572208
 21
207.6080741251
  0
LINE
  5
25A
100
AcDbEntity
  8
0
100
AcDbLine
 62
7
  6
CONTINUOUS
 10
718.7734174222
 20
207.6080741251
 11
719.501490463
 21
207.6080741251
  0
LINE
  5
25B
100
AcDbEntity
  8
0
100
AcDbLine
 62
7
  6
CONTINUOUS
 10
721.9977402087
 20
207.6080741251
 11
722.9338338634
 21
207.6080741251
  0
LINE
  5
25C
100
AcDbEntity
  8
0
100
AcDbLine
 62
7
  6
CONTINUOUS
 10
725.8461254317
 20
207.6080741251
 11
726.4701878682
 21
207.6080741251
  0
LINE
  5
25D
100
AcDbEntity
  8
0
100
AcDbLine
 62
7
  6
CONTINUOUS
 10
722.9338338634
 20
208.2167294428
 11
721.9977402087
 21
208.2167294428
  0
LINE
  5
25E
100
AcDbEntity
  8
0
100
AcDbLine
 62
7
  6
CONTINUOUS
 10
698.2427338945
 20
208.2167294428
 11
696.4548088945
 21
208.2167294428
  0
LINE
  5
25F
100
AcDbEntity
  8
0
100
AcDbLine
 62
7
  6
CONTINUOUS
 10
693.4749338945
 20
208.2167294428
 11
693.0776170384
 21
208.2167294428
  0
LINE
  5
260
100
AcDbEntity
  8
0
100
AcDbLine
 62
7
  6
CONTINUOUS
 10
722.8298232589
 20
209.6369252313
 11
723.7659169136
 21
209.6369252313
  0
LINE
  5
261
100
AcDbEntity
  8
0
100
AcDbLine
 62
7
  6
CONTINUOUS
 10
687.5151838945
 20
209.7383677724
 11
689.2037796805
 21
209.7383677724
  0
LINE
  5
262
100
AcDbEntity
  8
0
100
AcDbLine
 62
7
  6
CONTINUOUS
 10
716.1731572208
 20
209.7383677724
 11
717.9413340744
 21
209.7383677724
  0
LINE
  5
263
100
AcDbEntity
  8
0
100
AcDbLine
 62
7
  6
CONTINUOUS
 10
724.38997935
 20
210.2455804779
 11
722.8298232589
 21
210.2455804779
  0
LINE
  5
264
100
AcDbEntity
  8
0
100
AcDbLine
 62
7
  6
CONTINUOUS
 10
718.1493549857
 20
210.347023019
 11
716.1731572208
 21
210.347023019
  0
LINE
  5
265
100
AcDbEntity
  8
0
100
AcDbLine
 62
7
  6
CONTINUOUS
 10
689.4024379665
 20
210.347023019
 11
687.5151838945
 21
210.347023019
  0
LINE
  5
266
100
AcDbEntity
  8
0
100
AcDbLine
 62
7
  6
CONTINUOUS
 10
723.7659169136
 20
211.1585633478
 11
724.38997935
 21
211.1585633478
  0
LINE
  5
267
100
AcDbEntity
  8
0
100
AcDbLine
 62
7
  6
CONTINUOUS
 10
692.5809713945
 20
207.7095166751
 11
693.0776170384
 21
207.6080741251
  0
LINE
  5
268
100
AcDbEntity
  8
0
100
AcDbLine
 62
7
  6
CONTINUOUS
 10
693.0776170384
 20
208.2167294428
 11
692.6803007506
 21
208.3181719839
  0
LINE
  5
269
100
AcDbEntity
  8
RUNDUNGEN
100
AcDbLine
 62
7
  6
CONTINUOUS
 10
727.5419626789
 20
152.2501563009
 11
716.7291556942
 21
157.6038094982
  0
LINE
  5
26A
100
AcDbEntity
  8
RUNDUNGEN
100
AcDbLine
 62
7
  6
CONTINUOUS
 10
716.7291556942
 20
161.1393434041
 11
727.5419626789
 21
155.7856902068
  0
LINE
  5
26B
100
AcDbEntity
  8
RUNDUNGEN
100
AcDbLine
 62
7
  6
CONTINUOUS
 10
751.7798219683
 20
157.8649479209
 11
744.5712839786
 21
161.4340500525
  0
LINE
  5
26C
100
AcDbEntity
  8
RUNDUNGEN
100
AcDbLine
 62
7
  6
CONTINUOUS
 10
751.7798219683
 20
161.4004818269
 11
744.5712839786
 21
164.9695839584
  0
LINE
  5
26D
100
AcDbEntity
  8
RUNDUNGEN
100
AcDbLine
 62
7
  6
CONTINUOUS
 10
666.1103504449
 20
154.3604384127
 11
668.6914444085
 21
151.7539125687
  0
LINE
  5
26E
100
AcDbEntity
  8
RUNDUNGEN
100
AcDbLine
 62
7
  6
CONTINUOUS
 10
675.9185075066
 20
144.4556402054
 11
689.8934250943
 21
130.3430257968
  0
LINE
  5
26F
100
AcDbEntity
  8
RUNDUNGEN
100
AcDbLine
 62
7
  6
CONTINUOUS
 10
713.0404214147
 20
106.9679588786
 11
718.3177150197
 21
101.6386673603
  0
LINE
  5
270
100
AcDbEntity
  8
RUNDUNGEN
100
AcDbLine
 62
7
  6
CONTINUOUS
 10
680.1774181155
 20
150.0171903682
 11
677.5389665082
 21
152.6816390087
  0
LINE
  5
271
100
AcDbEntity
  8
0
100
AcDbLine
 62
7
  6
CONTINUOUS
 10
698.6400501823
 20
208.3181719839
 11
698.2427338945
 21
208.2167294428
  0
LINE
  5
272
100
AcDbEntity
  8
0
100
AcDbLine
 62
7
  6
CONTINUOUS
 10
693.8722507506
 20
208.3181719839
 11
693.4749338945
 21
208.2167294428
  0
LINE
  5
273
100
AcDbEntity
  8
0
100
AcDbLine
 62
7
  6
CONTINUOUS
 10
721.5816983861
 20
211.6657763374
 11
721.9977402087
 21
211.7672188785
  0
LINE
  5
274
100
AcDbEntity
  8
0
100
AcDbLine
 62
7
  6
CONTINUOUS
 10
698.2427338945
 20
207.6080741251
 11
698.7393801068
 21
207.7095166751
  0
LINE
  5
275
100
AcDbEntity
  8
0
100
AcDbLine
 62
7
  6
CONTINUOUS
 10
693.4749338945
 20
207.6080741251
 11
693.9715795384
 21
207.7095166751
  0
LINE
  5
276
100
AcDbEntity
  8
0
100
AcDbLine
 62
7
  6
CONTINUOUS
 10
728.6544063956
 20
211.7672188785
 11
729.1744576325
 21
211.8686614196
  0
LINE
  5
277
100
AcDbEntity
  8
0
100
AcDbLine
 62
7
  6
CONTINUOUS
 10
721.9977402087
 20
212.3758741251
 11
721.4776877816
 21
212.274431584
  0
LINE
  5
278
100
AcDbEntity
  8
0
100
AcDbLine
 62
7
  6
CONTINUOUS
 10
729.1744576325
 20
212.3758741251
 11
728.550395196
 21
212.274431584
  0
LINE
  5
279
100
AcDbEntity
  8
0
100
AcDbLine
 62
7
  6
CONTINUOUS
 10
696.4548088945
 20
211.7672188785
 11
698.2427338945
 21
211.7672188785
  0
LINE
  5
27A
100
AcDbEntity
  8
0
100
AcDbLine
 62
7
  6
CONTINUOUS
 10
721.9977402087
 20
211.7672188785
 11
722.9338338634
 21
211.7672188785
  0
LINE
  5
27B
100
AcDbEntity
  8
0
100
AcDbLine
 62
7
  6
CONTINUOUS
 10
687.5151838945
 20
211.8686614196
 11
689.4024379665
 21
211.8686614196
  0
LINE
  5
27C
100
AcDbEntity
  8
0
100
AcDbLine
 62
7
  6
CONTINUOUS
 10
716.1731572208
 20
211.8686614196
 11
718.1493549857
 21
211.8686614196
  0
LINE
  5
27D
100
AcDbEntity
  8
0
100
AcDbLine
 62
7
  6
CONTINUOUS
 10
726.4701878682
 20
212.3758741251
 11
725.8461254317
 21
212.3758741251
  0
LINE
  5
27E
100
AcDbEntity
  8
0
100
AcDbLine
 62
7
  6
CONTINUOUS
 10
722.9338338634
 20
212.3758741251
 11
721.9977402087
 21
212.3758741251
  0
LINE
  5
27F
100
AcDbEntity
  8
0
100
AcDbLine
 62
7
  6
CONTINUOUS
 10
718.0453446789
 20
212.3758741251
 11
715.5490947844
 21
212.3758741251
  0
LINE
  5
280
100
AcDbEntity
  8
0
100
AcDbLine
 62
7
  6
CONTINUOUS
 10
714.7170115854
 20
212.3758741251
 11
714.092949149
 21
212.3758741251
  0
LINE
  5
281
100
AcDbEntity
  8
0
100
AcDbLine
 62
7
  6
CONTINUOUS
 10
698.2427338945
 20
212.3758741251
 11
695.8588338945
 21
212.3758741251
  0
LINE
  5
282
100
AcDbEntity
  8
0
100
AcDbLine
 62
7
  6
CONTINUOUS
 10
695.0642007506
 20
212.3758741251
 11
694.4682257506
 21
212.3758741251
  0
LINE
  5
283
100
AcDbEntity
  8
0
100
AcDbLine
 62
7
  6
CONTINUOUS
 10
692.0843257506
 20
212.3758741251
 11
691.4883504665
 21
212.3758741251
  0
LINE
  5
284
100
AcDbEntity
  8
0
100
AcDbLine
 62
7
  6
CONTINUOUS
 10
689.3031088945
 20
212.3758741251
 11
686.9192088945
 21
212.3758741251
  0
LINE
  5
285
100
AcDbEntity
  8
RUNDUNGEN
100
AcDbLine
 62
7
  6
CONTINUOUS
 10
728.4403629581
 20
218.4667827583
 11
725.5770290441
 21
218.4667827583
  0
LINE
  5
286
100
AcDbEntity
  8
RUNDUNGEN
100
AcDbLine
 62
7
  6
CONTINUOUS
 10
690.6739892538
 20
218.4667827583
 11
687.8106551097
 21
218.4667827583
  0
LINE
  5
287
100
AcDbEntity
  8
RUNDUNGEN
100
AcDbLine
 62
7
  6
CONTINUOUS
 10
696.1711679124
 20
218.5793005646
 11
720.0798503856
 21
218.5793005646
  0
LINE
  5
288
100
AcDbEntity
  8
0
100
AcDbLine
 62
7
  6
CONTINUOUS
 10
728.550395196
 20
207.7095166751
 11
729.1744576325
 21
207.6080741251
  0
LINE
  5
289
100
AcDbEntity
  8
0
100
AcDbLine
 62
7
  6
CONTINUOUS
 10
729.7985200689
 20
212.274431584
 11
729.1744576325
 21
212.3758741251
  0
LINE
  5
28A
100
AcDbEntity
  8
0
100
AcDbLine
 62
7
  6
CONTINUOUS
 10
721.4776877816
 20
207.7095166751
 11
721.9977402087
 21
207.6080741251
  0
LINE
  5
28B
100
AcDbEntity
  8
0
100
AcDbLine
 62
7
  6
CONTINUOUS
 10
729.1744576325
 20
208.1152869017
 11
728.6544063956
 21
208.2167294428
  0
LINE
  5
28C
100
AcDbEntity
  8
0
100
AcDbLine
 62
7
  6
CONTINUOUS
 10
718.5653965108
 20
212.274431584
 11
718.0453446789
 21
212.3758741251
  0
LINE
  5
28D
100
AcDbEntity
  8
0
100
AcDbLine
 62
7
  6
CONTINUOUS
 10
723.4538856953
 20
212.274431584
 11
722.9338338634
 21
212.3758741251
  0
LINE
  5
28E
100
AcDbEntity
  8
0
100
AcDbLine
 62
7
  6
CONTINUOUS
 10
729.1744576325
 20
211.8686614196
 11
729.6945100596
 21
211.7672188785
  0
LINE
  5
28F
100
AcDbEntity
  8
0
100
AcDbLine
 62
7
  6
CONTINUOUS
 10
689.7997548226
 20
212.274431584
 11
689.3031088945
 21
212.3758741251
  0
LINE
  5
290
100
AcDbEntity
  8
0
100
AcDbLine
 62
7
  6
CONTINUOUS
 10
698.7393801068
 20
212.274431584
 11
698.2427338945
 21
212.3758741251
  0
LINE
  5
291
100
AcDbEntity
  8
0
100
AcDbLine
 62
7
  6
CONTINUOUS
 10
721.9977402087
 20
208.2167294428
 11
721.5816983861
 21
208.3181719839
  0
LINE
  5
292
100
AcDbEntity
  8
0
100
AcDbLine
 62
7
  6
CONTINUOUS
 10
722.9338338634
 20
211.7672188785
 11
723.3498750909
 21
211.6657763374
  0
LINE
  5
293
100
AcDbEntity
  8
0
100
AcDbLine
 62
7
  6
CONTINUOUS
 10
698.2427338945
 20
211.7672188785
 11
698.6400501823
 21
211.6657763374
  0
LINE
  5
294
100
AcDbEntity
  8
0
100
AcDbLine
 62
7
  6
CONTINUOUS
 10
718.1493549857
 20
211.8686614196
 11
718.4613862039
 21
211.7672188785
  0
LINE
  5
295
100
AcDbEntity
  8
0
100
AcDbLine
 62
7
  6
CONTINUOUS
 10
689.4024379665
 20
211.8686614196
 11
689.7004254665
 21
211.7672188785
  0
LINE
  5
296
100
AcDbEntity
  8
0
100
AcDbLine
 62
7
  6
CONTINUOUS
 10
692.1836545384
 20
207.9124017839
 11
692.5809713945
 21
207.7095166751
  0
LINE
  5
297
100
AcDbEntity
  8
0
100
AcDbLine
 62
7
  6
CONTINUOUS
 10
699.1366963945
 20
212.0715465018
 11
698.7393801068
 21
212.274431584
  0
LINE
  5
298
100
AcDbEntity
  8
RUNDUNGEN
100
AcDbLine
 62
7
  6
CONTINUOUS
 10
741.2212693704
 20
103.1655021161
 11
726.3575932037
 21
118.1756321666
  0
LINE
  5
299
100
AcDbEntity
  8
RUNDUNGEN
100
AcDbLine
 62
7
  6
CONTINUOUS
 10
688.4624599791
 20
156.4441514482
 11
687.6555792579
 21
157.2589824781
  0
LINE
  5
29A
100
AcDbEntity
  8
RUNDUNGEN
100
AcDbLine
 62
7
  6
CONTINUOUS
 10
741.2212693704
 20
106.701036022
 11
726.3575932037
 21
121.7111660725
  0
LINE
  5
29B
100
AcDbEntity
  8
RUNDUNGEN
100
AcDbLine
 62
7
  6
CONTINUOUS
 10
688.4624599791
 20
159.9796853541
 11
687.6555792579
 21
160.7945163841
  0
LINE
  5
29C
100
AcDbEntity
  8
0
100
AcDbLine
 62
7
  6
CONTINUOUS
 10
721.0616465541
 20
207.9124017839
 11
721.4776877816
 21
207.7095166751
  0
LINE
  5
29D
100
AcDbEntity
  8
0
100
AcDbLine
 62
7
  6
CONTINUOUS
 10
723.869927518
 20
212.0715465018
 11
723.4538856953
 21
212.274431584
  0
LINE
  5
29E
100
AcDbEntity
  8
0
100
AcDbLine
 62
7
  6
CONTINUOUS
 10
728.0303439592
 20
208.013844325
 11
728.550395196
 21
207.7095166751
  0
LINE
  5
29F
100
AcDbEntity
  8
0
100
AcDbLine
 62
7
  6
CONTINUOUS
 10
730.318572496
 20
211.9701039607
 11
729.7985200689
 21
212.274431584
  0
LINE
  5
2A0
100
AcDbEntity
  8
0
100
AcDbLine
 62
7
  6
CONTINUOUS
 10
721.5816983861
 20
208.3181719839
 11
721.2696671679
 21
208.5210571371
  0
LINE
  5
2A1
100
AcDbEntity
  8
0
100
AcDbLine
 62
7
  6
CONTINUOUS
 10
728.6544063956
 20
208.2167294428
 11
728.3423751774
 21
208.419614525
  0
LINE
  5
2A2
100
AcDbEntity
  8
0
100
AcDbLine
 62
7
  6
CONTINUOUS
 10
723.3498750909
 20
211.6657763374
 11
723.6619063091
 21
211.4628912552
  0
LINE
  5
2A3
100
AcDbEntity
  8
0
100
AcDbLine
 62
7
  6
CONTINUOUS
 10
729.6945100596
 20
211.7672188785
 11
730.0065412778
 21
211.5643337963
  0
LINE
  5
2A4
100
AcDbEntity
  8
0
100
AcDbLine
 62
7
  6
CONTINUOUS
 10
692.6803007506
 20
208.3181719839
 11
692.3823132506
 21
208.5210571371
  0
LINE
  5
2A5
100
AcDbEntity
  8
0
100
AcDbLine
 62
7
  6
CONTINUOUS
 10
698.6400501823
 20
211.6657763374
 11
698.9380376823
 21
211.4628912552
  0
LINE
  5
2A6
100
AcDbEntity
  8
0
100
AcDbLine
 62
7
  6
CONTINUOUS
 10
690.1970713945
 20
211.9701039607
 11
689.7997548226
 21
212.274431584
  0
LINE
  5
2A7
100
AcDbEntity
  8
0
100
AcDbLine
 62
7
  6
CONTINUOUS
 10
704.8440427152
 20
143.8045398671
 11
707.0169966321
 21
141.1432257016
  0
LINE
  5
2A8
100
AcDbEntity
  8
0
100
AcDbLine
 62
7
  6
CONTINUOUS
 10
704.8440427152
 20
144.1580932577
 11
707.0169966321
 21
141.4967790922
  0
LINE
  5
2A9
100
AcDbEntity
  8
0
100
AcDbLine
 62
7
  6
CONTINUOUS
 10
708.125509149
 20
141.1432257016
 11
705.8661912342
 21
143.9103137305
  0
LINE
  5
2AA
100
AcDbEntity
  8
0
100
AcDbLine
 62
7
  6
CONTINUOUS
 10
697.125509149
 20
265.8224305367
 11
690.6552236046
 21
264.0887227503
  0
LINE
  5
2AB
100
AcDbEntity
  8
0
100
AcDbLine
 62
7
  6
CONTINUOUS
 10
725.5957946934
 20
264.0887227503
 11
719.125509149
 21
265.8224305367
  0
LINE
  5
2AC
100
AcDbEntity
  8
0
100
AcDbLine
 62
7
  6
CONTINUOUS
 10
718.9814383335
 20
211.9701039607
 11
718.5653965108
 21
212.274431584
  0
LINE
  5
2AD
100
AcDbEntity
  8
0
100
AcDbLine
 62
7
  6
CONTINUOUS
 10
720.6456047314
 20
208.3181719839
 11
721.0616465541
 21
207.9124017839
  0
LINE
  5
2AE
100
AcDbEntity
  8
0
100
AcDbLine
 62
7
  6
CONTINUOUS
 10
718.4613862039
 20
211.7672188785
 11
718.6694071153
 21
211.5643337963
  0
LINE
  5
2AF
100
AcDbEntity
  8
0
100
AcDbLine
 62
7
  6
CONTINUOUS
 10
691.7863382506
 20
208.3181719839
 11
692.1836545384
 21
207.9124017839
  0
LINE
  5
2B0
100
AcDbEntity
  8
0
100
AcDbLine
 62
7
  6
CONTINUOUS
 10
689.7004254665
 20
211.7672188785
 11
689.8990838945
 21
211.5643337963
  0
LINE
  5
2B1
100
AcDbEntity
  8
0
100
AcDbLine
 62
7
  6
CONTINUOUS
 10
699.5340126823
 20
211.6657763374
 11
699.1366963945
 21
212.0715465018
  0
LINE
  5
2B2
100
AcDbEntity
  8
RUNDUNGEN
100
AcDbLine
 62
7
  6
CONTINUOUS
 10
684.239509149
 20
171.5793005646
 11
679.625509149
 21
179.0770505646
  0
LINE
  5
2B3
100
AcDbEntity
  8
0
100
AcDbLine
 62
7
  6
CONTINUOUS
 10
581.125509149
 20
619.0793005646
 11
581.125509149
 21
459.0793005646
  0
LINE
  5
2B4
100
AcDbEntity
  8
0
100
AcDbLine
 62
7
  6
CONTINUOUS
 10
724.2859693407
 20
211.6657763374
 11
723.869927518
 21
212.0715465018
  0
LINE
  5
2B5
100
AcDbEntity
  8
0
100
AcDbLine
 62
7
  6
CONTINUOUS
 10
727.718312741
 20
208.3181719839
 11
728.0303439592
 21
208.013844325
  0
LINE
  5
2B6
100
AcDbEntity
  8
0
100
AcDbLine
 62
7
  6
CONTINUOUS
 10
730.6306037142
 20
211.6657763374
 11
730.318572496
 21
211.9701039607
  0
LINE
  5
2B7
100
AcDbEntity
  8
0
100
AcDbLine
 62
7
  6
CONTINUOUS
 10
719.2934692541
 20
211.5643337963
 11
718.9814383335
 21
211.9701039607
  0
LINE
  5
2B8
100
AcDbEntity
  8
0
100
AcDbLine
 62
7
  6
CONTINUOUS
 10
690.4950588945
 20
211.5643337963
 11
690.1970713945
 21
211.9701039607
  0
LINE
  5
2B9
100
AcDbEntity
  8
0
100
AcDbLine
 62
7
  6
CONTINUOUS
 10
692.3823132506
 20
208.5210571371
 11
692.1836545384
 21
208.8253847604
  0
LINE
  5
2BA
100
AcDbEntity
  8
0
100
AcDbLine
 62
7
  6
CONTINUOUS
 10
698.9380376823
 20
211.4628912552
 11
699.1366963945
 21
211.1585633478
  0
LINE
  5
2BB
100
AcDbEntity
  8
0
100
AcDbLine
 62
7
  6
CONTINUOUS
 10
613.125509149
 20
619.0793005646
 11
613.125509149
 21
459.0793005646
  0
LINE
  5
2BC
100
AcDbEntity
  8
0
100
AcDbLine
 62
7
  6
CONTINUOUS
 10
738.3849313346
 20
251.2995861091
 11
725.5957946934
 21
264.0887227503
  0
LINE
  5
2BD
100
AcDbEntity
  8
0
100
AcDbLine
 62
7
  6
CONTINUOUS
 10
721.2696671679
 20
208.5210571371
 11
721.0616465541
 21
208.8253847604
  0
LINE
  5
2BE
100
AcDbEntity
  8
0
100
AcDbLine
 62
7
  6
CONTINUOUS
 10
728.3423751774
 20
208.419614525
 11
727.9263327596
 21
209.0282698426
  0
LINE
  5
2BF
100
AcDbEntity
  8
0
100
AcDbLine
 62
7
  6
CONTINUOUS
 10
730.0065412778
 20
211.5643337963
 11
730.4225825053
 21
210.9556782656
  0
LINE
  5
2C0
100
AcDbEntity
  8
0
100
AcDbLine
 62
7
  6
CONTINUOUS
 10
691.5876798226
 20
208.7239422193
 11
691.7863382506
 21
208.3181719839
  0
LINE
  5
2C1
100
AcDbEntity
  8
0
100
AcDbLine
 62
7
  6
CONTINUOUS
 10
699.7326713945
 20
211.260006173
 11
699.5340126823
 21
211.6657763374
  0
LINE
  5
2C2
100
AcDbEntity
  8
0
100
AcDbLine
 62
7
  6
CONTINUOUS
 10
690.6937173226
 20
207.6080741251
 11
689.7997548226
 21
209.9412528546
  0
LINE
  5
2C3
100
AcDbEntity
  8
0
100
AcDbLine
 62
7
  6
CONTINUOUS
 10
689.2037796805
 20
209.7383677724
 11
689.9984129665
 21
207.6080741251
  0
LINE
  5
2C4
100
AcDbEntity
  8
0
100
AcDbLine
 62
7
  6
CONTINUOUS
 10
720.4375841177
 20
208.7239422193
 11
720.6456047314
 21
208.3181719839
  0
LINE
  5
2C5
100
AcDbEntity
  8
0
100
AcDbLine
 62
7
  6
CONTINUOUS
 10
727.5102915321
 20
208.7239422193
 11
727.718312741
 21
208.3181719839
  0
LINE
  5
2C6
100
AcDbEntity
  8
0
100
AcDbLine
 62
7
  6
CONTINUOUS
 10
730.8386249231
 20
211.260006173
 11
730.6306037142
 21
211.6657763374
  0
LINE
  5
2C7
100
AcDbEntity
  8
0
100
AcDbLine
 62
7
  6
CONTINUOUS
 10
719.501490463
 20
207.6080741251
 11
718.5653965108
 21
209.9412528546
  0
LINE
  5
2C8
100
AcDbEntity
  8
0
100
AcDbLine
 62
7
  6
CONTINUOUS
 10
689.8990838945
 20
211.5643337963
 11
689.9984129665
 21
211.260006173
  0
LINE
  5
2C9
100
AcDbEntity
  8
0
100
AcDbLine
 62
7
  6
CONTINUOUS
 10
690.5943879665
 20
211.260006173
 11
690.4950588945
 21
211.5643337963
  0
LINE
  5
2CA
100
AcDbEntity
  8
0
100
AcDbLine
 62
7
  6
CONTINUOUS
 10
673.1849380601
 20
233.8293005646
 11
677.8660869633
 21
216.3590150202
  0
LINE
  5
2CB
100
AcDbEntity
  8
0
100
AcDbLine
 62
7
  6
CONTINUOUS
 10
677.8660869633
 20
205.9737972292
 11
679.625509149
 21
198.3529024793
  0
LINE
  5
2CC
100
AcDbEntity
  8
0
100
AcDbLine
 62
7
  6
CONTINUOUS
 10
717.9413340744
 20
209.7383677724
 11
718.7734174222
 21
207.6080741251
  0
LINE
  5
2CD
100
AcDbEntity
  8
0
100
AcDbLine
 62
7
  6
CONTINUOUS
 10
718.6694071153
 20
211.5643337963
 11
718.7734174222
 21
211.260006173
  0
LINE
  5
2CE
100
AcDbEntity
  8
0
100
AcDbLine
 62
7
  6
CONTINUOUS
 10
719.3974798586
 20
211.260006173
 11
719.2934692541
 21
211.5643337963
  0
LINE
  5
2CF
100
AcDbEntity
  8
0
100
AcDbLine
 62
7
  6
CONTINUOUS
 10
723.6619063091
 20
211.4628912552
 11
723.7659169136
 21
211.1585633478
  0
LINE
  5
2D0
100
AcDbEntity
  8
0
100
AcDbLine
 62
7
  6
CONTINUOUS
 10
727.4062815228
 20
209.0282698426
 11
727.5102915321
 21
208.7239422193
  0
LINE
  5
2D1
100
AcDbEntity
  8
0
100
AcDbLine
 62
7
  6
CONTINUOUS
 10
730.9426349324
 20
210.9556782656
 11
730.8386249231
 21
211.260006173
  0
LINE
  5
2D2
100
AcDbEntity
  8
0
100
AcDbLine
 62
7
  6
CONTINUOUS
 10
692.1836545384
 20
208.8253847604
 11
692.0843257506
 21
209.2311549248
  0
LINE
  5
2D3
100
AcDbEntity
  8
0
100
AcDbLine
 62
7
  6
CONTINUOUS
 10
699.1366963945
 20
211.1585633478
 11
699.2360251823
 21
210.7527931834
  0
LINE
  5
2D4
100
AcDbEntity
  8
0
100
AcDbLine
 62
7
  6
CONTINUOUS
 10
691.4883504665
 20
209.2311549248
 11
691.5876798226
 21
208.7239422193
  0
LINE
  5
2D5
100
AcDbEntity
  8
0
100
AcDbLine
 62
7
  6
CONTINUOUS
 10
699.8320001823
 20
210.7527931834
 11
699.7326713945
 21
211.260006173
  0
LINE
  5
2D6
100
AcDbEntity
  8
RUNDUNGEN
100
AcDbLine
 62
7
  6
CONTINUOUS
 10
665.2061106664
 20
156.3883373511
 11
665.2061106664
 21
159.923871257
  0
LINE
  5
2D7
100
AcDbEntity
  8
RUNDUNGEN
100
AcDbLine
 62
7
  6
CONTINUOUS
 10
674.125509149
 20
95.1812849244
 11
674.125509149
 21
104.6731370837
  0
LINE
  5
2D8
100
AcDbEntity
  8
RUNDUNGEN
100
AcDbLine
 62
7
  6
CONTINUOUS
 10
675.647235573
 20
145.0640098869
 11
675.647235573
 21
148.5995437929
  0
LINE
  5
2D9
100
AcDbEntity
  8
0
100
AcDbLine
 62
7
  6
CONTINUOUS
 10
677.8660869633
 20
205.9737972292
 11
677.8660869633
 21
216.3590150202
  0
LINE
  5
2DA
100
AcDbEntity
  8
RUNDUNGEN
100
AcDbLine
 62
7
  6
CONTINUOUS
 10
679.625509149
 20
179.0770505646
 11
679.625509149
 21
212.0793005646
  0
LINE
  5
2DB
100
AcDbEntity
  8
RUNDUNGEN
100
AcDbLine
 62
7
  6
CONTINUOUS
 10
681.975509149
 20
91.9993044091
 11
681.975509149
 21
96.5954984868
  0
LINE
  5
2DC
100
AcDbEntity
  8
0
100
AcDbLine
 62
7
  6
CONTINUOUS
 10
686.9192088945
 20
212.3758741251
 11
686.9192088945
 21
207.6080741251
  0
LINE
  5
2DD
100
AcDbEntity
  8
0
100
AcDbLine
 62
7
  6
CONTINUOUS
 10
687.5151838945
 20
207.6080741251
 11
687.5151838945
 21
209.7383677724
  0
LINE
  5
2DE
100
AcDbEntity
  8
0
100
AcDbLine
 62
7
  6
CONTINUOUS
 10
687.5151838945
 20
210.347023019
 11
687.5151838945
 21
211.8686614196
  0
LINE
  5
2DF
100
AcDbEntity
  8
0
100
AcDbLine
 62
7
  6
CONTINUOUS
 10
721.0616465541
 20
208.8253847604
 11
720.9576359496
 21
209.2311549248
  0
LINE
  5
2E0
100
AcDbEntity
  8
0
100
AcDbLine
 62
7
  6
CONTINUOUS
 10
720.3335735132
 20
209.2311549248
 11
720.4375841177
 21
208.7239422193
  0
LINE
  5
2E1
100
AcDbEntity
  8
0
100
AcDbLine
 62
7
  6
CONTINUOUS
 10
724.38997935
 20
211.1585633478
 11
724.2859693407
 21
211.6657763374
  0
LINE
  5
2E2
100
AcDbEntity
  8
0
100
AcDbLine
 62
7
  6
CONTINUOUS
 10
727.3022703232
 20
209.5354826902
 11
727.4062815228
 21
209.0282698426
  0
LINE
  5
2E3
100
AcDbEntity
  8
0
100
AcDbLine
 62
7
  6
CONTINUOUS
 10
689.9984129665
 20
211.260006173
 11
689.9984129665
 21
210.9556782656
  0
LINE
  5
2E4
100
AcDbEntity
  8
0
100
AcDbLine
 62
7
  6
CONTINUOUS
 10
690.5943879665
 20
210.8542357245
 11
690.5943879665
 21
211.260006173
  0
LINE
  5
2E5
100
AcDbEntity
  8
0
100
AcDbLine
 62
7
  6
CONTINUOUS
 10
691.4883504665
 20
212.3758741251
 11
691.4883504665
 21
209.2311549248
  0
LINE
  5
2E6
100
AcDbEntity
  8
0
100
AcDbLine
 62
7
  6
CONTINUOUS
 10
692.0843257506
 20
209.2311549248
 11
692.0843257506
 21
212.3758741251
  0
LINE
  5
2E7
100
AcDbEntity
  8
KONSTRUKTIONSELEMENTE
100
AcDbLine
 62
7
  6
CONTINUOUS
 10
693.2900489269
 20
188.7793005646
 11
693.2900489269
 21
192.9423005646
  0
LINE
  5
2E8
100
AcDbEntity
  8
0
100
AcDbLine
 62
7
  6
CONTINUOUS
 10
693.5382414137
 20
146.2343945261
 11
693.5382414137
 21
141.5674897703
  0
LINE
  5
2E9
100
AcDbEntity
  8
0
100
AcDbLine
 62
7
  6
CONTINUOUS
 10
694.4682257506
 20
212.3758741251
 11
694.4682257506
 21
209.2311549248
  0
LINE
  5
2EA
100
AcDbEntity
  8
0
100
AcDbLine
 62
7
  6
CONTINUOUS
 10
695.0642007506
 20
209.2311549248
 11
695.0642007506
 21
212.3758741251
  0
LINE
  5
2EB
100
AcDbEntity
  8
0
100
AcDbLine
 62
7
  6
CONTINUOUS
 10
695.4882414137
 20
142.2038858733
 11
695.4882414137
 21
143.8302314701
  0
LINE
  5
2EC
100
AcDbEntity
  8
0
100
AcDbLine
 62
7
  6
CONTINUOUS
 10
695.4882414137
 20
144.3252062169
 11
695.4882414137
 21
145.9515518136
  0
LINE
  5
2ED
100
AcDbEntity
  8
0
100
AcDbLine
 62
7
  6
CONTINUOUS
 10
695.8588338945
 20
212.3758741251
 11
695.8588338945
 21
207.6080741251
  0
LINE
  5
2EE
100
AcDbEntity
  8
0
100
AcDbLine
 62
7
  6
CONTINUOUS
 10
695.9382414137
 20
145.4070795921
 11
695.9382414137
 21
144.5161250478
  0
LINE
  5
2EF
100
AcDbEntity
  8
0
100
AcDbLine
 62
7
  6
CONTINUOUS
 10
695.9382414137
 20
143.2857592486
 11
695.9382414137
 21
142.3948047043
  0
LINE
  5
2F0
100
AcDbEntity
  8
0
100
AcDbLine
 62
7
  6
CONTINUOUS
 10
696.3132414137
 20
143.2433328417
 11
696.3132414137
 21
143.3706120623
  0
LINE
  5
2F1
100
AcDbEntity
  8
0
100
AcDbLine
 62
7
  6
CONTINUOUS
 10
696.3132414137
 20
143.6888101138
 11
696.3132414137
 21
144.1130741825
  0
LINE
  5
2F2
100
AcDbEntity
  8
0
100
AcDbLine
 62
7
  6
CONTINUOUS
 10
696.3132414137
 20
144.4312722341
 11
696.3132414137
 21
144.9121048453
  0
LINE
  5
2F3
100
AcDbEntity
  8
0
100
AcDbLine
 62
7
  6
CONTINUOUS
 10
696.4548088945
 20
208.2167294428
 11
696.4548088945
 21
211.7672188785
  0
LINE
  5
2F4
100
AcDbEntity
  8
0
100
AcDbLine
 62
7
  6
CONTINUOUS
 10
696.7632414137
 20
144.1130741825
 11
696.7632414137
 21
143.6888101138
  0
LINE
  5
2F5
100
AcDbEntity
  8
0
100
AcDbLine
 62
7
  6
CONTINUOUS
 10
696.7632414137
 20
144.9121048453
 11
696.7632414137
 21
144.4312722341
  0
LINE
  5
2F6
100
AcDbEntity
  8
0
100
AcDbLine
 62
7
  6
CONTINUOUS
 10
696.7632414137
 20
143.3706120623
 11
696.7632414137
 21
143.2433328417
  0
LINE
  5
2F7
100
AcDbEntity
  8
0
100
AcDbLine
 62
7
  6
CONTINUOUS
 10
697.125509149
 20
375.0793005646
 11
697.125509149
 21
238.0793005646
  0
LINE
  5
2F8
100
AcDbEntity
  8
0
100
AcDbLine
 62
7
  6
CONTINUOUS
 10
697.1382414137
 20
142.3948047043
 11
697.1382414137
 21
143.2857592486
  0
LINE
  5
2F9
100
AcDbEntity
  8
0
100
AcDbLine
 62
7
  6
CONTINUOUS
 10
697.1382414137
 20
144.5161250478
 11
697.1382414137
 21
145.4070795921
  0
LINE
  5
2FA
100
AcDbEntity
  8
0
100
AcDbLine
 62
7
  6
CONTINUOUS
 10
697.5882414137
 20
145.9515518136
 11
697.5882414137
 21
144.3252062169
  0
LINE
  5
2FB
100
AcDbEntity
  8
0
100
AcDbLine
 62
7
  6
CONTINUOUS
 10
697.5882414137
 20
143.8302314701
 11
697.5882414137
 21
142.2038858733
  0
LINE
  5
2FC
100
AcDbEntity
  8
0
100
AcDbLine
 62
7
  6
CONTINUOUS
 10
699.2360251823
 20
210.7527931834
 11
699.2360251823
 21
209.2311549248
  0
LINE
  5
2FD
100
AcDbEntity
  8
0
100
AcDbLine
 62
7
  6
CONTINUOUS
 10
699.5382414137
 20
141.5674897703
 11
699.5382414137
 21
146.2343945261
  0
LINE
  5
2FE
100
AcDbEntity
  8
0
100
AcDbLine
 62
7
  6
CONTINUOUS
 10
699.8320001823
 20
209.2311549248
 11
699.8320001823
 21
210.7527931834
  0
LINE
  5
2FF
100
AcDbEntity
  8
KONSTRUKTIONSELEMENTE
100
AcDbLine
 62
7
  6
CONTINUOUS
 10
700.125509149
 20
173.3165842455
 11
700.125509149
 21
176.1608747933
  0
LINE
  5
300
100
AcDbEntity
  8
0
100
AcDbLine
 62
7
  6
CONTINUOUS
 10
701.4840427152
 20
146.6586585948
 11
701.4840427152
 21
146.0151914239
  0
LINE
  5
301
100
AcDbEntity
  8
0
100
AcDbLine
 62
7
  6
CONTINUOUS
 10
701.4840427152
 20
145.4212217277
 11
701.4840427152
 21
141.1432257016
  0
LINE
  5
302
100
AcDbEntity
  8
0
100
AcDbLine
 62
7
  6
CONTINUOUS
 10
701.875509149
 20
188.7793005646
 11
701.875509149
 21
176.5326624847
  0
LINE
  5
303
100
AcDbEntity
  8
KONSTRUKTIONSELEMENTE
100
AcDbLine
 62
7
  6
CONTINUOUS
 10
701.875509149
 20
188.7793005646
 11
701.875509149
 21
202.1293005646
  0
LINE
  5
304
100
AcDbEntity
  8
0
100
AcDbLine
 62
7
  6
CONTINUOUS
 10
702.4440427152
 20
141.1432257016
 11
702.4440427152
 21
144.1580932577
  0
LINE
  5
305
100
AcDbEntity
  8
0
100
AcDbLine
 62
7
  6
CONTINUOUS
 10
702.4440427152
 20
144.483362377
 11
702.4440427152
 21
145.4212217277
  0
LINE
  5
306
100
AcDbEntity
  8
KONSTRUKTIONSELEMENTE
100
AcDbLine
 62
7
  6
CONTINUOUS
 10
704.625509149
 20
173.3165842455
 11
704.625509149
 21
182.0237255646
  0
LINE
  5
307
100
AcDbEntity
  8
KONSTRUKTIONSELEMENTE
100
AcDbLine
 62
7
  6
CONTINUOUS
 10
704.625509149
 20
204.4292826178
 11
704.625509149
 21
207.3005592807
  0
LINE
  5
308
100
AcDbEntity
  8
0
100
AcDbLine
 62
7
  6
CONTINUOUS
 10
704.8440427152
 20
143.8045398671
 11
704.8440427152
 21
144.1580932577
  0
LINE
  5
309
100
AcDbEntity
  8
KONSTRUKTIONSELEMENTE
100
AcDbLine
 62
7
  6
CONTINUOUS
 10
705.625509149
 20
152.5133573515
 11
705.625509149
 21
174.9676143203
  0
LINE
  5
30A
100
AcDbEntity
  8
KONSTRUKTIONSELEMENTE
100
AcDbLine
 62
7
  6
CONTINUOUS
 10
705.625509149
 20
218.7898038548
 11
705.625509149
 21
227.3697254889
  0
LINE
  5
30B
100
AcDbEntity
  8
0
100
AcDbLine
 62
7
  6
CONTINUOUS
 10
705.8661912342
 20
143.9103137305
 11
705.8661912342
 21
144.2638671211
  0
LINE
  5
30C
100
AcDbEntity
  8
KONSTRUKTIONSELEMENTE
100
AcDbLine
 62
7
  6
CONTINUOUS
 10
705.875509149
 20
196.1348755646
 11
705.875509149
 21
205.1803431023
  0
LINE
  5
30D
100
AcDbEntity
  8
0
100
AcDbLine
 62
7
  6
CONTINUOUS
 10
706.3272094219
 20
145.6028302911
 11
706.3272094219
 21
145.2492769005
  0
LINE
  5
30E
100
AcDbEntity
  8
0
100
AcDbLine
 62
7
  6
CONTINUOUS
 10
707.0169966321
 20
141.1432257016
 11
707.0169966321
 21
141.4967790922
  0
LINE
  5
30F
100
AcDbEntity
  8
0
100
AcDbLine
 62
7
  6
CONTINUOUS
 10
708.6840427152
 20
146.6586585948
 11
708.6840427152
 21
143.1689702484
  0
LINE
  5
310
100
AcDbEntity
  8
0
100
AcDbLine
 62
7
  6
CONTINUOUS
 10
709.6440427152
 20
143.1689702484
 11
709.6440427152
 21
146.6586585948
  0
LINE
  5
311
100
AcDbEntity
  8
KONSTRUKTIONSELEMENTE
100
AcDbLine
 62
7
  6
CONTINUOUS
 10
710.375509149
 20
196.1348755646
 11
710.375509149
 21
205.1803431023
  0
LINE
  5
312
100
AcDbEntity
  8
KONSTRUKTIONSELEMENTE
100
AcDbLine
 62
7
  6
CONTINUOUS
 10
710.625509149
 20
152.5133573515
 11
710.625509149
 21
174.9676143203
  0
LINE
  5
313
100
AcDbEntity
  8
KONSTRUKTIONSELEMENTE
100
AcDbLine
 62
7
  6
CONTINUOUS
 10
710.625509149
 20
218.7898038548
 11
710.625509149
 21
227.3697254889
  0
LINE
  5
314
100
AcDbEntity
  8
0
100
AcDbLine
 62
7
  6
CONTINUOUS
 10
743.0660802378
 20
233.8293005646
 11
738.3849313346
 21
251.2995861091
  0
LINE
  5
315
100
AcDbEntity
  8
0
100
AcDbLine
 62
7
  6
CONTINUOUS
 10
731.0466449417
 20
210.4484655601
 11
730.9426349324
 21
210.9556782656
  0
LINE
  5
316
100
AcDbEntity
  8
0
100
AcDbLine
 62
7
  6
CONTINUOUS
 10
730.4225825053
 20
210.9556782656
 11
730.5265937049
 21
210.347023019
  0
LINE
  5
317
100
AcDbEntity
  8
0
100
AcDbLine
 62
7
  6
CONTINUOUS
 10
727.9263327596
 20
209.0282698426
 11
727.8223227503
 21
209.6369252313
  0
LINE
  5
318
100
AcDbEntity
  8
KONSTRUKTIONSELEMENTE
100
AcDbLine
 62
7
  6
CONTINUOUS
 10
711.625509149
 20
207.3005592807
 11
711.625509149
 21
204.4292826178
  0
LINE
  5
319
100
AcDbEntity
  8
KONSTRUKTIONSELEMENTE
100
AcDbLine
 62
7
  6
CONTINUOUS
 10
711.625509149
 20
182.0237255646
 11
711.625509149
 21
173.3165842455
  0
LINE
  5
31A
100
AcDbEntity
  8
0
100
AcDbLine
 62
7
  6
CONTINUOUS
 10
713.4181780758
 20
146.6586585948
 11
713.4181780758
 21
143.1689702484
  0
LINE
  5
31B
100
AcDbEntity
  8
0
100
AcDbLine
 62
7
  6
CONTINUOUS
 10
714.092949149
 20
212.3758741251
 11
714.092949149
 21
207.6080741251
  0
LINE
  5
31C
100
AcDbEntity
  8
0
100
AcDbLine
 62
7
  6
CONTINUOUS
 10
714.375509149
 20
176.5326624847
 11
714.375509149
 21
188.7793005646
  0
LINE
  5
31D
100
AcDbEntity
  8
KONSTRUKTIONSELEMENTE
100
AcDbLine
 62
7
  6
CONTINUOUS
 10
714.375509149
 20
188.7793005646
 11
714.375509149
 21
202.1293005646
  0
LINE
  5
31E
100
AcDbEntity
  8
0
100
AcDbLine
 62
7
  6
CONTINUOUS
 10
714.3781780758
 20
143.1689702484
 11
714.3781780758
 21
146.6586585948
  0
LINE
  5
31F
100
AcDbEntity
  8
0
100
AcDbLine
 62
7
  6
CONTINUOUS
 10
714.7170115854
 20
207.6080741251
 11
714.7170115854
 21
212.3758741251
  0
LINE
  5
320
100
AcDbEntity
  8
0
100
AcDbLine
 62
7
  6
CONTINUOUS
 10
715.5490947844
 20
212.3758741251
 11
715.5490947844
 21
207.6080741251
  0
LINE
  5
321
100
AcDbEntity
  8
KONSTRUKTIONSELEMENTE
100
AcDbLine
 62
7
  6
CONTINUOUS
 10
716.125509149
 20
176.1608747933
 11
716.125509149
 21
173.3165842455
  0
LINE
  5
322
100
AcDbEntity
  8
0
100
AcDbLine
 62
7
  6
CONTINUOUS
 10
716.1731572208
 20
207.6080741251
 11
716.1731572208
 21
209.7383677724
  0
LINE
  5
323
100
AcDbEntity
  8
0
100
AcDbLine
 62
7
  6
CONTINUOUS
 10
716.1731572208
 20
210.347023019
 11
716.1731572208
 21
211.8686614196
  0
LINE
  5
324
100
AcDbEntity
  8
0
100
AcDbLine
 62
7
  6
CONTINUOUS
 10
716.4781780758
 20
146.6586585948
 11
716.4781780758
 21
145.9798360849
  0
LINE
  5
325
100
AcDbEntity
  8
0
100
AcDbLine
 62
7
  6
CONTINUOUS
 10
716.4781780758
 20
145.3858663887
 11
716.4781780758
 21
141.1432257016
  0
LINE
  5
326
100
AcDbEntity
  8
0
100
AcDbLine
 62
7
  6
CONTINUOUS
 10
717.4381780758
 20
141.8503324827
 11
717.4381780758
 21
145.3858663887
  0
LINE
  5
327
100
AcDbEntity
  8
0
100
AcDbLine
 62
7
  6
CONTINUOUS
 10
718.7734174222
 20
211.260006173
 11
718.7734174222
 21
210.9556782656
  0
LINE
  5
328
100
AcDbEntity
  8
0
100
AcDbLine
 62
7
  6
CONTINUOUS
 10
719.125509149
 20
375.0793005646
 11
719.125509149
 21
238.0793005646
  0
LINE
  5
329
100
AcDbEntity
  8
0
100
AcDbLine
 62
7
  6
CONTINUOUS
 10
719.3974798586
 20
210.8542357245
 11
719.3974798586
 21
211.260006173
  0
LINE
  5
32A
100
AcDbEntity
  8
0
100
AcDbLine
 62
7
  6
CONTINUOUS
 10
720.3335735132
 20
210.7527931834
 11
720.3335735132
 21
209.2311549248
  0
LINE
  5
32B
100
AcDbEntity
  8
0
100
AcDbLine
 62
7
  6
CONTINUOUS
 10
720.9576359496
 20
209.2311549248
 11
720.9576359496
 21
210.7527931834
  0
LINE
  5
32C
100
AcDbEntity
  8
0
100
AcDbLine
 62
7
  6
CONTINUOUS
 10
721.5707918287
 20
144.2686376744
 11
721.5707918287
 21
143.9150842838
  0
LINE
  5
32D
100
AcDbEntity
  8
0
100
AcDbLine
 62
7
  6
CONTINUOUS
 10
722.8298232589
 20
210.2455804779
 11
722.8298232589
 21
209.6369252313
  0
LINE
  5
32E
100
AcDbEntity
  8
KONSTRUKTIONSELEMENTE
100
AcDbLine
 62
7
  6
CONTINUOUS
 10
722.960969371
 20
188.7793005646
 11
722.960969371
 21
192.9423005646
  0
LINE
  5
32F
100
AcDbEntity
  8
0
100
AcDbLine
 62
7
  6
CONTINUOUS
 10
723.7659169136
 20
209.6369252313
 11
723.7659169136
 21
208.8253847604
  0
LINE
  5
330
100
AcDbEntity
  8
0
100
AcDbLine
 62
7
  6
CONTINUOUS
 10
724.38997935
 20
208.7239422193
 11
724.38997935
 21
210.2455804779
  0
LINE
  5
331
100
AcDbEntity
  8
0
100
AcDbLine
 62
7
  6
CONTINUOUS
 10
725.2220629953
 20
211.6657763374
 11
725.2220629953
 21
210.8542357245
  0
LINE
  5
332
100
AcDbEntity
  8
0
100
AcDbLine
 62
7
  6
CONTINUOUS
 10
725.8461254317
 20
211.5643337963
 11
725.8461254317
 21
207.6080741251
  0
LINE
  5
333
100
AcDbEntity
  8
0
100
AcDbLine
 62
7
  6
CONTINUOUS
 10
726.4701878682
 20
207.6080741251
 11
726.4701878682
 21
212.3758741251
  0
LINE
  5
334
100
AcDbEntity
  8
0
100
AcDbLine
 62
7
  6
CONTINUOUS
 10
727.3022703232
 20
210.4484655601
 11
727.3022703232
 21
209.5354826902
  0
LINE
  5
335
100
AcDbEntity
  8
0
100
AcDbLine
 62
7
  6
CONTINUOUS
 10
727.8223227503
 20
209.6369252313
 11
727.8223227503
 21
210.347023019
  0
LINE
  5
336
100
AcDbEntity
  8
0
100
AcDbLine
 62
7
  6
CONTINUOUS
 10
730.5265937049
 20
210.347023019
 11
730.5265937049
 21
209.6369252313
  0
LINE
  5
337
100
AcDbEntity
  8
0
100
AcDbLine
 62
7
  6
CONTINUOUS
 10
731.0466449417
 20
209.5354826902
 11
731.0466449417
 21
210.4484655601
  0
LINE
  5
338
100
AcDbEntity
  8
RUNDUNGEN
100
AcDbLine
 62
7
  6
CONTINUOUS
 10
734.275509149
 20
96.5954984868
 11
734.275509149
 21
91.9993044091
  0
LINE
  5
339
100
AcDbEntity
  8
0
100
AcDbLine
 62
7
  6
CONTINUOUS
 10
677.8660869633
 20
251.2995861091
 11
673.1849380601
 21
233.8293005646
  0
LINE
  5
33A
100
AcDbEntity
  8
RUNDUNGEN
100
AcDbLine
 62
7
  6
CONTINUOUS
 10
736.625509149
 20
179.0770505646
 11
736.625509149
 21
212.0793005646
  0
LINE
  5
33B
100
AcDbEntity
  8
0
100
AcDbLine
 62
7
  6
CONTINUOUS
 10
738.3849313346
 20
205.9737972292
 11
738.3849313346
 21
216.3590150202
  0
LINE
  5
33C
100
AcDbEntity
  8
RUNDUNGEN
100
AcDbLine
 62
7
  6
CONTINUOUS
 10
742.125509149
 20
95.1812849244
 11
742.125509149
 21
104.6731370837
  0
LINE
  5
33D
100
AcDbEntity
  8
RUNDUNGEN
100
AcDbLine
 62
7
  6
CONTINUOUS
 10
752.4194573138
 20
156.9961059729
 11
752.4194573138
 21
160.5316398789
  0
LINE
  5
33E
100
AcDbEntity
  8
0
100
AcDbLine
 62
7
  6
CONTINUOUS
 10
694.9648713945
 20
208.7239422193
 11
695.0642007506
 21
209.2311549248
  0
LINE
  5
33F
100
AcDbEntity
  8
0
100
AcDbLine
 62
7
  6
CONTINUOUS
 10
699.7326713945
 20
208.7239422193
 11
699.8320001823
 21
209.2311549248
  0
LINE
  5
340
100
AcDbEntity
  8
0
100
AcDbLine
 62
7
  6
CONTINUOUS
 10
694.4682257506
 20
209.2311549248
 11
694.3688963945
 21
208.8253847604
  0
LINE
  5
341
100
AcDbEntity
  8
0
100
AcDbLine
 62
7
  6
CONTINUOUS
 10
699.2360251823
 20
209.2311549248
 11
699.1366963945
 21
208.8253847604
  0
LINE
  5
342
100
AcDbEntity
  8
0
100
AcDbLine
 62
7
  6
CONTINUOUS
 10
689.9984129665
 20
210.9556782656
 11
689.8990838945
 21
210.6513506423
  0
LINE
  5
343
100
AcDbEntity
  8
0
100
AcDbLine
 62
7
  6
CONTINUOUS
 10
690.4950588945
 20
210.5499081012
 11
690.5943879665
 21
210.8542357245
  0
LINE
  5
344
100
AcDbEntity
  8
0
100
AcDbLine
 62
7
  6
CONTINUOUS
 10
727.8223227503
 20
210.347023019
 11
727.9263327596
 21
210.9556782656
  0
LINE
  5
345
100
AcDbEntity
  8
0
100
AcDbLine
 62
7
  6
CONTINUOUS
 10
730.5265937049
 20
209.6369252313
 11
730.4225825053
 21
209.0282698426
  0
LINE
  5
346
100
AcDbEntity
  8
0
100
AcDbLine
 62
7
  6
CONTINUOUS
 10
720.4375841177
 20
211.260006173
 11
720.3335735132
 21
210.7527931834
  0
LINE
  5
347
100
AcDbEntity
  8
0
100
AcDbLine
 62
7
  6
CONTINUOUS
 10
727.4062815228
 20
210.9556782656
 11
727.3022703232
 21
210.4484655601
  0
LINE
  5
348
100
AcDbEntity
  8
0
100
AcDbLine
 62
7
  6
CONTINUOUS
 10
730.9426349324
 20
209.0282698426
 11
731.0466449417
 21
209.5354826902
  0
LINE
  5
349
100
AcDbEntity
  8
0
100
AcDbLine
 62
7
  6
CONTINUOUS
 10
720.9576359496
 20
210.7527931834
 11
721.0616465541
 21
211.1585633478
  0
LINE
  5
34A
100
AcDbEntity
  8
0
100
AcDbLine
 62
7
  6
CONTINUOUS
 10
724.2859693407
 20
208.3181719839
 11
724.38997935
 21
208.7239422193
  0
LINE
  5
34B
100
AcDbEntity
  8
0
100
AcDbLine
 62
7
  6
CONTINUOUS
 10
803.125509149
 20
459.0793005646
 11
803.125509149
 21
619.0793005646
  0
LINE
  5
34C
100
AcDbEntity
  8
0
100
AcDbLine
 62
7
  6
CONTINUOUS
 10
738.3849313346
 20
205.9737972292
 11
736.625509149
 21
198.3529024793
  0
LINE
  5
34D
100
AcDbEntity
  8
0
100
AcDbLine
 62
7
  6
CONTINUOUS
 10
738.3849313346
 20
216.3590150202
 11
743.0660802378
 21
233.8293005646
  0
LINE
  5
34E
100
AcDbEntity
  8
0
100
AcDbLine
 62
7
  6
CONTINUOUS
 10
718.7734174222
 20
210.9556782656
 11
718.6694071153
 21
210.6513506423
  0
LINE
  5
34F
100
AcDbEntity
  8
0
100
AcDbLine
 62
7
  6
CONTINUOUS
 10
719.2934692541
 20
210.5499081012
 11
719.3974798586
 21
210.8542357245
  0
LINE
  5
350
100
AcDbEntity
  8
0
100
AcDbLine
 62
7
  6
CONTINUOUS
 10
723.7659169136
 20
208.8253847604
 11
723.6619063091
 21
208.5210571371
  0
LINE
  5
351
100
AcDbEntity
  8
0
100
AcDbLine
 62
7
  6
CONTINUOUS
 10
727.5102915321
 20
211.260006173
 11
727.4062815228
 21
210.9556782656
  0
LINE
  5
352
100
AcDbEntity
  8
0
100
AcDbLine
 62
7
  6
CONTINUOUS
 10
730.8386249231
 20
208.7239422193
 11
730.9426349324
 21
209.0282698426
  0
LINE
  5
353
100
AcDbEntity
  8
0
100
AcDbLine
 62
7
  6
CONTINUOUS
 10
694.7662132506
 20
208.3181719839
 11
694.9648713945
 21
208.7239422193
  0
LINE
  5
354
100
AcDbEntity
  8
0
100
AcDbLine
 62
7
  6
CONTINUOUS
 10
699.5340126823
 20
208.3181719839
 11
699.7326713945
 21
208.7239422193
  0
LINE
  5
355
100
AcDbEntity
  8
0
100
AcDbLine
 62
7
  6
CONTINUOUS
 10
720.6456047314
 20
211.6657763374
 11
720.4375841177
 21
211.260006173
  0
LINE
  5
356
100
AcDbEntity
  8
0
100
AcDbLine
 62
7
  6
CONTINUOUS
 10
727.718312741
 20
211.6657763374
 11
727.5102915321
 21
211.260006173
  0
LINE
  5
357
100
AcDbEntity
  8
0
100
AcDbLine
 62
7
  6
CONTINUOUS
 10
730.6306037142
 20
208.3181719839
 11
730.8386249231
 21
208.7239422193
  0
LINE
  5
358
100
AcDbEntity
  8
0
100
AcDbLine
 62
7
  6
CONTINUOUS
 10
694.3688963945
 20
208.8253847604
 11
694.1702382506
 21
208.5210571371
  0
LINE
  5
359
100
AcDbEntity
  8
0
100
AcDbLine
 62
7
  6
CONTINUOUS
 10
699.1366963945
 20
208.8253847604
 11
698.9380376823
 21
208.5210571371
  0
LINE
  5
35A
100
AcDbEntity
  8
0
100
AcDbLine
 62
7
  6
CONTINUOUS
 10
690.1970713945
 20
210.1441379368
 11
690.4950588945
 21
210.5499081012
  0
LINE
  5
35B
100
AcDbEntity
  8
0
100
AcDbLine
 62
7
  6
CONTINUOUS
 10
690.6552236046
 20
264.0887227503
 11
677.8660869633
 21
251.2995861091
  0
LINE
  5
35C
100
AcDbEntity
  8
0
100
AcDbLine
 62
7
  6
CONTINUOUS
 10
835.125509149
 20
459.0793005646
 11
835.125509149
 21
619.0793005646
  0
LINE
  5
35D
100
AcDbEntity
  8
0
100
AcDbLine
 62
7
  6
CONTINUOUS
 10
721.0616465541
 20
211.1585633478
 11
721.2696671679
 21
211.4628912552
  0
LINE
  5
35E
100
AcDbEntity
  8
0
100
AcDbLine
 62
7
  6
CONTINUOUS
 10
727.9263327596
 20
210.9556782656
 11
728.3423751774
 21
211.5643337963
  0
LINE
  5
35F
100
AcDbEntity
  8
0
100
AcDbLine
 62
7
  6
CONTINUOUS
 10
730.4225825053
 20
209.0282698426
 11
730.0065412778
 21
208.419614525
  0
LINE
  5
360
100
AcDbEntity
  8
0
100
AcDbLine
 62
7
  6
CONTINUOUS
 10
718.9814383335
 20
210.1441379368
 11
719.2934692541
 21
210.5499081012
  0
LINE
  5
361
100
AcDbEntity
  8
0
100
AcDbLine
 62
7
  6
CONTINUOUS
 10
689.8990838945
 20
210.6513506423
 11
689.7004254665
 21
210.4484655601
  0
LINE
  5
362
100
AcDbEntity
  8
0
100
AcDbLine
 62
7
  6
CONTINUOUS
 10
694.3688963945
 20
207.9124017839
 11
694.7662132506
 21
208.3181719839
  0
LINE
  5
363
100
AcDbEntity
  8
0
100
AcDbLine
 62
7
  6
CONTINUOUS
 10
699.1366963945
 20
207.9124017839
 11
699.5340126823
 21
208.3181719839
  0
LINE
  5
364
100
AcDbEntity
  8
RUNDUNGEN
100
AcDbLine
 62
7
  6
CONTINUOUS
 10
732.011509149
 20
171.5793005646
 11
736.625509149
 21
179.0770505646
  0
LINE
  5
365
100
AcDbEntity
  8
0
100
AcDbLine
 62
7
  6
CONTINUOUS
 10
725.8461254317
 20
212.3758741251
 11
725.2220629953
 21
211.6657763374
  0
LINE
  5
366
100
AcDbEntity
  8
0
100
AcDbLine
 62
7
  6
CONTINUOUS
 10
725.2220629953
 20
210.8542357245
 11
725.8461254317
 21
211.5643337963
  0
LINE
  5
367
100
AcDbEntity
  8
0
100
AcDbLine
 62
7
  6
CONTINUOUS
 10
718.6694071153
 20
210.6513506423
 11
718.4613862039
 21
210.4484655601
  0
LINE
  5
368
100
AcDbEntity
  8
0
100
AcDbLine
 62
7
  6
CONTINUOUS
 10
721.0616465541
 20
212.0715465018
 11
720.6456047314
 21
211.6657763374
  0
LINE
  5
369
100
AcDbEntity
  8
0
100
AcDbLine
 62
7
  6
CONTINUOUS
 10
728.0303439592
 20
211.9701039607
 11
727.718312741
 21
211.6657763374
  0
LINE
  5
36A
100
AcDbEntity
  8
0
100
AcDbLine
 62
7
  6
CONTINUOUS
 10
723.869927518
 20
207.9124017839
 11
724.2859693407
 21
208.3181719839
  0
LINE
  5
36B
100
AcDbEntity
  8
0
100
AcDbLine
 62
7
  6
CONTINUOUS
 10
730.318572496
 20
208.013844325
 11
730.6306037142
 21
208.3181719839
  0
LINE
  5
36C
100
AcDbEntity
  8
0
100
AcDbLine
 62
7
  6
CONTINUOUS
 10
694.1702382506
 20
208.5210571371
 11
693.8722507506
 21
208.3181719839
  0
LINE
  5
36D
100
AcDbEntity
  8
0
100
AcDbLine
 62
7
  6
CONTINUOUS
 10
698.9380376823
 20
208.5210571371
 11
698.6400501823
 21
208.3181719839
  0
LINE
  5
36E
100
AcDbEntity
  8
0
100
AcDbLine
 62
7
  6
CONTINUOUS
 10
721.2696671679
 20
211.4628912552
 11
721.5816983861
 21
211.6657763374
  0
LINE
  5
36F
100
AcDbEntity
  8
0
100
AcDbLine
 62
7
  6
CONTINUOUS
 10
723.6619063091
 20
208.5210571371
 11
723.3498750909
 21
208.3181719839
  0
LINE
  5
370
100
AcDbEntity
  8
0
100
AcDbLine
 62
7
  6
CONTINUOUS
 10
728.3423751774
 20
211.5643337963
 11
728.6544063956
 21
211.7672188785
  0
LINE
  5
371
100
AcDbEntity
  8
0
100
AcDbLine
 62
7
  6
CONTINUOUS
 10
730.0065412778
 20
208.419614525
 11
729.6945100596
 21
208.2167294428
  0
LINE
  5
372
100
AcDbEntity
  8
0
100
AcDbLine
 62
7
  6
CONTINUOUS
 10
728.550395196
 20
212.274431584
 11
728.0303439592
 21
211.9701039607
  0
LINE
  5
373
100
AcDbEntity
  8
0
100
AcDbLine
 62
7
  6
CONTINUOUS
 10
689.7997548226
 20
209.9412528546
 11
690.1970713945
 21
210.1441379368
  0
LINE
  5
374
100
AcDbEntity
  8
0
100
AcDbLine
 62
7
  6
CONTINUOUS
 10
693.9715795384
 20
207.7095166751
 11
694.3688963945
 21
207.9124017839
  0
LINE
  5
375
100
AcDbEntity
  8
0
100
AcDbLine
 62
7
  6
CONTINUOUS
 10
698.7393801068
 20
207.7095166751
 11
699.1366963945
 21
207.9124017839
  0
LINE
  5
376
100
AcDbEntity
  8
RUNDUNGEN
100
AcDbLine
 62
7
  6
CONTINUOUS
 10
689.8934250943
 20
121.7111660725
 11
675.0297489275
 21
106.701036022
  0
LINE
  5
377
100
AcDbEntity
  8
RUNDUNGEN
100
AcDbLine
 62
7
  6
CONTINUOUS
 10
689.8934250943
 20
118.1756321666
 11
675.0297489275
 21
103.1655021161
  0
LINE
  5
378
100
AcDbEntity
  8
RUNDUNGEN
100
AcDbLine
 62
7
  6
CONTINUOUS
 10
734.5056050821
 20
156.6539310952
 11
742.4821912576
 21
164.7091116919
  0
LINE
  5
379
100
AcDbEntity
  8
RUNDUNGEN
100
AcDbLine
 62
7
  6
CONTINUOUS
 10
734.5056050821
 20
153.1183971892
 11
742.4821912576
 21
161.173577786
  0
LINE
  5
37A
100
AcDbEntity
  8
0
100
AcDbLine
 62
7
  6
CONTINUOUS
 10
729.7985200689
 20
207.7095166751
 11
730.318572496
 21
208.013844325
  0
LINE
  5
37B
100
AcDbEntity
  8
RUNDUNGEN
100
AcDbLine
 62
7
  6
CONTINUOUS
 10
668.1573805289
 20
163.2255908714
 11
667.3382284846
 21
162.8200110837
  0
LINE
  5
37C
100
AcDbEntity
  8
0
100
AcDbLine
 62
7
  6
CONTINUOUS
 10
721.4776877816
 20
212.274431584
 11
721.0616465541
 21
212.0715465018
  0
LINE
  5
37D
100
AcDbEntity
  8
0
100
AcDbLine
 62
7
  6
CONTINUOUS
 10
718.5653965108
 20
209.9412528546
 11
718.9814383335
 21
210.1441379368
  0
LINE
  5
37E
100
AcDbEntity
  8
0
100
AcDbLine
 62
7
  6
CONTINUOUS
 10
723.4538856953
 20
207.7095166751
 11
723.869927518
 21
207.9124017839
  0
LINE
  5
37F
100
AcDbEntity
  8
0
100
AcDbLine
 62
7
  6
CONTINUOUS
 10
689.7004254665
 20
210.4484655601
 11
689.4024379665
 21
210.347023019
  0
LINE
  5
380
100
AcDbEntity
  8
0
100
AcDbLine
 62
7
  6
CONTINUOUS
 10
718.4613862039
 20
210.4484655601
 11
718.1493549857
 21
210.347023019
  0
LINE
  5
381
100
AcDbEntity
  8
RUNDUNGEN
100
AcDbLine
 62
7
  6
CONTINUOUS
 10
697.9333032783
 20
101.6386673603
 11
703.2105968832
 21
106.9679588786
  0
LINE
  5
382
100
AcDbEntity
  8
RUNDUNGEN
100
AcDbLine
 62
7
  6
CONTINUOUS
 10
726.3575932037
 20
130.3430257968
 11
752.1481853802
 21
156.3877362914
  0
LINE
  5
383
100
AcDbEntity
  8
RUNDUNGEN
100
AcDbLine
 62
7
  6
CONTINUOUS
 10
668.1573805289
 20
159.6900569655
 11
667.3382284846
 21
159.2844771778
  0
LINE
  5
384
100
AcDbEntity
  8
RUNDUNGEN
100
AcDbLine
 62
7
  6
CONTINUOUS
 10
674.0571453066
 20
153.1157594529
 11
670.7805371295
 21
151.4934403022
  0
LINE
  5
385
100
AcDbEntity
  8
RUNDUNGEN
100
AcDbLine
 62
7
  6
CONTINUOUS
 10
699.5218626037
 20
161.1393434041
 11
695.4261023823
 21
159.1114444658
  0
LINE
  5
386
100
AcDbEntity
  8
RUNDUNGEN
100
AcDbLine
 62
7
  6
CONTINUOUS
 10
676.2868709185
 20
149.4683857409
 11
679.2621276544
 21
150.9414993144
  0
LINE
  5
387
100
AcDbEntity
  8
RUNDUNGEN
100
AcDbLine
 62
7
  6
CONTINUOUS
 10
699.5218626037
 20
157.6038094982
 11
695.4261023823
 21
155.5759105598
  0
LINE
  5
388
100
AcDbEntity
  8
RUNDUNGEN
100
AcDbLine
 62
7
  6
CONTINUOUS
 10
676.2868709185
 20
145.9328518349
 11
679.5634790956
 21
147.5551709856
  0
LINE
  5
389
100
AcDbEntity
  8
0
100
AcDbLine
 62
7
  6
CONTINUOUS
 10
324.5456207711
 20
171.5793005646
 11
326.3456207711
 21
171.5793005646
  0
LINE
  5
38A
100
AcDbEntity
  8
0
100
AcDbLine
 62
7
  6
CONTINUOUS
 10
317.6195291649
 20
179.0770505646
 11
333.2717123773
 21
179.0770505646
  0
LINE
  5
38B
100
AcDbEntity
  8
0
100
AcDbLine
 62
7
  6
CONTINUOUS
 10
322.9463707711
 20
198.3529024793
 11
327.9448707711
 21
198.3529024793
  0
LINE
  5
38C
100
AcDbEntity
  8
0
100
AcDbLine
 62
7
  6
CONTINUOUS
 10
327.9448707711
 20
205.9737972292
 11
322.9463707711
 21
205.9737972292
  0
LINE
  5
38D
100
AcDbEntity
  8
0
100
AcDbLine
 62
7
  6
CONTINUOUS
 10
329.1643770378
 20
216.3590150202
 11
321.7268645044
 21
216.3590150202
  0
LINE
  5
38E
100
AcDbEntity
  8
0
100
AcDbLine
 62
7
  6
CONTINUOUS
 10
328.3674022864
 20
233.8293005646
 11
322.5238392558
 21
233.8293005646
  0
LINE
  5
38F
100
AcDbEntity
  8
0
100
AcDbLine
 62
7
  6
CONTINUOUS
 10
328.3674022864
 20
251.2995861091
 11
322.5238392558
 21
251.2995861091
  0
LINE
  5
390
100
AcDbEntity
  8
KONSTRUKTIONSELEMENTE
100
AcDbLine
 62
7
  6
CONTINUOUS
 10
433.2086942239
 20
152.8104875911
 11
424.7941235278
 21
161.2250582873
  0
LINE
  5
391
100
AcDbEntity
  8
KONSTRUKTIONSELEMENTE
100
AcDbLine
 62
7
  6
CONTINUOUS
 10
372.0439576513
 20
213.9752241638
 11
363.6293869552
 21
222.3897948599
  0
LINE
  5
392
100
AcDbEntity
  8
0
100
AcDbLine
 62
7
  6
CONTINUOUS
 10
328.3674022864
 20
264.0887227503
 11
322.5238392558
 21
264.0887227503
  0
LINE
  5
393
100
AcDbEntity
  8
0
100
AcDbLine
 62
7
  6
CONTINUOUS
 10
322.5238392558
 20
268.7698716535
 11
328.3674022864
 21
268.7698716535
  0
LINE
  5
394
100
AcDbEntity
  8
KONSTRUKTIONSELEMENTE
100
AcDbLine
 62
7
  6
CONTINUOUS
 10
404.9951336546
 20
183.2160791822
 11
394.3885319368
 21
193.8226809
  0
LINE
  5
395
100
AcDbEntity
  8
KONSTRUKTIONSELEMENTE
100
AcDbLine
 62
7
  6
CONTINUOUS
 10
436.7442281299
 20
156.3460214971
 11
428.3296574337
 21
164.7605921932
  0
LINE
  5
396
100
AcDbEntity
  8
KONSTRUKTIONSELEMENTE
100
AcDbLine
 62
7
  6
CONTINUOUS
 10
375.5794915572
 20
217.5107580697
 11
367.1649208611
 21
225.9253287658
  0
LINE
  5
397
100
AcDbEntity
  8
KONSTRUKTIONSELEMENTE
100
AcDbLine
 62
7
  6
CONTINUOUS
 10
408.1771141699
 20
186.3980596975
 11
397.5705124521
 21
197.0046614153
  0
LINE
  5
398
100
AcDbEntity
  8
KONSTRUKTIONSELEMENTE
100
AcDbLine
 62
7
  6
CONTINUOUS
 10
338.8806496136
 20
256.401631035
 11
367.8720276423
 21
227.4102530063
  0
LINE
  5
399
100
AcDbEntity
  8
RUNDUNGEN
100
AcDbLine
 62
7
  6
CONTINUOUS
 10
504.3436364113
 20
91.6457510185
 11
434.363669731
 21
161.6257176988
  0
LINE
  5
39A
100
AcDbEntity
  8
KONSTRUKTIONSELEMENTE
100
AcDbLine
 62
7
  6
CONTINUOUS
 10
378.8321827507
 20
217.5107580697
 11
397.5408677259
 21
198.8020730945
  0
LINE
  5
39B
100
AcDbEntity
  8
KONSTRUKTIONSELEMENTE
100
AcDbLine
 62
7
  6
CONTINUOUS
 10
409.9448811229
 20
186.3980596975
 11
428.6535660981
 21
167.6893747223
  0
LINE
  5
39C
100
AcDbEntity
  8
KONSTRUKTIONSELEMENTE
100
AcDbLine
 62
7
  6
CONTINUOUS
 10
382.014163266
 20
220.692738585
 11
400.7228482412
 21
201.9840536099
  0
LINE
  5
39D
100
AcDbEntity
  8
KONSTRUKTIONSELEMENTE
100
AcDbLine
 62
7
  6
CONTINUOUS
 10
413.1268616382
 20
189.5800402128
 11
431.8355466134
 21
170.8713552377
  0
LINE
  5
39E
100
AcDbEntity
  8
RUNDUNGEN
100
AcDbLine
 62
7
  6
CONTINUOUS
 10
437.8991851081
 20
165.1612701336
 11
507.8791703172
 21
95.1812849244
  0
LINE
  5
39F
100
AcDbEntity
  8
KONSTRUKTIONSELEMENTE
100
AcDbLine
 62
7
  6
CONTINUOUS
 10
343.1232903008
 20
260.6442717221
 11
372.0651582022
 21
231.7024038206
  0
LINE
  5
3A0
100
AcDbEntity
  8
KONSTRUKTIONSELEMENTE
100
AcDbLine
 62
7
  6
CONTINUOUS
 10
402.5202599204
 20
201.9544088836
 11
413.1268616382
 21
191.3478071658
  0
LINE
  5
3A1
100
AcDbEntity
  8
KONSTRUKTIONSELEMENTE
100
AcDbLine
 62
7
  6
CONTINUOUS
 10
373.5995925699
 20
232.3600004746
 11
377.6301012227
 21
228.3294918219
  0
LINE
  5
3A2
100
AcDbEntity
  8
KONSTRUKTIONSELEMENTE
100
AcDbLine
 62
7
  6
CONTINUOUS
 10
377.9836546133
 20
227.9759384313
 11
382.014163266
 21
223.9454297785
  0
LINE
  5
3A3
100
AcDbEntity
  8
KONSTRUKTIONSELEMENTE
100
AcDbLine
 62
7
  6
CONTINUOUS
 10
434.7643291425
 20
171.195263902
 11
438.7948377953
 21
167.1647552492
  0
LINE
  5
3A4
100
AcDbEntity
  8
KONSTRUKTIONSELEMENTE
100
AcDbLine
 62
7
  6
CONTINUOUS
 10
439.1483911859
 20
166.8112018586
 11
443.1788998387
 21
162.7806932059
  0
LINE
  5
3A5
100
AcDbEntity
  8
KONSTRUKTIONSELEMENTE
100
AcDbLine
 62
7
  6
CONTINUOUS
 10
405.7022404358
 20
205.1363893989
 11
416.3088421536
 21
194.5297876811
  0
LINE
  5
3A6
100
AcDbEntity
  8
KONSTRUKTIONSELEMENTE
100
AcDbLine
 62
7
  6
CONTINUOUS
 10
377.1351264758
 20
235.8955343806
 11
381.1656351286
 21
231.8650257278
  0
LINE
  5
3A7
100
AcDbEntity
  8
KONSTRUKTIONSELEMENTE
100
AcDbLine
 62
7
  6
CONTINUOUS
 10
381.5191885192
 20
231.5114723372
 11
385.5496971719
 21
227.4809636844
  0
LINE
  5
3A8
100
AcDbEntity
  8
KONSTRUKTIONSELEMENTE
100
AcDbLine
 62
7
  6
CONTINUOUS
 10
438.2998630485
 20
174.7307978079
 11
442.3303717012
 21
170.7002891552
  0
LINE
  5
3A9
100
AcDbEntity
  8
KONSTRUKTIONSELEMENTE
100
AcDbLine
 62
7
  6
CONTINUOUS
 10
442.6839250918
 20
170.3467357646
 11
446.7144337446
 21
166.3162271118
  0
LINE
  5
3AA
100
AcDbEntity
  8
0
100
AcDbLine
 62
7
  6
CONTINUOUS
 10
336.9456207711
 20
202.4682733104
 11
340.3456207711
 21
196.5793005646
  0
LINE
  5
3AB
100
AcDbEntity
  8
0
100
AcDbLine
 62
7
  6
CONTINUOUS
 10
278.4456207711
 20
339.0793005646
 11
278.4456207711
 21
274.0793005646
  0
LINE
  5
3AC
100
AcDbEntity
  8
0
100
AcDbLine
 62
7
  6
CONTINUOUS
 10
332.5375060823
 20
260.7813490155
 11
328.3674022864
 21
268.7698716535
  0
LINE
  5
3AD
100
AcDbEntity
  8
0
100
AcDbLine
 62
7
  6
CONTINUOUS
 10
300.4456207711
 20
339.0793005646
 11
300.4456207711
 21
274.0793005646
  0
LINE
  5
3AE
100
AcDbEntity
  8
RUNDUNGEN
100
AcDbLine
 62
7
  6
CONTINUOUS
 10
322.9463707711
 20
198.3529024793
 11
321.3345193086
 21
212.0793005646
  0
LINE
  5
3AF
100
AcDbEntity
  8
0
100
AcDbLine
 62
7
  6
CONTINUOUS
 10
322.9463707711
 20
205.9737972292
 11
321.7268645044
 21
216.3590150202
  0
LINE
  5
3B0
100
AcDbEntity
  8
0
100
AcDbLine
 62
7
  6
CONTINUOUS
 10
328.9781556587
 20
226.2325747604
 11
329.1643770378
 21
216.3590150202
  0
LINE
  5
3B1
100
AcDbEntity
  8
0
100
AcDbLine
 62
7
  6
CONTINUOUS
 10
309.4456207711
 20
348.0793005646
 11
309.4456207711
 21
730.0793005646
  0
LINE
  5
3B2
100
AcDbEntity
  8
RUNDUNGEN
100
AcDbLine
 62
7
  6
CONTINUOUS
 10
310.5456207711
 20
185.5793005646
 11
310.5456207711
 21
196.5793005646
  0
LINE
  5
3B3
100
AcDbEntity
  8
RUNDUNGEN
100
AcDbLine
 62
7
  6
CONTINUOUS
 10
313.9456207711
 20
202.4682733104
 11
313.9456207711
 21
214.0793005646
  0
LINE
  5
3B4
100
AcDbEntity
  8
BEZUGSACHSEN
100
AcDbLine
 62
7
  6
CONTINUOUS
 10
317.4456207711
 20
257.0793005646
 11
317.4456207711
 21
228.5991885511
  0
LINE
  5
3B5
100
AcDbEntity
  8
RUNDUNGEN
100
AcDbLine
 62
7
  6
CONTINUOUS
 10
317.4456207711
 20
228.5988082172
 11
317.4456207711
 21
218.4667827583
  0
LINE
  5
3B6
100
AcDbEntity
  8
0
100
AcDbLine
 62
7
  6
CONTINUOUS
 10
322.9463707711
 20
205.9737972292
 11
322.9463707711
 21
198.3529024793
  0
LINE
  5
3B7
100
AcDbEntity
  8
0
100
AcDbLine
 62
7
  6
CONTINUOUS
 10
321.9130858835
 20
226.2325747604
 11
321.7268645044
 21
216.3590150202
  0
LINE
  5
3B8
100
AcDbEntity
  8
0
100
AcDbLine
 62
7
  6
CONTINUOUS
 10
327.9448707711
 20
205.9737972292
 11
327.9448707711
 21
198.3529024793
  0
LINE
  5
3B9
100
AcDbEntity
  8
BEZUGSACHSEN
100
AcDbLine
 62
7
  6
CONTINUOUS
 10
333.4456207711
 20
257.0793005646
 11
333.4456207711
 21
228.5991885511
  0
LINE
  5
3BA
100
AcDbEntity
  8
0
100
AcDbLine
 62
7
  6
CONTINUOUS
 10
333.4456207711
 20
228.5988082172
 11
333.4456207711
 21
218.4667827583
  0
LINE
  5
3BB
100
AcDbEntity
  8
0
100
AcDbLine
 62
7
  6
CONTINUOUS
 10
336.9456207711
 20
202.4682733104
 11
336.9456207711
 21
214.0793005646
  0
LINE
  5
3BC
100
AcDbEntity
  8
0
100
AcDbLine
 62
7
  6
CONTINUOUS
 10
340.3456207711
 20
196.5793005646
 11
340.3456207711
 21
185.5793005646
  0
LINE
  5
3BD
100
AcDbEntity
  8
0
100
AcDbLine
 62
7
  6
CONTINUOUS
 10
341.4456207711
 20
348.0793005646
 11
341.4456207711
 21
730.0793005646
  0
LINE
  5
3BE
100
AcDbEntity
  8
0
100
AcDbLine
 62
7
  6
CONTINUOUS
 10
350.4456207711
 20
274.0793005646
 11
350.4456207711
 21
339.0793005646
  0
LINE
  5
3BF
100
AcDbEntity
  8
0
100
AcDbLine
 62
7
  6
CONTINUOUS
 10
372.4456207711
 20
274.0793005646
 11
372.4456207711
 21
339.0793005646
  0
LINE
  5
3C0
100
AcDbEntity
  8
0
100
AcDbLine
 62
7
  6
CONTINUOUS
 10
327.9448707711
 20
205.9737972292
 11
329.1643770378
 21
216.3590150202
  0
LINE
  5
3C1
100
AcDbEntity
  8
0
100
AcDbLine
 62
7
  6
CONTINUOUS
 10
327.9448707711
 20
198.3529024793
 11
329.5567222336
 21
212.0793005646
  0
LINE
  5
3C2
100
AcDbEntity
  8
KONSTRUKTIONSELEMENTE
100
AcDbLine
 62
7
  6
CONTINUOUS
 10
322.5238392558
 20
268.7698716535
 11
318.3537354599
 21
260.7813490155
  0
LINE
  5
3C3
100
AcDbEntity
  8
RUNDUNGEN
100
AcDbLine
 62
7
  6
CONTINUOUS
 10
313.9456207711
 20
202.4682733104
 11
310.5456207711
 21
196.5793005646
  0
LINE
  5
3C4
100
AcDbEntity
  8
KONSTRUKTIONSELEMENTE
100
AcDbLine
 62
7
  6
CONTINUOUS
 10
381.1656351286
 20
231.8650257278
 11
377.6301012227
 21
228.3294918219
  0
LINE
  5
3C5
100
AcDbEntity
  8
KONSTRUKTIONSELEMENTE
100
AcDbLine
 62
7
  6
CONTINUOUS
 10
381.5191885192
 20
231.5114723372
 11
377.9836546133
 21
227.9759384313
  0
LINE
  5
3C6
100
AcDbEntity
  8
KONSTRUKTIONSELEMENTE
100
AcDbLine
 62
7
  6
CONTINUOUS
 10
442.3303717012
 20
170.7002891552
 11
438.7948377953
 21
167.1647552492
  0
LINE
  5
3C7
100
AcDbEntity
  8
KONSTRUKTIONSELEMENTE
100
AcDbLine
 62
7
  6
CONTINUOUS
 10
442.6839250918
 20
170.3467357646
 11
439.1483911859
 21
166.8112018586
  0
LINE
  5
3C8
100
AcDbEntity
  8
RUNDUNGEN
100
AcDbLine
 62
7
  6
CONTINUOUS
 10
437.8990530595
 20
165.1614021822
 11
434.3635191536
 21
161.6258682762
  0
LINE
  5
3C9
100
AcDbEntity
  8
RUNDUNGEN
100
AcDbLine
 62
7
  6
CONTINUOUS
 10
504.3436364113
 20
91.6457510185
 11
507.8791703172
 21
95.1812849244
  0
ARC
  5
3CA
100
AcDbEntity
  8
RUNDUNGEN
100
AcDbCircle
 62
7
  6
CONTINUOUS
 10
686.125509149
 20
212.0793005646
 40
6.5
100
AcDbArc
 50
110.0629909694
 51
180.0
  0
ARC
  5
3CB
100
AcDbEntity
  8
RUNDUNGEN
100
AcDbCircle
 62
7
  6
CONTINUOUS
 10
685.4998181384
 20
213.7926461217
 40
4.6759818434
100
AcDbArc
 50
107.8948091041
 51
110.063564326
  0
CIRCLE
  5
3CC
100
AcDbEntity
  8
BEZUGSACHSEN
100
AcDbCircle
 62
7
  6
CONTINUOUS
 10
690.025509149
 20
189.0793005646
 40
2.5
  0
ARC
  5
3CD
100
AcDbEntity
  8
0
100
AcDbCircle
 62
7
  6
CONTINUOUS
 10
697.2880178509
 20
143.6254037933
 40
0.416959771
100
AcDbArc
 50
78.8903114984
 51
89.9692795104
  0
ARC
  5
3CE
100
AcDbEntity
  8
KONSTRUKTIONSELEMENTE
100
AcDbCircle
 62
7
  6
CONTINUOUS
 10
708.125509149
 20
141.0901005646
 40
35.9892
100
AcDbArc
 50
57.8980709415
 51
79.9991254185
  0
ARC
  5
3CF
100
AcDbEntity
  8
KONSTRUKTIONSELEMENTE
100
AcDbCircle
 62
7
  6
CONTINUOUS
 10
708.125509149
 20
141.0901005646
 40
35.9892
100
AcDbArc
 50
100.0008745815
 51
122.1019290585
  0
ARC
  5
3D0
100
AcDbEntity
  8
BEZUGSACHSEN
100
AcDbCircle
 62
7
  6
CONTINUOUS
 10
708.125509149
 20
233.8293005646
 40
15.25
100
AcDbArc
 50
136.1992889705
 51
43.8007110295
  0
ARC
  5
3D1
100
AcDbEntity
  8
0
100
AcDbCircle
 62
7
  6
CONTINUOUS
 10
708.125509149
 20
375.0793005646
 40
11.0
100
AcDbArc
 50
0.0
 51
180.0
  0
ARC
  5
3D2
100
AcDbEntity
  8
0
100
AcDbCircle
 62
7
  6
CONTINUOUS
 10
708.125509149
 20
238.0793005646
 40
11.0
100
AcDbArc
 50
180.0
 51
360.0
  0
ARC
  5
3D3
100
AcDbEntity
  8
RUNDUNGEN
100
AcDbCircle
 62
7
  6
CONTINUOUS
 10
730.125509149
 20
212.0793005646
 40
6.5
100
AcDbArc
 50
0.0
 51
69.9370090306
  0
ARC
  5
3D4
100
AcDbEntity
  8
KONSTRUKTIONSELEMENTE
100
AcDbCircle
 62
7
  6
CONTINUOUS
 10
708.125509149
 20
202.1293005646
 40
6.25
100
AcDbArc
 50
0.0
 51
180.0
  0
ARC
  5
3D5
100
AcDbEntity
  8
RUNDUNGEN
100
AcDbCircle
 62
7
  6
CONTINUOUS
 10
730.7512001595
 20
213.7926461216
 40
4.6759818435
100
AcDbArc
 50
69.936435674
 51
72.1051908959
  0
ARC
  5
3D6
100
AcDbEntity
  8
KONSTRUKTIONSELEMENTE
100
AcDbCircle
 62
7
  6
CONTINUOUS
 10
708.125509149
 20
152.5133573515
 40
2.5
100
AcDbArc
 50
180.0
 51
360.0
  0
ARC
  5
3D7
100
AcDbEntity
  8
KONSTRUKTIONSELEMENTE
100
AcDbCircle
 62
7
  6
CONTINUOUS
 10
708.125509149
 20
175.0279280476
 40
2.5
100
AcDbArc
 50
0.0
 51
180.0
  0
ARC
  5
3D8
100
AcDbEntity
  8
KONSTRUKTIONSELEMENTE
100
AcDbCircle
 62
7
  6
CONTINUOUS
 10
708.125509149
 20
183.1229334317
 40
2.25
100
AcDbArc
 50
209.2743903904
 51
330.7256096096
  0
ARC
  5
3D9
100
AcDbEntity
  8
KONSTRUKTIONSELEMENTE
100
AcDbCircle
 62
7
  6
CONTINUOUS
 10
708.125509149
 20
205.2295351495
 40
2.25
100
AcDbArc
 50
0.0
 51
180.0
  0
ARC
  5
3DA
100
AcDbEntity
  8
0
100
AcDbCircle
 62
7
  6
CONTINUOUS
 10
720.5882919394
 20
144.2571676989
 40
2.1292118708
100
AcDbArc
 50
350.5636876717
 51
355.3957076164
  0
ARC
  5
3DB
100
AcDbEntity
  8
0
100
AcDbCircle
 62
7
  6
CONTINUOUS
 10
708.125509149
 20
459.0793005646
 40
127.0
100
AcDbArc
 50
180.0
 51
265.0303544948
  0
ARC
  5
3DC
100
AcDbEntity
  8
0
100
AcDbCircle
 62
7
  6
CONTINUOUS
 10
708.125509149
 20
459.0793005646
 40
127.0
100
AcDbArc
 50
274.9696455052
 51
360.0
  0
ARC
  5
3DD
100
AcDbEntity
  8
0
100
AcDbCircle
 62
7
  6
CONTINUOUS
 10
708.125509149
 20
619.0793005646
 40
127.0
100
AcDbArc
 50
0.0
 51
180.0
  0
ARC
  5
3DE
100
AcDbEntity
  8
0
100
AcDbCircle
 62
7
  6
CONTINUOUS
 10
708.125509149
 20
459.0793005646
 40
95.0
100
AcDbArc
 50
180.0
 51
263.3499960903
  0
ARC
  5
3DF
100
AcDbEntity
  8
0
100
AcDbCircle
 62
7
  6
CONTINUOUS
 10
708.125509149
 20
459.0793005646
 40
95.0
100
AcDbArc
 50
276.6500039097
 51
360.0
  0
ARC
  5
3E0
100
AcDbEntity
  8
0
100
AcDbCircle
 62
7
  6
CONTINUOUS
 10
708.125509149
 20
619.0793005646
 40
95.0
100
AcDbArc
 50
0.0
 51
180.0
  0
ARC
  5
3E1
100
AcDbEntity
  8
0
100
AcDbCircle
 62
7
  6
CONTINUOUS
 10
265.4450218527
 20
224.9476206021
 40
63.5461265413
100
AcDbArc
 50
1.1586460452
 51
8.0343897168
  0
ARC
  5
3E2
100
AcDbEntity
  8
0
100
AcDbCircle
 62
7
  6
CONTINUOUS
 10
326.3456207711
 20
185.5793005646
 40
14.0
100
AcDbArc
 50
283.4241551657
 51
360.0
  0
ARC
  5
3E3
100
AcDbEntity
  8
0
100
AcDbCircle
 62
7
  6
CONTINUOUS
 10
326.3456207711
 20
185.5793005646
 40
14.0
100
AcDbArc
 50
270.0
 51
279.3310985005
  0
ARC
  5
3E4
100
AcDbEntity
  8
RUNDUNGEN
100
AcDbCircle
 62
7
  6
CONTINUOUS
 10
324.5456207711
 20
185.5793005646
 40
14.0
100
AcDbArc
 50
180.0
 51
270.0
  0
ARC
  5
3E5
100
AcDbEntity
  8
BEZUGSACHSEN
100
AcDbCircle
 62
7
  6
CONTINUOUS
 10
325.4456207711
 20
257.0793005646
 40
8.0
100
AcDbArc
 50
152.4349057266
 51
180.0
  0
ARC
  5
3E6
100
AcDbEntity
  8
BEZUGSACHSEN
100
AcDbCircle
 62
7
  6
CONTINUOUS
 10
325.4456207711
 20
257.0793005646
 40
8.0
100
AcDbArc
 50
0.0
 51
27.5650942734
  0
CIRCLE
  5
3E7
100
AcDbEntity
  8
BEZUGSACHSEN
100
AcDbCircle
 62
7
  6
CONTINUOUS
 10
325.4456207711
 20
189.0793005646
 40
7.11325
  0
ARC
  5
3E8
100
AcDbEntity
  8
0
100
AcDbCircle
 62
7
  6
CONTINUOUS
 10
332.4456207711
 20
214.0793005646
 40
4.5
100
AcDbArc
 50
0.0
 51
79.3577329759
  0
ARC
  5
3E9
100
AcDbEntity
  8
RUNDUNGEN
100
AcDbCircle
 62
7
  6
CONTINUOUS
 10
318.4456207711
 20
214.0793005646
 40
4.5
100
AcDbArc
 50
100.6422670241
 51
180.0
  0
ARC
  5
3EA
100
AcDbEntity
  8
KONSTRUKTIONSELEMENTE
100
AcDbCircle
 62
7
  6
CONTINUOUS
 10
341.0019699572
 20
258.5229513785
 40
3.0
100
AcDbArc
 50
45.0
 51
225.0
  0
ARC
  5
3EB
100
AcDbEntity
  8
0
100
AcDbCircle
 62
7
  6
CONTINUOUS
 10
333.6133373106
 20
216.4228921032
 40
2.1137820273
100
AcDbArc
 50
120.5946035821
 51
123.533879228
  0
ARC
  5
3EC
100
AcDbEntity
  8
RUNDUNGEN
100
AcDbCircle
 62
7
  6
CONTINUOUS
 10
317.2779042315
 20
216.4228921032
 40
2.1137820273
100
AcDbArc
 50
56.466120772
 51
59.4053964179
  0
ARC
  5
3ED
100
AcDbEntity
  8
0
100
AcDbCircle
 62
7
  6
CONTINUOUS
 10
325.4456207711
 20
274.0793005646
 40
47.0
100
AcDbArc
 50
180.0
 51
260.1961109843
  0
ARC
  5
3EE
100
AcDbEntity
  8
0
100
AcDbCircle
 62
7
  6
CONTINUOUS
 10
325.4456207711
 20
274.0793005646
 40
47.0
100
AcDbArc
 50
279.8038890157
 51
311.3385477827
  0
ARC
  5
3EF
100
AcDbEntity
  8
0
100
AcDbCircle
 62
7
  6
CONTINUOUS
 10
325.4456207711
 20
274.0793005646
 40
47.0
100
AcDbArc
 50
318.6614522173
 51
360.0
  0
ARC
  5
3F0
100
AcDbEntity
  8
0
100
AcDbCircle
 62
7
  6
CONTINUOUS
 10
325.4456207711
 20
339.0793005646
 40
47.0
100
AcDbArc
 50
0.0
 51
70.087034241
  0
ARC
  5
3F1
100
AcDbEntity
  8
0
100
AcDbCircle
 62
7
  6
CONTINUOUS
 10
325.4456207711
 20
339.0793005646
 40
47.0
100
AcDbArc
 50
109.912965759
 51
180.0
  0
ARC
  5
3F2
100
AcDbEntity
  8
0
100
AcDbCircle
 62
7
  6
CONTINUOUS
 10
325.4456207711
 20
274.0793005646
 40
25.0
100
AcDbArc
 50
180.0
 51
251.3310699785
  0
ARC
  5
3F3
100
AcDbEntity
  8
0
100
AcDbCircle
 62
7
  6
CONTINUOUS
 10
325.4456207711
 20
274.0793005646
 40
25.0
100
AcDbArc
 50
288.6689300215
 51
308.104478947
  0
ARC
  5
3F4
100
AcDbEntity
  8
0
100
AcDbCircle
 62
7
  6
CONTINUOUS
 10
325.4456207711
 20
274.0793005646
 40
25.0
100
AcDbArc
 50
321.895521053
 51
360.0
  0
ARC
  5
3F5
100
AcDbEntity
  8
0
100
AcDbCircle
 62
7
  6
CONTINUOUS
 10
325.4456207711
 20
339.0793005646
 40
25.0
100
AcDbArc
 50
0.0
 51
50.2032040821
  0
ARC
  5
3F6
100
AcDbEntity
  8
0
100
AcDbCircle
 62
7
  6
CONTINUOUS
 10
325.4456207711
 20
339.0793005646
 40
25.0
100
AcDbArc
 50
129.7967959179
 51
180.0
  0
ARC
  5
3F7
100
AcDbEntity
  8
0
100
AcDbCircle
 62
7
  6
CONTINUOUS
 10
325.4456207711
 20
348.0793005646
 40
16.0
100
AcDbArc
 50
180.0
 51
360.0
  0
ARC
  5
3F8
100
AcDbEntity
  8
0
100
AcDbCircle
 62
7
  6
CONTINUOUS
 10
325.4456207711
 20
730.0793005646
 40
16.0
100
AcDbArc
 50
0.0
 51
180.0
  0
ARC
  5
3F9
100
AcDbEntity
  8
0
100
AcDbCircle
 62
7
  6
CONTINUOUS
 10
385.4462196895
 20
224.9476206021
 40
63.5461265413
100
AcDbArc
 50
171.9656102832
 51
178.8413539548
  0
ARC
  5
3FA
100
AcDbEntity
  8
KONSTRUKTIONSELEMENTE
100
AcDbCircle
 62
7
  6
CONTINUOUS
 10
370.3822567155
 20
229.1426646202
 40
9.55
100
AcDbArc
 50
153.3468443034
 51
225.0
  0
ARC
  5
3FB
100
AcDbEntity
  8
KONSTRUKTIONSELEMENTE
100
AcDbCircle
 62
7
  6
CONTINUOUS
 10
370.3822567155
 20
229.1426646202
 40
9.55
100
AcDbArc
 50
45.0
 51
116.6531556966
  0
ARC
  5
3FC
100
AcDbEntity
  8
KONSTRUKTIONSELEMENTE
100
AcDbCircle
 62
7
  6
CONTINUOUS
 10
378.7968274116
 20
220.7280939241
 40
9.55
100
AcDbArc
 50
328.6297070454
 51
45.0
  0
ARC
  5
3FD
100
AcDbEntity
  8
KONSTRUKTIONSELEMENTE
100
AcDbCircle
 62
7
  6
CONTINUOUS
 10
378.7968274116
 20
220.7280939241
 40
9.55
100
AcDbArc
 50
225.0
 51
301.3702929546
  0
ARC
  5
3FE
100
AcDbEntity
  8
KONSTRUKTIONSELEMENTE
100
AcDbCircle
 62
7
  6
CONTINUOUS
 10
400.0453861863
 20
199.4795351495
 40
8.0
100
AcDbArc
 50
151.3642958278
 51
225.0
  0
ARC
  5
3FF
100
AcDbEntity
  8
KONSTRUKTIONSELEMENTE
100
AcDbCircle
 62
7
  6
CONTINUOUS
 10
400.0453861863
 20
199.4795351495
 40
8.0
100
AcDbArc
 50
45.0
 51
118.6357041722
  0
ARC
  5
400
100
AcDbEntity
  8
KONSTRUKTIONSELEMENTE
100
AcDbCircle
 62
7
  6
CONTINUOUS
 10
370.3822567155
 20
229.1426646202
 40
4.55
100
AcDbArc
 50
176.2724010126
 51
225.0
  0
ARC
  5
401
100
AcDbEntity
  8
KONSTRUKTIONSELEMENTE
100
AcDbCircle
 62
7
  6
CONTINUOUS
 10
370.3822567155
 20
229.1426646202
 40
4.55
100
AcDbArc
 50
45.0
 51
93.7275989874
  0
ARC
  5
402
100
AcDbEntity
  8
KONSTRUKTIONSELEMENTE
100
AcDbCircle
 62
7
  6
CONTINUOUS
 10
378.7968274116
 20
220.7280939241
 40
4.55
100
AcDbArc
 50
344.6522021471
 51
45.0
  0
ARC
  5
403
100
AcDbEntity
  8
KONSTRUKTIONSELEMENTE
100
AcDbCircle
 62
7
  6
CONTINUOUS
 10
378.7968274116
 20
220.7280939241
 40
4.55
100
AcDbArc
 50
225.0
 51
285.3477978529
  0
ARC
  5
404
100
AcDbEntity
  8
KONSTRUKTIONSELEMENTE
100
AcDbCircle
 62
7
  6
CONTINUOUS
 10
400.0453861863
 20
199.4795351495
 40
3.5
100
AcDbArc
 50
175.1538775079
 51
225.0
  0
ARC
  5
405
100
AcDbEntity
  8
KONSTRUKTIONSELEMENTE
100
AcDbCircle
 62
7
  6
CONTINUOUS
 10
400.0453861863
 20
199.4795351495
 40
3.5
100
AcDbArc
 50
45.0
 51
94.8461224921
  0
ARC
  5
406
100
AcDbEntity
  8
KONSTRUKTIONSELEMENTE
100
AcDbCircle
 62
7
  6
CONTINUOUS
 10
369.9933479858
 20
229.5315733499
 40
3.0
100
AcDbArc
 50
225.0
 51
45.0
  0
ARC
  5
407
100
AcDbEntity
  8
KONSTRUKTIONSELEMENTE
100
AcDbCircle
 62
7
  6
CONTINUOUS
 10
380.4231730083
 20
219.1017483274
 40
2.25
100
AcDbArc
 50
45.0
 51
225.0
  0
ARC
  5
408
100
AcDbEntity
  8
KONSTRUKTIONSELEMENTE
100
AcDbCircle
 62
7
  6
CONTINUOUS
 10
399.1615027098
 20
200.3634186259
 40
2.25
100
AcDbArc
 50
225.0
 51
45.0
  0
ARC
  5
409
100
AcDbEntity
  8
KONSTRUKTIONSELEMENTE
100
AcDbCircle
 62
7
  6
CONTINUOUS
 10
431.5469932881
 20
167.9779280476
 40
9.55
100
AcDbArc
 50
148.6297070454
 51
225.0
  0
ARC
  5
40A
100
AcDbEntity
  8
KONSTRUKTIONSELEMENTE
100
AcDbCircle
 62
7
  6
CONTINUOUS
 10
431.5469932881
 20
167.9779280476
 40
9.55
100
AcDbArc
 50
45.0
 51
121.3702929546
  0
ARC
  5
40B
100
AcDbEntity
  8
KONSTRUKTIONSELEMENTE
100
AcDbCircle
 62
7
  6
CONTINUOUS
 10
439.9615639843
 20
159.5633573515
 40
9.55
100
AcDbArc
 50
330.1951355235
 51
45.0
  0
ARC
  5
40C
100
AcDbEntity
  8
KONSTRUKTIONSELEMENTE
100
AcDbCircle
 62
7
  6
CONTINUOUS
 10
439.9615639843
 20
159.5633573515
 40
9.55
100
AcDbArc
 50
225.0
 51
299.8048644765
  0
ARC
  5
40D
100
AcDbEntity
  8
KONSTRUKTIONSELEMENTE
100
AcDbCircle
 62
7
  6
CONTINUOUS
 10
410.6519879041
 20
188.8729334317
 40
8.0
100
AcDbArc
 50
331.3642958278
 51
45.0
  0
ARC
  5
40E
100
AcDbEntity
  8
KONSTRUKTIONSELEMENTE
100
AcDbCircle
 62
7
  6
CONTINUOUS
 10
410.6519879041
 20
188.8729334317
 40
8.0
100
AcDbArc
 50
225.0
 51
298.6357041722
  0
ARC
  5
40F
100
AcDbEntity
  8
KONSTRUKTIONSELEMENTE
100
AcDbCircle
 62
7
  6
CONTINUOUS
 10
431.5469932881
 20
167.9779280476
 40
4.55
100
AcDbArc
 50
164.6522021471
 51
225.0
  0
ARC
  5
410
100
AcDbEntity
  8
KONSTRUKTIONSELEMENTE
100
AcDbCircle
 62
7
  6
CONTINUOUS
 10
431.5469932881
 20
167.9779280476
 40
4.55
100
AcDbArc
 50
45.0
 51
105.3477978529
  0
ARC
  5
411
100
AcDbEntity
  8
KONSTRUKTIONSELEMENTE
100
AcDbCircle
 62
7
  6
CONTINUOUS
 10
439.9615639843
 20
159.5633573515
 40
4.55
100
AcDbArc
 50
348.3583327703
 51
45.0
  0
ARC
  5
412
100
AcDbEntity
  8
KONSTRUKTIONSELEMENTE
100
AcDbCircle
 62
7
  6
CONTINUOUS
 10
439.9615639843
 20
159.5633573515
 40
4.55
100
AcDbArc
 50
225.0
 51
281.6416672297
  0
ARC
  5
413
100
AcDbEntity
  8
KONSTRUKTIONSELEMENTE
100
AcDbCircle
 62
7
  6
CONTINUOUS
 10
410.6519879041
 20
188.8729334317
 40
3.5
100
AcDbArc
 50
355.1538775079
 51
45.0
  0
ARC
  5
414
100
AcDbEntity
  8
KONSTRUKTIONSELEMENTE
100
AcDbCircle
 62
7
  6
CONTINUOUS
 10
410.6519879041
 20
188.8729334317
 40
3.5
100
AcDbArc
 50
225.0
 51
274.8461224921
  0
ARC
  5
415
100
AcDbEntity
  8
KONSTRUKTIONSELEMENTE
100
AcDbCircle
 62
7
  6
CONTINUOUS
 10
411.5358713806
 20
187.9890499552
 40
2.25
100
AcDbArc
 50
45.0
 51
225.0
  0
ARC
  5
416
100
AcDbEntity
  8
KONSTRUKTIONSELEMENTE
100
AcDbCircle
 62
7
  6
CONTINUOUS
 10
430.274201082
 20
169.2507202537
 40
2.25
100
AcDbArc
 50
225.0
 51
45.0
  0
SPLINE
  5
417
100
AcDbEntity
  8
KONSTRUKTIONSELEMENTE
100
AcDbSpline
 62
7
  6
CONTINUOUS
 70
0
 71
3
 72
10
 73
6
 74
0
 42
0.0000001
 43
0.0000001
 44
0.0000000001
 40
0.0
 40
0.0
 40
0.0
 40
0.0
 40
0.3192646009
 40
0.6086079864
 40
1.0
 40
1.0
 40
1.0
 40
1.0
 10
711.625509149
 20
173.3165842455
 30
0.0
 10
711.625509149
 20
173.1448444703
 30
0.0
 10
711.4834933624
 20
172.8239932554
 30
0.0
 10
711.1176873478
 20
172.430640916
 30
0.0
 10
710.814399515
 20
172.2176010027
 30
0.0
 10
710.631863214
 20
172.1126864063
 30
0.0
  0
SPLINE
  5
418
100
AcDbEntity
  8
KONSTRUKTIONSELEMENTE
100
AcDbSpline
 62
7
  6
CONTINUOUS
 70
0
 71
3
 72
10
 73
6
 74
0
 42
0.0000001
 43
0.0000001
 44
0.0000000001
 40
0.0
 40
0.0
 40
0.0
 40
0.0
 40
0.3914026107
 40
0.6807340322
 40
1.0
 40
1.0
 40
1.0
 40
1.0
 10
705.6190635479
 20
172.1127388774
 30
0.0
 10
705.4365363044
 20
172.2176542869
 30
0.0
 10
705.1332967237
 20
172.4307133584
 30
0.0
 10
704.7674760191
 20
172.824011719
 30
0.0
 10
704.625509149
 20
173.1448544599
 30
0.0
 10
704.625509149
 20
173.3165842455
 30
0.0
  0
SPLINE
  5
419
100
AcDbEntity
  8
KONSTRUKTIONSELEMENTE
100
AcDbSpline
 62
7
  6
CONTINUOUS
 70
0
 71
3
 72
13
 73
9
 74
0
 42
0.0000001
 43
0.0000001
 44
0.0000000001
 40
0.0
 40
0.0
 40
0.0
 40
0.0
 40
0.1197290731
 40
0.2397365246
 40
0.3609040964
 40
0.4836831257
 40
0.7359942557
 40
1.0
 40
1.0
 40
1.0
 40
1.0
 10
716.125509149
 20
173.3165842455
 30
0.0
 10
716.125509149
 20
172.9673705434
 30
0.0
 10
716.0534055272
 20
172.2660295074
 30
0.0
 10
715.7351201924
 20
171.2558112593
 30
0.0
 10
715.2257366508
 20
170.3172330406
 30
0.0
 10
714.3139361222
 20
169.1844585339
 30
0.0
 10
712.7980448566
 20
168.0473151178
 30
0.0
 10
711.3751580066
 20
167.5007693939
 30
0.0
 10
710.6289334849
 20
167.3108009033
 30
0.0
  0
SPLINE
  5
41A
100
AcDbEntity
  8
KONSTRUKTIONSELEMENTE
100
AcDbSpline
 62
7
  6
CONTINUOUS
 70
0
 71
3
 72
13
 73
9
 74
0
 42
0.0000001
 43
0.0000001
 44
0.0000000001
 40
0.0
 40
0.0
 40
0.0
 40
0.0
 40
0.2640112835
 40
0.5163080567
 40
0.6390830379
 40
0.7602378991
 40
0.8802701562
 40
1.0
 40
1.0
 40
1.0
 40
1.0
 10
705.6211813465
 20
167.3110480929
 30
0.0
 10
704.8750415242
 20
167.5010826942
 30
0.0
 10
703.4523650828
 20
168.0476493253
 30
0.0
 10
701.9367750157
 20
169.1847946663
 30
0.0
 10
701.0251847382
 20
170.3174101749
 30
0.0
 10
700.5157938224
 20
171.2558874615
 30
0.0
 10
700.1976571033
 20
172.2660755646
 30
0.0
 10
700.125509149
 20
172.9674054481
 30
0.0
 10
700.125509149
 20
173.3165842455
 30
0.0
  0
SPLINE
  5
41B
100
AcDbEntity
  8
KONSTRUKTIONSELEMENTE
100
AcDbSpline
 62
7
  6
CONTINUOUS
 70
0
 71
3
 72
9
 73
5
 74
0
 42
0.0000001
 43
0.0000001
 44
0.0000000001
 40
0.0
 40
0.0
 40
0.0
 40
0.0
 40
0.2444683944
 40
1.0
 40
1.0
 40
1.0
 40
1.0
 10
702.599809836
 20
219.6310454332
 30
0.0
 10
702.8182753646
 20
219.7944220552
 30
0.0
 10
703.7485864193
 20
220.4132346685
 30
0.0
 10
704.8050573962
 20
220.8336746936
 30
0.0
 10
705.622084813
 20
221.0416676778
 30
0.0
  0
SPLINE
  5
41C
100
AcDbEntity
  8
KONSTRUKTIONSELEMENTE
100
AcDbSpline
 62
7
  6
CONTINUOUS
 70
0
 71
3
 72
9
 73
5
 74
0
 42
0.0000001
 43
0.0000001
 44
0.0000000001
 40
0.0
 40
0.0
 40
0.0
 40
0.0
 40
0.2564950214
 40
1.0
 40
1.0
 40
1.0
 40
1.0
 10
710.6298369515
 20
221.0414204882
 30
0.0
 10
710.9073549181
 20
220.9707393443
 30
0.0
 10
711.9761356555
 20
220.6478933666
 30
0.0
 10
712.9895062403
 20
220.1264050739
 30
0.0
 10
713.6540505557
 20
219.6289221812
 30
0.0
  0
SPLINE
  5
41D
100
AcDbEntity
  8
KONSTRUKTIONSELEMENTE
100
AcDbSpline
 62
7
  6
CONTINUOUS
 70
0
 71
3
 72
10
 73
6
 74
0
 42
0.0000001
 43
0.0000001
 44
0.0000000001
 40
0.0
 40
0.0
 40
0.0
 40
0.0
 40
0.3116645009
 40
0.6060899939
 40
1.0
 40
1.0
 40
1.0
 40
1.0
 10
711.625509149
 20
204.4292826178
 30
0.0
 10
711.625509149
 20
204.2321277713
 30
0.0
 10
711.4379805924
 20
203.8608015766
 30
0.0
 10
710.9806613228
 20
203.4269284869
 30
0.0
 10
710.6022600106
 20
203.1995184534
 30
0.0
 10
710.3775010373
 20
203.0919303224
 30
0.0
  0
SPLINE
  5
41E
100
AcDbEntity
  8
KONSTRUKTIONSELEMENTE
100
AcDbSpline
 62
7
  6
CONTINUOUS
 70
0
 71
3
 72
10
 73
6
 74
0
 42
0.0000001
 43
0.0000001
 44
0.0000000001
 40
0.0
 40
0.0
 40
0.0
 40
0.0
 40
0.3939255147
 40
0.6883533687
 40
1.0
 40
1.0
 40
1.0
 40
1.0
 10
705.8737599135
 20
203.0918183944
 30
0.0
 10
705.6489520075
 20
203.199408295
 30
0.0
 10
705.2704894858
 20
203.4268538633
 30
0.0
 10
704.8130479682
 20
203.8607316067
 30
0.0
 10
704.625509149
 20
204.2321113139
 30
0.0
 10
704.625509149
 20
204.4292826178
 30
0.0
  0
SPLINE
  5
41F
100
AcDbEntity
  8
KONSTRUKTIONSELEMENTE
100
AcDbSpline
 62
7
  6
CONTINUOUS
 70
0
 71
3
 72
9
 73
5
 74
0
 42
0.0000001
 43
0.0000001
 44
0.0000000001
 40
0.0
 40
0.0
 40
0.0
 40
0.0
 40
0.4887193927
 40
1.0
 40
1.0
 40
1.0
 40
1.0
 10
714.386159647
 20
200.4658085372
 30
0.0
 10
713.8571528448
 20
199.9423912424
 30
0.0
 10
712.5910573402
 20
199.0494802172
 30
0.0
 10
711.1388852883
 20
198.5356937806
 30
0.0
 10
710.3796214695
 20
198.3635164971
 30
0.0
  0
SPLINE
  5
420
100
AcDbEntity
  8
KONSTRUKTIONSELEMENTE
100
AcDbSpline
 62
7
  6
CONTINUOUS
 70
0
 71
3
 72
9
 73
5
 74
0
 42
0.0000001
 43
0.0000001
 44
0.0000000001
 40
0.0
 40
0.0
 40
0.0
 40
0.0
 40
0.5112935852
 40
1.0
 40
1.0
 40
1.0
 40
1.0
 10
705.8733383702
 20
198.3630852848
 30
0.0
 10
705.1144570181
 20
198.5350494357
 30
0.0
 10
703.6629845864
 20
199.0480971975
 30
0.0
 10
702.3971688693
 20
199.9398140348
 30
0.0
 10
701.8681317886
 20
200.4625746123
 30
0.0
  0
SPLINE
  5
421
100
AcDbEntity
  8
KONSTRUKTIONSELEMENTE
100
AcDbSpline
 62
7
  6
CONTINUOUS
 70
0
 71
3
 72
9
 73
5
 74
0
 42
0.0000001
 43
0.0000001
 44
0.0000000001
 40
0.0
 40
0.0
 40
0.0
 40
0.0
 40
0.4883932588
 40
1.0
 40
1.0
 40
1.0
 40
1.0
 10
723.0012476665
 20
230.4434041949
 30
0.0
 10
721.185418317
 20
229.3454247465
 30
0.0
 10
717.1528082609
 20
227.5979667712
 30
0.0
 10
712.8434902907
 20
226.8040875707
 30
0.0
 10
710.627503331
 20
226.629709325
 30
0.0
  0
SPLINE
  5
422
100
AcDbEntity
  8
KONSTRUKTIONSELEMENTE
100
AcDbSpline
 62
7
  6
CONTINUOUS
 70
0
 71
3
 72
9
 73
5
 74
0
 42
0.0000001
 43
0.0000001
 44
0.0000000001
 40
0.0
 40
0.0
 40
0.0
 40
0.0
 40
0.5116009649
 40
1.0
 40
1.0
 40
1.0
 40
1.0
 10
705.6241884988
 20
226.6296489924
 30
0.0
 10
703.4091203582
 20
226.8038932871
 30
0.0
 10
699.1015407135
 20
227.5972201691
 30
0.0
 10
695.0702979456
 20
229.343207684
 30
0.0
 10
693.2549083503
 20
230.4402997119
 30
0.0
  0
SPLINE
  5
423
100
AcDbEntity
  8
KONSTRUKTIONSELEMENTE
100
AcDbSpline
 62
7
  6
CONTINUOUS
 70
0
 71
3
 72
9
 73
5
 74
0
 42
0.0000001
 43
0.0000001
 44
0.0000000001
 40
0.0
 40
0.0
 40
0.0
 40
0.0
 40
0.2342381365
 40
1.0
 40
1.0
 40
1.0
 40
1.0
 10
722.8319618723
 20
237.8700138054
 30
0.0
 10
722.5511359756
 20
237.5835380709
 30
0.0
 10
721.2942240486
 20
236.417655048
 30
0.0
 10
719.8310614593
 20
235.4840826414
 30
0.0
 10
718.6594028156
 20
234.8948828148
 30
0.0
  0
SPLINE
  5
424
100
AcDbEntity
  8
KONSTRUKTIONSELEMENTE
100
AcDbSpline
 62
7
  6
CONTINUOUS
 70
0
 71
3
 72
9
 73
5
 74
0
 42
0.0000001
 43
0.0000001
 44
0.0000000001
 40
0.0
 40
0.0
 40
0.0
 40
0.0
 40
0.2660085388
 40
1.0
 40
1.0
 40
1.0
 40
1.0
 10
697.590507211
 20
234.8954348135
 30
0.0
 10
697.1836401491
 20
235.1000688717
 30
0.0
 10
695.6830284538
 20
235.923594206
 30
0.0
 10
694.2985298142
 20
236.9728066365
 30
0.0
 10
693.4188512156
 20
237.8702197025
 30
0.0
  0
SPLINE
  5
425
100
AcDbEntity
  8
0
100
AcDbSpline
 62
7
  6
CONTINUOUS
 70
0
 71
3
 72
11
 73
7
 74
0
 42
0.0000001
 43
0.0000001
 44
0.0000000001
 40
0.0
 40
0.0
 40
0.0
 40
0.0
 40
0.2192989281
 40
0.4548225453
 40
0.7152180566
 40
1.0
 40
1.0
 40
1.0
 40
1.0
 10
722.7173744827
 20
143.9009421482
 30
0.0
 10
722.7173744827
 20
144.1899062529
 30
0.0
 10
722.5874357086
 20
144.794862016
 30
0.0
 10
722.0452154043
 20
145.5882428647
 30
0.0
 10
721.2219236396
 20
146.2268020847
 30
0.0
 10
720.5545320123
 20
146.5127527282
 30
0.0
 10
720.1959367195
 20
146.6233032558
 30
0.0
  0
SPLINE
  5
426
100
AcDbEntity
  8
0
100
AcDbSpline
 62
7
  6
CONTINUOUS
 70
0
 71
3
 72
15
 73
11
 74
0
 42
0.0000001
 43
0.0000001
 44
0.0000000001
 40
0.0
 40
0.0
 40
0.0
 40
0.0
 40
0.1047415988
 40
0.222328371
 40
0.3560160977
 40
0.5
 40
0.6439839023
 40
0.777671629
 40
0.8952584012
 40
1.0
 40
1.0
 40
1.0
 40
1.0
 10
709.6440427152
 20
143.1689702484
 30
0.0
 10
709.6440427152
 20
142.9921381593
 30
0.0
 10
709.7589058389
 20
142.612343102
 30
0.0
 10
710.1985258593
 20
142.177415525
 30
0.0
 10
710.8166764118
 20
141.8981968438
 30
0.0
 10
711.5311103955
 20
141.801640543
 30
0.0
 10
712.2455443791
 20
141.8981968438
 30
0.0
 10
712.8636949317
 20
142.177415525
 30
0.0
 10
713.3033149521
 20
142.612343102
 30
0.0
 10
713.4181780758
 20
142.9921381593
 30
0.0
 10
713.4181780758
 20
143.1689702484
 30
0.0
  0
SPLINE
  5
427
100
AcDbEntity
  8
0
100
AcDbSpline
 62
7
  6
CONTINUOUS
 70
0
 71
3
 72
11
 73
7
 74
0
 42
0.0000001
 43
0.0000001
 44
0.0000000001
 40
0.0
 40
0.0
 40
0.0
 40
0.0
 40
0.2094689415
 40
0.4446609502
 40
0.7120169424
 40
1.0
 40
1.0
 40
1.0
 40
1.0
 10
707.2372051501
 20
145.2495935739
 30
0.0
 10
707.2371771367
 20
145.4363333793
 30
0.0
 10
707.1157176198
 20
145.8373866124
 30
0.0
 10
706.6513320034
 20
146.2966584733
 30
0.0
 10
705.9989691513
 20
146.5915418167
 30
0.0
 10
705.5007771999
 20
146.6586585948
 30
0.0
 10
705.2440427152
 20
146.6586585948
 30
0.0
  0
SPLINE
  5
428
100
AcDbEntity
  8
0
100
AcDbSpline
 62
7
  6
CONTINUOUS
 70
0
 71
3
 72
9
 73
5
 74
0
 42
0.0000001
 43
0.0000001
 44
0.0000000001
 40
0.0
 40
0.0
 40
0.0
 40
0.0
 40
0.4402133985
 40
1.0
 40
1.0
 40
1.0
 40
1.0
 10
696.3132414137
 20
143.2433328417
 30
0.0
 10
696.3132414137
 20
143.2201536279
 30
0.0
 10
696.348939203
 20
143.1696781401
 30
0.0
 10
696.4037661334
 20
143.1584800279
 30
0.0
 10
696.4332414137
 20
143.1584800279
 30
0.0
  0
SPLINE
  5
429
100
AcDbEntity
  8
0
100
AcDbSpline
 62
7
  6
CONTINUOUS
 70
0
 71
3
 72
9
 73
5
 74
0
 42
0.0000001
 43
0.0000001
 44
0.0000000001
 40
0.0
 40
0.0
 40
0.0
 40
0.0
 40
0.4402133985
 40
1.0
 40
1.0
 40
1.0
 40
1.0
 10
697.1382414137
 20
143.2857592486
 30
0.0
 10
697.1382414137
 20
143.3089384624
 30
0.0
 10
697.1025436244
 20
143.3594139502
 30
0.0
 10
697.0477166941
 20
143.3706120623
 30
0.0
 10
697.0182414137
 20
143.3706120623
 30
0.0
  0
SPLINE
  5
42A
100
AcDbEntity
  8
0
100
AcDbSpline
 62
7
  6
CONTINUOUS
 70
0
 71
3
 72
9
 73
5
 74
0
 42
0.0000001
 43
0.0000001
 44
0.0000000001
 40
0.0
 40
0.0
 40
0.0
 40
0.0
 40
0.4402133985
 40
1.0
 40
1.0
 40
1.0
 40
1.0
 10
697.1382414137
 20
145.4070795921
 30
0.0
 10
697.1382414137
 20
145.4302588059
 30
0.0
 10
697.1025436244
 20
145.4807342937
 30
0.0
 10
697.0477166941
 20
145.4919324059
 30
0.0
 10
697.0182414137
 20
145.4919324059
 30
0.0
  0
SPLINE
  5
42B
100
AcDbEntity
  8
0
100
AcDbSpline
 62
7
  6
CONTINUOUS
 70
0
 71
3
 72
11
 73
7
 74
0
 42
0.0000001
 43
0.0000001
 44
0.0000000001
 40
0.0
 40
0.0
 40
0.0
 40
0.0
 40
0.2094668498
 40
0.4446559298
 40
0.7120302568
 40
1.0
 40
1.0
 40
1.0
 40
1.0
 10
695.4882414137
 20
144.3252062169
 30
0.0
 10
695.4882414137
 20
144.2970961421
 30
0.0
 10
695.5064968767
 20
144.2367171953
 30
0.0
 10
695.5764035306
 20
144.1675740157
 30
0.0
 10
695.6746010208
 20
144.1231777135
 30
0.0
 10
695.7495963918
 20
144.1130741825
 30
0.0
 10
695.7882414137
 20
144.1130741825
 30
0.0
  0
SPLINE
  5
42C
100
AcDbEntity
  8
0
100
AcDbSpline
 62
7
  6
CONTINUOUS
 70
0
 71
3
 72
11
 73
7
 74
0
 42
0.0000001
 43
0.0000001
 44
0.0000000001
 40
0.0
 40
0.0
 40
0.0
 40
0.0
 40
0.2094668498
 40
0.4446559298
 40
0.7120302568
 40
1.0
 40
1.0
 40
1.0
 40
1.0
 10
695.4882414137
 20
142.2038858733
 30
0.0
 10
695.4882414137
 20
142.1757757986
 30
0.0
 10
695.5064968767
 20
142.1153968518
 30
0.0
 10
695.5764035306
 20
142.0462536722
 30
0.0
 10
695.6746010208
 20
142.0018573699
 30
0.0
 10
695.7495963918
 20
141.991753839
 30
0.0
 10
695.7882414137
 20
141.991753839
 30
0.0
  0
SPLINE
  5
42D
100
AcDbEntity
  8
0
100
AcDbSpline
 62
7
  6
CONTINUOUS
 70
0
 71
3
 72
9
 73
5
 74
0
 42
0.0000001
 43
0.0000001
 44
0.0000000001
 40
0.0
 40
0.0
 40
0.0
 40
0.0
 40
0.2432035461
 40
1.0
 40
1.0
 40
1.0
 40
1.0
 10
699.5382414137
 20
146.2343945261
 30
0.0
 10
699.5382414137
 20
146.2510421427
 30
0.0
 10
699.532549312
 20
146.3194959126
 30
0.0
 10
699.5031330585
 20
146.3849788483
 30
0.0
 10
699.4728463638
 20
146.4270067591
 30
0.0
  0
SPLINE
  5
42E
100
AcDbEntity
  8
0
100
AcDbSpline
 62
7
  6
CONTINUOUS
 70
0
 71
3
 72
9
 73
5
 74
0
 42
0.0000001
 43
0.0000001
 44
0.0000000001
 40
0.0
 40
0.0
 40
0.0
 40
0.0
 40
0.2250156934
 40
1.0
 40
1.0
 40
1.0
 40
1.0
 10
699.4728463638
 20
146.4270067591
 30
0.0
 10
699.4467505504
 20
146.4632191133
 30
0.0
 10
699.3035186608
 20
146.6044196503
 30
0.0
 10
699.0919720089
 20
146.6586585948
 30
0.0
 10
698.9382414137
 20
146.6586585948
 30
0.0
  0
SPLINE
  5
42F
100
AcDbEntity
  8
RUNDUNGEN
100
AcDbSpline
 62
7
  6
CONTINUOUS
 70
0
 71
3
 72
10
 73
6
 74
0
 42
0.0000001
 43
0.0000001
 44
0.0000000001
 40
0.0
 40
0.0
 40
0.0
 40
0.0
 40
0.2265435863
 40
0.4650408478
 40
1.0
 40
1.0
 40
1.0
 40
1.0
 10
675.6472475688
 20
148.6001347444
 30
0.0
 10
675.6473012648
 20
148.6853398896
 30
0.0
 10
675.6783547246
 20
148.8615315879
 30
0.0
 10
675.8612964656
 20
149.1958492933
 30
0.0
 10
676.1065588726
 20
149.3791093706
 30
0.0
 10
676.2868709185
 20
149.4683857409
 30
0.0
  0
SPLINE
  5
430
100
AcDbEntity
  8
RUNDUNGEN
100
AcDbSpline
 62
7
  6
CONTINUOUS
 70
0
 71
3
 72
9
 73
5
 74
0
 42
0.0000001
 43
0.0000001
 44
0.0000000001
 40
0.0
 40
0.0
 40
0.0
 40
0.0
 40
0.4805181646
 40
1.0
 40
1.0
 40
1.0
 40
1.0
 10
675.6472462763
 20
145.0645586508
 30
0.0
 10
675.6471847601
 20
144.9556721661
 30
0.0
 10
675.6989278697
 20
144.7269329098
 30
0.0
 10
675.8356789568
 20
144.5392848765
 30
0.0
 10
675.9185075066
 20
144.4556402054
 30
0.0
  0
SPLINE
  5
431
100
AcDbEntity
  8
RUNDUNGEN
100
AcDbSpline
 62
7
  6
CONTINUOUS
 70
0
 71
3
 72
11
 73
7
 74
0
 42
0.0000001
 43
0.0000001
 44
0.0000000001
 40
0.0
 40
0.0
 40
0.0
 40
0.0
 40
0.2256919297
 40
0.4632773963
 40
0.7205986282
 40
1.0
 40
1.0
 40
1.0
 40
1.0
 10
665.2061130924
 20
159.9232323373
 30
0.0
 10
665.2060582605
 20
160.207441688
 30
0.0
 10
665.3088374551
 20
160.7950360903
 30
0.0
 10
665.7509030149
 20
161.6028782801
 30
0.0
 10
666.4437571033
 20
162.3037374335
 30
0.0
 10
667.0229162239
 20
162.6638932047
 30
0.0
 10
667.3382284846
 20
162.8200110837
 30
0.0
  0
SPLINE
  5
432
100
AcDbEntity
  8
RUNDUNGEN
100
AcDbSpline
 62
7
  6
CONTINUOUS
 70
0
 71
3
 72
9
 73
5
 74
0
 42
0.0000001
 43
0.0000001
 44
0.0000000001
 40
0.0
 40
0.0
 40
0.0
 40
0.0
 40
0.4805188659
 40
1.0
 40
1.0
 40
1.0
 40
1.0
 10
665.2061130924
 20
156.3876984313
 30
0.0
 10
665.2061830422
 20
156.0251288351
 30
0.0
 10
665.3791953065
 20
155.2636804184
 30
0.0
 10
665.8345492256
 20
154.6389571402
 30
0.0
 10
666.1103504449
 20
154.3604384127
 30
0.0
  0
SPLINE
  5
433
100
AcDbEntity
  8
RUNDUNGEN
100
AcDbSpline
 62
7
  6
CONTINUOUS
 70
0
 71
3
 72
11
 73
7
 74
0
 42
0.0000001
 43
0.0000001
 44
0.0000000001
 40
0.0
 40
0.0
 40
0.0
 40
0.0
 40
0.237780559
 40
0.4809056754
 40
0.7339193747
 40
1.0
 40
1.0
 40
1.0
 40
1.0
 10
723.644873868
 20
124.2593294327
 30
0.0
 10
723.6448738872
 20
124.8003079623
 30
0.0
 10
723.7648836527
 20
125.8979184127
 30
0.0
 10
724.2970033917
 20
127.4926492925
 30
0.0
 10
725.1649496106
 20
129.0057603977
 30
0.0
 10
725.9316395064
 20
129.912875118
 30
0.0
 10
726.3575932037
 20
130.3430257968
 30
0.0
  0
SPLINE
  5
434
100
AcDbEntity
  8
RUNDUNGEN
100
AcDbSpline
 62
7
  6
CONTINUOUS
 70
0
 71
3
 72
9
 73
5
 74
0
 42
0.0000001
 43
0.0000001
 44
0.0000000001
 40
0.0
 40
0.0
 40
0.0
 40
0.0
 40
0.483225943
 40
1.0
 40
1.0
 40
1.0
 40
1.0
 10
723.8548627988
 20
126.0263250947
 30
0.0
 10
724.0435477514
 20
125.2374895429
 30
0.0
 10
724.6947369878
 20
123.660407227
 30
0.0
 10
725.7472644597
 20
122.3275084711
 30
0.0
 10
726.3575932037
 20
121.7111660725
 30
0.0
  0
SPLINE
  5
435
100
AcDbEntity
  8
RUNDUNGEN
100
AcDbSpline
 62
7
  6
CONTINUOUS
 70
0
 71
3
 72
9
 73
5
 74
0
 42
0.0000001
 43
0.0000001
 44
0.0000000001
 40
0.0
 40
0.0
 40
0.0
 40
0.0
 40
0.4805364547
 40
1.0
 40
1.0
 40
1.0
 40
1.0
 10
674.125509149
 20
104.6731370837
 30
0.0
 10
674.125509149
 20
105.0358203488
 30
0.0
 10
674.2984002964
 20
105.797531044
 30
0.0
 10
674.7538806859
 20
106.422449612
 30
0.0
 10
675.0297489275
 20
106.701036022
 30
0.0
  0
SPLINE
  5
436
100
AcDbEntity
  8
BEZUGSACHSEN
100
AcDbSpline
 62
7
  6
CONTINUOUS
 70
0
 71
3
 72
9
 73
5
 74
0
 42
0.0000001
 43
0.0000001
 44
0.0000000001
 40
0.0
 40
0.0
 40
0.0
 40
0.0
 40
0.4742612099
 40
1.0
 40
1.0
 40
1.0
 40
1.0
 10
703.2275381697
 20
154.5708934302
 30
0.0
 10
703.502212408
 20
154.1906909844
 30
0.0
 10
704.2382840709
 20
153.4991589442
 30
0.0
 10
705.1345679792
 20
153.0532623904
 30
0.0
 10
705.6235943066
 20
152.876616529
 30
0.0
  0
SPLINE
  5
437
100
AcDbEntity
  8
BEZUGSACHSEN
100
AcDbSpline
 62
7
  6
CONTINUOUS
 70
0
 71
3
 72
9
 73
5
 74
0
 42
0.0000001
 43
0.0000001
 44
0.0000000001
 40
0.0
 40
0.0
 40
0.0
 40
0.0
 40
0.5257387901
 40
1.0
 40
1.0
 40
1.0
 40
1.0
 10
710.6274239914
 20
152.876616529
 30
0.0
 10
711.1164503188
 20
153.0532623904
 30
0.0
 10
712.012734227
 20
153.4991589442
 30
0.0
 10
712.7488058899
 20
154.1906909844
 30
0.0
 10
713.0234801283
 20
154.5708934302
 30
0.0
  0
SPLINE
  5
438
100
AcDbEntity
  8
BEZUGSACHSEN
100
AcDbSpline
 62
7
  6
CONTINUOUS
 70
0
 71
3
 72
11
 73
7
 74
0
 42
0.0000001
 43
0.0000001
 44
0.0000000001
 40
0.0
 40
0.0
 40
0.0
 40
0.0
 40
0.2211778223
 40
0.4572018266
 40
0.7166414314
 40
1.0
 40
1.0
 40
1.0
 40
1.0
 10
713.625509149
 20
152.8044773146
 30
0.0
 10
713.625509149
 20
153.1627141491
 30
0.0
 10
713.4742260175
 20
153.9097210202
 30
0.0
 10
712.8368057233
 20
154.9049308983
 30
0.0
 10
711.859022765
 20
155.7261354429
 30
0.0
 10
711.05907589
 20
156.1119509091
 30
0.0
 10
710.6274239914
 20
156.2678720062
 30
0.0
  0
SPLINE
  5
439
100
AcDbEntity
  8
BEZUGSACHSEN
100
AcDbSpline
 62
7
  6
CONTINUOUS
 70
0
 71
3
 72
11
 73
7
 74
0
 42
0.0000001
 43
0.0000001
 44
0.0000000001
 40
0.0
 40
0.0
 40
0.0
 40
0.0
 40
0.2833585686
 40
0.5427981734
 40
0.7788221777
 40
1.0
 40
1.0
 40
1.0
 40
1.0
 10
705.6235943066
 20
156.2678720062
 30
0.0
 10
705.1919424079
 20
156.1119509091
 30
0.0
 10
704.391995533
 20
155.7261354429
 30
0.0
 10
703.4142125747
 20
154.9049308983
 30
0.0
 10
702.7767922804
 20
153.9097210202
 30
0.0
 10
702.625509149
 20
153.1627141491
 30
0.0
 10
702.625509149
 20
152.8044773146
 30
0.0
  0
SPLINE
  5
43A
100
AcDbEntity
  8
RUNDUNGEN
100
AcDbSpline
 62
7
  6
CONTINUOUS
 70
0
 71
3
 72
9
 73
5
 74
0
 42
0.0000001
 43
0.0000001
 44
0.0000000001
 40
0.0
 40
0.0
 40
0.0
 40
0.0
 40
0.5194633901
 40
1.0
 40
1.0
 40
1.0
 40
1.0
 10
741.2212693704
 20
106.701036022
 30
0.0
 10
741.4971375294
 20
106.4224496954
 30
0.0
 10
741.9526179392
 20
105.7975311652
 30
0.0
 10
742.125509149
 20
105.0358204658
 30
0.0
 10
742.125509149
 20
104.6731370837
 30
0.0
  0
SPLINE
  5
43B
100
AcDbEntity
  8
RUNDUNGEN
100
AcDbSpline
 62
7
  6
CONTINUOUS
 70
0
 71
3
 72
10
 73
6
 74
0
 42
0.0000001
 43
0.0000001
 44
0.0000000001
 40
0.0
 40
0.0
 40
0.0
 40
0.0
 40
0.5349737816
 40
0.7734707301
 40
1.0
 40
1.0
 40
1.0
 40
1.0
 10
751.7798219683
 20
161.4004818269
 30
0.0
 10
751.960142065
 20
161.3112014704
 30
0.0
 10
752.2054142558
 20
161.1279326945
 30
0.0
 10
752.3883476082
 20
160.7936025196
 30
0.0
 10
752.4193957251
 20
160.6174126123
 30
0.0
 10
752.4194464541
 20
160.5322113757
 30
0.0
  0
SPLINE
  5
43C
100
AcDbEntity
  8
RUNDUNGEN
100
AcDbSpline
 62
7
  6
CONTINUOUS
 70
0
 71
3
 72
10
 73
6
 74
0
 42
0.0000001
 43
0.0000001
 44
0.0000000001
 40
0.0
 40
0.0
 40
0.0
 40
0.0
 40
0.4809192537
 40
0.7459271807
 40
1.0
 40
1.0
 40
1.0
 40
1.0
 10
742.4821912576
 20
164.7091116919
 30
0.0
 10
742.7312689381
 20
164.9606435696
 30
0.0
 10
743.2928481374
 20
165.1765617036
 30
0.0
 10
744.0297460478
 20
165.1635842657
 30
0.0
 10
744.403687309
 20
165.0525646726
 30
0.0
 10
744.5712839786
 20
164.9695839584
 30
0.0
  0
SPLINE
  5
43D
100
AcDbEntity
  8
0
100
AcDbSpline
 62
7
  6
CONTINUOUS
 70
0
 71
3
 72
9
 73
5
 74
0
 42
0.0000001
 43
0.0000001
 44
0.0000000001
 40
0.0
 40
0.0
 40
0.0
 40
0.0
 40
0.2419317135
 40
1.0
 40
1.0
 40
1.0
 40
1.0
 10
716.7291556942
 20
161.1393434041
 30
0.0
 10
716.2680846043
 20
161.3676296131
 30
0.0
 10
714.3178444616
 20
162.2202337034
 30
0.0
 10
712.2190438743
 20
162.7192215121
 30
0.0
 10
710.618266797
 20
162.910000452
 30
0.0
  0
SPLINE
  5
43E
100
AcDbEntity
  8
0
100
AcDbSpline
 62
7
  6
CONTINUOUS
 70
0
 71
3
 72
9
 73
5
 74
0
 42
0.0000001
 43
0.0000001
 44
0.0000000001
 40
0.0
 40
0.0
 40
0.0
 40
0.0
 40
0.2576205058
 40
1.0
 40
1.0
 40
1.0
 40
1.0
 10
705.6327515009
 20
162.910000452
 30
0.0
 10
705.0888067741
 20
162.8451736877
 30
0.0
 10
702.9888581378
 20
162.5106696166
 30
0.0
 10
700.9365252039
 20
161.8397732706
 30
0.0
 10
699.5218626037
 20
161.1393434041
 30
0.0
  0
SPLINE
  5
43F
100
AcDbEntity
  8
RUNDUNGEN
100
AcDbSpline
 62
7
  6
CONTINUOUS
 70
0
 71
3
 72
12
 73
8
 74
0
 42
0.0000001
 43
0.0000001
 44
0.0000000001
 40
0.0
 40
0.0
 40
0.0
 40
0.0
 40
0.2522581101
 40
0.5153826173
 40
0.6451774834
 40
0.7704539294
 40
1.0
 40
1.0
 40
1.0
 40
1.0
 10
668.1573805289
 20
163.2255908714
 30
0.0
 10
669.7215985297
 20
164.000068832
 30
0.0
 10
673.1987840477
 20
165.0396950222
 30
0.0
 10
677.7180856115
 20
165.1050299779
 30
0.0
 10
681.2495555478
 20
164.4133500429
 30
0.0
 10
684.4150449229
 20
163.2929341243
 30
0.0
 10
686.5380022062
 20
161.923105079
 30
0.0
 10
687.6555792579
 20
160.7945163841
 30
0.0
  0
SPLINE
  5
440
100
AcDbEntity
  8
0
100
AcDbSpline
 62
7
  6
CONTINUOUS
 70
0
 71
3
 72
11
 73
7
 74
0
 42
0.0000001
 43
0.0000001
 44
0.0000000001
 40
0.0
 40
0.0
 40
0.0
 40
0.0
 40
0.2880052506
 40
0.5553344723
 40
0.7905070702
 40
1.0
 40
1.0
 40
1.0
 40
1.0
 10
694.1382414137
 20
146.6586585948
 30
0.0
 10
694.0609423812
 20
146.6586585948
 30
0.0
 10
693.9109464621
 20
146.6384669453
 30
0.0
 10
693.7145933196
 20
146.5496219147
 30
0.0
 10
693.5747441391
 20
146.4113907702
 30
0.0
 10
693.5382414137
 20
146.2906212816
 30
0.0
 10
693.5382414137
 20
146.2343945261
 30
0.0
  0
SPLINE
  5
441
100
AcDbEntity
  8
0
100
AcDbSpline
 62
7
  6
CONTINUOUS
 70
0
 71
3
 72
11
 73
7
 74
0
 42
0.0000001
 43
0.0000001
 44
0.0000000001
 40
0.0
 40
0.0
 40
0.0
 40
0.0
 40
0.2879697432
 40
0.5553440702
 40
0.7905331502
 40
1.0
 40
1.0
 40
1.0
 40
1.0
 10
697.2882414137
 20
144.1130741825
 30
0.0
 10
697.3268864357
 20
144.1130741825
 30
0.0
 10
697.4018818066
 20
144.1231777135
 30
0.0
 10
697.5000792968
 20
144.1675740157
 30
0.0
 10
697.5699859507
 20
144.2367171953
 30
0.0
 10
697.5882414137
 20
144.2970961421
 30
0.0
 10
697.5882414137
 20
144.3252062169
 30
0.0
  0
SPLINE
  5
442
100
AcDbEntity
  8
0
100
AcDbSpline
 62
7
  6
CONTINUOUS
 70
0
 71
3
 72
11
 73
7
 74
0
 42
0.0000001
 43
0.0000001
 44
0.0000000001
 40
0.0
 40
0.0
 40
0.0
 40
0.0
 40
0.2879697432
 40
0.5553440702
 40
0.7905331502
 40
1.0
 40
1.0
 40
1.0
 40
1.0
 10
697.2882414137
 20
141.991753839
 30
0.0
 10
697.3268864357
 20
141.991753839
 30
0.0
 10
697.4018818066
 20
142.0018573699
 30
0.0
 10
697.5000792968
 20
142.0462536722
 30
0.0
 10
697.5699859507
 20
142.1153968518
 30
0.0
 10
697.5882414137
 20
142.1757757986
 30
0.0
 10
697.5882414137
 20
142.2038858733
 30
0.0
  0
SPLINE
  5
443
100
AcDbEntity
  8
0
100
AcDbSpline
 62
7
  6
CONTINUOUS
 70
0
 71
3
 72
9
 73
5
 74
0
 42
0.0000001
 43
0.0000001
 44
0.0000000001
 40
0.0
 40
0.0
 40
0.0
 40
0.0
 40
0.5597866015
 40
1.0
 40
1.0
 40
1.0
 40
1.0
 10
696.0582414137
 20
145.4919324059
 30
0.0
 10
696.0287661334
 20
145.4919324059
 30
0.0
 10
695.973939203
 20
145.4807342937
 30
0.0
 10
695.9382414137
 20
145.4302588059
 30
0.0
 10
695.9382414137
 20
145.4070795921
 30
0.0
  0
SPLINE
  5
444
100
AcDbEntity
  8
0
100
AcDbSpline
 62
7
  6
CONTINUOUS
 70
0
 71
3
 72
9
 73
5
 74
0
 42
0.0000001
 43
0.0000001
 44
0.0000000001
 40
0.0
 40
0.0
 40
0.0
 40
0.0
 40
0.5597866015
 40
1.0
 40
1.0
 40
1.0
 40
1.0
 10
696.0582414137
 20
143.3706120623
 30
0.0
 10
696.0287661334
 20
143.3706120623
 30
0.0
 10
695.973939203
 20
143.3594139502
 30
0.0
 10
695.9382414137
 20
143.3089384624
 30
0.0
 10
695.9382414137
 20
143.2857592486
 30
0.0
  0
SPLINE
  5
445
100
AcDbEntity
  8
0
100
AcDbSpline
 62
7
  6
CONTINUOUS
 70
0
 71
3
 72
9
 73
5
 74
0
 42
0.0000001
 43
0.0000001
 44
0.0000000001
 40
0.0
 40
0.0
 40
0.0
 40
0.0
 40
0.5597866015
 40
1.0
 40
1.0
 40
1.0
 40
1.0
 10
696.6432414137
 20
143.1584800279
 30
0.0
 10
696.6727166941
 20
143.1584800279
 30
0.0
 10
696.7275436244
 20
143.1696781401
 30
0.0
 10
696.7632414137
 20
143.2201536279
 30
0.0
 10
696.7632414137
 20
143.2433328417
 30
0.0
  0
SPLINE
  5
446
100
AcDbEntity
  8
0
100
AcDbSpline
 62
7
  6
CONTINUOUS
 70
0
 71
3
 72
11
 73
7
 74
0
 42
0.0000001
 43
0.0000001
 44
0.0000000001
 40
0.0
 40
0.0
 40
0.0
 40
0.0
 40
0.2880001164
 40
0.5553425139
 40
0.7905343079
 40
1.0
 40
1.0
 40
1.0
 40
1.0
 10
705.2440427152
 20
144.483362377
 30
0.0
 10
705.3835863598
 20
144.483362377
 30
0.0
 10
705.6543635771
 20
144.5198373969
 30
0.0
 10
706.0088877651
 20
144.6801624388
 30
0.0
 10
706.2613014292
 20
144.9297759386
 30
0.0
 10
706.3271907245
 20
145.1477852537
 30
0.0
 10
706.3271907245
 20
145.2492769005
 30
0.0
  0
SPLINE
  5
447
100
AcDbEntity
  8
0
100
AcDbSpline
 62
7
  6
CONTINUOUS
 70
0
 71
3
 72
8
 73
4
 74
0
 42
0.0000001
 43
0.0000001
 44
0.0000000001
 40
0.0
 40
0.0
 40
0.0
 40
0.0
 40
1.0
 40
1.0
 40
1.0
 40
1.0
 10
720.1959367195
 20
146.6233032558
 30
0.0
 10
720.1187278086
 20
146.6471058154
 30
0.0
 10
720.0369398077
 20
146.6586585948
 30
0.0
 10
719.9561451434
 20
146.6586585948
 30
0.0
  0
SPLINE
  5
448
100
AcDbEntity
  8
0
100
AcDbSpline
 62
7
  6
CONTINUOUS
 70
0
 71
3
 72
11
 73
7
 74
0
 42
0.0000001
 43
0.0000001
 44
0.0000000001
 40
0.0
 40
0.0
 40
0.0
 40
0.0
 40
0.2779817175
 40
0.5346952233
 40
0.772857858
 40
1.0
 40
1.0
 40
1.0
 40
1.0
 10
720.1595806934
 20
141.8940445383
 30
0.0
 10
720.3698856096
 20
142.0079247972
 30
0.0
 10
720.7551985449
 20
142.2664782286
 30
0.0
 10
721.2130831487
 20
142.7579234234
 30
0.0
 10
721.5035280228
 20
143.3166849752
 30
0.0
 10
721.5707738377
 20
143.7196649092
 30
0.0
 10
721.5707738377
 20
143.9150842838
 30
0.0
  0
SPLINE
  5
449
100
AcDbEntity
  8
0
100
AcDbSpline
 62
7
  6
CONTINUOUS
 70
0
 71
3
 72
9
 73
5
 74
0
 42
0.0000001
 43
0.0000001
 44
0.0000000001
 40
0.0
 40
0.0
 40
0.0
 40
0.0
 40
0.2591205677
 40
1.0
 40
1.0
 40
1.0
 40
1.0
 10
719.9771816213
 20
141.8503324827
 30
0.0
 10
719.9934713671
 20
141.8503324827
 30
0.0
 10
720.0562249548
 20
141.8539277526
 30
0.0
 10
720.1186241545
 20
141.8718665439
 30
0.0
 10
720.1595806934
 20
141.8940445383
 30
0.0
  0
SPLINE
  5
44A
100
AcDbEntity
  8
RUNDUNGEN
100
AcDbSpline
 62
7
  6
CONTINUOUS
 70
0
 71
3
 72
11
 73
7
 74
0
 42
0.0000001
 43
0.0000001
 44
0.0000000001
 40
0.0
 40
0.0
 40
0.0
 40
0.0
 40
0.2880068215
 40
0.5553366529
 40
0.7905059061
 40
1.0
 40
1.0
 40
1.0
 40
1.0
 10
681.475509149
 20
91.6457510185
 30
0.0
 10
681.5399253693
 20
91.6457510185
 30
0.0
 10
681.6649223019
 20
91.6625780338
 30
0.0
 10
681.8285501935
 20
91.7366147409
 30
0.0
 10
681.9450899928
 20
91.8518078993
 30
0.0
 10
681.975509149
 20
91.952448513
 30
0.0
 10
681.975509149
 20
91.9993044091
 30
0.0
  0
SPLINE
  5
44B
100
AcDbEntity
  8
RUNDUNGEN
100
AcDbSpline
 62
7
  6
CONTINUOUS
 70
0
 71
3
 72
13
 73
9
 74
0
 42
0.0000001
 43
0.0000001
 44
0.0000000001
 40
0.0
 40
0.0
 40
0.0
 40
0.0
 40
0.1034546555
 40
0.2106690395
 40
0.3244963599
 40
0.4464318111
 40
0.7129511617
 40
1.0
 40
1.0
 40
1.0
 40
1.0
 10
674.125509149
 20
95.1812849244
 30
0.0
 10
674.125509149
 20
94.949152168
 30
0.0
 10
674.1928748627
 20
94.4740394972
 30
0.0
 10
674.4876633729
 20
93.7998711494
 30
0.0
 10
674.9605349627
 20
93.1841521215
 30
0.0
 10
675.8248461965
 20
92.4501362537
 30
0.0
 10
677.2329867539
 20
91.813461722
 30
0.0
 10
678.4814256347
 20
91.6457510185
 30
0.0
 10
679.125509149
 20
91.6457510185
 30
0.0
  0
SPLINE
  5
44C
100
AcDbEntity
  8
RUNDUNGEN
100
AcDbSpline
 62
7
  6
CONTINUOUS
 70
0
 71
3
 72
10
 73
6
 74
0
 42
0.0000001
 43
0.0000001
 44
0.0000000001
 40
0.0
 40
0.0
 40
0.0
 40
0.0
 40
0.4808964563
 40
0.7459158441
 40
1.0
 40
1.0
 40
1.0
 40
1.0
 10
668.6914444085
 20
151.7539125687
 30
0.0
 10
668.940510454
 20
151.5023924406
 30
0.0
 10
669.5020739157
 20
151.2864701822
 30
0.0
 10
670.2389735288
 20
151.2994341183
 30
0.0
 10
670.612932866
 20
151.4104558281
 30
0.0
 10
670.7805371295
 20
151.4934403022
 30
0.0
  0
SPLINE
  5
44D
100
AcDbEntity
  8
RUNDUNGEN
100
AcDbSpline
 62
7
  6
CONTINUOUS
 70
0
 71
3
 72
9
 73
5
 74
0
 42
0.0000001
 43
0.0000001
 44
0.0000000001
 40
0.0
 40
0.0
 40
0.0
 40
0.0
 40
0.5194816775
 40
1.0
 40
1.0
 40
1.0
 40
1.0
 10
752.1481853802
 20
156.3877362914
 30
0.0
 10
752.2310209353
 20
156.4713880369
 30
0.0
 10
752.3677821941
 20
156.6590544821
 30
0.0
 10
752.4195163419
 20
156.8878182302
 30
0.0
 10
752.4194452164
 20
156.9967139871
 30
0.0
  0
SPLINE
  5
44E
100
AcDbEntity
  8
RUNDUNGEN
100
AcDbSpline
 62
7
  6
CONTINUOUS
 70
0
 71
3
 72
13
 73
9
 74
0
 42
0.0000001
 43
0.0000001
 44
0.0000000001
 40
0.0
 40
0.0
 40
0.0
 40
0.0
 40
0.2870490624
 40
0.5535683755
 40
0.6755038246
 40
0.7893311355
 40
0.8965454157
 40
1.0
 40
1.0
 40
1.0
 40
1.0
 10
737.125509149
 20
91.6457510185
 30
0.0
 10
737.7695931659
 20
91.6457510185
 30
0.0
 10
739.0180324947
 20
91.8134618817
 30
0.0
 10
740.4261732588
 20
92.4501369686
 30
0.0
 10
741.2904842132
 20
93.1841530083
 30
0.0
 10
741.763355378
 20
93.7998720319
 30
0.0
 10
742.0581435777
 20
94.4740400449
 30
0.0
 10
742.125509149
 20
94.9491523277
 30
0.0
 10
742.125509149
 20
95.1812849244
 30
0.0
  0
SPLINE
  5
44F
100
AcDbEntity
  8
RUNDUNGEN
100
AcDbSpline
 62
7
  6
CONTINUOUS
 70
0
 71
3
 72
11
 73
7
 74
0
 42
0.0000001
 43
0.0000001
 44
0.0000000001
 40
0.0
 40
0.0
 40
0.0
 40
0.0
 40
0.2094942263
 40
0.444667264
 40
0.7119932261
 40
1.0
 40
1.0
 40
1.0
 40
1.0
 10
734.275509149
 20
91.9993044091
 30
0.0
 10
734.275509149
 20
91.9524484873
 30
0.0
 10
734.3059288895
 20
91.8518071008
 30
0.0
 10
734.422468998
 20
91.7366141706
 30
0.0
 10
734.5860968546
 20
91.6625776888
 30
0.0
 10
734.7110929447
 20
91.6457510185
 30
0.0
 10
734.775509149
 20
91.6457510185
 30
0.0
  0
SPLINE
  5
450
100
AcDbEntity
  8
RUNDUNGEN
100
AcDbSpline
 62
7
  6
CONTINUOUS
 70
0
 71
3
 72
9
 73
5
 74
0
 42
0.0000001
 43
0.0000001
 44
0.0000000001
 40
0.0
 40
0.0
 40
0.0
 40
0.0
 40
0.4729729907
 40
1.0
 40
1.0
 40
1.0
 40
1.0
 10
718.3177150197
 20
101.6386673603
 30
0.0
 10
718.8108965666
 20
101.1406264266
 30
0.0
 10
720.1400932796
 20
100.3698783186
 30
0.0
 10
721.6324629011
 20
100.1310323927
 30
0.0
 10
722.4134752411
 20
100.1310323927
 30
0.0
  0
SPLINE
  5
451
100
AcDbEntity
  8
RUNDUNGEN
100
AcDbSpline
 62
7
  6
CONTINUOUS
 70
0
 71
3
 72
9
 73
5
 74
0
 42
0.0000001
 43
0.0000001
 44
0.0000000001
 40
0.0
 40
0.0
 40
0.0
 40
0.0
 40
0.5270273161
 40
1.0
 40
1.0
 40
1.0
 40
1.0
 10
693.8375430568
 20
100.1310323927
 30
0.0
 10
694.6185558525
 20
100.1310323927
 30
0.0
 10
696.1109255209
 20
100.3698784629
 30
0.0
 10
697.4401220507
 20
101.140626749
 30
0.0
 10
697.9333032783
 20
101.6386673603
 30
0.0
  0
SPLINE
  5
452
100
AcDbEntity
  8
RUNDUNGEN
100
AcDbSpline
 62
7
  6
CONTINUOUS
 70
0
 71
3
 72
13
 73
9
 74
0
 42
0.0000001
 43
0.0000001
 44
0.0000000001
 40
0.0
 40
0.0
 40
0.0
 40
0.0
 40
0.1034546555
 40
0.2106690395
 40
0.3244963599
 40
0.4464318111
 40
0.7129511617
 40
1.0
 40
1.0
 40
1.0
 40
1.0
 10
681.975509149
 20
96.5954984868
 30
0.0
 10
681.975509149
 20
96.8276312432
 30
0.0
 10
682.0428748627
 20
97.302743914
 30
0.0
 10
682.3376633729
 20
97.9769122619
 30
0.0
 10
682.8105349627
 20
98.5926312897
 30
0.0
 10
683.6748461965
 20
99.3266471575
 30
0.0
 10
685.0829867539
 20
99.9633216893
 30
0.0
 10
686.3314256347
 20
100.1310323927
 30
0.0
 10
686.975509149
 20
100.1310323927
 30
0.0
  0
SPLINE
  5
453
100
AcDbEntity
  8
RUNDUNGEN
100
AcDbSpline
 62
7
  6
CONTINUOUS
 70
0
 71
3
 72
13
 73
9
 74
0
 42
0.0000001
 43
0.0000001
 44
0.0000000001
 40
0.0
 40
0.0
 40
0.0
 40
0.0
 40
0.2870490624
 40
0.5535683755
 40
0.6755038246
 40
0.7893311355
 40
0.8965454157
 40
1.0
 40
1.0
 40
1.0
 40
1.0
 10
729.275509149
 20
100.1310323927
 30
0.0
 10
729.9195931659
 20
100.1310323927
 30
0.0
 10
731.1680324947
 20
99.9633215295
 30
0.0
 10
732.5761732588
 20
99.3266464427
 30
0.0
 10
733.4404842132
 20
98.592630403
 30
0.0
 10
733.913355378
 20
97.9769113794
 30
0.0
 10
734.2081435777
 20
97.3027433664
 30
0.0
 10
734.275509149
 20
96.8276310835
 30
0.0
 10
734.275509149
 20
96.5954984868
 30
0.0
  0
SPLINE
  5
454
100
AcDbEntity
  8
RUNDUNGEN
100
AcDbSpline
 62
7
  6
CONTINUOUS
 70
0
 71
3
 72
13
 73
9
 74
0
 42
0.0000001
 43
0.0000001
 44
0.0000000001
 40
0.0
 40
0.0
 40
0.0
 40
0.0
 40
0.2360077172
 40
0.3661261163
 40
0.500000078
 40
0.6338740716
 40
0.7639924399
 40
1.0
 40
1.0
 40
1.0
 40
1.0
 10
703.2105968832
 20
106.9679588786
 30
0.0
 10
703.8024128337
 20
107.5656060745
 30
0.0
 10
704.9781731247
 20
108.2465829382
 30
0.0
 10
706.7048105182
 20
108.6973531367
 30
0.0
 10
708.1255101244
 20
108.8175721597
 30
0.0
 10
709.546209596
 20
108.6973528404
 30
0.0
 10
711.2728463624
 20
108.2465824023
 30
0.0
 10
712.4486058582
 20
107.5656056767
 30
0.0
 10
713.0404214147
 20
106.9679588786
 30
0.0
  0
SPLINE
  5
455
100
AcDbEntity
  8
RUNDUNGEN
100
AcDbSpline
 62
7
  6
CONTINUOUS
 70
0
 71
3
 72
9
 73
5
 74
0
 42
0.0000001
 43
0.0000001
 44
0.0000000001
 40
0.0
 40
0.0
 40
0.0
 40
0.0
 40
0.5167739528
 40
1.0
 40
1.0
 40
1.0
 40
1.0
 10
689.8934250943
 20
121.7111660725
 30
0.0
 10
690.5037501058
 20
122.3275047019
 30
0.0
 10
691.5562720478
 20
123.6603946606
 30
0.0
 10
692.2074616206
 20
125.2374654881
 30
0.0
 10
692.396148509
 20
126.026295825
 30
0.0
  0
SPLINE
  5
456
100
AcDbEntity
  8
RUNDUNGEN
100
AcDbSpline
 62
7
  6
CONTINUOUS
 70
0
 71
3
 72
11
 73
7
 74
0
 42
0.0000001
 43
0.0000001
 44
0.0000000001
 40
0.0
 40
0.0
 40
0.0
 40
0.0
 40
0.2660806488
 40
0.5190943636
 40
0.7622194616
 40
1.0
 40
1.0
 40
1.0
 40
1.0
 10
689.8934250943
 20
130.3430257968
 30
0.0
 10
690.3193788851
 20
129.9128750236
 30
0.0
 10
691.0860689131
 20
129.0057600906
 30
0.0
 10
691.9540152023
 20
127.4926487034
 30
0.0
 10
692.4861348365
 20
125.8979176031
 30
0.0
 10
692.6061444491
 20
124.8003070844
 30
0.0
 10
692.6061444299
 20
124.2593285307
 30
0.0
  0
SPLINE
  5
457
100
AcDbEntity
  8
RUNDUNGEN
100
AcDbSpline
 62
7
  6
CONTINUOUS
 70
0
 71
3
 72
10
 73
6
 74
0
 42
0.0000001
 43
0.0000001
 44
0.0000000001
 40
0.0
 40
0.0
 40
0.0
 40
0.0
 40
0.2540843695
 40
0.5191023225
 40
1.0
 40
1.0
 40
1.0
 40
1.0
 10
674.0571453066
 20
153.1157594529
 30
0.0
 10
674.3364859696
 20
153.2540670205
 30
0.0
 10
674.9597501362
 20
153.4391025299
 30
0.0
 10
676.1879158921
 20
153.4607101221
 30
0.0
 10
677.1238553946
 20
153.1008402703
 30
0.0
 10
677.5389665082
 20
152.6816390087
 30
0.0
  0
SPLINE
  5
458
100
AcDbEntity
  8
RUNDUNGEN
100
AcDbSpline
 62
7
  6
CONTINUOUS
 70
0
 71
3
 72
9
 73
5
 74
0
 42
0.0000001
 43
0.0000001
 44
0.0000000001
 40
0.0
 40
0.0
 40
0.0
 40
0.0
 40
0.5194825986
 40
1.0
 40
1.0
 40
1.0
 40
1.0
 10
680.1774181155
 20
150.0171903682
 30
0.0
 10
680.3154774871
 20
149.8777706782
 30
0.0
 10
680.5434123471
 20
149.5649933988
 30
0.0
 10
680.6296365504
 20
149.1837210668
 30
0.0
 10
680.6295180498
 20
149.0022286596
 30
0.0
  0
SPLINE
  5
459
100
AcDbEntity
  8
RUNDUNGEN
100
AcDbSpline
 62
7
  6
CONTINUOUS
 70
0
 71
3
 72
11
 73
7
 74
0
 42
0.0000001
 43
0.0000001
 44
0.0000000001
 40
0.0
 40
0.0
 40
0.0
 40
0.0
 40
0.2524375529
 40
0.5157480446
 40
0.7702932073
 40
1.0
 40
1.0
 40
1.0
 40
1.0
 10
727.5419626789
 20
155.7856902068
 30
0.0
 10
728.1006150887
 20
155.5090893885
 30
0.0
 10
729.3428375465
 20
155.1375963312
 30
0.0
 10
731.2668138978
 20
155.1106209053
 30
0.0
 10
733.0748746481
 20
155.5852891445
 30
0.0
 10
734.1064726449
 20
156.2508659502
 30
0.0
 10
734.5056050821
 20
156.6539310952
 30
0.0
  0
SPLINE
  5
45A
100
AcDbEntity
  8
RUNDUNGEN
100
AcDbSpline
 62
7
  6
CONTINUOUS
 70
0
 71
3
 72
11
 73
7
 74
0
 42
0.0000001
 43
0.0000001
 44
0.0000000001
 40
0.0
 40
0.0
 40
0.0
 40
0.0
 40
0.2297109937
 40
0.4842558728
 40
0.7475644511
 40
1.0
 40
1.0
 40
1.0
 40
1.0
 10
688.4624599791
 20
159.9796853541
 30
0.0
 10
688.8615997149
 20
159.5766128385
 30
0.0
 10
689.8932091441
 20
158.9110334846
 30
0.0
 10
691.7012766865
 20
158.4363730458
 30
0.0
 10
693.6252421242
 20
158.463354265
 30
0.0
 10
694.8674544084
 20
158.8348458438
 30
0.0
 10
695.4261023823
 20
159.1114444658
 30
0.0
  0
SPLINE
  5
45B
100
AcDbEntity
  8
0
100
AcDbSpline
 62
7
  6
CONTINUOUS
 70
0
 71
3
 72
11
 73
7
 74
0
 42
0.0000001
 43
0.0000001
 44
0.0000000001
 40
0.0
 40
0.0
 40
0.0
 40
0.0
 40
0.2094656921
 40
0.4446574861
 40
0.7119998836
 40
1.0
 40
1.0
 40
1.0
 40
1.0
 10
706.3271907245
 20
145.2492769005
 30
0.0
 10
706.3271907245
 20
145.3507685473
 30
0.0
 10
706.2613014292
 20
145.5687778623
 30
0.0
 10
706.0088877651
 20
145.8183913621
 30
0.0
 10
705.6543635771
 20
145.978716404
 30
0.0
 10
705.3835863598
 20
146.0151914239
 30
0.0
 10
705.2440427152
 20
146.0151914239
 30
0.0
  0
SPLINE
  5
45C
100
AcDbEntity
  8
0
100
AcDbSpline
 62
7
  6
CONTINUOUS
 70
0
 71
3
 72
9
 73
5
 74
0
 42
0.0000001
 43
0.0000001
 44
0.0000000001
 40
0.0
 40
0.0
 40
0.0
 40
0.0
 40
0.4402133985
 40
1.0
 40
1.0
 40
1.0
 40
1.0
 10
695.9382414137
 20
144.5161250478
 30
0.0
 10
695.9382414137
 20
144.492945834
 30
0.0
 10
695.973939203
 20
144.4424703462
 30
0.0
 10
696.0287661334
 20
144.4312722341
 30
0.0
 10
696.0582414137
 20
144.4312722341
 30
0.0
  0
SPLINE
  5
45D
100
AcDbEntity
  8
0
100
AcDbSpline
 62
7
  6
CONTINUOUS
 70
0
 71
3
 72
11
 73
7
 74
0
 42
0.0000001
 43
0.0000001
 44
0.0000000001
 40
0.0
 40
0.0
 40
0.0
 40
0.0
 40
0.2094929298
 40
0.4446655277
 40
0.7119947494
 40
1.0
 40
1.0
 40
1.0
 40
1.0
 10
693.5382414137
 20
141.5674897703
 30
0.0
 10
693.5382414137
 20
141.5112630148
 30
0.0
 10
693.5747441391
 20
141.3904935262
 30
0.0
 10
693.7145933196
 20
141.2522623816
 30
0.0
 10
693.9109464621
 20
141.163417351
 30
0.0
 10
694.0609423812
 20
141.1432257016
 30
0.0
 10
694.1382414137
 20
141.1432257016
 30
0.0
  0
SPLINE
  5
45E
100
AcDbEntity
  8
0
100
AcDbSpline
 62
7
  6
CONTINUOUS
 70
0
 71
3
 72
11
 73
7
 74
0
 42
0.0000001
 43
0.0000001
 44
0.0000000001
 40
0.0
 40
0.0
 40
0.0
 40
0.0
 40
0.2094668498
 40
0.4446559298
 40
0.7120302568
 40
1.0
 40
1.0
 40
1.0
 40
1.0
 10
697.5882414137
 20
143.4766780795
 30
0.0
 10
697.5882414137
 20
143.5047881542
 30
0.0
 10
697.5699859507
 20
143.565167101
 30
0.0
 10
697.5000792968
 20
143.6343102807
 30
0.0
 10
697.4018818066
 20
143.6787065829
 30
0.0
 10
697.3268864357
 20
143.6888101138
 30
0.0
 10
697.2882414137
 20
143.6888101138
 30
0.0
  0
SPLINE
  5
45F
100
AcDbEntity
  8
0
100
AcDbSpline
 62
7
  6
CONTINUOUS
 70
0
 71
3
 72
11
 73
7
 74
0
 42
0.0000001
 43
0.0000001
 44
0.0000000001
 40
0.0
 40
0.0
 40
0.0
 40
0.0
 40
0.2880052506
 40
0.5553344723
 40
0.7905070702
 40
1.0
 40
1.0
 40
1.0
 40
1.0
 10
698.9382414137
 20
141.1432257016
 30
0.0
 10
699.0155404462
 20
141.1432257016
 30
0.0
 10
699.1655363653
 20
141.163417351
 30
0.0
 10
699.3618895078
 20
141.2522623816
 30
0.0
 10
699.5017386883
 20
141.3904935262
 30
0.0
 10
699.5382414137
 20
141.5112630148
 30
0.0
 10
699.5382414137
 20
141.5674897703
 30
0.0
  0
SPLINE
  5
460
100
AcDbEntity
  8
0
100
AcDbSpline
 62
7
  6
CONTINUOUS
 70
0
 71
3
 72
9
 73
5
 74
0
 42
0.0000001
 43
0.0000001
 44
0.0000000001
 40
0.0
 40
0.0
 40
0.0
 40
0.0
 40
0.7407738242
 40
1.0
 40
1.0
 40
1.0
 40
1.0
 10
693.5382414137
 20
141.9210431609
 30
0.0
 10
693.5382414137
 20
141.8791251492
 30
0.0
 10
693.5508844551
 20
141.8218251133
 30
0.0
 10
693.5765077907
 20
141.7713463056
 30
0.0
 10
693.5839136942
 20
141.7586843308
 30
0.0
  0
SPLINE
  5
461
100
AcDbEntity
  8
0
100
AcDbSpline
 62
7
  6
CONTINUOUS
 70
0
 71
3
 72
9
 73
5
 74
0
 42
0.0000001
 43
0.0000001
 44
0.0000000001
 40
0.0
 40
0.0
 40
0.0
 40
0.0
 40
0.461013727
 40
1.0
 40
1.0
 40
1.0
 40
1.0
 10
693.5839136942
 20
141.7586843308
 30
0.0
 10
693.6329951811
 20
141.6747690394
 30
0.0
 10
693.8113535076
 20
141.5366788297
 30
0.0
 10
694.0245840941
 20
141.4967790922
 30
0.0
 10
694.1382414137
 20
141.4967790922
 30
0.0
  0
SPLINE
  5
462
100
AcDbEntity
  8
0
100
AcDbSpline
 62
7
  6
CONTINUOUS
 70
0
 71
3
 72
11
 73
7
 74
0
 42
0.0000001
 43
0.0000001
 44
0.0000000001
 40
0.0
 40
0.0
 40
0.0
 40
0.0
 40
0.2879697432
 40
0.5553440702
 40
0.7905331502
 40
1.0
 40
1.0
 40
1.0
 40
1.0
 10
695.7882414137
 20
143.6888101138
 30
0.0
 10
695.7495963918
 20
143.6888101138
 30
0.0
 10
695.6746010208
 20
143.6787065829
 30
0.0
 10
695.5764035306
 20
143.6343102807
 30
0.0
 10
695.5064968767
 20
143.565167101
 30
0.0
 10
695.4882414137
 20
143.5047881542
 30
0.0
 10
695.4882414137
 20
143.4766780795
 30
0.0
  0
SPLINE
  5
463
100
AcDbEntity
  8
RUNDUNGEN
100
AcDbSpline
 62
7
  6
CONTINUOUS
 70
0
 71
3
 72
11
 73
7
 74
0
 42
0.0000001
 43
0.0000001
 44
0.0000000001
 40
0.0
 40
0.0
 40
0.0
 40
0.0
 40
0.237780559
 40
0.4809056754
 40
0.7339193747
 40
1.0
 40
1.0
 40
1.0
 40
1.0
 10
692.6061444299
 20
124.2593285307
 30
0.0
 10
692.6061444108
 20
123.718350001
 30
0.0
 10
692.4861346452
 20
122.6207395507
 30
0.0
 10
691.9540149063
 20
121.0260086708
 30
0.0
 10
691.0860686874
 20
119.5128975657
 30
0.0
 10
690.3193787916
 20
118.6057828453
 30
0.0
 10
689.8934250943
 20
118.1756321666
 30
0.0
  0
SPLINE
  5
464
100
AcDbEntity
  8
0
100
AcDbSpline
 62
7
  6
CONTINUOUS
 70
0
 71
3
 72
11
 73
7
 74
0
 42
0.0000001
 43
0.0000001
 44
0.0000000001
 40
0.0
 40
0.0
 40
0.0
 40
0.0
 40
0.2879697432
 40
0.5553440702
 40
0.7905331502
 40
1.0
 40
1.0
 40
1.0
 40
1.0
 10
695.7882414137
 20
145.8101304574
 30
0.0
 10
695.7495963918
 20
145.8101304574
 30
0.0
 10
695.6746010208
 20
145.8000269264
 30
0.0
 10
695.5764035306
 20
145.7556306242
 30
0.0
 10
695.5064968767
 20
145.6864874446
 30
0.0
 10
695.4882414137
 20
145.6261084978
 30
0.0
 10
695.4882414137
 20
145.597998423
 30
0.0
  0
SPLINE
  5
465
100
AcDbEntity
  8
0
100
AcDbSpline
 62
7
  6
CONTINUOUS
 70
0
 71
3
 72
9
 73
5
 74
0
 42
0.0000001
 43
0.0000001
 44
0.0000000001
 40
0.0
 40
0.0
 40
0.0
 40
0.0
 40
0.5597866015
 40
1.0
 40
1.0
 40
1.0
 40
1.0
 10
696.4332414137
 20
144.6434042684
 30
0.0
 10
696.4037661334
 20
144.6434042684
 30
0.0
 10
696.348939203
 20
144.6322061563
 30
0.0
 10
696.3132414137
 20
144.5817306685
 30
0.0
 10
696.3132414137
 20
144.5585514547
 30
0.0
  0
SPLINE
  5
466
100
AcDbEntity
  8
0
100
AcDbSpline
 62
7
  6
CONTINUOUS
 70
0
 71
3
 72
9
 73
5
 74
0
 42
0.0000001
 43
0.0000001
 44
0.0000000001
 40
0.0
 40
0.0
 40
0.0
 40
0.0
 40
0.5597866015
 40
1.0
 40
1.0
 40
1.0
 40
1.0
 10
697.0182414137
 20
144.4312722341
 30
0.0
 10
697.0477166941
 20
144.4312722341
 30
0.0
 10
697.1025436244
 20
144.4424703462
 30
0.0
 10
697.1382414137
 20
144.492945834
 30
0.0
 10
697.1382414137
 20
144.5161250478
 30
0.0
  0
SPLINE
  5
467
100
AcDbEntity
  8
RUNDUNGEN
100
AcDbSpline
 62
7
  6
CONTINUOUS
 70
0
 71
3
 72
9
 73
5
 74
0
 42
0.0000001
 43
0.0000001
 44
0.0000000001
 40
0.0
 40
0.0
 40
0.0
 40
0.0
 40
0.4805366099
 40
1.0
 40
1.0
 40
1.0
 40
1.0
 10
742.125509149
 20
101.1376031777
 30
0.0
 10
742.125509149
 20
101.5002865599
 30
0.0
 10
741.9526179392
 20
102.2619972593
 30
0.0
 10
741.4971375294
 20
102.8869157895
 30
0.0
 10
741.2212693704
 20
103.1655021161
 30
0.0
  0
SPLINE
  5
468
100
AcDbEntity
  8
0
100
AcDbSpline
 62
7
  6
CONTINUOUS
 70
0
 71
3
 72
9
 73
5
 74
0
 42
0.0000001
 43
0.0000001
 44
0.0000000001
 40
0.0
 40
0.0
 40
0.0
 40
0.0
 40
0.5597866015
 40
1.0
 40
1.0
 40
1.0
 40
1.0
 10
697.0182414137
 20
142.3099518905
 30
0.0
 10
697.0477166941
 20
142.3099518905
 30
0.0
 10
697.1025436244
 20
142.3211500026
 30
0.0
 10
697.1382414137
 20
142.3716254904
 30
0.0
 10
697.1382414137
 20
142.3948047043
 30
0.0
  0
SPLINE
  5
469
100
AcDbEntity
  8
RUNDUNGEN
100
AcDbSpline
 62
7
  6
CONTINUOUS
 70
0
 71
3
 72
10
 73
6
 74
0
 42
0.0000001
 43
0.0000001
 44
0.0000000001
 40
0.0
 40
0.0
 40
0.0
 40
0.0
 40
0.2265442612
 40
0.4650409816
 40
1.0
 40
1.0
 40
1.0
 40
1.0
 10
752.4194452164
 20
156.9967139871
 30
0.0
 10
752.4193895652
 20
157.0819181273
 30
0.0
 10
752.3883329831
 20
157.2581064967
 30
0.0
 10
752.2053899629
 20
157.5924167514
 30
0.0
 10
751.9601313079
 20
157.7756728906
 30
0.0
 10
751.7798219683
 20
157.8649479209
 30
0.0
  0
SPLINE
  5
46A
100
AcDbEntity
  8
0
100
AcDbSpline
 62
7
  6
CONTINUOUS
 70
0
 71
3
 72
11
 73
7
 74
0
 42
0.0000001
 43
0.0000001
 44
0.0000000001
 40
0.0
 40
0.0
 40
0.0
 40
0.0
 40
0.2865059912
 40
0.5484241175
 40
0.7833822346
 40
1.0
 40
1.0
 40
1.0
 40
1.0
 10
705.8661912342
 20
143.9103137305
 30
0.0
 10
706.0573751073
 20
143.9547304726
 30
0.0
 10
706.4158078863
 20
144.0811115751
 30
0.0
 10
706.8640698233
 20
144.3893153394
 30
0.0
 10
707.164184775
 20
144.7886181418
 30
0.0
 10
707.2372274117
 20
145.1011960264
 30
0.0
 10
707.2372051501
 20
145.2495935739
 30
0.0
  0
SPLINE
  5
46B
100
AcDbEntity
  8
0
100
AcDbSpline
 62
7
  6
CONTINUOUS
 70
0
 71
3
 72
9
 73
5
 74
0
 42
0.0000001
 43
0.0000001
 44
0.0000000001
 40
0.0
 40
0.0
 40
0.0
 40
0.0
 40
0.4402133985
 40
1.0
 40
1.0
 40
1.0
 40
1.0
 10
695.9382414137
 20
144.8696784384
 30
0.0
 10
695.9382414137
 20
144.8464992246
 30
0.0
 10
695.973939203
 20
144.7960237368
 30
0.0
 10
696.0287661334
 20
144.7848256247
 30
0.0
 10
696.0582414137
 20
144.7848256247
 30
0.0
  0
SPLINE
  5
46C
100
AcDbEntity
  8
0
100
AcDbSpline
 62
7
  6
CONTINUOUS
 70
0
 71
3
 72
8
 73
4
 74
0
 42
0.0000001
 43
0.0000001
 44
0.0000000001
 40
0.0
 40
0.0
 40
0.0
 40
0.0
 40
1.0
 40
1.0
 40
1.0
 40
1.0
 10
719.9561451434
 20
141.1432257016
 30
0.0
 10
720.0369398077
 20
141.1432257016
 30
0.0
 10
720.1187278086
 20
141.154778481
 30
0.0
 10
720.1959367195
 20
141.1785810406
 30
0.0
  0
SPLINE
  5
46D
100
AcDbEntity
  8
0
100
AcDbSpline
 62
7
  6
CONTINUOUS
 70
0
 71
3
 72
11
 73
7
 74
0
 42
0.0000001
 43
0.0000001
 44
0.0000000001
 40
0.0
 40
0.0
 40
0.0
 40
0.0
 40
0.2847819434
 40
0.5451774547
 40
0.7807010719
 40
1.0
 40
1.0
 40
1.0
 40
1.0
 10
720.1959367195
 20
141.1785810406
 30
0.0
 10
720.5545320123
 20
141.2891315682
 30
0.0
 10
721.2219236396
 20
141.5750822117
 30
0.0
 10
722.0452154043
 20
142.2136414317
 30
0.0
 10
722.5874357086
 20
143.0070222804
 30
0.0
 10
722.7173744827
 20
143.6119780435
 30
0.0
 10
722.7173744827
 20
143.9009421482
 30
0.0
  0
SPLINE
  5
46E
100
AcDbEntity
  8
0
100
AcDbSpline
 62
7
  6
CONTINUOUS
 70
0
 71
3
 72
9
 73
5
 74
0
 42
0.0000001
 43
0.0000001
 44
0.0000000001
 40
0.0
 40
0.0
 40
0.0
 40
0.0
 40
0.239729366
 40
1.0
 40
1.0
 40
1.0
 40
1.0
 10
720.1595806934
 20
145.9361240293
 30
0.0
 10
720.1463242858
 20
145.9433023833
 30
0.0
 10
720.0888924853
 20
145.969234627
 30
0.0
 10
720.024990608
 20
145.9798360849
 30
0.0
 10
719.9771816213
 20
145.9798360849
 30
0.0
  0
SPLINE
  5
46F
100
AcDbEntity
  8
RUNDUNGEN
100
AcDbSpline
 62
7
  6
CONTINUOUS
 70
0
 71
3
 72
9
 73
5
 74
0
 42
0.0000001
 43
0.0000001
 44
0.0000000001
 40
0.0
 40
0.0
 40
0.0
 40
0.0
 40
0.5194635453
 40
1.0
 40
1.0
 40
1.0
 40
1.0
 10
675.0297489275
 20
103.1655021161
 30
0.0
 10
674.7538806859
 20
102.8869157061
 30
0.0
 10
674.2984002964
 20
102.2619971381
 30
0.0
 10
674.125509149
 20
101.5002864429
 30
0.0
 10
674.125509149
 20
101.1376031777
 30
0.0
  0
SPLINE
  5
470
100
AcDbEntity
  8
RUNDUNGEN
100
AcDbSpline
 62
7
  6
CONTINUOUS
 70
0
 71
3
 72
10
 73
6
 74
0
 42
0.0000001
 43
0.0000001
 44
0.0000000001
 40
0.0
 40
0.0
 40
0.0
 40
0.0
 40
0.5349741761
 40
0.7734715455
 40
1.0
 40
1.0
 40
1.0
 40
1.0
 10
676.2868709185
 20
145.9328518349
 30
0.0
 10
676.106547141
 20
145.843569656
 30
0.0
 10
675.8612698319
 20
145.6602957238
 30
0.0
 10
675.6783384614
 20
145.3259554912
 30
0.0
 10
675.6472944121
 20
145.1497612586
 30
0.0
 10
675.6472462763
 20
145.0645586508
 30
0.0
  0
SPLINE
  5
471
100
AcDbEntity
  8
0
100
AcDbSpline
 62
7
  6
CONTINUOUS
 70
0
 71
3
 72
11
 73
7
 74
0
 42
0.0000001
 43
0.0000001
 44
0.0000000001
 40
0.0
 40
0.0
 40
0.0
 40
0.0
 40
0.2094668498
 40
0.4446559298
 40
0.7120302568
 40
1.0
 40
1.0
 40
1.0
 40
1.0
 10
697.5882414137
 20
145.597998423
 30
0.0
 10
697.5882414137
 20
145.6261084978
 30
0.0
 10
697.5699859507
 20
145.6864874446
 30
0.0
 10
697.5000792968
 20
145.7556306242
 30
0.0
 10
697.4018818066
 20
145.8000269264
 30
0.0
 10
697.3268864357
 20
145.8101304574
 30
0.0
 10
697.2882414137
 20
145.8101304574
 30
0.0
  0
SPLINE
  5
472
100
AcDbEntity
  8
RUNDUNGEN
100
AcDbSpline
 62
7
  6
CONTINUOUS
 70
0
 71
3
 72
11
 73
7
 74
0
 42
0.0000001
 43
0.0000001
 44
0.0000000001
 40
0.0
 40
0.0
 40
0.0
 40
0.0
 40
0.2794013718
 40
0.5367226037
 40
0.7743080703
 40
1.0
 40
1.0
 40
1.0
 40
1.0
 10
667.3382284846
 20
159.2844771778
 30
0.0
 10
667.0229162239
 20
159.1283592988
 30
0.0
 10
666.4437571033
 20
158.7682035276
 30
0.0
 10
665.7509030149
 20
158.0673443741
 30
0.0
 10
665.3088374551
 20
157.2595021843
 30
0.0
 10
665.2060582605
 20
156.671907782
 30
0.0
 10
665.2061130924
 20
156.3876984313
 30
0.0
  0
SPLINE
  5
473
100
AcDbEntity
  8
RUNDUNGEN
100
AcDbSpline
 62
7
  6
CONTINUOUS
 70
0
 71
3
 72
12
 73
8
 74
0
 42
0.0000001
 43
0.0000001
 44
0.0000000001
 40
0.0
 40
0.0
 40
0.0
 40
0.0
 40
0.2295487337
 40
0.3548258227
 40
0.4846200261
 40
0.7477431889
 40
1.0
 40
1.0
 40
1.0
 40
1.0
 10
687.6555792579
 20
157.2589824781
 30
0.0
 10
686.5379892687
 20
158.3875842381
 30
0.0
 10
684.4150066075
 20
159.7574196979
 30
0.0
 10
681.2494968851
 20
160.8778320394
 30
0.0
 10
677.718034073
 20
161.5694983779
 30
0.0
 10
673.1987565231
 20
161.5041549276
 30
0.0
 10
669.7215904356
 20
160.4645309185
 30
0.0
 10
668.1573805289
 20
159.6900569655
 30
0.0
  0
SPLINE
  5
474
100
AcDbEntity
  8
0
100
AcDbSpline
 62
7
  6
CONTINUOUS
 70
0
 71
3
 72
9
 73
5
 74
0
 42
0.0000001
 43
0.0000001
 44
0.0000000001
 40
0.0
 40
0.0
 40
0.0
 40
0.0
 40
0.2419366003
 40
1.0
 40
1.0
 40
1.0
 40
1.0
 10
716.7291556942
 20
157.6038094982
 30
0.0
 10
716.2686535011
 20
157.8318140341
 30
0.0
 10
714.3209129298
 20
158.683460259
 30
0.0
 10
712.2249416434
 20
159.1823561166
 30
0.0
 10
710.6262561018
 20
159.3735128224
 30
0.0
  0
SPLINE
  5
475
100
AcDbEntity
  8
0
100
AcDbSpline
 62
7
  6
CONTINUOUS
 70
0
 71
3
 72
9
 73
5
 74
0
 42
0.0000001
 43
0.0000001
 44
0.0000000001
 40
0.0
 40
0.0
 40
0.0
 40
0.0
 40
0.2576167678
 40
1.0
 40
1.0
 40
1.0
 40
1.0
 10
705.6247621961
 20
159.3735128224
 30
0.0
 10
705.0815323789
 20
159.3085581958
 30
0.0
 10
702.9843308728
 20
158.973753749
 30
0.0
 10
700.9347587412
 20
158.303364751
 30
0.0
 10
699.5218626037
 20
157.6038094982
 30
0.0
  0
SPLINE
  5
476
100
AcDbEntity
  8
RUNDUNGEN
100
AcDbSpline
 62
7
  6
CONTINUOUS
 70
0
 71
3
 72
10
 73
6
 74
0
 42
0.0000001
 43
0.0000001
 44
0.0000000001
 40
0.0
 40
0.0
 40
0.0
 40
0.0
 40
0.2540841022
 40
0.5191024011
 40
1.0
 40
1.0
 40
1.0
 40
1.0
 10
744.5712839786
 20
161.4340500525
 30
0.0
 10
744.4036797561
 20
161.5170345063
 30
0.0
 10
744.0297212665
 20
161.628056036
 30
0.0
 10
743.2928217679
 20
161.6410203767
 30
0.0
 10
742.7312578865
 20
161.4250985033
 30
0.0
 10
742.4821912576
 20
161.173577786
 30
0.0
  0
SPLINE
  5
477
100
AcDbEntity
  8
BEZUGSACHSEN
100
AcDbSpline
 62
7
  6
CONTINUOUS
 70
0
 71
3
 72
19
 73
15
 74
0
 42
0.0000001
 43
0.0000001
 44
0.0000000001
 40
0.0
 40
0.0
 40
0.0
 40
0.0
 40
0.0517279957
 40
0.105334459
 40
0.1622489926
 40
0.2232158543
 40
0.3564755372
 40
0.5
 40
0.6435244628
 40
0.7767841457
 40
0.8377510074
 40
0.894665541
 40
0.9482720043
 40
1.0
 40
1.0
 40
1.0
 40
1.0
 10
702.625509149
 20
152.8044773146
 30
0.0
 10
702.625509149
 20
152.5491279896
 30
0.0
 10
702.6996141534
 20
152.0265043999
 30
0.0
 10
703.0238780878
 20
151.2849159941
 30
0.0
 10
703.5440567811
 20
150.6076286572
 30
0.0
 10
704.494683296
 20
149.8002123476
 30
0.0
 10
706.0446490875
 20
149.0998718567
 30
0.0
 10
708.125509149
 20
148.8197282643
 30
0.0
 10
710.2063692104
 20
149.0998718567
 30
0.0
 10
711.756335002
 20
149.8002123476
 30
0.0
 10
712.7069615169
 20
150.6076286572
 30
0.0
 10
713.2271402102
 20
151.2849159941
 30
0.0
 10
713.5514041446
 20
152.0265043999
 30
0.0
 10
713.625509149
 20
152.5491279896
 30
0.0
 10
713.625509149
 20
152.8044773146
 30
0.0
  0
SPLINE
  5
478
100
AcDbEntity
  8
0
100
AcDbSpline
 62
7
  6
CONTINUOUS
 70
0
 71
3
 72
11
 73
7
 74
0
 42
0.0000001
 43
0.0000001
 44
0.0000000001
 40
0.0
 40
0.0
 40
0.0
 40
0.0
 40
0.227142142
 40
0.4653047767
 40
0.7220182825
 40
1.0
 40
1.0
 40
1.0
 40
1.0
 10
721.5707738377
 20
143.9150842838
 30
0.0
 10
721.5707738377
 20
144.1105036584
 30
0.0
 10
721.5035280228
 20
144.5134835924
 30
0.0
 10
721.2130831487
 20
145.0722451443
 30
0.0
 10
720.7551985449
 20
145.563690339
 30
0.0
 10
720.3698856096
 20
145.8222437705
 30
0.0
 10
720.1595806934
 20
145.9361240293
 30
0.0
  0
SPLINE
  5
479
100
AcDbEntity
  8
0
100
AcDbSpline
 62
7
  6
CONTINUOUS
 70
0
 71
3
 72
17
 73
13
 74
0
 42
0.0000001
 43
0.0000001
 44
0.0000000001
 40
0.0
 40
0.0
 40
0.0
 40
0.0
 40
0.0517921087
 40
0.1054769531
 40
0.2228492041
 40
0.356284866
 40
0.5
 40
0.643715134
 40
0.7771507959
 40
0.8945230469
 40
0.9482078913
 40
1.0
 40
1.0
 40
1.0
 40
1.0
 10
708.6840427152
 20
143.1689702484
 30
0.0
 10
708.6840427152
 20
143.0368009889
 30
0.0
 10
708.7224540412
 20
142.7662621154
 30
0.0
 10
708.9524645163
 20
142.2396983535
 30
0.0
 10
709.5205270876
 20
141.6712442147
 30
0.0
 10
710.4532381669
 20
141.2522587841
 30
0.0
 10
711.5311103955
 20
141.1057656695
 30
0.0
 10
712.6089826241
 20
141.2522587841
 30
0.0
 10
713.5416937034
 20
141.6712442147
 30
0.0
 10
714.1097562747
 20
142.2396983535
 30
0.0
 10
714.3397667498
 20
142.7662621154
 30
0.0
 10
714.3781780758
 20
143.0368009889
 30
0.0
 10
714.3781780758
 20
143.1689702484
 30
0.0
  0
SPLINE
  5
47A
100
AcDbEntity
  8
0
100
AcDbSpline
 62
7
  6
CONTINUOUS
 70
0
 71
3
 72
9
 73
5
 74
0
 42
0.0000001
 43
0.0000001
 44
0.0000000001
 40
0.0
 40
0.0
 40
0.0
 40
0.0
 40
0.4402133985
 40
1.0
 40
1.0
 40
1.0
 40
1.0
 10
695.9382414137
 20
142.3948047043
 30
0.0
 10
695.9382414137
 20
142.3716254904
 30
0.0
 10
695.973939203
 20
142.3211500026
 30
0.0
 10
696.0287661334
 20
142.3099518905
 30
0.0
 10
696.0582414137
 20
142.3099518905
 30
0.0
  0
SPLINE
  5
47B
100
AcDbEntity
  8
0
100
AcDbSpline
 62
7
  6
CONTINUOUS
 70
0
 71
3
 72
9
 73
5
 74
0
 42
0.0000001
 43
0.0000001
 44
0.0000000001
 40
0.0
 40
0.0
 40
0.0
 40
0.0
 40
0.4402133985
 40
1.0
 40
1.0
 40
1.0
 40
1.0
 10
695.9382414137
 20
142.7483580949
 30
0.0
 10
695.9382414137
 20
142.725178881
 30
0.0
 10
695.973939203
 20
142.6747033932
 30
0.0
 10
696.0287661334
 20
142.6635052811
 30
0.0
 10
696.0582414137
 20
142.6635052811
 30
0.0
  0
SPLINE
  5
47C
100
AcDbEntity
  8
0
100
AcDbSpline
 62
7
  6
CONTINUOUS
 70
0
 71
3
 72
9
 73
5
 74
0
 42
0.0000001
 43
0.0000001
 44
0.0000000001
 40
0.0
 40
0.0
 40
0.0
 40
0.0
 40
0.5
 40
1.0
 40
1.0
 40
1.0
 40
1.0
 10
708.705159683
 20
143.2781164067
 30
0.0
 10
708.894620584
 20
142.1831058019
 30
0.0
 10
711.5311103955
 20
140.8356163105
 30
0.0
 10
714.1676002069
 20
142.1831058019
 30
0.0
 10
714.357061108
 20
143.2781164067
 30
0.0
  0
SPLINE
  5
47D
100
AcDbEntity
  8
0
100
AcDbSpline
 62
7
  6
CONTINUOUS
 70
0
 71
3
 72
8
 73
4
 74
0
 42
0.0000001
 43
0.0000001
 44
0.0000000001
 40
0.0
 40
0.0
 40
0.0
 40
0.0
 40
1.0
 40
1.0
 40
1.0
 40
1.0
 10
719.9561451434
 20
141.4967790922
 30
0.0
 10
720.0369398077
 20
141.4967790922
 30
0.0
 10
720.1187278086
 20
141.5083318716
 30
0.0
 10
720.1959367195
 20
141.5321344312
 30
0.0
  0
SPLINE
  5
47E
100
AcDbEntity
  8
0
100
AcDbSpline
 62
7
  6
CONTINUOUS
 70
0
 71
3
 72
11
 73
7
 74
0
 42
0.0000001
 43
0.0000001
 44
0.0000000001
 40
0.0
 40
0.0
 40
0.0
 40
0.0
 40
0.2816347582
 40
0.5420479832
 40
0.7798483853
 40
1.0
 40
1.0
 40
1.0
 40
1.0
 10
720.1959367195
 20
141.5321344312
 30
0.0
 10
720.5198118719
 20
141.6319811656
 30
0.0
 10
721.1270982827
 20
141.8850302108
 30
0.0
 10
721.898020043
 20
142.436232966
 30
0.0
 10
722.4502789258
 20
143.1170207498
 30
0.0
 10
722.6452838555
 20
143.6467329086
 30
0.0
 10
722.6886922784
 20
143.9080808812
 30
0.0
  0
SPLINE
  5
47F
100
AcDbEntity
  8
0
100
AcDbSpline
 62
7
  6
CONTINUOUS
 70
0
 71
3
 72
9
 73
5
 74
0
 42
0.0000001
 43
0.0000001
 44
0.0000000001
 40
0.0
 40
0.0
 40
0.0
 40
0.0
 40
0.2591205677
 40
1.0
 40
1.0
 40
1.0
 40
1.0
 10
719.9771816213
 20
146.3333894755
 30
0.0
 10
719.9934713671
 20
146.3333894755
 30
0.0
 10
720.0562249548
 20
146.3297942056
 30
0.0
 10
720.1186241545
 20
146.3118554143
 30
0.0
 10
720.1595806934
 20
146.2896774199
 30
0.0
  0
SPLINE
  5
480
100
AcDbEntity
  8
0
100
AcDbSpline
 62
7
  6
CONTINUOUS
 70
0
 71
3
 72
11
 73
7
 74
0
 42
0.0000001
 43
0.0000001
 44
0.0000000001
 40
0.0
 40
0.0
 40
0.0
 40
0.0
 40
0.2779697373
 40
0.5346991835
 40
0.7728568778
 40
1.0
 40
1.0
 40
1.0
 40
1.0
 10
720.1595806934
 20
146.2896774199
 30
0.0
 10
720.3698772995
 20
146.1758016609
 30
0.0
 10
720.7551856223
 20
145.9172372777
 30
0.0
 10
721.2131006447
 20
145.4258153816
 30
0.0
 10
721.5035344463
 20
144.8670333594
 30
0.0
 10
721.5707918287
 20
144.4640585925
 30
0.0
 10
721.5707918287
 20
144.2686376744
 30
0.0
  0
SPLINE
  5
481
100
AcDbEntity
  8
0
100
AcDbSpline
 62
7
  6
CONTINUOUS
 70
0
 71
3
 72
9
 73
5
 74
0
 42
0.0000001
 43
0.0000001
 44
0.0000000001
 40
0.0
 40
0.0
 40
0.0
 40
0.0
 40
0.5403772208
 40
1.0
 40
1.0
 40
1.0
 40
1.0
 10
705.8661912342
 20
144.2638671211
 30
0.0
 10
706.1592639063
 20
144.3319551511
 30
0.0
 10
706.6887835815
 20
144.5478598197
 30
0.0
 10
707.0759951724
 20
144.9949067949
 30
0.0
 10
707.1676574466
 20
145.2338425065
 30
0.0
  0
SPLINE
  5
482
100
AcDbEntity
  8
0
100
AcDbSpline
 62
7
  6
CONTINUOUS
 70
0
 71
3
 72
8
 73
4
 74
0
 42
0.0000001
 43
0.0000001
 44
0.0000000001
 40
0.0
 40
0.0
 40
0.0
 40
0.0
 40
1.0
 40
1.0
 40
1.0
 40
1.0
 10
707.1676574466
 20
145.2338425065
 30
0.0
 10
707.1906034744
 20
145.2936558325
 30
0.0
 10
707.2083943535
 20
145.3557519472
 30
0.0
 10
707.2201318002
 20
145.4187312018
 30
0.0
  0
SPLINE
  5
483
100
AcDbEntity
  8
0
100
AcDbSpline
 62
7
  6
CONTINUOUS
 70
0
 71
3
 72
11
 73
7
 74
0
 42
0.0000001
 43
0.0000001
 44
0.0000000001
 40
0.0
 40
0.0
 40
0.0
 40
0.0
 40
0.2880066977
 40
0.5553334191
 40
0.790532629
 40
1.0
 40
1.0
 40
1.0
 40
1.0
 10
705.2440427152
 20
146.3687448145
 30
0.0
 10
705.3835890171
 20
146.3687448145
 30
0.0
 10
705.6543655248
 20
146.3322840146
 30
0.0
 10
706.0088711231
 20
146.1719210064
 30
0.0
 10
706.2612839684
 20
145.9223286054
 30
0.0
 10
706.3272094219
 20
145.7043223648
 30
0.0
 10
706.3272094219
 20
145.6028302911
 30
0.0
  0
SPLINE
  5
484
100
AcDbEntity
  8
RUNDUNGEN
100
AcDbSpline
 62
7
  6
CONTINUOUS
 70
0
 71
3
 72
11
 73
7
 74
0
 42
0.0000001
 43
0.0000001
 44
0.0000000001
 40
0.0
 40
0.0
 40
0.0
 40
0.0
 40
0.2256927635
 40
0.4632951072
 40
0.7206222905
 40
1.0
 40
1.0
 40
1.0
 40
1.0
 10
680.6295180498
 20
149.0022286596
 30
0.0
 10
680.6294253307
 20
148.8602225512
 30
0.0
 10
680.5777814248
 20
148.5666738827
 30
0.0
 10
680.3566711959
 20
148.1631669343
 30
0.0
 10
680.0103894694
 20
147.8130892963
 30
0.0
 10
679.7210119784
 20
147.6331689026
 30
0.0
 10
679.5634790956
 20
147.5551709856
 30
0.0
  0
SPLINE
  5
485
100
AcDbEntity
  8
0
100
AcDbSpline
 62
7
  6
CONTINUOUS
 70
0
 71
3
 72
9
 73
5
 74
0
 42
0.0000001
 43
0.0000001
 44
0.0000000001
 40
0.0
 40
0.0
 40
0.0
 40
0.0
 40
0.5597866015
 40
1.0
 40
1.0
 40
1.0
 40
1.0
 10
697.0182414137
 20
142.6635052811
 30
0.0
 10
697.0477166941
 20
142.6635052811
 30
0.0
 10
697.1025436244
 20
142.6747033932
 30
0.0
 10
697.1382414137
 20
142.725178881
 30
0.0
 10
697.1382414137
 20
142.7483580949
 30
0.0
  0
SPLINE
  5
486
100
AcDbEntity
  8
0
100
AcDbSpline
 62
7
  6
CONTINUOUS
 70
0
 71
3
 72
9
 73
5
 74
0
 42
0.0000001
 43
0.0000001
 44
0.0000000001
 40
0.0
 40
0.0
 40
0.0
 40
0.0
 40
0.4402133985
 40
1.0
 40
1.0
 40
1.0
 40
1.0
 10
696.3132414137
 20
144.9121048453
 30
0.0
 10
696.3132414137
 20
144.9352840591
 30
0.0
 10
696.348939203
 20
144.9857595469
 30
0.0
 10
696.4037661334
 20
144.996957659
 30
0.0
 10
696.4332414137
 20
144.996957659
 30
0.0
  0
SPLINE
  5
487
100
AcDbEntity
  8
0
100
AcDbSpline
 62
7
  6
CONTINUOUS
 70
0
 71
3
 72
9
 73
5
 74
0
 42
0.0000001
 43
0.0000001
 44
0.0000000001
 40
0.0
 40
0.0
 40
0.0
 40
0.0
 40
0.5597866015
 40
1.0
 40
1.0
 40
1.0
 40
1.0
 10
696.6432414137
 20
144.996957659
 30
0.0
 10
696.6727166941
 20
144.996957659
 30
0.0
 10
696.7275436244
 20
144.9857595469
 30
0.0
 10
696.7632414137
 20
144.9352840591
 30
0.0
 10
696.7632414137
 20
144.9121048453
 30
0.0
  0
SPLINE
  5
488
100
AcDbEntity
  8
0
100
AcDbSpline
 62
7
  6
CONTINUOUS
 70
0
 71
3
 72
9
 73
5
 74
0
 42
0.0000001
 43
0.0000001
 44
0.0000000001
 40
0.0
 40
0.0
 40
0.0
 40
0.0
 40
0.5597866015
 40
1.0
 40
1.0
 40
1.0
 40
1.0
 10
697.0182414137
 20
144.7848256247
 30
0.0
 10
697.0477166941
 20
144.7848256247
 30
0.0
 10
697.1025436244
 20
144.7960237368
 30
0.0
 10
697.1382414137
 20
144.8464992246
 30
0.0
 10
697.1382414137
 20
144.8696784384
 30
0.0
  0
SPLINE
  5
489
100
AcDbEntity
  8
0
100
AcDbSpline
 62
7
  6
CONTINUOUS
 70
0
 71
3
 72
11
 73
7
 74
0
 42
0.0000001
 43
0.0000001
 44
0.0000000001
 40
0.0
 40
0.0
 40
0.0
 40
0.0
 40
0.2876567391
 40
0.555407049
 40
0.7907201247
 40
1.0
 40
1.0
 40
1.0
 40
1.0
 10
697.2882414137
 20
146.163683848
 30
0.0
 10
697.3268388389
 20
146.163683848
 30
0.0
 10
697.4017760501
 20
146.153427118
 30
0.0
 10
697.500156988
 20
146.109313854
 30
0.0
 10
697.5698309253
 20
146.0399155001
 30
0.0
 10
697.5882414137
 20
145.9796327282
 30
0.0
 10
697.5882414137
 20
145.9515518136
 30
0.0
  0
SPLINE
  5
48A
100
AcDbEntity
  8
0
100
AcDbSpline
 62
7
  6
CONTINUOUS
 70
0
 71
3
 72
8
 73
4
 74
0
 42
0.0000001
 43
0.0000001
 44
0.0000000001
 40
0.0
 40
0.0
 40
0.0
 40
0.0
 40
1.0
 40
1.0
 40
1.0
 40
1.0
 10
697.3683609521
 20
144.034549778
 30
0.0
 10
697.3921913702
 20
144.0298722846
 30
0.0
 10
697.4157422917
 20
144.0230841678
 30
0.0
 10
697.4382414137
 20
144.0139432008
 30
0.0
  0
SPLINE
  5
48B
100
AcDbEntity
  8
0
100
AcDbSpline
 62
7
  6
CONTINUOUS
 70
0
 71
3
 72
9
 73
5
 74
0
 42
0.0000001
 43
0.0000001
 44
0.0000000001
 40
0.0
 40
0.0
 40
0.0
 40
0.0
 40
0.5424756321
 40
1.0
 40
1.0
 40
1.0
 40
1.0
 10
697.4382414137
 20
144.0139432008
 30
0.0
 10
697.4797733244
 20
143.9970695724
 30
0.0
 10
697.5530133602
 20
143.9511354506
 30
0.0
 10
697.5882414137
 20
143.8680400924
 30
0.0
 10
697.5882414137
 20
143.8302314701
 30
0.0
  0
SPLINE
  5
48C
100
AcDbEntity
  8
0
100
AcDbSpline
 62
7
  6
CONTINUOUS
 70
0
 71
3
 72
9
 73
5
 74
0
 42
0.0000001
 43
0.0000001
 44
0.0000000001
 40
0.0
 40
0.0
 40
0.0
 40
0.0
 40
0.4575243679
 40
1.0
 40
1.0
 40
1.0
 40
1.0
 10
695.4882414137
 20
143.8302314701
 30
0.0
 10
695.4882414137
 20
143.8680400924
 30
0.0
 10
695.5234694672
 20
143.9511354506
 30
0.0
 10
695.596709503
 20
143.9970695724
 30
0.0
 10
695.6382414137
 20
144.0139432008
 30
0.0
  0
SPLINE
  5
48D
100
AcDbEntity
  8
0
100
AcDbSpline
 62
7
  6
CONTINUOUS
 70
0
 71
3
 72
8
 73
4
 74
0
 42
0.0000001
 43
0.0000001
 44
0.0000000001
 40
0.0
 40
0.0
 40
0.0
 40
0.0
 40
1.0
 40
1.0
 40
1.0
 40
1.0
 10
695.6382414137
 20
144.0139432008
 30
0.0
 10
695.6853883673
 20
144.0330981147
 30
0.0
 10
695.737351867
 20
144.0423635044
 30
0.0
 10
695.7882414137
 20
144.0423635044
 30
0.0
  0
SPLINE
  5
48E
100
AcDbEntity
  8
0
100
AcDbSpline
 62
7
  6
CONTINUOUS
 70
0
 71
3
 72
11
 73
7
 74
0
 42
0.0000001
 43
0.0000001
 44
0.0000000001
 40
0.0
 40
0.0
 40
0.0
 40
0.0
 40
0.2092798753
 40
0.444592951
 40
0.7123432609
 40
1.0
 40
1.0
 40
1.0
 40
1.0
 10
695.4882414137
 20
145.9515518136
 30
0.0
 10
695.4882414137
 20
145.9796327282
 30
0.0
 10
695.5066519021
 20
146.0399155001
 30
0.0
 10
695.5763258394
 20
146.109313854
 30
0.0
 10
695.6747067773
 20
146.153427118
 30
0.0
 10
695.7496439885
 20
146.163683848
 30
0.0
 10
695.7882414137
 20
146.163683848
 30
0.0
  0
SPLINE
  5
48F
100
AcDbEntity
  8
RUNDUNGEN
100
AcDbSpline
 62
7
  6
CONTINUOUS
 70
0
 71
3
 72
11
 73
7
 74
0
 42
0.0000001
 43
0.0000001
 44
0.0000000001
 40
0.0
 40
0.0
 40
0.0
 40
0.0
 40
0.2660806488
 40
0.5190943636
 40
0.7622194616
 40
1.0
 40
1.0
 40
1.0
 40
1.0
 10
726.3575932037
 20
118.1756321666
 30
0.0
 10
725.9316394129
 20
118.6057829398
 30
0.0
 10
725.1649493848
 20
119.5128978727
 30
0.0
 10
724.2970030956
 20
121.02600926
 30
0.0
 10
723.7648834614
 20
122.6207403602
 30
0.0
 10
723.6448738488
 20
123.7183508789
 30
0.0
 10
723.644873868
 20
124.2593294327
 30
0.0
  0
SPLINE
  5
490
100
AcDbEntity
  8
0
100
AcDbSpline
 62
7
  6
CONTINUOUS
 70
0
 71
3
 72
9
 73
5
 74
0
 42
0.0000001
 43
0.0000001
 44
0.0000000001
 40
0.0
 40
0.0
 40
0.0
 40
0.0
 40
0.538986273
 40
1.0
 40
1.0
 40
1.0
 40
1.0
 10
698.9382414137
 20
141.4967790922
 30
0.0
 10
699.0518987333
 20
141.4967790922
 30
0.0
 10
699.2651293198
 20
141.5366788297
 30
0.0
 10
699.4434876463
 20
141.6747690394
 30
0.0
 10
699.4925691332
 20
141.7586843308
 30
0.0
  0
SPLINE
  5
491
100
AcDbEntity
  8
0
100
AcDbSpline
 62
7
  6
CONTINUOUS
 70
0
 71
3
 72
9
 73
5
 74
0
 42
0.0000001
 43
0.0000001
 44
0.0000000001
 40
0.0
 40
0.0
 40
0.0
 40
0.0
 40
0.2592261758
 40
1.0
 40
1.0
 40
1.0
 40
1.0
 10
699.4925691332
 20
141.7586843308
 30
0.0
 10
699.4999750367
 20
141.7713463056
 30
0.0
 10
699.5255983724
 20
141.8218251133
 30
0.0
 10
699.5382414137
 20
141.8791251492
 30
0.0
 10
699.5382414137
 20
141.9210431609
 30
0.0
  0
SPLINE
  5
492
100
AcDbEntity
  8
RUNDUNGEN
100
AcDbSpline
 62
7
  6
CONTINUOUS
 70
0
 71
3
 72
11
 73
7
 74
0
 42
0.0000001
 43
0.0000001
 44
0.0000000001
 40
0.0
 40
0.0
 40
0.0
 40
0.0
 40
0.2297109937
 40
0.4842558728
 40
0.7475644511
 40
1.0
 40
1.0
 40
1.0
 40
1.0
 10
734.5056050821
 20
153.1183971892
 30
0.0
 10
734.1064653462
 20
152.7153246736
 30
0.0
 10
733.074855917
 20
152.0497453197
 30
0.0
 10
731.2667883746
 20
151.5750848809
 30
0.0
 10
729.3428229369
 20
151.6020661001
 30
0.0
 10
728.1006106527
 20
151.9735576789
 30
0.0
 10
727.5419626789
 20
152.2501563009
 30
0.0
  0
SPLINE
  5
493
100
AcDbEntity
  8
0
100
AcDbSpline
 62
7
  6
CONTINUOUS
 70
0
 71
3
 72
9
 73
5
 74
0
 42
0.0000001
 43
0.0000001
 44
0.0000000001
 40
0.0
 40
0.0
 40
0.0
 40
0.0
 40
0.4402133985
 40
1.0
 40
1.0
 40
1.0
 40
1.0
 10
696.7632414137
 20
144.5585514547
 30
0.0
 10
696.7632414137
 20
144.5817306685
 30
0.0
 10
696.7275436244
 20
144.6322061563
 30
0.0
 10
696.6727166941
 20
144.6434042684
 30
0.0
 10
696.6432414137
 20
144.6434042684
 30
0.0
  0
SPLINE
  5
494
100
AcDbEntity
  8
RUNDUNGEN
100
AcDbSpline
 62
7
  6
CONTINUOUS
 70
0
 71
3
 72
11
 73
7
 74
0
 42
0.0000001
 43
0.0000001
 44
0.0000000001
 40
0.0
 40
0.0
 40
0.0
 40
0.0
 40
0.2524375529
 40
0.5157480446
 40
0.7702932073
 40
1.0
 40
1.0
 40
1.0
 40
1.0
 10
695.4261023823
 20
155.5759105598
 30
0.0
 10
694.8674499724
 20
155.2993097415
 30
0.0
 10
693.6252275147
 20
154.9278166842
 30
0.0
 10
691.7012511633
 20
154.9008412582
 30
0.0
 10
689.893190413
 20
155.3755094975
 30
0.0
 10
688.8615924162
 20
156.0410863032
 30
0.0
 10
688.4624599791
 20
156.4441514482
 30
0.0
  0
SPLINE
  5
495
100
AcDbEntity
  8
KONSTRUKTIONSELEMENTE
100
AcDbSpline
 62
7
  6
CONTINUOUS
 70
0
 71
3
 72
9
 73
5
 74
0
 42
0.0000001
 43
0.0000001
 44
0.0000000001
 40
0.0
 40
0.0
 40
0.0
 40
0.0
 40
0.2519249475
 40
1.0
 40
1.0
 40
1.0
 40
1.0
 10
714.375509149
 20
198.5862941086
 30
0.0
 10
714.9675560309
 20
198.4815309967
 30
0.0
 10
717.305984618
 20
198.0046533767
 30
0.0
 10
719.5975224966
 20
197.2800714322
 30
0.0
 10
721.2396002276
 20
196.5793005646
 30
0.0
  0
SPLINE
  5
496
100
AcDbEntity
  8
RUNDUNGEN
100
AcDbSpline
 62
7
  6
CONTINUOUS
 70
0
 71
3
 72
15
 73
11
 74
0
 42
0.0000001
 43
0.0000001
 44
0.0000000001
 40
0.0
 40
0.0
 40
0.0
 40
0.0
 40
0.0506580437
 40
0.0823029949
 40
0.1197229212
 40
0.2136507622
 40
0.3333912895
 40
0.4767107866
 40
0.6395049098
 40
1.0
 40
1.0
 40
1.0
 40
1.0
 10
736.625509149
 20
201.2625019444
 30
0.0
 10
736.625509149
 20
201.3445053133
 30
0.0
 10
736.5684594074
 20
201.4771980731
 30
0.0
 10
736.4340732617
 20
201.6165210451
 30
0.0
 10
736.2213979291
 20
201.7749667169
 30
0.0
 10
735.8520189253
 20
201.9509733243
 30
0.0
 10
735.3009391091
 20
202.1274755621
 30
0.0
 10
734.6263833209
 20
202.2740746898
 30
0.0
 10
733.5575255401
 20
202.4261508408
 30
0.0
 10
732.7090652771
 20
202.4682733104
 30
0.0
 10
732.125509149
 20
202.4682733104
 30
0.0
  0
SPLINE
  5
497
100
AcDbEntity
  8
KONSTRUKTIONSELEMENTE
100
AcDbSpline
 62
7
  6
CONTINUOUS
 70
0
 71
3
 72
9
 73
5
 74
0
 42
0.0000001
 43
0.0000001
 44
0.0000000001
 40
0.0
 40
0.0
 40
0.0
 40
0.0
 40
0.2481912135
 40
1.0
 40
1.0
 40
1.0
 40
1.0
 10
695.0114180704
 20
196.5793005646
 30
0.0
 10
695.5562628772
 20
196.8118177962
 30
0.0
 10
697.7821758021
 20
197.676105016
 30
0.0
 10
700.1085350144
 20
198.2736267934
 30
0.0
 10
701.875509149
 20
198.5862941086
 30
0.0
  0
SPLINE
  5
498
100
AcDbEntity
  8
KONSTRUKTIONSELEMENTE
100
AcDbSpline
 62
7
  6
CONTINUOUS
 70
0
 71
3
 72
11
 73
7
 74
0
 42
0.0000001
 43
0.0000001
 44
0.0000000001
 40
0.0
 40
0.0
 40
0.0
 40
0.0
 40
0.2498418809
 40
0.4997992424
 40
0.7498631476
 40
1.0
 40
1.0
 40
1.0
 40
1.0
 10
693.2900489269
 20
192.9423005646
 30
0.0
 10
693.2900489269
 20
193.2855336431
 30
0.0
 10
693.3817613049
 20
193.9750588386
 30
0.0
 10
693.7611187162
 20
194.9411872013
 30
0.0
 10
694.3176784483
 20
195.8143593397
 30
0.0
 10
694.7708063569
 20
196.3339573522
 30
0.0
 10
695.0114180704
 20
196.5793005646
 30
0.0
  0
SPLINE
  5
499
100
AcDbEntity
  8
KONSTRUKTIONSELEMENTE
100
AcDbSpline
 62
7
  6
CONTINUOUS
 70
0
 71
3
 72
9
 73
5
 74
0
 42
0.0000001
 43
0.0000001
 44
0.0000000001
 40
0.0
 40
0.0
 40
0.0
 40
0.0
 40
0.5001839413
 40
1.0
 40
1.0
 40
1.0
 40
1.0
 10
692.5609418954
 20
185.5793005646
 30
0.0
 10
692.7815847256
 20
186.0833201601
 30
0.0
 10
693.1505735862
 20
187.1261882986
 30
0.0
 10
693.2900489269
 20
188.2295061681
 30
0.0
 10
693.2900489269
 20
188.7793005646
 30
0.0
  0
SPLINE
  5
49A
100
AcDbEntity
  8
KONSTRUKTIONSELEMENTE
100
AcDbSpline
 62
7
  6
CONTINUOUS
 70
0
 71
3
 72
9
 73
5
 74
0
 42
0.0000001
 43
0.0000001
 44
0.0000000001
 40
0.0
 40
0.0
 40
0.0
 40
0.0
 40
0.4998160587
 40
1.0
 40
1.0
 40
1.0
 40
1.0
 10
722.960969371
 20
188.7793005646
 30
0.0
 10
722.960969371
 20
188.2295061681
 30
0.0
 10
723.1004447117
 20
187.1261882986
 30
0.0
 10
723.4694335724
 20
186.0833201601
 30
0.0
 10
723.6900764025
 20
185.5793005646
 30
0.0
  0
SPLINE
  5
49B
100
AcDbEntity
  8
KONSTRUKTIONSELEMENTE
100
AcDbSpline
 62
7
  6
CONTINUOUS
 70
0
 71
3
 72
11
 73
7
 74
0
 42
0.0000001
 43
0.0000001
 44
0.0000000001
 40
0.0
 40
0.0
 40
0.0
 40
0.0
 40
0.2501369337
 40
0.5002009564
 40
0.7501583912
 40
1.0
 40
1.0
 40
1.0
 40
1.0
 10
721.2396002276
 20
196.5793005646
 30
0.0
 10
721.4802120192
 20
196.3339572726
 30
0.0
 10
721.9333400977
 20
195.8143590475
 30
0.0
 10
722.4899000012
 20
194.9411865561
 30
0.0
 10
722.8692570575
 20
193.9750581685
 30
0.0
 10
722.960969371
 20
193.2855332692
 30
0.0
 10
722.960969371
 20
192.9423005646
 30
0.0
  0
SPLINE
  5
49C
100
AcDbEntity
  8
KONSTRUKTIONSELEMENTE
100
AcDbSpline
 62
7
  6
CONTINUOUS
 70
0
 71
3
 72
9
 73
5
 74
0
 42
0.0000001
 43
0.0000001
 44
0.0000000001
 40
0.0
 40
0.0
 40
0.0
 40
0.0
 40
0.7206016381
 40
1.0
 40
1.0
 40
1.0
 40
1.0
 10
727.2844624986
 20
171.5793005646
 30
0.0
 10
727.3063804813
 20
171.5793005646
 30
0.0
 10
727.3376901129
 20
171.5927076324
 30
0.0
 10
727.3575367237
 20
171.6157484654
 30
0.0
 10
727.3626509053
 20
171.6225356073
 30
0.0
  0
SPLINE
  5
49D
100
AcDbEntity
  8
KONSTRUKTIONSELEMENTE
100
AcDbSpline
 62
7
  6
CONTINUOUS
 70
0
 71
3
 72
18
 73
14
 74
0
 42
0.0000001
 43
0.0000001
 44
0.0000000001
 40
0.0
 40
0.0
 40
0.0
 40
0.0
 40
0.0122889573
 40
0.0325889573
 40
0.0613346189
 40
0.0984327877
 40
0.1435860424
 40
0.1963596956
 40
0.3225785801
 40
0.4720017517
 40
0.6387680168
 40
0.8167334978
 40
1.0
 40
1.0
 40
1.0
 40
1.0
 10
727.3626509053
 20
171.6225356073
 30
0.0
 10
727.3984778332
 20
171.6700823041
 30
0.0
 10
727.4358790464
 20
171.8311446772
 30
0.0
 10
727.4493621893
 20
172.1249952729
 30
0.0
 10
727.4272991548
 20
172.5437604845
 30
0.0
 10
727.368868986
 20
173.0778144335
 30
0.0
 10
727.2728685603
 20
173.7252151856
 30
0.0
 10
727.082555096
 20
174.7942878309
 30
0.0
 10
726.7464458398
 20
176.3499956231
 30
0.0
 10
726.2150066459
 20
178.4267440043
 30
0.0
 10
725.5325189591
 20
180.7220424662
 30
0.0
 10
724.6991173492
 20
183.1412096484
 30
0.0
 10
724.0461179162
 20
184.7659865785
 30
0.0
 10
723.6900764025
 20
185.5793005646
 30
0.0
  0
SPLINE
  5
49E
100
AcDbEntity
  8
RUNDUNGEN
100
AcDbSpline
 62
7
  6
CONTINUOUS
 70
0
 71
3
 72
9
 73
5
 74
0
 42
0.0000001
 43
0.0000001
 44
0.0000000001
 40
0.0
 40
0.0
 40
0.0
 40
0.0
 40
0.4924379896
 40
1.0
 40
1.0
 40
1.0
 40
1.0
 10
696.1712340673
 20
218.5793005646
 30
0.0
 10
695.2686930916
 20
218.5793005646
 30
0.0
 10
693.4366589738
 20
218.5138849409
 30
0.0
 10
691.6042495542
 20
218.4667827583
 30
0.0
 10
690.6739892538
 20
218.4667827583
 30
0.0
  0
SPLINE
  5
49F
100
AcDbEntity
  8
KONSTRUKTIONSELEMENTE
100
AcDbSpline
 62
7
  6
CONTINUOUS
 70
0
 71
3
 72
23
 73
19
 74
0
 42
0.0000001
 43
0.0000001
 44
0.0000000001
 40
0.0
 40
0.0
 40
0.0
 40
0.0
 40
0.1913883967
 40
0.3766246146
 40
0.5488640185
 40
0.6278902988
 40
0.7010327486
 40
0.7674747476
 40
0.8264735617
 40
0.877366161
 40
0.9196012785
 40
0.9527687179
 40
0.9658757704
 40
0.976666218
 40
0.9851857148
 40
0.9915683673
 40
0.9961893417
 40
1.0
 40
1.0
 40
1.0
 40
1.0
 10
692.5609418954
 20
185.5793005646
 30
0.0
 10
692.1867445147
 20
184.7245127052
 30
0.0
 10
691.5041372178
 20
183.0185175004
 30
0.0
 10
690.6413246859
 20
180.4845191583
 30
0.0
 10
690.0448989141
 20
178.4409291585
 30
0.0
 10
689.6491563768
 20
176.9095132182
 30
0.0
 10
689.4034003518
 20
175.8723269776
 30
0.0
 10
689.1999197425
 20
174.9256870955
 30
0.0
 10
689.0386681825
 20
174.0811592856
 30
0.0
 10
688.9193013471
 20
173.3490035766
 30
0.0
 10
688.8417496032
 20
172.7380524147
 30
0.0
 10
688.8084549329
 20
172.3074216268
 30
0.0
 10
688.8064437116
 20
172.0290562824
 30
0.0
 10
688.8154164289
 20
171.8711734673
 30
0.0
 10
688.8345402847
 20
171.7469212902
 30
0.0
 10
688.8637739581
 20
171.6560897541
 30
0.0
 10
688.9059490725
 20
171.5941576634
 30
0.0
 10
688.9479771054
 20
171.5793005646
 30
0.0
 10
688.9665557993
 20
171.5793005646
 30
0.0
  0
SPLINE
  5
4A0
100
AcDbEntity
  8
RUNDUNGEN
100
AcDbSpline
 62
7
  6
CONTINUOUS
 70
0
 71
3
 72
15
 73
11
 74
0
 42
0.0000001
 43
0.0000001
 44
0.0000000001
 40
0.0
 40
0.0
 40
0.0
 40
0.0
 40
0.0506580437
 40
0.0823029949
 40
0.1197229212
 40
0.2136507622
 40
0.3333912895
 40
0.4767107866
 40
0.6395049098
 40
1.0
 40
1.0
 40
1.0
 40
1.0
 10
679.625509149
 20
201.2625019444
 30
0.0
 10
679.625509149
 20
201.3445053133
 30
0.0
 10
679.6825588906
 20
201.4771980731
 30
0.0
 10
679.8169450362
 20
201.6165210451
 30
0.0
 10
680.0296203689
 20
201.7749667169
 30
0.0
 10
680.3989993726
 20
201.9509733243
 30
0.0
 10
680.9500791889
 20
202.1274755621
 30
0.0
 10
681.624634977
 20
202.2740746898
 30
0.0
 10
682.6934927578
 20
202.4261508408
 30
0.0
 10
683.5419530208
 20
202.4682733104
 30
0.0
 10
684.125509149
 20
202.4682733104
 30
0.0
  0
SPLINE
  5
4A1
100
AcDbEntity
  8
RUNDUNGEN
100
AcDbSpline
 62
7
  6
CONTINUOUS
 70
0
 71
3
 72
9
 73
5
 74
0
 42
0.0000001
 43
0.0000001
 44
0.0000000001
 40
0.0
 40
0.0
 40
0.0
 40
0.0
 40
0.2404036222
 40
1.0
 40
1.0
 40
1.0
 40
1.0
 10
732.1879909886
 20
218.2424144655
 30
0.0
 10
732.0291118115
 20
218.2937131531
 30
0.0
 10
731.3570512352
 20
218.4721577018
 30
0.0
 10
730.6541068491
 20
218.5217607067
 30
0.0
 10
730.1269563756
 20
218.501897779
 30
0.0
  0
SPLINE
  5
4A2
100
AcDbEntity
  8
RUNDUNGEN
100
AcDbSpline
 62
7
  6
CONTINUOUS
 70
0
 71
3
 72
9
 73
5
 74
0
 42
0.0000001
 43
0.0000001
 44
0.0000000001
 40
0.0
 40
0.0
 40
0.0
 40
0.0
 40
0.2515165758
 40
1.0
 40
1.0
 40
1.0
 40
1.0
 10
687.8106551097
 20
218.4667827583
 30
0.0
 10
687.6693384189
 20
218.4667827592
 30
0.0
 10
687.1074770149
 20
218.4700053515
 30
0.0
 10
686.5457493736
 20
218.4859228503
 30
0.0
 10
686.125509149
 20
218.5018429389
 30
0.0
  0
SPLINE
  5
4A3
100
AcDbEntity
  8
RUNDUNGEN
100
AcDbSpline
 62
7
  6
CONTINUOUS
 70
0
 71
3
 72
9
 73
5
 74
0
 42
0.0000001
 43
0.0000001
 44
0.0000000001
 40
0.0
 40
0.0
 40
0.0
 40
0.0
 40
0.2478013891
 40
1.0
 40
1.0
 40
1.0
 40
1.0
 10
730.1269563841
 20
218.5018977793
 30
0.0
 10
729.9877084432
 20
218.4966198409
 30
0.0
 10
729.4257206663
 20
218.4769341492
 30
0.0
 10
728.8633521914
 20
218.4667827583
 30
0.0
 10
728.4403629581
 20
218.4667827583
 30
0.0
  0
SPLINE
  5
4A4
100
AcDbEntity
  8
RUNDUNGEN
100
AcDbSpline
 62
7
  6
CONTINUOUS
 70
0
 71
3
 72
15
 73
11
 74
0
 42
0.0000001
 43
0.0000001
 44
0.0000000001
 40
0.0
 40
0.0
 40
0.0
 40
0.0
 40
0.0506580437
 40
0.0823029949
 40
0.1197229212
 40
0.2136507622
 40
0.3333912895
 40
0.4767107866
 40
0.6395049098
 40
1.0
 40
1.0
 40
1.0
 40
1.0
 10
736.625509149
 20
195.3735291987
 30
0.0
 10
736.625509149
 20
195.4555325676
 30
0.0
 10
736.5684594074
 20
195.5882253273
 30
0.0
 10
736.4340732617
 20
195.7275482994
 30
0.0
 10
736.2213979291
 20
195.8859939712
 30
0.0
 10
735.8520189253
 20
196.0620005786
 30
0.0
 10
735.3009391091
 20
196.2385028163
 30
0.0
 10
734.6263833209
 20
196.3851019441
 30
0.0
 10
733.5575255401
 20
196.537178095
 30
0.0
 10
732.7090652771
 20
196.5793005646
 30
0.0
 10
732.125509149
 20
196.5793005646
 30
0.0
  0
SPLINE
  5
4A5
100
AcDbEntity
  8
RUNDUNGEN
100
AcDbSpline
 62
7
  6
CONTINUOUS
 70
0
 71
3
 72
9
 73
5
 74
0
 42
0.0000001
 43
0.0000001
 44
0.0000000001
 40
0.0
 40
0.0
 40
0.0
 40
0.0
 40
0.5075627293
 40
1.0
 40
1.0
 40
1.0
 40
1.0
 10
725.5770290441
 20
218.4667827583
 30
0.0
 10
724.6467858364
 20
218.4667827583
 30
0.0
 10
722.8144126298
 20
218.5138815651
 30
0.0
 10
720.982414871
 20
218.5793005646
 30
0.0
 10
720.0798930743
 20
218.5793005646
 30
0.0
  0
SPLINE
  5
4A6
100
AcDbEntity
  8
RUNDUNGEN
100
AcDbSpline
 62
7
  6
CONTINUOUS
 70
0
 71
3
 72
15
 73
11
 74
0
 42
0.0000001
 43
0.0000001
 44
0.0000000001
 40
0.0
 40
0.0
 40
0.0
 40
0.0
 40
0.3604950902
 40
0.5232892134
 40
0.6666087105
 40
0.7863492378
 40
0.8802770788
 40
0.9176970051
 40
0.9493419563
 40
1.0
 40
1.0
 40
1.0
 40
1.0
 10
684.125509149
 20
196.5793005646
 30
0.0
 10
683.5419530208
 20
196.5793005646
 30
0.0
 10
682.6934927578
 20
196.537178095
 30
0.0
 10
681.624634977
 20
196.3851019441
 30
0.0
 10
680.9500791889
 20
196.2385028163
 30
0.0
 10
680.3989993726
 20
196.0620005786
 30
0.0
 10
680.0296203689
 20
195.8859939712
 30
0.0
 10
679.8169450362
 20
195.7275482994
 30
0.0
 10
679.6825588906
 20
195.5882253273
 30
0.0
 10
679.625509149
 20
195.4555325676
 30
0.0
 10
679.625509149
 20
195.3735291987
 30
0.0
  0
SPLINE
  5
4A7
100
AcDbEntity
  8
RUNDUNGEN
100
AcDbSpline
 62
7
  6
CONTINUOUS
 70
0
 71
3
 72
9
 73
5
 74
0
 42
0.0000001
 43
0.0000001
 44
0.0000000001
 40
0.0
 40
0.0
 40
0.0
 40
0.0
 40
0.259310087
 40
1.0
 40
1.0
 40
1.0
 40
1.0
 10
686.125509149
 20
218.5018429389
 30
0.0
 10
685.9454732229
 20
218.5086632948
 30
0.0
 10
685.2509021643
 20
218.5086659661
 30
0.0
 10
684.5527540173
 20
218.4005367436
 30
0.0
 10
684.0630273094
 20
218.2424144655
 30
0.0
  0
LINE
  5
4A8
100
AcDbEntity
  8
0
100
AcDbLine
 62
7
  6
CONTINUOUS
 10
335.8456207711
 20
195.3735291987
 11
340.3456207711
 21
196.5793005646
  0
LINE
  5
4A9
100
AcDbEntity
  8
0
100
AcDbLine
 62
7
  6
CONTINUOUS
 10
332.4456207711
 20
201.2625019444
 11
336.9456207711
 21
202.4682733104
  0
SPLINE
  5
4AA
100
AcDbEntity
  8
0
100
AcDbSpline
 62
7
  6
CONTINUOUS
 70
0
 71
3
 72
10
 73
6
 74
0
 42
0.0000001
 43
0.0000001
 44
0.0000000001
 40
0.0
 40
0.0
 40
0.0
 40
0.0
 40
0.62119975
 40
0.8379889831
 40
1.0
 40
1.0
 40
1.0
 40
1.0
 10
332.5375060823
 20
218.2424144655
 30
0.0
 10
332.6791241186
 20
218.3260767958
 30
0.0
 10
332.8770023122
 20
218.4316930945
 30
0.0
 10
333.1321160446
 20
218.5047788959
 30
0.0
 10
333.2344959256
 20
218.5097745324
 30
0.0
 10
333.2766646203
 20
218.501897779
 30
0.0
  0
SPLINE
  5
4AB
100
AcDbEntity
  8
0
100
AcDbSpline
 62
7
  6
CONTINUOUS
 70
0
 71
3
 72
9
 73
5
 74
0
 42
0.0000001
 43
0.0000001
 44
0.0000000001
 40
0.0
 40
0.0
 40
0.0
 40
0.0
 40
0.5000000009
 40
1.0
 40
1.0
 40
1.0
 40
1.0
 10
322.5238392558
 20
251.2995861091
 30
0.0
 10
322.1219217647
 20
253.4030995128
 30
0.0
 10
321.6827722191
 20
257.6941544335
 30
0.0
 10
322.1219217661
 20
261.9852093539
 30
0.0
 10
322.5238392558
 20
264.0887227503
 30
0.0
  0
SPLINE
  5
4AC
100
AcDbEntity
  8
0
100
AcDbSpline
 62
7
  6
CONTINUOUS
 70
0
 71
3
 72
9
 73
5
 74
0
 42
0.0000001
 43
0.0000001
 44
0.0000000001
 40
0.0
 40
0.0
 40
0.0
 40
0.0
 40
0.5000000009
 40
1.0
 40
1.0
 40
1.0
 40
1.0
 10
322.5238392558
 20
233.8293005646
 30
0.0
 10
322.1194768912
 20
236.7202325915
 30
0.0
 10
321.6852170926
 20
242.564443342
 30
0.0
 10
322.1194768926
 20
248.4086540923
 30
0.0
 10
322.5238392558
 20
251.2995861091
 30
0.0
  0
SPLINE
  5
4AD
100
AcDbEntity
  8
0
100
AcDbSpline
 62
7
  6
CONTINUOUS
 70
0
 71
3
 72
11
 73
7
 74
0
 42
0.0000001
 43
0.0000001
 44
0.0000000001
 40
0.0
 40
0.0
 40
0.0
 40
0.0
 40
0.2574351421
 40
0.5000000008
 40
0.7425648595
 40
1.0
 40
1.0
 40
1.0
 40
1.0
 10
322.5238392558
 20
264.0887227503
 30
0.0
 10
322.3300736437
 20
264.4599127865
 30
0.0
 10
322.0174073865
 20
265.2188713508
 30
0.0
 10
321.8465277764
 20
266.429297206
 30
0.0
 10
322.0174073835
 20
267.6397230599
 30
0.0
 10
322.330073645
 20
268.3986816197
 30
0.0
 10
322.5238392558
 20
268.7698716535
 30
0.0
  0
SPLINE
  5
4AE
100
AcDbEntity
  8
0
100
AcDbSpline
 62
7
  6
CONTINUOUS
 70
0
 71
3
 72
11
 73
7
 74
0
 42
0.0000001
 43
0.0000001
 44
0.0000000001
 40
0.0
 40
0.0
 40
0.0
 40
0.0
 40
0.2574351421
 40
0.5000000008
 40
0.7425648595
 40
1.0
 40
1.0
 40
1.0
 40
1.0
 10
328.3674022864
 20
264.0887227503
 30
0.0
 10
328.5611678985
 20
264.4599127865
 30
0.0
 10
328.8738341556
 20
265.2188713508
 30
0.0
 10
329.0447137658
 20
266.429297206
 30
0.0
 10
328.8738341587
 20
267.6397230599
 30
0.0
 10
328.5611678972
 20
268.3986816197
 30
0.0
 10
328.3674022864
 20
268.7698716535
 30
0.0
  0
SPLINE
  5
4AF
100
AcDbEntity
  8
0
100
AcDbSpline
 62
7
  6
CONTINUOUS
 70
0
 71
3
 72
9
 73
5
 74
0
 42
0.0000001
 43
0.0000001
 44
0.0000000001
 40
0.0
 40
0.0
 40
0.0
 40
0.0
 40
0.5000000009
 40
1.0
 40
1.0
 40
1.0
 40
1.0
 10
328.3674022864
 20
251.2995861091
 30
0.0
 10
328.7693197775
 20
253.4030995128
 30
0.0
 10
329.2084693231
 20
257.6941544335
 30
0.0
 10
328.7693197761
 20
261.9852093539
 30
0.0
 10
328.3674022864
 20
264.0887227503
 30
0.0
  0
SPLINE
  5
4B0
100
AcDbEntity
  8
0
100
AcDbSpline
 62
7
  6
CONTINUOUS
 70
0
 71
3
 72
9
 73
5
 74
0
 42
0.0000001
 43
0.0000001
 44
0.0000000001
 40
0.0
 40
0.0
 40
0.0
 40
0.0
 40
0.5000000009
 40
1.0
 40
1.0
 40
1.0
 40
1.0
 10
328.3674022864
 20
233.8293005646
 30
0.0
 10
328.771764651
 20
236.7202325915
 30
0.0
 10
329.2060244496
 20
242.564443342
 30
0.0
 10
328.7717646496
 20
248.4086540923
 30
0.0
 10
328.3674022864
 20
251.2995861091
 30
0.0
  0
LINE
  5
4B1
100
AcDbEntity
  8
RUNDUNGEN
100
AcDbLine
 62
7
  6
CONTINUOUS
 10
315.0456207711
 20
195.3735291987
 11
310.5456207711
 21
196.5793005646
  0
LINE
  5
4B2
100
AcDbEntity
  8
RUNDUNGEN
100
AcDbLine
 62
7
  6
CONTINUOUS
 10
318.4456207711
 20
201.2625019444
 11
313.9456207711
 21
202.4682733104
  0
SPLINE
  5
4B3
100
AcDbEntity
  8
RUNDUNGEN
100
AcDbSpline
 62
7
  6
CONTINUOUS
 70
0
 71
3
 72
10
 73
6
 74
0
 42
0.0000001
 43
0.0000001
 44
0.0000000001
 40
0.0
 40
0.0
 40
0.0
 40
0.0
 40
0.62119975
 40
0.8379889831
 40
1.0
 40
1.0
 40
1.0
 40
1.0
 10
318.3537354599
 20
218.2424144655
 30
0.0
 10
318.2121174236
 20
218.3260767958
 30
0.0
 10
318.01423923
 20
218.4316930945
 30
0.0
 10
317.7591254976
 20
218.5047788959
 30
0.0
 10
317.6567456166
 20
218.5097745324
 30
0.0
 10
317.6145769219
 20
218.501897779
 30
0.0
  0
SPLINE
  5
4B4
100
AcDbEntity
  8
RUNDUNGEN
100
AcDbSpline
 62
7
  6
CONTINUOUS
 70
0
 71
3
 72
19
 73
15
 74
0
 42
0.0000001
 43
0.0000001
 44
0.0000000001
 40
0.0
 40
0.0
 40
0.0
 40
0.0
 40
0.0667865092
 40
0.1315853146
 40
0.1626314279
 40
0.1925855735
 40
0.2501504315
 40
0.3072260605
 40
0.3650919934
 40
0.4841807767
 40
0.6082591498
 40
0.7362936521
 40
0.8671969929
 40
1.0
 40
1.0
 40
1.0
 40
1.0
 10
317.6195291649
 20
179.0770505646
 30
0.0
 10
317.3323533043
 20
179.0770505646
 30
0.0
 10
316.7640110884
 20
179.0329268977
 30
0.0
 10
316.095905818
 20
178.7676494835
 30
0.0
 10
315.6864626721
 20
178.4063881787
 30
0.0
 10
315.3917297821
 20
177.9848693308
 30
0.0
 10
315.2215735976
 20
177.3671837958
 30
0.0
 10
315.2822211133
 20
176.617865694
 30
0.0
 10
315.6098320048
 20
175.6585014698
 30
0.0
 10
316.3678265925
 20
174.5804016999
 30
0.0
 10
317.5865638684
 20
173.5339011747
 30
0.0
 10
319.02330267
 20
172.7115731064
 30
0.0
 10
320.6032877075
 20
172.1116742254
 30
0.0
 10
321.7121840422
 20
171.8571387876
 30
0.0
 10
322.2756686929
 20
171.7645505646
 30
0.0
  0
SPLINE
  5
4B5
100
AcDbEntity
  8
0
100
AcDbSpline
 62
7
  6
CONTINUOUS
 70
0
 71
3
 72
19
 73
15
 74
0
 42
0.0000001
 43
0.0000001
 44
0.0000000001
 40
0.0
 40
0.0
 40
0.0
 40
0.0
 40
0.0667865092
 40
0.1315853146
 40
0.1626314279
 40
0.1925855735
 40
0.2501504315
 40
0.3072260605
 40
0.3650919934
 40
0.4841807767
 40
0.6082591498
 40
0.7362936521
 40
0.8671969929
 40
1.0
 40
1.0
 40
1.0
 40
1.0
 10
333.2717123773
 20
179.0770505646
 30
0.0
 10
333.5588882379
 20
179.0770505646
 30
0.0
 10
334.1272304538
 20
179.0329268977
 30
0.0
 10
334.7953357242
 20
178.7676494835
 30
0.0
 10
335.2047788701
 20
178.4063881787
 30
0.0
 10
335.4995117601
 20
177.9848693308
 30
0.0
 10
335.6696679446
 20
177.3671837958
 30
0.0
 10
335.6090204289
 20
176.617865694
 30
0.0
 10
335.2814095373
 20
175.6585014698
 30
0.0
 10
334.5234149496
 20
174.5804016999
 30
0.0
 10
333.3046776738
 20
173.5339011747
 30
0.0
 10
331.8679388722
 20
172.7115731064
 30
0.0
 10
330.2879538347
 20
172.1116742254
 30
0.0
 10
329.1790575
 20
171.8571387876
 30
0.0
 10
328.6155728493
 20
171.7645505646
 30
0.0
  0
ELLIPSE
  5
4B6
100
AcDbEntity
  8
0
100
AcDbEllipse
 62
7
  6
CONTINUOUS
 10
332.8628351639
 20
212.0793005646
 30
0.0
 11
1.020028169
 21
6.4800083213
 31
0.0
 40
0.4994016261
 41
0.4286154991
 42
1.6492465757
  0
ELLIPSE
  5
4B7
100
AcDbEntity
  8
RUNDUNGEN
100
AcDbEllipse
 62
7
  6
CONTINUOUS
 10
318.0284063783
 20
212.0793005646
 30
0.0
 11
-1.020028169
 21
6.4800083213
 31
0.0
 40
0.4994016261
 41
-1.6492465757
 42
-0.4286154991
  0
ENDSEC
  0
SECTION
  2
OBJECTS
  0
DICTIONARY
  5
C
100
AcDbDictionary
280
0
281
1
  3
ACAD_GROUP
350
D
  3
ACAD_MLINESTYLE
350
17
  3
ACAD_LAYOUT
350
1A
  3
ACAD_PLOTSETTINGS
350
19
  3
ACAD_PLOTSTYLENAME
350
E
  0
DICTIONARY
  5
D
102
{ACAD_REACTORS
330
C
102
}
100
AcDbDictionary
280
0
281
1
  0
ACDBDICTIONARYWDFLT
  5
E
102
{ACAD_REACTORS
330
C
102
}
100
AcDbDictionary
281
1
  3
Normal
350
F
100
AcDbDictionaryWithDefault
340
F
  0
DICTIONARY
  5
17
102
{ACAD_REACTORS
330
C
102
}
100
AcDbDictionary
280
0
281
1
  3
Standard
350
18
  0
DICTIONARY
  5
19
102
{ACAD_REACTORS
330
C
102
}
100
AcDbDictionary
281
1
  0
DICTIONARY
  5
1A
102
{ACAD_REACTORS
330
C
102
}
100
AcDbDictionary
281
1
  3
Model
350
4B8
  3
Layout1
350
4B9
  0
ACDBPLACEHOLDER
  5
F
102
{ACAD_REACTORS
330
E
102
}
  0
MLINESTYLE
  5
18
102
{ACAD_REACTORS
330
17
102
}
100
AcDbMlineStyle
  2
STANDARD
 70
0
  3

 62
256
 51
90.0
 52
90.0
 71
2
 49
0.5
 62
256
  6
BYLAYER
 49
-0.5
 62
256
  6
BYLAYER
  0
LAYOUT
  5
4B8
102
{ACAD_REACTORS
330
1A
102
}
100
AcDbPlotSettings
  1

  2
none_device
  4
ISO_A0_(1189.00_x_841.00_MM)
  6

 40
0.0
 41
0.0
 42
0.0
 43
0.0
 44
1189.0
 45
841.0
 46
0.0
 47
0.0
 48
0.0
 49
0.0
140
0.0
141
0.0
142
1.0
143
1.0
 70
1024
 72
1
 73
0
 74
0
  7

 75
0
147
1.0
148
0.0
149
0.0
100
AcDbLayout
  1
Model
 70
0
 71
0
 10
0.0
 20
0.0
 11
1189.0
 21
841.0
 12
0.0
 22
0.0
 32
0.0
 14
0.0
 24
0.0
 34
0.0
 15
0.0
 25
0.0
 35
0.0
146
0.0
 13
0.0
 23
0.0
 33
0.0
 16
1.0
 26
0.0
 36
0.0
 17
0.0
 27
1.0
 37
0.0
 76
0
330
20A
345
0
346
0
  0
LAYOUT
  5
4B9
102
{ACAD_REACTORS
330
1A
102
}
100
AcDbPlotSettings
  1

  2
none_device
  4
ISO_A0_(1189.00_x_841.00_MM)
  6

 40
0.0
 41
0.0
 42
0.0
 43
0.0
 44
1189.0
 45
841.0
 46
0.0
 47
0.0
 48
0.0
 49
0.0
140
0.0
141
0.0
142
1.0
143
1.0
 70
0
 72
1
 73
0
 74
0
  7

 75
0
147
1.0
148
0.0
149
0.0
100
AcDbLayout
  1
Layout1
 70
0
 71
1
 10
0.0
 20
0.0
 11
1189.0
 21
841.0
 12
0.0
 22
0.0
 32
0.0
 14
0.0
 24
0.0
 34
0.0
 15
0.0
 25
0.0
 35
0.0
146
0.0
 13
0.0
 23
0.0
 33
0.0
 16
1.0
 26
0.0
 36
0.0
 17
0.0
 27
1.0
 37
0.0
 76
0
330
20B
345
0
346
0
  0
ENDSEC
  0
EOF
