999
DXF file: ISAK-RG-1-10_140_7903184_M34585-P-3.dxf
999
Pro/ENGINEER 2010140 by Parametric Technology Corporation
  0
SECTION
  2
HEADER
  9
$ACADVER
  1
AC1015
  9
$DWGCODEPAGE
  3
ANSI_1252
  9
$EXTMAX
 10
841.0
 20
594.0
 30
0.0
  9
$EXTMIN
 10
0.0
 20
0.0
 30
0.0
  9
$LIMMIN
 10
0.0
 20
0.0
  9
$LIMMAX
 10
841.0
 20
594.0
  9
$VIEWCTR
 10
420.5
 20
297.0
  9
$VIEWSIZE
 40
594.0
  9
$CLAYER
  8
0
  9
$LTSCALE
 40
46.255
  9
$CELTYPE
  6
BYLAYER
  9
$DIMSCALE
 40
1.0
  9
$DIMASZ
 40
3.5
  9
$DIMEXO
 40
5.25625
  9
$DIMDLI
 40
31.958
  9
$DIMEXE
 40
15.138
  9
$DIMCEN
 40
7.569
  9
$DIMLFAC
 40
1.0
  9
$DIMBLK
  1
_FILLED
  9
$DIMTXT
 40
3.5
  9
$DIMTOL
 70
1
  9
$DIMLIM
 70
0
  9
$DIMTFAC
 40
1.0
  9
$DIMTP
 40
0.005
  9
$DIMTM
 40
0.005
  9
$PDMODE
 70
3
  9
$PDSIZE
 40
0.3125
  9
$HANDSEED
  5
4BA
  9
$TILEMODE
 70
1
  9
$MEASUREMENT
 70
1
  9
$INSUNITS
 70
4
  0
ENDSEC
  0
SECTION
  2
CLASSES
  0
CLASS
  1
ACDBDICTIONARYWDFLT
  2
AcDbDictionaryWithDefault
  3
AutoCAD 2000
 90
0
280
0
281
0
  0
CLASS
  1
ACDBPLACEHOLDER
  2
AcDbPlaceHolder
  3
AutoCAD 2000
 90
0
280
0
281
0
  0
CLASS
  1
LAYOUT
  2
AcDbLayout
  3
AutoCAD 2000
 90
0
280
0
281
0
  0
ENDSEC
  0
SECTION
  2
TABLES
  0
TABLE
  2
VPORT
  5
8
100
AcDbSymbolTable
 70
2
  0
VPORT
  5
1F4
100
AcDbSymbolTableRecord
100
AcDbViewportTableRecord
  2
*ACTIVE
 70
0
 10
0.0
 20
0.0
 11
1.0
 21
1.0
 12
420.5
 22
297.0
 13
0.0
 23
0.0
 14
1.0
 24
1.0
 15
0.0
 25
0.0
 16
0.0
 26
0.0
 36
1.0
 17
0.0
 27
0.0
 37
0.0
 40
594.0
 41
1.4158249158
 42
50.0
 43
0.0
 44
0.0
 50
0.0
 51
0.0
 71
0
 72
100
 73
1
 74
1
 75
0
 76
0
 77
0
 78
0
  0
ENDTAB
  0
TABLE
  2
LTYPE
  5
5
100
AcDbSymbolTable
 70
6
  0
LTYPE
  5
14
100
AcDbSymbolTableRecord
100
AcDbLinetypeTableRecord
  2
BYBLOCK
 70
0
  3

 72
65
 73
0
 40
0.0
  0
LTYPE
  5
15
100
AcDbSymbolTableRecord
100
AcDbLinetypeTableRecord
  2
BYLAYER
 70
0
  3

 72
65
 73
0
 40
0.0
  0
LTYPE
  5
16
100
AcDbSymbolTableRecord
100
AcDbLinetypeTableRecord
  2
CONTINUOUS
 70
64
  3
Solid line
 72
65
 73
0
 40
0.0
  0
LTYPE
  5
1F5
100
AcDbSymbolTableRecord
100
AcDbLinetypeTableRecord
  2
CENTER
 70
64
  3
____ _ ____ _ ____ _ ____ _ ____ _ ____ _ ____
 72
65
 73
4
 40
0.6
 49
0.375
 74
0
 49
-0.075
 74
0
 49
0.075
 74
0
 49
-0.075
 74
0
  0
LTYPE
  5
1F6
100
AcDbSymbolTableRecord
100
AcDbLinetypeTableRecord
  2
HIDDEN
 70
64
  3
- - - - - - - - - - - - - - - - - - - -
 72
65
 73
2
 40
0.2
 49
0.1
 74
0
 49
-0.1
 74
0
  0
LTYPE
  5
1F7
100
AcDbSymbolTableRecord
100
AcDbLinetypeTableRecord
  2
PHANTOM
 70
64
  3
_____ _ _ _____ _ _ _____ _ _ _____
 72
65
 73
6
 40
0.8
 49
0.45
 74
0
 49
-0.05
 74
0
 49
0.1
 74
0
 49
-0.05
 74
0
 49
0.1
 74
0
 49
-0.05
 74
0
  0
LTYPE
  5
1F8
100
AcDbSymbolTableRecord
100
AcDbLinetypeTableRecord
  2
DOT
 70
64
  3
. . . . . . . . . . . . . . . . . . . .
 72
65
 73
2
 40
0.2
 49
0.1
 74
0
 49
-0.1
 74
0
  0
LTYPE
  5
1F9
100
AcDbSymbolTableRecord
100
AcDbLinetypeTableRecord
  2
DASHED
 70
64
  3
- - - - - - - - - - - - - - - - - - - -
 72
65
 73
2
 40
0.2
 49
0.1
 74
0
 49
-0.1
 74
0
  0
ENDTAB
  0
TABLE
  2
LAYER
  5
2
100
AcDbSymbolTable
 70
36
  0
LAYER
  5
10
100
AcDbSymbolTableRecord
100
AcDbLayerTableRecord
  2
0
 70
0
 62
7
  6
CONTINUOUS
370
-3
390
F
  0
LAYER
  5
1FA
100
AcDbSymbolTableRecord
100
AcDbLayerTableRecord
  2
DEFAULT_1
 70
0
 62
7
  6
CENTER
370
-3
390
F
  0
LAYER
  5
1FB
100
AcDbSymbolTableRecord
100
AcDbLayerTableRecord
  2
DEFAULT_2
 70
0
 62
8
  6
HIDDEN
370
-3
390
F
  0
LAYER
  5
1FC
100
AcDbSymbolTableRecord
100
AcDbLayerTableRecord
  2
DEFAULT_3
 70
0
 62
7
  6
PHANTOM
370
-3
390
F
  0
LAYER
  5
1FD
100
AcDbSymbolTableRecord
100
AcDbLayerTableRecord
  2
BEZUGSACHSEN
 70
0
 62
7
  6
CONTINUOUS
370
-3
390
F
  0
LAYER
  5
1FE
100
AcDbSymbolTableRecord
100
AcDbLayerTableRecord
  2
BEZUGSEBENEN
 70
0
 62
7
  6
CONTINUOUS
370
-3
390
F
  0
LAYER
  5
1FF
100
AcDbSymbolTableRecord
100
AcDbLayerTableRecord
  2
BG_STARTBEZUEGE
 70
0
 62
7
  6
CONTINUOUS
370
-3
390
F
  0
LAYER
  5
200
100
AcDbSymbolTableRecord
100
AcDbLayerTableRecord
  2
FASEN
 70
0
 62
7
  6
CONTINUOUS
370
-3
390
F
  0
LAYER
  5
201
100
AcDbSymbolTableRecord
100
AcDbLayerTableRecord
  2
HILFEN
 70
0
 62
7
  6
CONTINUOUS
370
-3
390
F
  0
LAYER
  5
202
100
AcDbSymbolTableRecord
100
AcDbLayerTableRecord
  2
KONSTRUKTIONSELEMENTE
 70
0
 62
7
  6
CONTINUOUS
370
-3
390
F
  0
LAYER
  5
203
100
AcDbSymbolTableRecord
100
AcDbLayerTableRecord
  2
NORM
 70
0
 62
7
  6
CONTINUOUS
370
-3
390
F
  0
LAYER
  5
204
100
AcDbSymbolTableRecord
100
AcDbLayerTableRecord
  2
PLATZIERUNG
 70
0
 62
7
  6
CONTINUOUS
370
-3
390
F
  0
LAYER
  5
205
100
AcDbSymbolTableRecord
100
AcDbLayerTableRecord
  2
RUNDUNGEN
 70
0
 62
7
  6
CONTINUOUS
370
-3
390
F
  0
LAYER
  5
206
100
AcDbSymbolTableRecord
100
AcDbLayerTableRecord
  2
TEIL_STARTBEZUEGE
 70
0
 62
7
  6
CONTINUOUS
370
-3
390
F
  0
LAYER
  5
207
100
AcDbSymbolTableRecord
100
AcDbLayerTableRecord
  2
T_STARTBEZUEGE
 70
0
 62
7
  6
CONTINUOUS
370
-3
390
F
  0
ENDTAB
  0
TABLE
  2
STYLE
  5
3
100
AcDbSymbolTable
 70
1
  0
STYLE
  5
11
100
AcDbSymbolTableRecord
100
AcDbTextStyleTableRecord
  2
STANDARD
 70
0
 40
0.0
 41
0.7
 50
0.0
 71
0
 42
0.2
  3
txt
  4

  0
STYLE
  5
208
100
AcDbSymbolTableRecord
100
AcDbTextStyleTableRecord
  2
TEXTSTYLE_1
 70
0
 40
0.0
 41
0.8
 50
0.0
 71
0
 42
0.2
  3
gdt
  4

  0
ENDTAB
  0
TABLE
  2
VIEW
  5
6
100
AcDbSymbolTable
 70
0
  0
ENDTAB
  0
TABLE
  2
UCS
  5
7
100
AcDbSymbolTable
 70
0
  0
ENDTAB
  0
TABLE
  2
APPID
  5
9
100
AcDbSymbolTable
 70
1
  0
APPID
  5
209
100
AcDbSymbolTableRecord
100
AcDbRegAppTableRecord
  2
ACAD
 70
0
  0
ENDTAB
  0
TABLE
  2
BLOCK_RECORD
  5
1
100
AcDbSymbolTable
 70
0
  0
BLOCK_RECORD
  5
20A
100
AcDbSymbolTableRecord
100
AcDbBlockTableRecord
  2
*Model_Space
  0
BLOCK_RECORD
  5
20B
100
AcDbSymbolTableRecord
100
AcDbBlockTableRecord
  2
*Paper_Space
  0
ENDTAB
  0
TABLE
  2
DIMSTYLE
  5
A
100
AcDbSymbolTable
 70
1
100
AcDbDimStyleTable
 71
0
  0
DIMSTYLE
105
20C
100
AcDbSymbolTableRecord
100
AcDbDimStyleTableRecord
  2
STANDARD
 70
0
  3

  4

 40
1.0
 41
3.5
 42
0.0625
 43
0.38
 44
0.18
 45
0.0
 46
0.0
 47
0.005
 48
0.005
140
3.5
141
0.09
142
0.0
143
25.4
144
1.0
145
0.0
146
1.0
147
0.09
 71
1.0
 72
0.0
 73
0
 74
0
 75
0
 76
0
 77
1
 78
8
170
0
171
2
172
0
173
0
174
0
175
0
176
0
177
0
178
5
270
2
271
3
272
3
273
2
274
2
275
0
280
0
281
0
282
0
283
1
284
8
285
0
286
0
287
3
288
0
340
11
  0
ENDTAB
  0
ENDSEC
  0
SECTION
  2
BLOCKS
  0
BLOCK
  5
20
100
AcDbEntity
  8
0
100
AcDbBlockBegin
  2
*Model_Space
 70
0
 10
0.0
 20
0.0
 30
0.0
  3
*Model_Space
  1

  0
ENDBLK
  5
21
100
AcDbEntity
  8
0
100
AcDbBlockEnd
  0
BLOCK
  5
1C
100
AcDbEntity
  8
0
100
AcDbBlockBegin
  2
*Paper_Space
 70
0
 10
0.0
 20
0.0
 30
0.0
  3
*Paper_Space
  1

  0
ENDBLK
  5
1D
100
AcDbEntity
  8
0
100
AcDbBlockEnd
  0
ENDSEC
  0
SECTION
  2
ENTITIES
  0
MTEXT
  5
20D
100
AcDbEntity
  8
0
100
AcDbMText
 62
5
  6
CONTINUOUS
  7
STANDARD
 71
1
 72
1
 10
477.3176916028
 20
403.1332011694
 30
0.0
 11
0.0
 21
1.0
 31
0.0
 44
0.9
  1
RUD
 40
11.0
 41
29.3333333333
  0
MTEXT
  5
20E
100
AcDbEntity
  8
0
100
AcDbMText
 62
5
  6
CONTINUOUS
  7
STANDARD
 71
1
 72
1
 10
642.6323846713
 20
350.0381733347
 30
0.0
 11
0.0
 21
1.0
 31
0.0
 44
0.9
  1
ISAK-RG 1-10/140
 40
11.0
 41
130.6904761905
  0
MTEXT
  5
20F
100
AcDbEntity
  8
0
100
AcDbMText
 62
5
  6
CONTINUOUS
  7
STANDARD
 71
1
 72
1
 10
244.4461124824
 20
332.459360008
 30
0.0
 11
0.0
 21
1.0
 31
0.0
 44
0.9
  1
RUD ISAK-RG 1-10/140
 40
11.0
 41
166.5714285714
  0
LINE
  5
210
100
AcDbEntity
  8
0
100
AcDbLine
 62
7
  6
CONTINUOUS
 10
0.0
 20
0.0
 11
0.0
 21
594.0
  0
LINE
  5
211
100
AcDbEntity
  8
0
100
AcDbLine
 62
7
  6
CONTINUOUS
 10
0.0
 20
0.0
 11
841.0
 21
0.0
  0
LINE
  5
212
100
AcDbEntity
  8
0
100
AcDbLine
 62
7
  6
CONTINUOUS
 10
0.0
 20
594.0
 11
841.0
 21
594.0
  0
LINE
  5
213
100
AcDbEntity
  8
0
100
AcDbLine
 62
7
  6
CONTINUOUS
 10
841.0
 20
0.0
 11
841.0
 21
594.0
  0
LINE
  5
214
100
AcDbEntity
  8
RUNDUNGEN
100
AcDbLine
 62
7
  6
CONTINUOUS
 10
536.6309320603
 20
14.7490115415
 11
538.9809320603
 21
14.7490115415
  0
LINE
  5
215
100
AcDbEntity
  8
RUNDUNGEN
100
AcDbLine
 62
7
  6
CONTINUOUS
 10
592.2809320603
 20
14.7490115415
 11
594.6309320603
 21
14.7490115415
  0
LINE
  5
216
100
AcDbEntity
  8
RUNDUNGEN
100
AcDbLine
 62
7
  6
CONTINUOUS
 10
544.4809320603
 20
23.2342929157
 11
551.3429659682
 21
23.2342929157
  0
LINE
  5
217
100
AcDbEntity
  8
RUNDUNGEN
100
AcDbLine
 62
7
  6
CONTINUOUS
 10
579.9188981525
 20
23.2342929157
 11
586.7809320603
 21
23.2342929157
  0
LINE
  5
218
100
AcDbEntity
  8
0
100
AcDbLine
 62
7
  6
CONTINUOUS
 10
551.6436643251
 20
64.2464862245
 11
556.4436643251
 21
64.2464862245
  0
LINE
  5
219
100
AcDbEntity
  8
0
100
AcDbLine
 62
7
  6
CONTINUOUS
 10
558.9894656266
 20
64.2464862245
 11
559.9494656266
 21
64.2464862245
  0
LINE
  5
21A
100
AcDbEntity
  8
0
100
AcDbLine
 62
7
  6
CONTINUOUS
 10
564.5224195435
 20
64.2464862245
 11
565.6309320603
 21
64.2464862245
  0
LINE
  5
21B
100
AcDbEntity
  8
0
100
AcDbLine
 62
7
  6
CONTINUOUS
 10
573.9836009871
 20
64.2464862245
 11
577.4615680547
 21
64.2464862245
  0
LINE
  5
21C
100
AcDbEntity
  8
0
100
AcDbLine
 62
7
  6
CONTINUOUS
 10
551.6436643251
 20
64.6000396151
 11
556.4436643251
 21
64.6000396151
  0
LINE
  5
21D
100
AcDbEntity
  8
0
100
AcDbLine
 62
7
  6
CONTINUOUS
 10
558.9894656266
 20
64.6000396151
 11
559.9494656266
 21
64.6000396151
  0
LINE
  5
21E
100
AcDbEntity
  8
0
100
AcDbLine
 62
7
  6
CONTINUOUS
 10
564.5224195435
 20
64.6000396151
 11
565.3422569257
 21
64.6000396151
  0
LINE
  5
21F
100
AcDbEntity
  8
0
100
AcDbLine
 62
7
  6
CONTINUOUS
 10
573.9836009871
 20
64.6000396151
 11
577.4615680547
 21
64.6000396151
  0
LINE
  5
220
100
AcDbEntity
  8
0
100
AcDbLine
 62
7
  6
CONTINUOUS
 10
577.4826045327
 20
64.9535930057
 11
574.9436009871
 21
64.9535930057
  0
LINE
  5
221
100
AcDbEntity
  8
0
100
AcDbLine
 62
7
  6
CONTINUOUS
 10
554.7936643251
 20
65.0950143619
 11
553.2936643251
 21
65.0950143619
  0
LINE
  5
222
100
AcDbEntity
  8
0
100
AcDbLine
 62
7
  6
CONTINUOUS
 10
553.5636643251
 20
65.4132124135
 11
554.5236643251
 21
65.4132124135
  0
LINE
  5
223
100
AcDbEntity
  8
0
100
AcDbLine
 62
7
  6
CONTINUOUS
 10
553.5636643251
 20
65.7667658041
 11
554.5236643251
 21
65.7667658041
  0
LINE
  5
224
100
AcDbEntity
  8
0
100
AcDbLine
 62
7
  6
CONTINUOUS
 10
554.1486643251
 20
66.2617405509
 11
553.9386643251
 21
66.2617405509
  0
LINE
  5
225
100
AcDbEntity
  8
0
100
AcDbLine
 62
7
  6
CONTINUOUS
 10
554.5236643251
 20
66.4738725853
 11
554.2686643251
 21
66.4738725853
  0
LINE
  5
226
100
AcDbEntity
  8
0
100
AcDbLine
 62
7
  6
CONTINUOUS
 10
553.8186643251
 20
66.4738725853
 11
553.5636643251
 21
66.4738725853
  0
LINE
  5
227
100
AcDbEntity
  8
0
100
AcDbLine
 62
7
  6
CONTINUOUS
 10
553.2936643251
 20
66.7920706368
 11
553.8186643251
 21
66.7920706368
  0
LINE
  5
228
100
AcDbEntity
  8
0
100
AcDbLine
 62
7
  6
CONTINUOUS
 10
554.2686643251
 20
66.7920706368
 11
554.7936643251
 21
66.7920706368
  0
LINE
  5
229
100
AcDbEntity
  8
0
100
AcDbLine
 62
7
  6
CONTINUOUS
 10
559.9494656266
 20
66.90780039
 11
562.3494656266
 21
66.90780039
  0
LINE
  5
22A
100
AcDbEntity
  8
0
100
AcDbLine
 62
7
  6
CONTINUOUS
 10
553.2936643251
 20
67.1456240274
 11
553.8186643251
 21
67.1456240274
  0
LINE
  5
22B
100
AcDbEntity
  8
0
100
AcDbLine
 62
7
  6
CONTINUOUS
 10
554.2686643251
 20
67.1456240274
 11
554.7936643251
 21
67.1456240274
  0
LINE
  5
22C
100
AcDbEntity
  8
0
100
AcDbLine
 62
7
  6
CONTINUOUS
 10
554.7936643251
 20
67.2163347055
 11
554.2686643251
 21
67.2163347055
  0
LINE
  5
22D
100
AcDbEntity
  8
0
100
AcDbLine
 62
7
  6
CONTINUOUS
 10
553.8186643251
 20
67.2163347055
 11
553.2936643251
 21
67.2163347055
  0
LINE
  5
22E
100
AcDbEntity
  8
0
100
AcDbLine
 62
7
  6
CONTINUOUS
 10
559.9494656266
 20
67.2613537806
 11
562.3494656266
 21
67.2613537806
  0
LINE
  5
22F
100
AcDbEntity
  8
0
100
AcDbLine
 62
7
  6
CONTINUOUS
 10
553.5636643251
 20
67.534532757
 11
553.8186643251
 21
67.534532757
  0
LINE
  5
230
100
AcDbEntity
  8
0
100
AcDbLine
 62
7
  6
CONTINUOUS
 10
554.2686643251
 20
67.534532757
 11
554.5236643251
 21
67.534532757
  0
LINE
  5
231
100
AcDbEntity
  8
0
100
AcDbLine
 62
7
  6
CONTINUOUS
 10
562.7494656266
 20
67.5866229
 11
559.9494656266
 21
67.5866229
  0
LINE
  5
232
100
AcDbEntity
  8
0
100
AcDbLine
 62
7
  6
CONTINUOUS
 10
553.9386643251
 20
67.7466647914
 11
554.1486643251
 21
67.7466647914
  0
LINE
  5
233
100
AcDbEntity
  8
0
100
AcDbLine
 62
7
  6
CONTINUOUS
 10
553.5636643251
 20
67.8880861476
 11
553.8186643251
 21
67.8880861476
  0
LINE
  5
234
100
AcDbEntity
  8
0
100
AcDbLine
 62
7
  6
CONTINUOUS
 10
554.2686643251
 20
67.8880861476
 11
554.5236643251
 21
67.8880861476
  0
LINE
  5
235
100
AcDbEntity
  8
0
100
AcDbLine
 62
7
  6
CONTINUOUS
 10
553.9386643251
 20
68.100218182
 11
554.1486643251
 21
68.100218182
  0
LINE
  5
236
100
AcDbEntity
  8
0
100
AcDbLine
 62
7
  6
CONTINUOUS
 10
574.9436009871
 20
68.4891269116
 11
573.9836009871
 21
68.4891269116
  0
LINE
  5
237
100
AcDbEntity
  8
0
100
AcDbLine
 62
7
  6
CONTINUOUS
 10
559.9494656266
 20
68.5244822507
 11
558.9894656266
 21
68.5244822507
  0
LINE
  5
238
100
AcDbEntity
  8
0
100
AcDbLine
 62
7
  6
CONTINUOUS
 10
554.5236643251
 20
68.5951929288
 11
553.5636643251
 21
68.5951929288
  0
LINE
  5
239
100
AcDbEntity
  8
0
100
AcDbLine
 62
7
  6
CONTINUOUS
 10
553.2936643251
 20
68.9133909804
 11
554.7936643251
 21
68.9133909804
  0
LINE
  5
23A
100
AcDbEntity
  8
0
100
AcDbLine
 62
7
  6
CONTINUOUS
 10
573.9836009871
 20
69.0830966078
 11
577.4826045327
 21
69.0830966078
  0
LINE
  5
23B
100
AcDbEntity
  8
0
100
AcDbLine
 62
7
  6
CONTINUOUS
 10
558.9894656266
 20
69.1184519469
 11
562.7494656266
 21
69.1184519469
  0
LINE
  5
23C
100
AcDbEntity
  8
0
100
AcDbLine
 62
7
  6
CONTINUOUS
 10
553.2936643251
 20
69.2669443709
 11
554.7936643251
 21
69.2669443709
  0
LINE
  5
23D
100
AcDbEntity
  8
0
100
AcDbLine
 62
7
  6
CONTINUOUS
 10
573.9836009871
 20
69.4366499984
 11
577.4826045327
 21
69.4366499984
  0
LINE
  5
23E
100
AcDbEntity
  8
0
100
AcDbLine
 62
7
  6
CONTINUOUS
 10
558.9894656266
 20
69.4720053375
 11
562.7494656266
 21
69.4720053375
  0
LINE
  5
23F
100
AcDbEntity
  8
0
100
AcDbLine
 62
7
  6
CONTINUOUS
 10
577.4615680547
 20
69.7619191178
 11
573.9836009871
 21
69.7619191178
  0
LINE
  5
240
100
AcDbEntity
  8
0
100
AcDbLine
 62
7
  6
CONTINUOUS
 10
571.8836009871
 20
69.7619191178
 11
570.9236009871
 21
69.7619191178
  0
LINE
  5
241
100
AcDbEntity
  8
0
100
AcDbLine
 62
7
  6
CONTINUOUS
 10
567.1494656266
 20
69.7619191178
 11
566.1894656266
 21
69.7619191178
  0
LINE
  5
242
100
AcDbEntity
  8
0
100
AcDbLine
 62
7
  6
CONTINUOUS
 10
562.7494656266
 20
69.7619191178
 11
558.9894656266
 21
69.7619191178
  0
LINE
  5
243
100
AcDbEntity
  8
0
100
AcDbLine
 62
7
  6
CONTINUOUS
 10
556.4436643251
 20
69.7619191178
 11
551.6436643251
 21
69.7619191178
  0
LINE
  5
244
100
AcDbEntity
  8
KONSTRUKTIONSELEMENTE
100
AcDbLine
 62
7
  6
CONTINUOUS
 10
589.5169320603
 20
94.6825610876
 11
584.78988541
 21
94.6825610876
  0
LINE
  5
245
100
AcDbEntity
  8
0
100
AcDbLine
 62
7
  6
CONTINUOUS
 10
584.78988541
 20
94.6825610876
 11
584.7524036216
 21
94.6825610876
  0
LINE
  5
246
100
AcDbEntity
  8
0
100
AcDbLine
 62
7
  6
CONTINUOUS
 10
546.5094604991
 20
94.6825610876
 11
546.4719787107
 21
94.6825610876
  0
LINE
  5
247
100
AcDbEntity
  8
KONSTRUKTIONSELEMENTE
100
AcDbLine
 62
7
  6
CONTINUOUS
 10
546.4719787107
 20
94.6825610876
 11
541.7449320603
 21
94.6825610876
  0
LINE
  5
248
100
AcDbEntity
  8
BEZUGSACHSEN
100
AcDbLine
 62
7
  6
CONTINUOUS
 10
559.3809320603
 20
105.1269860876
 11
571.8809320603
 21
105.1269860876
  0
LINE
  5
249
100
AcDbEntity
  8
BEZUGSACHSEN
100
AcDbLine
 62
7
  6
CONTINUOUS
 10
559.3809320603
 20
108.8686595546
 11
571.8809320603
 21
108.8686595546
  0
LINE
  5
24A
100
AcDbEntity
  8
BEZUGSACHSEN
100
AcDbLine
 62
7
  6
CONTINUOUS
 10
559.3809320603
 20
115.4964626206
 11
571.8809320603
 21
115.4964626206
  0
LINE
  5
24B
100
AcDbEntity
  8
BEZUGSACHSEN
100
AcDbLine
 62
7
  6
CONTINUOUS
 10
559.3809320603
 20
119.2381360876
 11
571.8809320603
 21
119.2381360876
  0
LINE
  5
24C
100
AcDbEntity
  8
RUNDUNGEN
100
AcDbLine
 62
7
  6
CONTINUOUS
 10
585.0473855902
 20
75.3534168239
 11
574.2345786056
 21
80.7070700212
  0
LINE
  5
24D
100
AcDbEntity
  8
RUNDUNGEN
100
AcDbLine
 62
7
  6
CONTINUOUS
 10
574.2345786056
 20
84.2426039271
 11
585.0473855902
 21
78.8889507298
  0
LINE
  5
24E
100
AcDbEntity
  8
RUNDUNGEN
100
AcDbLine
 62
7
  6
CONTINUOUS
 10
523.6157733563
 20
77.4636989357
 11
526.1968673199
 21
74.8571730917
  0
LINE
  5
24F
100
AcDbEntity
  8
RUNDUNGEN
100
AcDbLine
 62
7
  6
CONTINUOUS
 10
533.4239304179
 20
67.5589007284
 11
547.3988480056
 21
53.4462863197
  0
LINE
  5
250
100
AcDbEntity
  8
RUNDUNGEN
100
AcDbLine
 62
7
  6
CONTINUOUS
 10
570.5458443261
 20
30.0712194015
 11
575.823137931
 21
24.7419278833
  0
LINE
  5
251
100
AcDbEntity
  8
RUNDUNGEN
100
AcDbLine
 62
7
  6
CONTINUOUS
 10
537.6828410268
 20
73.1204508911
 11
535.0443894196
 21
75.7848995317
  0
LINE
  5
252
100
AcDbEntity
  8
0
100
AcDbLine
 62
7
  6
CONTINUOUS
 10
556.1454730936
 20
131.4214325068
 11
555.7481568059
 21
131.3199899657
  0
LINE
  5
253
100
AcDbEntity
  8
0
100
AcDbLine
 62
7
  6
CONTINUOUS
 10
580.8552980022
 20
131.4214325068
 11
580.4392567747
 21
131.3199899657
  0
LINE
  5
254
100
AcDbEntity
  8
0
100
AcDbLine
 62
7
  6
CONTINUOUS
 10
579.0871212974
 20
134.7690368604
 11
579.5031631201
 21
134.8704794015
  0
LINE
  5
255
100
AcDbEntity
  8
0
100
AcDbLine
 62
7
  6
CONTINUOUS
 10
555.7481568059
 20
130.7113346481
 11
556.2448030181
 21
130.8127771981
  0
LINE
  5
256
100
AcDbEntity
  8
0
100
AcDbLine
 62
7
  6
CONTINUOUS
 10
550.9803568059
 20
130.7113346481
 11
551.4770024497
 21
130.8127771981
  0
LINE
  5
257
100
AcDbEntity
  8
0
100
AcDbLine
 62
7
  6
CONTINUOUS
 10
587.1999329709
 20
131.3199899657
 11
586.6798805438
 21
131.2185474246
  0
LINE
  5
258
100
AcDbEntity
  8
0
100
AcDbLine
 62
7
  6
CONTINUOUS
 10
580.4392567747
 20
130.7113346481
 11
580.9593086067
 21
130.8127771981
  0
LINE
  5
259
100
AcDbEntity
  8
0
100
AcDbLine
 62
7
  6
CONTINUOUS
 10
586.159829307
 20
134.8704794015
 11
586.6798805438
 21
134.9719219426
  0
LINE
  5
25A
100
AcDbEntity
  8
0
100
AcDbLine
 62
7
  6
CONTINUOUS
 10
579.5031631201
 20
135.4791346481
 11
578.983110693
 21
135.377692107
  0
LINE
  5
25B
100
AcDbEntity
  8
0
100
AcDbLine
 62
7
  6
CONTINUOUS
 10
586.6798805438
 20
130.7113346481
 11
587.3039429802
 21
130.8127771981
  0
LINE
  5
25C
100
AcDbEntity
  8
0
100
AcDbLine
 62
7
  6
CONTINUOUS
 10
586.6798805438
 20
135.4791346481
 11
586.0558181074
 21
135.377692107
  0
LINE
  5
25D
100
AcDbEntity
  8
RUNDUNGEN
100
AcDbLine
 62
7
  6
CONTINUOUS
 10
541.6309320603
 20
119.6825610876
 11
552.5168409817
 21
119.6825610876
  0
LINE
  5
25E
100
AcDbEntity
  8
RUNDUNGEN
100
AcDbLine
 62
7
  6
CONTINUOUS
 10
578.7450231389
 20
119.6825610876
 11
589.6309320603
 21
119.6825610876
  0
LINE
  5
25F
100
AcDbEntity
  8
RUNDUNGEN
100
AcDbLine
 62
7
  6
CONTINUOUS
 10
589.6309320603
 20
125.5715338333
 11
571.8717330889
 21
125.5715338333
  0
LINE
  5
260
100
AcDbEntity
  8
RUNDUNGEN
100
AcDbLine
 62
7
  6
CONTINUOUS
 10
559.3901310318
 20
125.5715338333
 11
541.6309320603
 21
125.5715338333
  0
LINE
  5
261
100
AcDbEntity
  8
0
100
AcDbLine
 62
7
  6
CONTINUOUS
 10
544.4246318059
 20
130.7113346481
 11
545.0206068059
 21
130.7113346481
  0
LINE
  5
262
100
AcDbEntity
  8
0
100
AcDbLine
 62
7
  6
CONTINUOUS
 10
547.5038358778
 20
130.7113346481
 11
548.1991402339
 21
130.7113346481
  0
LINE
  5
263
100
AcDbEntity
  8
0
100
AcDbLine
 62
7
  6
CONTINUOUS
 10
550.5830399497
 20
130.7113346481
 11
550.9803568059
 21
130.7113346481
  0
LINE
  5
264
100
AcDbEntity
  8
0
100
AcDbLine
 62
7
  6
CONTINUOUS
 10
553.3642568059
 20
130.7113346481
 11
555.7481568059
 21
130.7113346481
  0
LINE
  5
265
100
AcDbEntity
  8
0
100
AcDbLine
 62
7
  6
CONTINUOUS
 10
571.5983720603
 20
130.7113346481
 11
572.2224344967
 21
130.7113346481
  0
LINE
  5
266
100
AcDbEntity
  8
0
100
AcDbLine
 62
7
  6
CONTINUOUS
 10
573.0545176957
 20
130.7113346481
 11
573.6785801321
 21
130.7113346481
  0
LINE
  5
267
100
AcDbEntity
  8
0
100
AcDbLine
 62
7
  6
CONTINUOUS
 10
576.2788403335
 20
130.7113346481
 11
577.0069133744
 21
130.7113346481
  0
LINE
  5
268
100
AcDbEntity
  8
0
100
AcDbLine
 62
7
  6
CONTINUOUS
 10
579.5031631201
 20
130.7113346481
 11
580.4392567747
 21
130.7113346481
  0
LINE
  5
269
100
AcDbEntity
  8
0
100
AcDbLine
 62
7
  6
CONTINUOUS
 10
583.3515483431
 20
130.7113346481
 11
583.9756107795
 21
130.7113346481
  0
LINE
  5
26A
100
AcDbEntity
  8
0
100
AcDbLine
 62
7
  6
CONTINUOUS
 10
580.4392567747
 20
131.3199899657
 11
579.5031631201
 21
131.3199899657
  0
LINE
  5
26B
100
AcDbEntity
  8
0
100
AcDbLine
 62
7
  6
CONTINUOUS
 10
555.7481568059
 20
131.3199899657
 11
553.9602318059
 21
131.3199899657
  0
LINE
  5
26C
100
AcDbEntity
  8
0
100
AcDbLine
 62
7
  6
CONTINUOUS
 10
550.9803568059
 20
131.3199899657
 11
550.5830399497
 21
131.3199899657
  0
LINE
  5
26D
100
AcDbEntity
  8
0
100
AcDbLine
 62
7
  6
CONTINUOUS
 10
580.3352461703
 20
132.7401857542
 11
581.2713398249
 21
132.7401857542
  0
LINE
  5
26E
100
AcDbEntity
  8
0
100
AcDbLine
 62
7
  6
CONTINUOUS
 10
545.0206068059
 20
132.8416282953
 11
546.7092025918
 21
132.8416282953
  0
LINE
  5
26F
100
AcDbEntity
  8
0
100
AcDbLine
 62
7
  6
CONTINUOUS
 10
573.6785801321
 20
132.8416282953
 11
575.4467569858
 21
132.8416282953
  0
LINE
  5
270
100
AcDbEntity
  8
0
100
AcDbLine
 62
7
  6
CONTINUOUS
 10
581.8954022613
 20
133.3488410008
 11
580.3352461703
 21
133.3488410008
  0
LINE
  5
271
100
AcDbEntity
  8
0
100
AcDbLine
 62
7
  6
CONTINUOUS
 10
575.6547778971
 20
133.4502835419
 11
573.6785801321
 21
133.4502835419
  0
LINE
  5
272
100
AcDbEntity
  8
0
100
AcDbLine
 62
7
  6
CONTINUOUS
 10
546.9078608778
 20
133.4502835419
 11
545.0206068059
 21
133.4502835419
  0
LINE
  5
273
100
AcDbEntity
  8
0
100
AcDbLine
 62
7
  6
CONTINUOUS
 10
581.2713398249
 20
134.2618238707
 11
581.8954022613
 21
134.2618238707
  0
LINE
  5
274
100
AcDbEntity
  8
0
100
AcDbLine
 62
7
  6
CONTINUOUS
 10
553.9602318059
 20
134.8704794015
 11
555.7481568059
 21
134.8704794015
  0
LINE
  5
275
100
AcDbEntity
  8
0
100
AcDbLine
 62
7
  6
CONTINUOUS
 10
579.5031631201
 20
134.8704794015
 11
580.4392567747
 21
134.8704794015
  0
LINE
  5
276
100
AcDbEntity
  8
0
100
AcDbLine
 62
7
  6
CONTINUOUS
 10
545.0206068059
 20
134.9719219426
 11
546.9078608778
 21
134.9719219426
  0
LINE
  5
277
100
AcDbEntity
  8
0
100
AcDbLine
 62
7
  6
CONTINUOUS
 10
573.6785801321
 20
134.9719219426
 11
575.6547778971
 21
134.9719219426
  0
LINE
  5
278
100
AcDbEntity
  8
0
100
AcDbLine
 62
7
  6
CONTINUOUS
 10
583.9756107795
 20
135.4791346481
 11
583.3515483431
 21
135.4791346481
  0
LINE
  5
279
100
AcDbEntity
  8
0
100
AcDbLine
 62
7
  6
CONTINUOUS
 10
580.4392567747
 20
135.4791346481
 11
579.5031631201
 21
135.4791346481
  0
LINE
  5
27A
100
AcDbEntity
  8
0
100
AcDbLine
 62
7
  6
CONTINUOUS
 10
575.5507675902
 20
135.4791346481
 11
573.0545176957
 21
135.4791346481
  0
LINE
  5
27B
100
AcDbEntity
  8
0
100
AcDbLine
 62
7
  6
CONTINUOUS
 10
572.2224344967
 20
135.4791346481
 11
571.5983720603
 21
135.4791346481
  0
LINE
  5
27C
100
AcDbEntity
  8
0
100
AcDbLine
 62
7
  6
CONTINUOUS
 10
555.7481568059
 20
135.4791346481
 11
553.3642568059
 21
135.4791346481
  0
LINE
  5
27D
100
AcDbEntity
  8
0
100
AcDbLine
 62
7
  6
CONTINUOUS
 10
552.569623662
 20
135.4791346481
 11
551.973648662
 21
135.4791346481
  0
LINE
  5
27E
100
AcDbEntity
  8
0
100
AcDbLine
 62
7
  6
CONTINUOUS
 10
549.589748662
 20
135.4791346481
 11
548.9937733778
 21
135.4791346481
  0
LINE
  5
27F
100
AcDbEntity
  8
0
100
AcDbLine
 62
7
  6
CONTINUOUS
 10
546.8085318059
 20
135.4791346481
 11
544.4246318059
 21
135.4791346481
  0
LINE
  5
280
100
AcDbEntity
  8
0
100
AcDbLine
 62
7
  6
CONTINUOUS
 10
586.0558181074
 20
130.8127771981
 11
586.6798805438
 21
130.7113346481
  0
LINE
  5
281
100
AcDbEntity
  8
0
100
AcDbLine
 62
7
  6
CONTINUOUS
 10
578.983110693
 20
130.8127771981
 11
579.5031631201
 21
130.7113346481
  0
LINE
  5
282
100
AcDbEntity
  8
0
100
AcDbLine
 62
7
  6
CONTINUOUS
 10
586.6798805438
 20
131.2185474246
 11
586.159829307
 21
131.3199899657
  0
LINE
  5
283
100
AcDbEntity
  8
0
100
AcDbLine
 62
7
  6
CONTINUOUS
 10
550.0863943059
 20
130.8127771981
 11
550.5830399497
 21
130.7113346481
  0
LINE
  5
284
100
AcDbEntity
  8
0
100
AcDbLine
 62
7
  6
CONTINUOUS
 10
547.3051777339
 20
135.377692107
 11
546.8085318059
 21
135.4791346481
  0
LINE
  5
285
100
AcDbEntity
  8
0
100
AcDbLine
 62
7
  6
CONTINUOUS
 10
556.2448030181
 20
135.377692107
 11
555.7481568059
 21
135.4791346481
  0
LINE
  5
286
100
AcDbEntity
  8
0
100
AcDbLine
 62
7
  6
CONTINUOUS
 10
550.5830399497
 20
131.3199899657
 11
550.185723662
 21
131.4214325068
  0
LINE
  5
287
100
AcDbEntity
  8
0
100
AcDbLine
 62
7
  6
CONTINUOUS
 10
555.7481568059
 20
134.8704794015
 11
556.1454730936
 21
134.7690368604
  0
LINE
  5
288
100
AcDbEntity
  8
0
100
AcDbLine
 62
7
  6
CONTINUOUS
 10
546.9078608778
 20
134.9719219426
 11
547.2058483778
 21
134.8704794015
  0
LINE
  5
289
100
AcDbEntity
  8
RUNDUNGEN
100
AcDbLine
 62
7
  6
CONTINUOUS
 10
609.2852448797
 20
80.9682084439
 11
602.0767068899
 21
84.5373105754
  0
LINE
  5
28A
100
AcDbEntity
  8
RUNDUNGEN
100
AcDbLine
 62
7
  6
CONTINUOUS
 10
609.2852448797
 20
84.5037423498
 11
602.0767068899
 21
88.0728444814
  0
LINE
  5
28B
100
AcDbEntity
  8
RUNDUNGEN
100
AcDbLine
 62
7
  6
CONTINUOUS
 10
598.7266922818
 20
26.268762639
 11
583.863016115
 21
41.2788926895
  0
LINE
  5
28C
100
AcDbEntity
  8
RUNDUNGEN
100
AcDbLine
 62
7
  6
CONTINUOUS
 10
545.9678828904
 20
79.5474119711
 11
545.1610021692
 21
80.3622430011
  0
LINE
  5
28D
100
AcDbEntity
  8
RUNDUNGEN
100
AcDbLine
 62
7
  6
CONTINUOUS
 10
598.7266922818
 20
29.804296545
 11
583.863016115
 21
44.8144265955
  0
LINE
  5
28E
100
AcDbEntity
  8
RUNDUNGEN
100
AcDbLine
 62
7
  6
CONTINUOUS
 10
545.9678828904
 20
83.0829458771
 11
545.1610021692
 21
83.897776907
  0
LINE
  5
28F
100
AcDbEntity
  8
0
100
AcDbLine
 62
7
  6
CONTINUOUS
 10
551.377673662
 20
131.4214325068
 11
550.9803568059
 21
131.3199899657
  0
LINE
  5
290
100
AcDbEntity
  8
RUNDUNGEN
100
AcDbLine
 62
7
  6
CONTINUOUS
 10
585.9457858694
 20
141.5700432813
 11
583.0824519555
 21
141.5700432813
  0
LINE
  5
291
100
AcDbEntity
  8
RUNDUNGEN
100
AcDbLine
 62
7
  6
CONTINUOUS
 10
548.1794121652
 20
141.5700432813
 11
545.3160780211
 21
141.5700432813
  0
LINE
  5
292
100
AcDbEntity
  8
RUNDUNGEN
100
AcDbLine
 62
7
  6
CONTINUOUS
 10
553.6765908237
 20
141.6825610876
 11
577.5852732969
 21
141.6825610876
  0
LINE
  5
293
100
AcDbEntity
  8
0
100
AcDbLine
 62
7
  6
CONTINUOUS
 10
587.3039429802
 20
135.377692107
 11
586.6798805438
 21
135.4791346481
  0
LINE
  5
294
100
AcDbEntity
  8
0
100
AcDbLine
 62
7
  6
CONTINUOUS
 10
576.0708194222
 20
135.377692107
 11
575.5507675902
 21
135.4791346481
  0
LINE
  5
295
100
AcDbEntity
  8
0
100
AcDbLine
 62
7
  6
CONTINUOUS
 10
580.9593086067
 20
135.377692107
 11
580.4392567747
 21
135.4791346481
  0
LINE
  5
296
100
AcDbEntity
  8
0
100
AcDbLine
 62
7
  6
CONTINUOUS
 10
586.6798805438
 20
134.9719219426
 11
587.1999329709
 21
134.8704794015
  0
LINE
  5
297
100
AcDbEntity
  8
0
100
AcDbLine
 62
7
  6
CONTINUOUS
 10
579.5031631201
 20
131.3199899657
 11
579.0871212974
 21
131.4214325068
  0
LINE
  5
298
100
AcDbEntity
  8
0
100
AcDbLine
 62
7
  6
CONTINUOUS
 10
580.4392567747
 20
134.8704794015
 11
580.8552980022
 21
134.7690368604
  0
LINE
  5
299
100
AcDbEntity
  8
0
100
AcDbLine
 62
7
  6
CONTINUOUS
 10
575.6547778971
 20
134.9719219426
 11
575.9668091153
 21
134.8704794015
  0
LINE
  5
29A
100
AcDbEntity
  8
0
100
AcDbLine
 62
7
  6
CONTINUOUS
 10
578.5670694655
 20
131.0156623069
 11
578.983110693
 21
130.8127771981
  0
LINE
  5
29B
100
AcDbEntity
  8
0
100
AcDbLine
 62
7
  6
CONTINUOUS
 10
581.3753504294
 20
135.1748070248
 11
580.9593086067
 21
135.377692107
  0
LINE
  5
29C
100
AcDbEntity
  8
0
100
AcDbLine
 62
7
  6
CONTINUOUS
 10
549.6890774497
 20
131.0156623069
 11
550.0863943059
 21
130.8127771981
  0
LINE
  5
29D
100
AcDbEntity
  8
0
100
AcDbLine
 62
7
  6
CONTINUOUS
 10
556.6421193059
 20
135.1748070248
 11
556.2448030181
 21
135.377692107
  0
LINE
  5
29E
100
AcDbEntity
  8
0
100
AcDbLine
 62
7
  6
CONTINUOUS
 10
550.185723662
 20
131.4214325068
 11
549.887736162
 21
131.6243176601
  0
LINE
  5
29F
100
AcDbEntity
  8
0
100
AcDbLine
 62
7
  6
CONTINUOUS
 10
556.1454730936
 20
134.7690368604
 11
556.4434605936
 21
134.5661517782
  0
LINE
  5
2A0
100
AcDbEntity
  8
0
100
AcDbLine
 62
7
  6
CONTINUOUS
 10
547.7024943059
 20
135.0733644837
 11
547.3051777339
 21
135.377692107
  0
LINE
  5
2A1
100
AcDbEntity
  8
0
100
AcDbLine
 62
7
  6
CONTINUOUS
 10
562.3494656266
 20
66.90780039
 11
564.5224195435
 21
64.2464862245
  0
LINE
  5
2A2
100
AcDbEntity
  8
0
100
AcDbLine
 62
7
  6
CONTINUOUS
 10
562.3494656266
 20
67.2613537806
 11
564.5224195435
 21
64.6000396151
  0
LINE
  5
2A3
100
AcDbEntity
  8
0
100
AcDbLine
 62
7
  6
CONTINUOUS
 10
565.6309320603
 20
64.2464862245
 11
563.3716141455
 21
67.0135742535
  0
LINE
  5
2A4
100
AcDbEntity
  8
0
100
AcDbLine
 62
7
  6
CONTINUOUS
 10
585.5357668706
 20
131.117104848
 11
586.0558181074
 21
130.8127771981
  0
LINE
  5
2A5
100
AcDbEntity
  8
0
100
AcDbLine
 62
7
  6
CONTINUOUS
 10
587.8239954074
 20
135.0733644837
 11
587.3039429802
 21
135.377692107
  0
LINE
  5
2A6
100
AcDbEntity
  8
0
100
AcDbLine
 62
7
  6
CONTINUOUS
 10
579.0871212974
 20
131.4214325068
 11
578.7750900792
 21
131.6243176601
  0
LINE
  5
2A7
100
AcDbEntity
  8
0
100
AcDbLine
 62
7
  6
CONTINUOUS
 10
586.159829307
 20
131.3199899657
 11
585.8477980888
 21
131.5228750479
  0
LINE
  5
2A8
100
AcDbEntity
  8
0
100
AcDbLine
 62
7
  6
CONTINUOUS
 10
580.8552980022
 20
134.7690368604
 11
581.1673292205
 21
134.5661517782
  0
LINE
  5
2A9
100
AcDbEntity
  8
0
100
AcDbLine
 62
7
  6
CONTINUOUS
 10
587.1999329709
 20
134.8704794015
 11
587.5119641892
 21
134.6675943193
  0
LINE
  5
2AA
100
AcDbEntity
  8
0
100
AcDbLine
 62
7
  6
CONTINUOUS
 10
576.4868612448
 20
135.0733644837
 11
576.0708194222
 21
135.377692107
  0
LINE
  5
2AB
100
AcDbEntity
  8
0
100
AcDbLine
 62
7
  6
CONTINUOUS
 10
549.291761162
 20
131.4214325068
 11
549.6890774497
 21
131.0156623069
  0
LINE
  5
2AC
100
AcDbEntity
  8
0
100
AcDbLine
 62
7
  6
CONTINUOUS
 10
547.2058483778
 20
134.8704794015
 11
547.4045068059
 21
134.6675943193
  0
LINE
  5
2AD
100
AcDbEntity
  8
0
100
AcDbLine
 62
7
  6
CONTINUOUS
 10
557.0394355936
 20
134.7690368604
 11
556.6421193059
 21
135.1748070248
  0
LINE
  5
2AE
100
AcDbEntity
  8
RUNDUNGEN
100
AcDbLine
 62
7
  6
CONTINUOUS
 10
541.7449320603
 20
94.6825610876
 11
537.1309320603
 21
102.1803110876
  0
LINE
  5
2AF
100
AcDbEntity
  8
0
100
AcDbLine
 62
7
  6
CONTINUOUS
 10
469.6309320603
 20
477.1825610876
 11
469.6309320603
 21
357.1825610876
  0
LINE
  5
2B0
100
AcDbEntity
  8
0
100
AcDbLine
 62
7
  6
CONTINUOUS
 10
554.6309320603
 20
188.9256910597
 11
548.1606465159
 21
187.1919832733
  0
LINE
  5
2B1
100
AcDbEntity
  8
0
100
AcDbLine
 62
7
  6
CONTINUOUS
 10
583.1012176047
 20
187.1919832733
 11
576.6309320603
 21
188.9256910597
  0
LINE
  5
2B2
100
AcDbEntity
  8
0
100
AcDbLine
 62
7
  6
CONTINUOUS
 10
578.1510276428
 20
131.4214325068
 11
578.5670694655
 21
131.0156623069
  0
LINE
  5
2B3
100
AcDbEntity
  8
0
100
AcDbLine
 62
7
  6
CONTINUOUS
 10
575.9668091153
 20
134.8704794015
 11
576.1748300266
 21
134.6675943193
  0
LINE
  5
2B4
100
AcDbEntity
  8
0
100
AcDbLine
 62
7
  6
CONTINUOUS
 10
581.791392252
 20
134.7690368604
 11
581.3753504294
 21
135.1748070248
  0
LINE
  5
2B5
100
AcDbEntity
  8
0
100
AcDbLine
 62
7
  6
CONTINUOUS
 10
585.2237356524
 20
131.4214325068
 11
585.5357668706
 21
131.117104848
  0
LINE
  5
2B6
100
AcDbEntity
  8
0
100
AcDbLine
 62
7
  6
CONTINUOUS
 10
588.1360266256
 20
134.7690368604
 11
587.8239954074
 21
135.0733644837
  0
LINE
  5
2B7
100
AcDbEntity
  8
0
100
AcDbLine
 62
7
  6
CONTINUOUS
 10
548.0004818059
 20
134.6675943193
 11
547.7024943059
 21
135.0733644837
  0
LINE
  5
2B8
100
AcDbEntity
  8
0
100
AcDbLine
 62
7
  6
CONTINUOUS
 10
549.887736162
 20
131.6243176601
 11
549.6890774497
 21
131.9286452834
  0
LINE
  5
2B9
100
AcDbEntity
  8
0
100
AcDbLine
 62
7
  6
CONTINUOUS
 10
576.7988921655
 20
134.6675943193
 11
576.4868612448
 21
135.0733644837
  0
LINE
  5
2BA
100
AcDbEntity
  8
0
100
AcDbLine
 62
7
  6
CONTINUOUS
 10
578.7750900792
 20
131.6243176601
 11
578.5670694655
 21
131.9286452834
  0
LINE
  5
2BB
100
AcDbEntity
  8
0
100
AcDbLine
 62
7
  6
CONTINUOUS
 10
556.4434605936
 20
134.5661517782
 11
556.6421193059
 21
134.2618238707
  0
LINE
  5
2BC
100
AcDbEntity
  8
0
100
AcDbLine
 62
7
  6
CONTINUOUS
 10
549.0931027339
 20
131.8272027423
 11
549.291761162
 21
131.4214325068
  0
LINE
  5
2BD
100
AcDbEntity
  8
0
100
AcDbLine
 62
7
  6
CONTINUOUS
 10
557.2380943059
 20
134.363266696
 11
557.0394355936
 21
134.7690368604
  0
LINE
  5
2BE
100
AcDbEntity
  8
0
100
AcDbLine
 62
7
  6
CONTINUOUS
 10
495.6309320603
 20
477.1825610876
 11
495.6309320603
 21
357.1825610876
  0
LINE
  5
2BF
100
AcDbEntity
  8
0
100
AcDbLine
 62
7
  6
CONTINUOUS
 10
595.890354246
 20
174.402846632
 11
583.1012176047
 21
187.1919832733
  0
LINE
  5
2C0
100
AcDbEntity
  8
0
100
AcDbLine
 62
7
  6
CONTINUOUS
 10
585.8477980888
 20
131.5228750479
 11
585.431755671
 21
132.1315303655
  0
LINE
  5
2C1
100
AcDbEntity
  8
0
100
AcDbLine
 62
7
  6
CONTINUOUS
 10
587.5119641892
 20
134.6675943193
 11
587.9280054167
 21
134.0589387885
  0
LINE
  5
2C2
100
AcDbEntity
  8
0
100
AcDbLine
 62
7
  6
CONTINUOUS
 10
577.943007029
 20
131.8272027423
 11
578.1510276428
 21
131.4214325068
  0
LINE
  5
2C3
100
AcDbEntity
  8
0
100
AcDbLine
 62
7
  6
CONTINUOUS
 10
585.0157144435
 20
131.8272027423
 11
585.2237356524
 21
131.4214325068
  0
LINE
  5
2C4
100
AcDbEntity
  8
0
100
AcDbLine
 62
7
  6
CONTINUOUS
 10
548.1991402339
 20
130.7113346481
 11
547.3051777339
 21
133.0445133775
  0
LINE
  5
2C5
100
AcDbEntity
  8
0
100
AcDbLine
 62
7
  6
CONTINUOUS
 10
546.7092025918
 20
132.8416282953
 11
547.5038358778
 21
130.7113346481
  0
LINE
  5
2C6
100
AcDbEntity
  8
0
100
AcDbLine
 62
7
  6
CONTINUOUS
 10
547.4045068059
 20
134.6675943193
 11
547.5038358778
 21
134.363266696
  0
LINE
  5
2C7
100
AcDbEntity
  8
0
100
AcDbLine
 62
7
  6
CONTINUOUS
 10
548.0998108778
 20
134.363266696
 11
548.0004818059
 21
134.6675943193
  0
LINE
  5
2C8
100
AcDbEntity
  8
0
100
AcDbLine
 62
7
  6
CONTINUOUS
 10
530.6903609715
 20
156.9325610876
 11
535.3715098747
 21
139.4622755432
  0
LINE
  5
2C9
100
AcDbEntity
  8
0
100
AcDbLine
 62
7
  6
CONTINUOUS
 10
535.3715098747
 20
129.0770577522
 11
537.1309320603
 21
121.4561630022
  0
LINE
  5
2CA
100
AcDbEntity
  8
RUNDUNGEN
100
AcDbLine
 62
7
  6
CONTINUOUS
 10
522.7115335777
 20
79.4915978741
 11
522.7115335777
 21
83.02713178
  0
LINE
  5
2CB
100
AcDbEntity
  8
0
100
AcDbLine
 62
7
  6
CONTINUOUS
 10
588.3440478345
 20
134.363266696
 11
588.1360266256
 21
134.7690368604
  0
LINE
  5
2CC
100
AcDbEntity
  8
0
100
AcDbLine
 62
7
  6
CONTINUOUS
 10
577.0069133744
 20
130.7113346481
 11
576.0708194222
 21
133.0445133775
  0
LINE
  5
2CD
100
AcDbEntity
  8
0
100
AcDbLine
 62
7
  6
CONTINUOUS
 10
575.4467569858
 20
132.8416282953
 11
576.2788403335
 21
130.7113346481
  0
LINE
  5
2CE
100
AcDbEntity
  8
0
100
AcDbLine
 62
7
  6
CONTINUOUS
 10
576.1748300266
 20
134.6675943193
 11
576.2788403335
 21
134.363266696
  0
LINE
  5
2CF
100
AcDbEntity
  8
0
100
AcDbLine
 62
7
  6
CONTINUOUS
 10
576.9029027699
 20
134.363266696
 11
576.7988921655
 21
134.6675943193
  0
LINE
  5
2D0
100
AcDbEntity
  8
0
100
AcDbLine
 62
7
  6
CONTINUOUS
 10
581.1673292205
 20
134.5661517782
 11
581.2713398249
 21
134.2618238707
  0
LINE
  5
2D1
100
AcDbEntity
  8
0
100
AcDbLine
 62
7
  6
CONTINUOUS
 10
549.6890774497
 20
131.9286452834
 11
549.589748662
 21
132.3344154477
  0
LINE
  5
2D2
100
AcDbEntity
  8
0
100
AcDbLine
 62
7
  6
CONTINUOUS
 10
556.6421193059
 20
134.2618238707
 11
556.7414480936
 21
133.8560537063
  0
LINE
  5
2D3
100
AcDbEntity
  8
0
100
AcDbLine
 62
7
  6
CONTINUOUS
 10
548.9937733778
 20
132.3344154477
 11
549.0931027339
 21
131.8272027423
  0
LINE
  5
2D4
100
AcDbEntity
  8
0
100
AcDbLine
 62
7
  6
CONTINUOUS
 10
557.3374230936
 20
133.8560537063
 11
557.2380943059
 21
134.363266696
  0
LINE
  5
2D5
100
AcDbEntity
  8
RUNDUNGEN
100
AcDbLine
 62
7
  6
CONTINUOUS
 10
531.6309320603
 20
18.2845454474
 11
531.6309320603
 21
27.7763976066
  0
LINE
  5
2D6
100
AcDbEntity
  8
RUNDUNGEN
100
AcDbLine
 62
7
  6
CONTINUOUS
 10
533.1526584843
 20
68.1672704099
 11
533.1526584843
 21
71.7028043158
  0
LINE
  5
2D7
100
AcDbEntity
  8
0
100
AcDbLine
 62
7
  6
CONTINUOUS
 10
535.3715098747
 20
129.0770577522
 11
535.3715098747
 21
139.4622755432
  0
LINE
  5
2D8
100
AcDbEntity
  8
RUNDUNGEN
100
AcDbLine
 62
7
  6
CONTINUOUS
 10
537.1309320603
 20
102.1803110876
 11
537.1309320603
 21
135.1825610876
  0
LINE
  5
2D9
100
AcDbEntity
  8
RUNDUNGEN
100
AcDbLine
 62
7
  6
CONTINUOUS
 10
539.4809320603
 20
15.1025649321
 11
539.4809320603
 21
19.6987590098
  0
LINE
  5
2DA
100
AcDbEntity
  8
0
100
AcDbLine
 62
7
  6
CONTINUOUS
 10
544.4246318059
 20
135.4791346481
 11
544.4246318059
 21
130.7113346481
  0
LINE
  5
2DB
100
AcDbEntity
  8
0
100
AcDbLine
 62
7
  6
CONTINUOUS
 10
545.0206068059
 20
130.7113346481
 11
545.0206068059
 21
132.8416282953
  0
LINE
  5
2DC
100
AcDbEntity
  8
0
100
AcDbLine
 62
7
  6
CONTINUOUS
 10
545.0206068059
 20
133.4502835419
 11
545.0206068059
 21
134.9719219426
  0
LINE
  5
2DD
100
AcDbEntity
  8
0
100
AcDbLine
 62
7
  6
CONTINUOUS
 10
547.5038358778
 20
134.363266696
 11
547.5038358778
 21
134.0589387885
  0
LINE
  5
2DE
100
AcDbEntity
  8
0
100
AcDbLine
 62
7
  6
CONTINUOUS
 10
548.0998108778
 20
133.9574962474
 11
548.0998108778
 21
134.363266696
  0
LINE
  5
2DF
100
AcDbEntity
  8
0
100
AcDbLine
 62
7
  6
CONTINUOUS
 10
584.9117044342
 20
132.1315303655
 11
585.0157144435
 21
131.8272027423
  0
LINE
  5
2E0
100
AcDbEntity
  8
0
100
AcDbLine
 62
7
  6
CONTINUOUS
 10
588.4480578438
 20
134.0589387885
 11
588.3440478345
 21
134.363266696
  0
LINE
  5
2E1
100
AcDbEntity
  8
0
100
AcDbLine
 62
7
  6
CONTINUOUS
 10
578.5670694655
 20
131.9286452834
 11
578.463058861
 21
132.3344154477
  0
LINE
  5
2E2
100
AcDbEntity
  8
0
100
AcDbLine
 62
7
  6
CONTINUOUS
 10
577.8389964246
 20
132.3344154477
 11
577.943007029
 21
131.8272027423
  0
LINE
  5
2E3
100
AcDbEntity
  8
0
100
AcDbLine
 62
7
  6
CONTINUOUS
 10
548.9937733778
 20
135.4791346481
 11
548.9937733778
 21
132.3344154477
  0
LINE
  5
2E4
100
AcDbEntity
  8
0
100
AcDbLine
 62
7
  6
CONTINUOUS
 10
549.589748662
 20
132.3344154477
 11
549.589748662
 21
135.4791346481
  0
LINE
  5
2E5
100
AcDbEntity
  8
KONSTRUKTIONSELEMENTE
100
AcDbLine
 62
7
  6
CONTINUOUS
 10
550.7954718383
 20
111.8825610876
 11
550.7954718383
 21
116.0455610876
  0
LINE
  5
2E6
100
AcDbEntity
  8
0
100
AcDbLine
 62
7
  6
CONTINUOUS
 10
551.0436643251
 20
69.3376550491
 11
551.0436643251
 21
64.6707502932
  0
LINE
  5
2E7
100
AcDbEntity
  8
0
100
AcDbLine
 62
7
  6
CONTINUOUS
 10
551.973648662
 20
135.4791346481
 11
551.973648662
 21
132.3344154477
  0
LINE
  5
2E8
100
AcDbEntity
  8
0
100
AcDbLine
 62
7
  6
CONTINUOUS
 10
552.569623662
 20
132.3344154477
 11
552.569623662
 21
135.4791346481
  0
LINE
  5
2E9
100
AcDbEntity
  8
0
100
AcDbLine
 62
7
  6
CONTINUOUS
 10
552.9936643251
 20
65.3071463963
 11
552.9936643251
 21
66.933491993
  0
LINE
  5
2EA
100
AcDbEntity
  8
0
100
AcDbLine
 62
7
  6
CONTINUOUS
 10
552.9936643251
 20
67.4284667399
 11
552.9936643251
 21
69.0548123366
  0
LINE
  5
2EB
100
AcDbEntity
  8
0
100
AcDbLine
 62
7
  6
CONTINUOUS
 10
553.3642568059
 20
135.4791346481
 11
553.3642568059
 21
130.7113346481
  0
LINE
  5
2EC
100
AcDbEntity
  8
0
100
AcDbLine
 62
7
  6
CONTINUOUS
 10
553.4436643251
 20
68.5103401151
 11
553.4436643251
 21
67.6193855708
  0
LINE
  5
2ED
100
AcDbEntity
  8
0
100
AcDbLine
 62
7
  6
CONTINUOUS
 10
553.4436643251
 20
66.3890197715
 11
553.4436643251
 21
65.4980652272
  0
LINE
  5
2EE
100
AcDbEntity
  8
0
100
AcDbLine
 62
7
  6
CONTINUOUS
 10
553.8186643251
 20
66.3465933646
 11
553.8186643251
 21
66.4738725853
  0
LINE
  5
2EF
100
AcDbEntity
  8
0
100
AcDbLine
 62
7
  6
CONTINUOUS
 10
553.8186643251
 20
66.7920706368
 11
553.8186643251
 21
67.2163347055
  0
LINE
  5
2F0
100
AcDbEntity
  8
0
100
AcDbLine
 62
7
  6
CONTINUOUS
 10
553.8186643251
 20
67.534532757
 11
553.8186643251
 21
68.0153653682
  0
LINE
  5
2F1
100
AcDbEntity
  8
0
100
AcDbLine
 62
7
  6
CONTINUOUS
 10
553.9602318059
 20
131.3199899657
 11
553.9602318059
 21
134.8704794015
  0
LINE
  5
2F2
100
AcDbEntity
  8
0
100
AcDbLine
 62
7
  6
CONTINUOUS
 10
554.2686643251
 20
68.0153653682
 11
554.2686643251
 21
67.534532757
  0
LINE
  5
2F3
100
AcDbEntity
  8
0
100
AcDbLine
 62
7
  6
CONTINUOUS
 10
554.2686643251
 20
67.2163347055
 11
554.2686643251
 21
66.7920706368
  0
LINE
  5
2F4
100
AcDbEntity
  8
0
100
AcDbLine
 62
7
  6
CONTINUOUS
 10
554.2686643251
 20
66.4738725853
 11
554.2686643251
 21
66.3465933646
  0
LINE
  5
2F5
100
AcDbEntity
  8
0
100
AcDbLine
 62
7
  6
CONTINUOUS
 10
554.6309320603
 20
298.1825610876
 11
554.6309320603
 21
161.1825610876
  0
LINE
  5
2F6
100
AcDbEntity
  8
0
100
AcDbLine
 62
7
  6
CONTINUOUS
 10
554.6436643251
 20
65.4980652272
 11
554.6436643251
 21
66.3890197715
  0
LINE
  5
2F7
100
AcDbEntity
  8
0
100
AcDbLine
 62
7
  6
CONTINUOUS
 10
554.6436643251
 20
67.6193855708
 11
554.6436643251
 21
68.5103401151
  0
LINE
  5
2F8
100
AcDbEntity
  8
0
100
AcDbLine
 62
7
  6
CONTINUOUS
 10
555.0936643251
 20
69.0548123366
 11
555.0936643251
 21
67.4284667399
  0
LINE
  5
2F9
100
AcDbEntity
  8
0
100
AcDbLine
 62
7
  6
CONTINUOUS
 10
555.0936643251
 20
66.933491993
 11
555.0936643251
 21
65.3071463963
  0
LINE
  5
2FA
100
AcDbEntity
  8
0
100
AcDbLine
 62
7
  6
CONTINUOUS
 10
556.7414480936
 20
133.8560537063
 11
556.7414480936
 21
132.3344154477
  0
LINE
  5
2FB
100
AcDbEntity
  8
0
100
AcDbLine
 62
7
  6
CONTINUOUS
 10
557.0436643251
 20
64.6707502932
 11
557.0436643251
 21
69.3376550491
  0
LINE
  5
2FC
100
AcDbEntity
  8
0
100
AcDbLine
 62
7
  6
CONTINUOUS
 10
557.3374230936
 20
132.3344154477
 11
557.3374230936
 21
133.8560537063
  0
LINE
  5
2FD
100
AcDbEntity
  8
KONSTRUKTIONSELEMENTE
100
AcDbLine
 62
7
  6
CONTINUOUS
 10
557.6309320603
 20
96.4198447685
 11
557.6309320603
 21
99.2641353162
  0
LINE
  5
2FE
100
AcDbEntity
  8
0
100
AcDbLine
 62
7
  6
CONTINUOUS
 10
558.9894656266
 20
69.7619191178
 11
558.9894656266
 21
69.1184519469
  0
LINE
  5
2FF
100
AcDbEntity
  8
0
100
AcDbLine
 62
7
  6
CONTINUOUS
 10
558.9894656266
 20
68.5244822507
 11
558.9894656266
 21
64.2464862245
  0
LINE
  5
300
100
AcDbEntity
  8
0
100
AcDbLine
 62
7
  6
CONTINUOUS
 10
559.3809320603
 20
111.8825610876
 11
559.3809320603
 21
99.6359230077
  0
LINE
  5
301
100
AcDbEntity
  8
KONSTRUKTIONSELEMENTE
100
AcDbLine
 62
7
  6
CONTINUOUS
 10
559.3809320603
 20
111.8825610876
 11
559.3809320603
 21
125.2325610876
  0
LINE
  5
302
100
AcDbEntity
  8
0
100
AcDbLine
 62
7
  6
CONTINUOUS
 10
559.9494656266
 20
64.2464862245
 11
559.9494656266
 21
67.2613537806
  0
LINE
  5
303
100
AcDbEntity
  8
0
100
AcDbLine
 62
7
  6
CONTINUOUS
 10
559.9494656266
 20
67.5866229
 11
559.9494656266
 21
68.5244822507
  0
LINE
  5
304
100
AcDbEntity
  8
KONSTRUKTIONSELEMENTE
100
AcDbLine
 62
7
  6
CONTINUOUS
 10
562.1309320603
 20
96.4198447685
 11
562.1309320603
 21
105.1269860876
  0
LINE
  5
305
100
AcDbEntity
  8
KONSTRUKTIONSELEMENTE
100
AcDbLine
 62
7
  6
CONTINUOUS
 10
562.1309320603
 20
127.5325431407
 11
562.1309320603
 21
130.4038198036
  0
LINE
  5
306
100
AcDbEntity
  8
0
100
AcDbLine
 62
7
  6
CONTINUOUS
 10
562.3494656266
 20
66.90780039
 11
562.3494656266
 21
67.2613537806
  0
LINE
  5
307
100
AcDbEntity
  8
KONSTRUKTIONSELEMENTE
100
AcDbLine
 62
7
  6
CONTINUOUS
 10
563.1309320603
 20
75.6166178744
 11
563.1309320603
 21
98.0708748432
  0
LINE
  5
308
100
AcDbEntity
  8
KONSTRUKTIONSELEMENTE
100
AcDbLine
 62
7
  6
CONTINUOUS
 10
563.1309320603
 20
141.8930643778
 11
563.1309320603
 21
150.4729860119
  0
LINE
  5
309
100
AcDbEntity
  8
0
100
AcDbLine
 62
7
  6
CONTINUOUS
 10
563.3716141455
 20
67.0135742535
 11
563.3716141455
 21
67.3671276441
  0
LINE
  5
30A
100
AcDbEntity
  8
KONSTRUKTIONSELEMENTE
100
AcDbLine
 62
7
  6
CONTINUOUS
 10
563.3809320603
 20
119.2381360876
 11
563.3809320603
 21
128.2836036253
  0
LINE
  5
30B
100
AcDbEntity
  8
0
100
AcDbLine
 62
7
  6
CONTINUOUS
 10
563.8326323332
 20
68.706090814
 11
563.8326323332
 21
68.3525374234
  0
LINE
  5
30C
100
AcDbEntity
  8
0
100
AcDbLine
 62
7
  6
CONTINUOUS
 10
564.5224195435
 20
64.2464862245
 11
564.5224195435
 21
64.6000396151
  0
LINE
  5
30D
100
AcDbEntity
  8
0
100
AcDbLine
 62
7
  6
CONTINUOUS
 10
566.1894656266
 20
69.7619191178
 11
566.1894656266
 21
66.2722307713
  0
LINE
  5
30E
100
AcDbEntity
  8
0
100
AcDbLine
 62
7
  6
CONTINUOUS
 10
567.1494656266
 20
66.2722307713
 11
567.1494656266
 21
69.7619191178
  0
LINE
  5
30F
100
AcDbEntity
  8
KONSTRUKTIONSELEMENTE
100
AcDbLine
 62
7
  6
CONTINUOUS
 10
567.8809320603
 20
119.2381360876
 11
567.8809320603
 21
128.2836036253
  0
LINE
  5
310
100
AcDbEntity
  8
KONSTRUKTIONSELEMENTE
100
AcDbLine
 62
7
  6
CONTINUOUS
 10
568.1309320603
 20
75.6166178744
 11
568.1309320603
 21
98.0708748432
  0
LINE
  5
311
100
AcDbEntity
  8
KONSTRUKTIONSELEMENTE
100
AcDbLine
 62
7
  6
CONTINUOUS
 10
568.1309320603
 20
141.8930643778
 11
568.1309320603
 21
150.4729860119
  0
LINE
  5
312
100
AcDbEntity
  8
0
100
AcDbLine
 62
7
  6
CONTINUOUS
 10
535.3715098747
 20
174.402846632
 11
530.6903609715
 21
156.9325610876
  0
LINE
  5
313
100
AcDbEntity
  8
0
100
AcDbLine
 62
7
  6
CONTINUOUS
 10
600.5715031492
 20
156.9325610876
 11
595.890354246
 21
174.402846632
  0
LINE
  5
314
100
AcDbEntity
  8
0
100
AcDbLine
 62
7
  6
CONTINUOUS
 10
581.8954022613
 20
134.2618238707
 11
581.791392252
 21
134.7690368604
  0
LINE
  5
315
100
AcDbEntity
  8
0
100
AcDbLine
 62
7
  6
CONTINUOUS
 10
584.8076932345
 20
132.6387432131
 11
584.9117044342
 21
132.1315303655
  0
LINE
  5
316
100
AcDbEntity
  8
0
100
AcDbLine
 62
7
  6
CONTINUOUS
 10
588.5520678531
 20
133.551726083
 11
588.4480578438
 21
134.0589387885
  0
LINE
  5
317
100
AcDbEntity
  8
0
100
AcDbLine
 62
7
  6
CONTINUOUS
 10
587.9280054167
 20
134.0589387885
 11
588.0320166163
 21
133.4502835419
  0
LINE
  5
318
100
AcDbEntity
  8
0
100
AcDbLine
 62
7
  6
CONTINUOUS
 10
585.431755671
 20
132.1315303655
 11
585.3277456617
 21
132.7401857542
  0
LINE
  5
319
100
AcDbEntity
  8
KONSTRUKTIONSELEMENTE
100
AcDbLine
 62
7
  6
CONTINUOUS
 10
569.1309320603
 20
130.4038198036
 11
569.1309320603
 21
127.5325431407
  0
LINE
  5
31A
100
AcDbEntity
  8
KONSTRUKTIONSELEMENTE
100
AcDbLine
 62
7
  6
CONTINUOUS
 10
569.1309320603
 20
105.1269860876
 11
569.1309320603
 21
96.4198447685
  0
LINE
  5
31B
100
AcDbEntity
  8
0
100
AcDbLine
 62
7
  6
CONTINUOUS
 10
570.9236009871
 20
69.7619191178
 11
570.9236009871
 21
66.2722307713
  0
LINE
  5
31C
100
AcDbEntity
  8
0
100
AcDbLine
 62
7
  6
CONTINUOUS
 10
571.5983720603
 20
135.4791346481
 11
571.5983720603
 21
130.7113346481
  0
LINE
  5
31D
100
AcDbEntity
  8
0
100
AcDbLine
 62
7
  6
CONTINUOUS
 10
571.8809320603
 20
99.6359230077
 11
571.8809320603
 21
111.8825610876
  0
LINE
  5
31E
100
AcDbEntity
  8
KONSTRUKTIONSELEMENTE
100
AcDbLine
 62
7
  6
CONTINUOUS
 10
571.8809320603
 20
111.8825610876
 11
571.8809320603
 21
125.2325610876
  0
LINE
  5
31F
100
AcDbEntity
  8
0
100
AcDbLine
 62
7
  6
CONTINUOUS
 10
571.8836009871
 20
66.2722307713
 11
571.8836009871
 21
69.7619191178
  0
LINE
  5
320
100
AcDbEntity
  8
0
100
AcDbLine
 62
7
  6
CONTINUOUS
 10
572.2224344967
 20
130.7113346481
 11
572.2224344967
 21
135.4791346481
  0
LINE
  5
321
100
AcDbEntity
  8
0
100
AcDbLine
 62
7
  6
CONTINUOUS
 10
573.0545176957
 20
135.4791346481
 11
573.0545176957
 21
130.7113346481
  0
LINE
  5
322
100
AcDbEntity
  8
KONSTRUKTIONSELEMENTE
100
AcDbLine
 62
7
  6
CONTINUOUS
 10
573.6309320603
 20
99.2641353162
 11
573.6309320603
 21
96.4198447685
  0
LINE
  5
323
100
AcDbEntity
  8
0
100
AcDbLine
 62
7
  6
CONTINUOUS
 10
573.6785801321
 20
130.7113346481
 11
573.6785801321
 21
132.8416282953
  0
LINE
  5
324
100
AcDbEntity
  8
0
100
AcDbLine
 62
7
  6
CONTINUOUS
 10
573.6785801321
 20
133.4502835419
 11
573.6785801321
 21
134.9719219426
  0
LINE
  5
325
100
AcDbEntity
  8
0
100
AcDbLine
 62
7
  6
CONTINUOUS
 10
573.9836009871
 20
69.7619191178
 11
573.9836009871
 21
69.0830966078
  0
LINE
  5
326
100
AcDbEntity
  8
0
100
AcDbLine
 62
7
  6
CONTINUOUS
 10
573.9836009871
 20
68.4891269116
 11
573.9836009871
 21
64.2464862245
  0
LINE
  5
327
100
AcDbEntity
  8
0
100
AcDbLine
 62
7
  6
CONTINUOUS
 10
574.9436009871
 20
64.9535930057
 11
574.9436009871
 21
68.4891269116
  0
LINE
  5
328
100
AcDbEntity
  8
0
100
AcDbLine
 62
7
  6
CONTINUOUS
 10
576.2788403335
 20
134.363266696
 11
576.2788403335
 21
134.0589387885
  0
LINE
  5
329
100
AcDbEntity
  8
0
100
AcDbLine
 62
7
  6
CONTINUOUS
 10
576.6309320603
 20
298.1825610876
 11
576.6309320603
 21
161.1825610876
  0
LINE
  5
32A
100
AcDbEntity
  8
0
100
AcDbLine
 62
7
  6
CONTINUOUS
 10
576.9029027699
 20
133.9574962474
 11
576.9029027699
 21
134.363266696
  0
LINE
  5
32B
100
AcDbEntity
  8
0
100
AcDbLine
 62
7
  6
CONTINUOUS
 10
577.8389964246
 20
133.8560537063
 11
577.8389964246
 21
132.3344154477
  0
LINE
  5
32C
100
AcDbEntity
  8
0
100
AcDbLine
 62
7
  6
CONTINUOUS
 10
578.463058861
 20
132.3344154477
 11
578.463058861
 21
133.8560537063
  0
LINE
  5
32D
100
AcDbEntity
  8
0
100
AcDbLine
 62
7
  6
CONTINUOUS
 10
579.07621474
 20
67.3718981974
 11
579.07621474
 21
67.0183448068
  0
LINE
  5
32E
100
AcDbEntity
  8
0
100
AcDbLine
 62
7
  6
CONTINUOUS
 10
580.3352461703
 20
133.3488410008
 11
580.3352461703
 21
132.7401857542
  0
LINE
  5
32F
100
AcDbEntity
  8
KONSTRUKTIONSELEMENTE
100
AcDbLine
 62
7
  6
CONTINUOUS
 10
580.4663922824
 20
111.8825610876
 11
580.4663922824
 21
116.0455610876
  0
LINE
  5
330
100
AcDbEntity
  8
0
100
AcDbLine
 62
7
  6
CONTINUOUS
 10
581.2713398249
 20
132.7401857542
 11
581.2713398249
 21
131.9286452834
  0
LINE
  5
331
100
AcDbEntity
  8
0
100
AcDbLine
 62
7
  6
CONTINUOUS
 10
581.8954022613
 20
131.8272027423
 11
581.8954022613
 21
133.3488410008
  0
LINE
  5
332
100
AcDbEntity
  8
0
100
AcDbLine
 62
7
  6
CONTINUOUS
 10
582.7274859067
 20
134.7690368604
 11
582.7274859067
 21
133.9574962474
  0
LINE
  5
333
100
AcDbEntity
  8
0
100
AcDbLine
 62
7
  6
CONTINUOUS
 10
583.3515483431
 20
134.6675943193
 11
583.3515483431
 21
130.7113346481
  0
LINE
  5
334
100
AcDbEntity
  8
0
100
AcDbLine
 62
7
  6
CONTINUOUS
 10
583.9756107795
 20
130.7113346481
 11
583.9756107795
 21
135.4791346481
  0
LINE
  5
335
100
AcDbEntity
  8
0
100
AcDbLine
 62
7
  6
CONTINUOUS
 10
584.8076932345
 20
133.551726083
 11
584.8076932345
 21
132.6387432131
  0
LINE
  5
336
100
AcDbEntity
  8
0
100
AcDbLine
 62
7
  6
CONTINUOUS
 10
585.3277456617
 20
132.7401857542
 11
585.3277456617
 21
133.4502835419
  0
LINE
  5
337
100
AcDbEntity
  8
0
100
AcDbLine
 62
7
  6
CONTINUOUS
 10
552.4702943059
 20
131.8272027423
 11
552.569623662
 21
132.3344154477
  0
LINE
  5
338
100
AcDbEntity
  8
0
100
AcDbLine
 62
7
  6
CONTINUOUS
 10
588.0320166163
 20
133.4502835419
 11
588.0320166163
 21
132.7401857542
  0
LINE
  5
339
100
AcDbEntity
  8
0
100
AcDbLine
 62
7
  6
CONTINUOUS
 10
588.5520678531
 20
132.6387432131
 11
588.5520678531
 21
133.551726083
  0
LINE
  5
33A
100
AcDbEntity
  8
RUNDUNGEN
100
AcDbLine
 62
7
  6
CONTINUOUS
 10
591.7809320603
 20
19.6987590098
 11
591.7809320603
 21
15.1025649321
  0
LINE
  5
33B
100
AcDbEntity
  8
RUNDUNGEN
100
AcDbLine
 62
7
  6
CONTINUOUS
 10
594.1309320603
 20
102.1803110876
 11
594.1309320603
 21
135.1825610876
  0
LINE
  5
33C
100
AcDbEntity
  8
0
100
AcDbLine
 62
7
  6
CONTINUOUS
 10
595.890354246
 20
129.0770577522
 11
595.890354246
 21
139.4622755432
  0
LINE
  5
33D
100
AcDbEntity
  8
RUNDUNGEN
100
AcDbLine
 62
7
  6
CONTINUOUS
 10
599.6309320603
 20
18.2845454474
 11
599.6309320603
 21
27.7763976066
  0
LINE
  5
33E
100
AcDbEntity
  8
0
100
AcDbLine
 62
7
  6
CONTINUOUS
 10
557.2380943059
 20
131.8272027423
 11
557.3374230936
 21
132.3344154477
  0
LINE
  5
33F
100
AcDbEntity
  8
0
100
AcDbLine
 62
7
  6
CONTINUOUS
 10
551.973648662
 20
132.3344154477
 11
551.8743193059
 21
131.9286452834
  0
LINE
  5
340
100
AcDbEntity
  8
0
100
AcDbLine
 62
7
  6
CONTINUOUS
 10
556.7414480936
 20
132.3344154477
 11
556.6421193059
 21
131.9286452834
  0
LINE
  5
341
100
AcDbEntity
  8
0
100
AcDbLine
 62
7
  6
CONTINUOUS
 10
547.5038358778
 20
134.0589387885
 11
547.4045068059
 21
133.7546111652
  0
LINE
  5
342
100
AcDbEntity
  8
0
100
AcDbLine
 62
7
  6
CONTINUOUS
 10
548.0004818059
 20
133.6531686241
 11
548.0998108778
 21
133.9574962474
  0
LINE
  5
343
100
AcDbEntity
  8
RUNDUNGEN
100
AcDbLine
 62
7
  6
CONTINUOUS
 10
609.9248802251
 20
80.0993664959
 11
609.9248802251
 21
83.6349004018
  0
LINE
  5
344
100
AcDbEntity
  8
0
100
AcDbLine
 62
7
  6
CONTINUOUS
 10
585.3277456617
 20
133.4502835419
 11
585.431755671
 21
134.0589387885
  0
LINE
  5
345
100
AcDbEntity
  8
0
100
AcDbLine
 62
7
  6
CONTINUOUS
 10
588.0320166163
 20
132.7401857542
 11
587.9280054167
 21
132.1315303655
  0
LINE
  5
346
100
AcDbEntity
  8
0
100
AcDbLine
 62
7
  6
CONTINUOUS
 10
577.943007029
 20
134.363266696
 11
577.8389964246
 21
133.8560537063
  0
LINE
  5
347
100
AcDbEntity
  8
0
100
AcDbLine
 62
7
  6
CONTINUOUS
 10
584.9117044342
 20
134.0589387885
 11
584.8076932345
 21
133.551726083
  0
LINE
  5
348
100
AcDbEntity
  8
0
100
AcDbLine
 62
7
  6
CONTINUOUS
 10
588.4480578438
 20
132.1315303655
 11
588.5520678531
 21
132.6387432131
  0
LINE
  5
349
100
AcDbEntity
  8
0
100
AcDbLine
 62
7
  6
CONTINUOUS
 10
578.463058861
 20
133.8560537063
 11
578.5670694655
 21
134.2618238707
  0
LINE
  5
34A
100
AcDbEntity
  8
0
100
AcDbLine
 62
7
  6
CONTINUOUS
 10
581.791392252
 20
131.4214325068
 11
581.8954022613
 21
131.8272027423
  0
LINE
  5
34B
100
AcDbEntity
  8
0
100
AcDbLine
 62
7
  6
CONTINUOUS
 10
552.271636162
 20
131.4214325068
 11
552.4702943059
 21
131.8272027423
  0
LINE
  5
34C
100
AcDbEntity
  8
0
100
AcDbLine
 62
7
  6
CONTINUOUS
 10
635.6309320603
 20
357.1825610876
 11
635.6309320603
 21
477.1825610876
  0
LINE
  5
34D
100
AcDbEntity
  8
0
100
AcDbLine
 62
7
  6
CONTINUOUS
 10
595.890354246
 20
129.0770577522
 11
594.1309320603
 21
121.4561630022
  0
LINE
  5
34E
100
AcDbEntity
  8
0
100
AcDbLine
 62
7
  6
CONTINUOUS
 10
595.890354246
 20
139.4622755432
 11
600.5715031492
 21
156.9325610876
  0
LINE
  5
34F
100
AcDbEntity
  8
0
100
AcDbLine
 62
7
  6
CONTINUOUS
 10
576.2788403335
 20
134.0589387885
 11
576.1748300266
 21
133.7546111652
  0
LINE
  5
350
100
AcDbEntity
  8
0
100
AcDbLine
 62
7
  6
CONTINUOUS
 10
576.7988921655
 20
133.6531686241
 11
576.9029027699
 21
133.9574962474
  0
LINE
  5
351
100
AcDbEntity
  8
0
100
AcDbLine
 62
7
  6
CONTINUOUS
 10
581.2713398249
 20
131.9286452834
 11
581.1673292205
 21
131.6243176601
  0
LINE
  5
352
100
AcDbEntity
  8
0
100
AcDbLine
 62
7
  6
CONTINUOUS
 10
585.0157144435
 20
134.363266696
 11
584.9117044342
 21
134.0589387885
  0
LINE
  5
353
100
AcDbEntity
  8
0
100
AcDbLine
 62
7
  6
CONTINUOUS
 10
588.3440478345
 20
131.8272027423
 11
588.4480578438
 21
132.1315303655
  0
LINE
  5
354
100
AcDbEntity
  8
0
100
AcDbLine
 62
7
  6
CONTINUOUS
 10
557.0394355936
 20
131.4214325068
 11
557.2380943059
 21
131.8272027423
  0
LINE
  5
355
100
AcDbEntity
  8
0
100
AcDbLine
 62
7
  6
CONTINUOUS
 10
551.8743193059
 20
131.9286452834
 11
551.675661162
 21
131.6243176601
  0
LINE
  5
356
100
AcDbEntity
  8
0
100
AcDbLine
 62
7
  6
CONTINUOUS
 10
556.6421193059
 20
131.9286452834
 11
556.4434605936
 21
131.6243176601
  0
LINE
  5
357
100
AcDbEntity
  8
0
100
AcDbLine
 62
7
  6
CONTINUOUS
 10
547.7024943059
 20
133.2473984597
 11
548.0004818059
 21
133.6531686241
  0
LINE
  5
358
100
AcDbEntity
  8
0
100
AcDbLine
 62
7
  6
CONTINUOUS
 10
548.1606465159
 20
187.1919832733
 11
535.3715098747
 21
174.402846632
  0
LINE
  5
359
100
AcDbEntity
  8
0
100
AcDbLine
 62
7
  6
CONTINUOUS
 10
661.6309320603
 20
357.1825610876
 11
661.6309320603
 21
477.1825610876
  0
LINE
  5
35A
100
AcDbEntity
  8
0
100
AcDbLine
 62
7
  6
CONTINUOUS
 10
578.1510276428
 20
134.7690368604
 11
577.943007029
 21
134.363266696
  0
LINE
  5
35B
100
AcDbEntity
  8
0
100
AcDbLine
 62
7
  6
CONTINUOUS
 10
585.2237356524
 20
134.7690368604
 11
585.0157144435
 21
134.363266696
  0
LINE
  5
35C
100
AcDbEntity
  8
0
100
AcDbLine
 62
7
  6
CONTINUOUS
 10
588.1360266256
 20
131.4214325068
 11
588.3440478345
 21
131.8272027423
  0
LINE
  5
35D
100
AcDbEntity
  8
0
100
AcDbLine
 62
7
  6
CONTINUOUS
 10
578.5670694655
 20
134.2618238707
 11
578.7750900792
 21
134.5661517782
  0
LINE
  5
35E
100
AcDbEntity
  8
0
100
AcDbLine
 62
7
  6
CONTINUOUS
 10
547.4045068059
 20
133.7546111652
 11
547.2058483778
 21
133.551726083
  0
LINE
  5
35F
100
AcDbEntity
  8
0
100
AcDbLine
 62
7
  6
CONTINUOUS
 10
585.431755671
 20
134.0589387885
 11
585.8477980888
 21
134.6675943193
  0
LINE
  5
360
100
AcDbEntity
  8
0
100
AcDbLine
 62
7
  6
CONTINUOUS
 10
587.9280054167
 20
132.1315303655
 11
587.5119641892
 21
131.5228750479
  0
LINE
  5
361
100
AcDbEntity
  8
0
100
AcDbLine
 62
7
  6
CONTINUOUS
 10
576.4868612448
 20
133.2473984597
 11
576.7988921655
 21
133.6531686241
  0
LINE
  5
362
100
AcDbEntity
  8
0
100
AcDbLine
 62
7
  6
CONTINUOUS
 10
583.3515483431
 20
135.4791346481
 11
582.7274859067
 21
134.7690368604
  0
LINE
  5
363
100
AcDbEntity
  8
0
100
AcDbLine
 62
7
  6
CONTINUOUS
 10
582.7274859067
 20
133.9574962474
 11
583.3515483431
 21
134.6675943193
  0
LINE
  5
364
100
AcDbEntity
  8
0
100
AcDbLine
 62
7
  6
CONTINUOUS
 10
551.8743193059
 20
131.0156623069
 11
552.271636162
 21
131.4214325068
  0
LINE
  5
365
100
AcDbEntity
  8
0
100
AcDbLine
 62
7
  6
CONTINUOUS
 10
556.6421193059
 20
131.0156623069
 11
557.0394355936
 21
131.4214325068
  0
LINE
  5
366
100
AcDbEntity
  8
RUNDUNGEN
100
AcDbLine
 62
7
  6
CONTINUOUS
 10
589.5169320603
 20
94.6825610876
 11
594.1309320603
 21
102.1803110876
  0
LINE
  5
367
100
AcDbEntity
  8
0
100
AcDbLine
 62
7
  6
CONTINUOUS
 10
576.1748300266
 20
133.7546111652
 11
575.9668091153
 21
133.551726083
  0
LINE
  5
368
100
AcDbEntity
  8
0
100
AcDbLine
 62
7
  6
CONTINUOUS
 10
578.5670694655
 20
135.1748070248
 11
578.1510276428
 21
134.7690368604
  0
LINE
  5
369
100
AcDbEntity
  8
0
100
AcDbLine
 62
7
  6
CONTINUOUS
 10
585.5357668706
 20
135.0733644837
 11
585.2237356524
 21
134.7690368604
  0
LINE
  5
36A
100
AcDbEntity
  8
0
100
AcDbLine
 62
7
  6
CONTINUOUS
 10
581.3753504294
 20
131.0156623069
 11
581.791392252
 21
131.4214325068
  0
LINE
  5
36B
100
AcDbEntity
  8
0
100
AcDbLine
 62
7
  6
CONTINUOUS
 10
587.8239954074
 20
131.117104848
 11
588.1360266256
 21
131.4214325068
  0
LINE
  5
36C
100
AcDbEntity
  8
0
100
AcDbLine
 62
7
  6
CONTINUOUS
 10
551.675661162
 20
131.6243176601
 11
551.377673662
 21
131.4214325068
  0
LINE
  5
36D
100
AcDbEntity
  8
0
100
AcDbLine
 62
7
  6
CONTINUOUS
 10
556.4434605936
 20
131.6243176601
 11
556.1454730936
 21
131.4214325068
  0
LINE
  5
36E
100
AcDbEntity
  8
0
100
AcDbLine
 62
7
  6
CONTINUOUS
 10
547.3051777339
 20
133.0445133775
 11
547.7024943059
 21
133.2473984597
  0
LINE
  5
36F
100
AcDbEntity
  8
0
100
AcDbLine
 62
7
  6
CONTINUOUS
 10
551.4770024497
 20
130.8127771981
 11
551.8743193059
 21
131.0156623069
  0
LINE
  5
370
100
AcDbEntity
  8
0
100
AcDbLine
 62
7
  6
CONTINUOUS
 10
578.7750900792
 20
134.5661517782
 11
579.0871212974
 21
134.7690368604
  0
LINE
  5
371
100
AcDbEntity
  8
0
100
AcDbLine
 62
7
  6
CONTINUOUS
 10
581.1673292205
 20
131.6243176601
 11
580.8552980022
 21
131.4214325068
  0
LINE
  5
372
100
AcDbEntity
  8
0
100
AcDbLine
 62
7
  6
CONTINUOUS
 10
585.8477980888
 20
134.6675943193
 11
586.159829307
 21
134.8704794015
  0
LINE
  5
373
100
AcDbEntity
  8
0
100
AcDbLine
 62
7
  6
CONTINUOUS
 10
587.5119641892
 20
131.5228750479
 11
587.1999329709
 21
131.3199899657
  0
LINE
  5
374
100
AcDbEntity
  8
0
100
AcDbLine
 62
7
  6
CONTINUOUS
 10
586.0558181074
 20
135.377692107
 11
585.5357668706
 21
135.0733644837
  0
LINE
  5
375
100
AcDbEntity
  8
0
100
AcDbLine
 62
7
  6
CONTINUOUS
 10
587.3039429802
 20
130.8127771981
 11
587.8239954074
 21
131.117104848
  0
LINE
  5
376
100
AcDbEntity
  8
0
100
AcDbLine
 62
7
  6
CONTINUOUS
 10
556.2448030181
 20
130.8127771981
 11
556.6421193059
 21
131.0156623069
  0
LINE
  5
377
100
AcDbEntity
  8
0
100
AcDbLine
 62
7
  6
CONTINUOUS
 10
578.983110693
 20
135.377692107
 11
578.5670694655
 21
135.1748070248
  0
LINE
  5
378
100
AcDbEntity
  8
0
100
AcDbLine
 62
7
  6
CONTINUOUS
 10
576.0708194222
 20
133.0445133775
 11
576.4868612448
 21
133.2473984597
  0
LINE
  5
379
100
AcDbEntity
  8
0
100
AcDbLine
 62
7
  6
CONTINUOUS
 10
580.9593086067
 20
130.8127771981
 11
581.3753504294
 21
131.0156623069
  0
LINE
  5
37A
100
AcDbEntity
  8
0
100
AcDbLine
 62
7
  6
CONTINUOUS
 10
547.2058483778
 20
133.551726083
 11
546.9078608778
 21
133.4502835419
  0
LINE
  5
37B
100
AcDbEntity
  8
0
100
AcDbLine
 62
7
  6
CONTINUOUS
 10
575.9668091153
 20
133.551726083
 11
575.6547778971
 21
133.4502835419
  0
LINE
  5
37C
100
AcDbEntity
  8
RUNDUNGEN
100
AcDbLine
 62
7
  6
CONTINUOUS
 10
547.3988480056
 20
44.8144265955
 11
532.5351718389
 21
29.804296545
  0
LINE
  5
37D
100
AcDbEntity
  8
RUNDUNGEN
100
AcDbLine
 62
7
  6
CONTINUOUS
 10
547.3988480056
 20
41.2788926895
 11
532.5351718389
 21
26.268762639
  0
LINE
  5
37E
100
AcDbEntity
  8
RUNDUNGEN
100
AcDbLine
 62
7
  6
CONTINUOUS
 10
592.0110279934
 20
79.7571916181
 11
599.987614169
 21
87.8123722149
  0
LINE
  5
37F
100
AcDbEntity
  8
RUNDUNGEN
100
AcDbLine
 62
7
  6
CONTINUOUS
 10
592.0110279934
 20
76.2216577122
 11
599.987614169
 21
84.2768383089
  0
LINE
  5
380
100
AcDbEntity
  8
RUNDUNGEN
100
AcDbLine
 62
7
  6
CONTINUOUS
 10
525.6628034403
 20
86.3288513944
 11
524.843651396
 21
85.9232716067
  0
LINE
  5
381
100
AcDbEntity
  8
RUNDUNGEN
100
AcDbLine
 62
7
  6
CONTINUOUS
 10
525.6628034403
 20
82.7933174884
 11
524.843651396
 21
82.3877377008
  0
LINE
  5
382
100
AcDbEntity
  8
RUNDUNGEN
100
AcDbLine
 62
7
  6
CONTINUOUS
 10
555.4387261896
 20
24.7419278833
 11
560.7160197946
 21
30.0712194015
  0
LINE
  5
383
100
AcDbEntity
  8
RUNDUNGEN
100
AcDbLine
 62
7
  6
CONTINUOUS
 10
583.863016115
 20
53.4462863197
 11
609.6536082916
 21
79.4909968144
  0
LINE
  5
384
100
AcDbEntity
  8
RUNDUNGEN
100
AcDbLine
 62
7
  6
CONTINUOUS
 10
531.562568218
 20
76.2190199759
 11
528.2859600408
 21
74.5967008252
  0
LINE
  5
385
100
AcDbEntity
  8
RUNDUNGEN
100
AcDbLine
 62
7
  6
CONTINUOUS
 10
557.0272855151
 20
84.2426039271
 11
552.9315252936
 21
82.2147049887
  0
LINE
  5
386
100
AcDbEntity
  8
RUNDUNGEN
100
AcDbLine
 62
7
  6
CONTINUOUS
 10
533.7922938298
 20
72.5716462638
 11
536.7675505657
 21
74.0447598374
  0
LINE
  5
387
100
AcDbEntity
  8
RUNDUNGEN
100
AcDbLine
 62
7
  6
CONTINUOUS
 10
557.0272855151
 20
80.7070700212
 11
552.9315252936
 21
78.6791710828
  0
LINE
  5
388
100
AcDbEntity
  8
RUNDUNGEN
100
AcDbLine
 62
7
  6
CONTINUOUS
 10
533.7922938298
 20
69.0361123579
 11
537.068902007
 21
70.6584315086
  0
LINE
  5
389
100
AcDbEntity
  8
0
100
AcDbLine
 62
7
  6
CONTINUOUS
 10
249.19497903
 20
94.6825610876
 11
250.99497903
 21
94.6825610876
  0
LINE
  5
38A
100
AcDbEntity
  8
0
100
AcDbLine
 62
7
  6
CONTINUOUS
 10
242.2688874238
 20
102.1803110876
 11
257.9210706362
 21
102.1803110876
  0
LINE
  5
38B
100
AcDbEntity
  8
0
100
AcDbLine
 62
7
  6
CONTINUOUS
 10
247.59572903
 20
121.4561630022
 11
252.59422903
 21
121.4561630022
  0
LINE
  5
38C
100
AcDbEntity
  8
0
100
AcDbLine
 62
7
  6
CONTINUOUS
 10
252.59422903
 20
129.0770577522
 11
247.59572903
 21
129.0770577522
  0
LINE
  5
38D
100
AcDbEntity
  8
0
100
AcDbLine
 62
7
  6
CONTINUOUS
 10
253.8137352967
 20
139.4622755432
 11
246.3762227633
 21
139.4622755432
  0
LINE
  5
38E
100
AcDbEntity
  8
0
100
AcDbLine
 62
7
  6
CONTINUOUS
 10
253.0167605453
 20
156.9325610876
 11
247.1731975148
 21
156.9325610876
  0
LINE
  5
38F
100
AcDbEntity
  8
0
100
AcDbLine
 62
7
  6
CONTINUOUS
 10
253.0167605453
 20
174.402846632
 11
247.1731975148
 21
174.402846632
  0
LINE
  5
390
100
AcDbEntity
  8
KONSTRUKTIONSELEMENTE
100
AcDbLine
 62
7
  6
CONTINUOUS
 10
357.8580524828
 20
75.9137481141
 11
349.4434817867
 21
84.3283188102
  0
LINE
  5
391
100
AcDbEntity
  8
KONSTRUKTIONSELEMENTE
100
AcDbLine
 62
7
  6
CONTINUOUS
 10
296.6933159102
 20
137.0784846867
 11
288.2787452141
 21
145.4930553829
  0
LINE
  5
392
100
AcDbEntity
  8
KONSTRUKTIONSELEMENTE
100
AcDbLine
 62
7
  6
CONTINUOUS
 10
329.6444919135
 20
106.3193397051
 11
319.0378901957
 21
116.9259414229
  0
LINE
  5
393
100
AcDbEntity
  8
KONSTRUKTIONSELEMENTE
100
AcDbLine
 62
7
  6
CONTINUOUS
 10
361.3935863888
 20
79.44928202
 11
352.9790156927
 21
87.8638527162
  0
LINE
  5
394
100
AcDbEntity
  8
KONSTRUKTIONSELEMENTE
100
AcDbLine
 62
7
  6
CONTINUOUS
 10
300.2288498161
 20
140.6140185927
 11
291.81427912
 21
149.0285892888
  0
LINE
  5
395
100
AcDbEntity
  8
KONSTRUKTIONSELEMENTE
100
AcDbLine
 62
7
  6
CONTINUOUS
 10
332.8264724288
 20
109.5013202205
 11
322.219870711
 21
120.1079219383
  0
LINE
  5
396
100
AcDbEntity
  8
KONSTRUKTIONSELEMENTE
100
AcDbLine
 62
7
  6
CONTINUOUS
 10
263.5300078726
 20
179.5048915579
 11
292.5213859012
 21
150.5135135293
  0
LINE
  5
397
100
AcDbEntity
  8
RUNDUNGEN
100
AcDbLine
 62
7
  6
CONTINUOUS
 10
428.9929946702
 20
14.7490115415
 11
359.01302799
 21
84.7289782217
  0
LINE
  5
398
100
AcDbEntity
  8
KONSTRUKTIONSELEMENTE
100
AcDbLine
 62
7
  6
CONTINUOUS
 10
303.4815410096
 20
140.6140185927
 11
322.1902259848
 21
121.9053336175
  0
LINE
  5
399
100
AcDbEntity
  8
KONSTRUKTIONSELEMENTE
100
AcDbLine
 62
7
  6
CONTINUOUS
 10
334.5942393818
 20
109.5013202205
 11
353.302924357
 21
90.7926352453
  0
LINE
  5
39A
100
AcDbEntity
  8
0
100
AcDbLine
 62
7
  6
CONTINUOUS
 10
261.59497903
 20
125.5715338333
 11
264.99497903
 21
119.6825610876
  0
LINE
  5
39B
100
AcDbEntity
  8
0
100
AcDbLine
 62
7
  6
CONTINUOUS
 10
203.09497903
 20
262.1825610876
 11
203.09497903
 21
197.1825610876
  0
LINE
  5
39C
100
AcDbEntity
  8
0
100
AcDbLine
 62
7
  6
CONTINUOUS
 10
253.0167605453
 20
187.1919832733
 11
247.1731975148
 21
187.1919832733
  0
LINE
  5
39D
100
AcDbEntity
  8
0
100
AcDbLine
 62
7
  6
CONTINUOUS
 10
247.1731975148
 20
191.8731321764
 11
253.0167605453
 21
191.8731321764
  0
LINE
  5
39E
100
AcDbEntity
  8
KONSTRUKTIONSELEMENTE
100
AcDbLine
 62
7
  6
CONTINUOUS
 10
306.6635215249
 20
143.795999108
 11
325.3722065001
 21
125.0873141328
  0
LINE
  5
39F
100
AcDbEntity
  8
KONSTRUKTIONSELEMENTE
100
AcDbLine
 62
7
  6
CONTINUOUS
 10
337.7762198972
 20
112.6833007358
 11
356.4849048723
 21
93.9746157606
  0
LINE
  5
3A0
100
AcDbEntity
  8
RUNDUNGEN
100
AcDbLine
 62
7
  6
CONTINUOUS
 10
362.548543367
 20
88.2645306566
 11
432.5285285761
 21
18.2845454474
  0
LINE
  5
3A1
100
AcDbEntity
  8
KONSTRUKTIONSELEMENTE
100
AcDbLine
 62
7
  6
CONTINUOUS
 10
267.7726485597
 20
183.747532245
 11
296.7145164611
 21
154.8056643436
  0
LINE
  5
3A2
100
AcDbEntity
  8
KONSTRUKTIONSELEMENTE
100
AcDbLine
 62
7
  6
CONTINUOUS
 10
327.1696181794
 20
125.0576694066
 11
337.7762198972
 21
114.4510676888
  0
LINE
  5
3A3
100
AcDbEntity
  8
KONSTRUKTIONSELEMENTE
100
AcDbLine
 62
7
  6
CONTINUOUS
 10
298.2489508288
 20
155.4632609976
 11
302.2794594816
 21
151.4327523448
  0
LINE
  5
3A4
100
AcDbEntity
  8
KONSTRUKTIONSELEMENTE
100
AcDbLine
 62
7
  6
CONTINUOUS
 10
302.6330128722
 20
151.0791989542
 11
306.6635215249
 21
147.0486903015
  0
LINE
  5
3A5
100
AcDbEntity
  8
KONSTRUKTIONSELEMENTE
100
AcDbLine
 62
7
  6
CONTINUOUS
 10
359.4136874015
 20
94.2985244249
 11
363.4441960542
 21
90.2680157722
  0
LINE
  5
3A6
100
AcDbEntity
  8
KONSTRUKTIONSELEMENTE
100
AcDbLine
 62
7
  6
CONTINUOUS
 10
363.7977494448
 20
89.9144623816
 11
367.8282580976
 21
85.8839537288
  0
LINE
  5
3A7
100
AcDbEntity
  8
KONSTRUKTIONSELEMENTE
100
AcDbLine
 62
7
  6
CONTINUOUS
 10
330.3515986947
 20
128.2396499219
 11
340.9582004125
 21
117.6330482041
  0
LINE
  5
3A8
100
AcDbEntity
  8
KONSTRUKTIONSELEMENTE
100
AcDbLine
 62
7
  6
CONTINUOUS
 10
301.7844847348
 20
158.9987949035
 11
305.8149933875
 21
154.9682862508
  0
LINE
  5
3A9
100
AcDbEntity
  8
KONSTRUKTIONSELEMENTE
100
AcDbLine
 62
7
  6
CONTINUOUS
 10
306.1685467781
 20
154.6147328602
 11
310.1990554309
 21
150.5842242074
  0
LINE
  5
3AA
100
AcDbEntity
  8
KONSTRUKTIONSELEMENTE
100
AcDbLine
 62
7
  6
CONTINUOUS
 10
362.9492213074
 20
97.8340583309
 11
366.9797299602
 21
93.8035496781
  0
LINE
  5
3AB
100
AcDbEntity
  8
KONSTRUKTIONSELEMENTE
100
AcDbLine
 62
7
  6
CONTINUOUS
 10
367.3332833507
 20
93.4499962875
 11
371.3637920035
 21
89.4194876348
  0
LINE
  5
3AC
100
AcDbEntity
  8
0
100
AcDbLine
 62
7
  6
CONTINUOUS
 10
257.1868643412
 20
183.8846095385
 11
253.0167605453
 21
191.8731321764
  0
LINE
  5
3AD
100
AcDbEntity
  8
0
100
AcDbLine
 62
7
  6
CONTINUOUS
 10
225.09497903
 20
262.1825610876
 11
225.09497903
 21
197.1825610876
  0
LINE
  5
3AE
100
AcDbEntity
  8
RUNDUNGEN
100
AcDbLine
 62
7
  6
CONTINUOUS
 10
235.19497903
 20
108.6825610876
 11
235.19497903
 21
119.6825610876
  0
LINE
  5
3AF
100
AcDbEntity
  8
0
100
AcDbLine
 62
7
  6
CONTINUOUS
 10
237.09497903
 20
274.1825610876
 11
237.09497903
 21
560.1825610876
  0
LINE
  5
3B0
100
AcDbEntity
  8
RUNDUNGEN
100
AcDbLine
 62
7
  6
CONTINUOUS
 10
238.59497903
 20
125.5715338333
 11
238.59497903
 21
137.1825610876
  0
LINE
  5
3B1
100
AcDbEntity
  8
RUNDUNGEN
100
AcDbLine
 62
7
  6
CONTINUOUS
 10
247.59572903
 20
121.4561630022
 11
245.9838775675
 21
135.1825610876
  0
LINE
  5
3B2
100
AcDbEntity
  8
0
100
AcDbLine
 62
7
  6
CONTINUOUS
 10
247.59572903
 20
129.0770577522
 11
246.3762227633
 21
139.4622755432
  0
LINE
  5
3B3
100
AcDbEntity
  8
0
100
AcDbLine
 62
7
  6
CONTINUOUS
 10
253.6275139176
 20
149.3358352834
 11
253.8137352967
 21
139.4622755432
  0
LINE
  5
3B4
100
AcDbEntity
  8
BEZUGSACHSEN
100
AcDbLine
 62
7
  6
CONTINUOUS
 10
242.09497903
 20
180.1825610876
 11
242.09497903
 21
151.7024490741
  0
LINE
  5
3B5
100
AcDbEntity
  8
RUNDUNGEN
100
AcDbLine
 62
7
  6
CONTINUOUS
 10
242.09497903
 20
151.7020687402
 11
242.09497903
 21
141.5700432813
  0
LINE
  5
3B6
100
AcDbEntity
  8
0
100
AcDbLine
 62
7
  6
CONTINUOUS
 10
247.59572903
 20
129.0770577522
 11
247.59572903
 21
121.4561630022
  0
LINE
  5
3B7
100
AcDbEntity
  8
0
100
AcDbLine
 62
7
  6
CONTINUOUS
 10
252.59422903
 20
129.0770577522
 11
252.59422903
 21
121.4561630022
  0
LINE
  5
3B8
100
AcDbEntity
  8
BEZUGSACHSEN
100
AcDbLine
 62
7
  6
CONTINUOUS
 10
258.09497903
 20
180.1825610876
 11
258.09497903
 21
151.7024490741
  0
LINE
  5
3B9
100
AcDbEntity
  8
0
100
AcDbLine
 62
7
  6
CONTINUOUS
 10
258.09497903
 20
151.7020687402
 11
258.09497903
 21
141.5700432813
  0
LINE
  5
3BA
100
AcDbEntity
  8
0
100
AcDbLine
 62
7
  6
CONTINUOUS
 10
246.5624441424
 20
149.3358352834
 11
246.3762227633
 21
139.4622755432
  0
LINE
  5
3BB
100
AcDbEntity
  8
0
100
AcDbLine
 62
7
  6
CONTINUOUS
 10
261.59497903
 20
125.5715338333
 11
261.59497903
 21
137.1825610876
  0
LINE
  5
3BC
100
AcDbEntity
  8
0
100
AcDbLine
 62
7
  6
CONTINUOUS
 10
263.09497903
 20
274.1825610876
 11
263.09497903
 21
560.1825610876
  0
LINE
  5
3BD
100
AcDbEntity
  8
0
100
AcDbLine
 62
7
  6
CONTINUOUS
 10
264.99497903
 20
119.6825610876
 11
264.99497903
 21
108.6825610876
  0
LINE
  5
3BE
100
AcDbEntity
  8
0
100
AcDbLine
 62
7
  6
CONTINUOUS
 10
275.09497903
 20
197.1825610876
 11
275.09497903
 21
262.1825610876
  0
LINE
  5
3BF
100
AcDbEntity
  8
0
100
AcDbLine
 62
7
  6
CONTINUOUS
 10
252.59422903
 20
129.0770577522
 11
253.8137352967
 21
139.4622755432
  0
LINE
  5
3C0
100
AcDbEntity
  8
0
100
AcDbLine
 62
7
  6
CONTINUOUS
 10
252.59422903
 20
121.4561630022
 11
254.2060804925
 21
135.1825610876
  0
LINE
  5
3C1
100
AcDbEntity
  8
0
100
AcDbLine
 62
7
  6
CONTINUOUS
 10
297.09497903
 20
197.1825610876
 11
297.09497903
 21
262.1825610876
  0
LINE
  5
3C2
100
AcDbEntity
  8
KONSTRUKTIONSELEMENTE
100
AcDbLine
 62
7
  6
CONTINUOUS
 10
247.1731975148
 20
191.8731321764
 11
243.0030937188
 21
183.8846095385
  0
LINE
  5
3C3
100
AcDbEntity
  8
RUNDUNGEN
100
AcDbLine
 62
7
  6
CONTINUOUS
 10
238.59497903
 20
125.5715338333
 11
235.19497903
 21
119.6825610876
  0
LINE
  5
3C4
100
AcDbEntity
  8
KONSTRUKTIONSELEMENTE
100
AcDbLine
 62
7
  6
CONTINUOUS
 10
305.8149933875
 20
154.9682862508
 11
302.2794594816
 21
151.4327523448
  0
LINE
  5
3C5
100
AcDbEntity
  8
KONSTRUKTIONSELEMENTE
100
AcDbLine
 62
7
  6
CONTINUOUS
 10
306.1685467781
 20
154.6147328602
 11
302.6330128722
 21
151.0791989542
  0
LINE
  5
3C6
100
AcDbEntity
  8
KONSTRUKTIONSELEMENTE
100
AcDbLine
 62
7
  6
CONTINUOUS
 10
366.9797299602
 20
93.8035496781
 11
363.4441960542
 21
90.2680157722
  0
LINE
  5
3C7
100
AcDbEntity
  8
KONSTRUKTIONSELEMENTE
100
AcDbLine
 62
7
  6
CONTINUOUS
 10
367.3332833507
 20
93.4499962875
 11
363.7977494448
 21
89.9144623816
  0
LINE
  5
3C8
100
AcDbEntity
  8
RUNDUNGEN
100
AcDbLine
 62
7
  6
CONTINUOUS
 10
362.5484113184
 20
88.2646627051
 11
359.0128774125
 21
84.7291287992
  0
LINE
  5
3C9
100
AcDbEntity
  8
RUNDUNGEN
100
AcDbLine
 62
7
  6
CONTINUOUS
 10
428.9929946702
 20
14.7490115415
 11
432.5285285761
 21
18.2845454474
  0
ARC
  5
3CA
100
AcDbEntity
  8
RUNDUNGEN
100
AcDbCircle
 62
7
  6
CONTINUOUS
 10
543.6309320603
 20
135.1825610876
 40
6.5
100
AcDbArc
 50
110.0629909694
 51
180.0
  0
ARC
  5
3CB
100
AcDbEntity
  8
RUNDUNGEN
100
AcDbCircle
 62
7
  6
CONTINUOUS
 10
543.0052410498
 20
136.8959066446
 40
4.6759818435
100
AcDbArc
 50
107.8948091041
 51
110.063564326
  0
CIRCLE
  5
3CC
100
AcDbEntity
  8
BEZUGSACHSEN
100
AcDbCircle
 62
7
  6
CONTINUOUS
 10
547.5309320603
 20
112.1825610876
 40
2.5
  0
ARC
  5
3CD
100
AcDbEntity
  8
0
100
AcDbCircle
 62
7
  6
CONTINUOUS
 10
554.7934407622
 20
66.7286643163
 40
0.416959771
100
AcDbArc
 50
78.8903114984
 51
89.9692795104
  0
ARC
  5
3CE
100
AcDbEntity
  8
KONSTRUKTIONSELEMENTE
100
AcDbCircle
 62
7
  6
CONTINUOUS
 10
565.6309320603
 20
64.1933610876
 40
35.9892
100
AcDbArc
 50
57.8980709415
 51
79.9991254185
  0
ARC
  5
3CF
100
AcDbEntity
  8
KONSTRUKTIONSELEMENTE
100
AcDbCircle
 62
7
  6
CONTINUOUS
 10
565.6309320603
 20
64.1933610876
 40
35.9892
100
AcDbArc
 50
100.0008745815
 51
122.1019290585
  0
ARC
  5
3D0
100
AcDbEntity
  8
BEZUGSACHSEN
100
AcDbCircle
 62
7
  6
CONTINUOUS
 10
565.6309320603
 20
156.9325610876
 40
15.25
100
AcDbArc
 50
136.1992889705
 51
43.8007110295
  0
ARC
  5
3D1
100
AcDbEntity
  8
0
100
AcDbCircle
 62
7
  6
CONTINUOUS
 10
565.6309320603
 20
161.1825610876
 40
11.0
100
AcDbArc
 50
180.0
 51
360.0
  0
ARC
  5
3D2
100
AcDbEntity
  8
RUNDUNGEN
100
AcDbCircle
 62
7
  6
CONTINUOUS
 10
587.6309320603
 20
135.1825610876
 40
6.5
100
AcDbArc
 50
0.0
 51
69.9370090306
  0
ARC
  5
3D3
100
AcDbEntity
  8
KONSTRUKTIONSELEMENTE
100
AcDbCircle
 62
7
  6
CONTINUOUS
 10
565.6309320603
 20
125.2325610876
 40
6.25
100
AcDbArc
 50
0.0
 51
180.0
  0
ARC
  5
3D4
100
AcDbEntity
  8
RUNDUNGEN
100
AcDbCircle
 62
7
  6
CONTINUOUS
 10
588.2566230708
 20
136.8959066446
 40
4.6759818435
100
AcDbArc
 50
69.936435674
 51
72.1051908959
  0
ARC
  5
3D5
100
AcDbEntity
  8
KONSTRUKTIONSELEMENTE
100
AcDbCircle
 62
7
  6
CONTINUOUS
 10
565.6309320603
 20
75.6166178744
 40
2.5
100
AcDbArc
 50
180.0
 51
360.0
  0
ARC
  5
3D6
100
AcDbEntity
  8
KONSTRUKTIONSELEMENTE
100
AcDbCircle
 62
7
  6
CONTINUOUS
 10
565.6309320603
 20
98.1311885705
 40
2.5
100
AcDbArc
 50
0.0
 51
180.0
  0
ARC
  5
3D7
100
AcDbEntity
  8
KONSTRUKTIONSELEMENTE
100
AcDbCircle
 62
7
  6
CONTINUOUS
 10
565.6309320603
 20
106.2261939546
 40
2.25
100
AcDbArc
 50
209.2743903904
 51
330.7256096096
  0
ARC
  5
3D8
100
AcDbEntity
  8
KONSTRUKTIONSELEMENTE
100
AcDbCircle
 62
7
  6
CONTINUOUS
 10
565.6309320603
 20
128.3327956724
 40
2.25
100
AcDbArc
 50
0.0
 51
180.0
  0
ARC
  5
3D9
100
AcDbEntity
  8
0
100
AcDbCircle
 62
7
  6
CONTINUOUS
 10
578.0937148508
 20
67.3604282219
 40
2.1292118707
100
AcDbArc
 50
350.5636876716
 51
355.3957076165
  0
ARC
  5
3DA
100
AcDbEntity
  8
0
100
AcDbCircle
 62
7
  6
CONTINUOUS
 10
565.6309320603
 20
357.1825610876
 40
96.0
100
AcDbArc
 50
180.0
 51
263.4194979403
  0
ARC
  5
3DB
100
AcDbEntity
  8
0
100
AcDbCircle
 62
7
  6
CONTINUOUS
 10
565.6309320603
 20
357.1825610876
 40
96.0
100
AcDbArc
 50
276.5805020597
 51
360.0
  0
ARC
  5
3DC
100
AcDbEntity
  8
0
100
AcDbCircle
 62
7
  6
CONTINUOUS
 10
565.6309320603
 20
477.1825610876
 40
96.0
100
AcDbArc
 50
0.0
 51
180.0
  0
ARC
  5
3DD
100
AcDbEntity
  8
0
100
AcDbCircle
 62
7
  6
CONTINUOUS
 10
565.6309320603
 20
357.1825610876
 40
70.0
100
AcDbArc
 50
180.0
 51
260.9578071427
  0
ARC
  5
3DE
100
AcDbEntity
  8
0
100
AcDbCircle
 62
7
  6
CONTINUOUS
 10
565.6309320603
 20
357.1825610876
 40
70.0
100
AcDbArc
 50
279.0421928573
 51
360.0
  0
ARC
  5
3DF
100
AcDbEntity
  8
0
100
AcDbCircle
 62
7
  6
CONTINUOUS
 10
565.6309320603
 20
477.1825610876
 40
70.0
100
AcDbArc
 50
0.0
 51
180.0
  0
ARC
  5
3E0
100
AcDbEntity
  8
0
100
AcDbCircle
 62
7
  6
CONTINUOUS
 10
565.6309320603
 20
298.1825610876
 40
11.0
100
AcDbArc
 50
0.0
 51
180.0
  0
ARC
  5
3E1
100
AcDbEntity
  8
0
100
AcDbCircle
 62
7
  6
CONTINUOUS
 10
250.99497903
 20
108.6825610876
 40
14.0
100
AcDbArc
 50
283.4241551657
 51
360.0
  0
ARC
  5
3E2
100
AcDbEntity
  8
0
100
AcDbCircle
 62
7
  6
CONTINUOUS
 10
250.99497903
 20
108.6825610876
 40
14.0
100
AcDbArc
 50
270.0
 51
279.3310985005
  0
ARC
  5
3E3
100
AcDbEntity
  8
RUNDUNGEN
100
AcDbCircle
 62
7
  6
CONTINUOUS
 10
249.19497903
 20
108.6825610876
 40
14.0
100
AcDbArc
 50
180.0
 51
270.0
  0
ARC
  5
3E4
100
AcDbEntity
  8
BEZUGSACHSEN
100
AcDbCircle
 62
7
  6
CONTINUOUS
 10
250.09497903
 20
180.1825610876
 40
8.0
100
AcDbArc
 50
152.4349057266
 51
180.0
  0
ARC
  5
3E5
100
AcDbEntity
  8
BEZUGSACHSEN
100
AcDbCircle
 62
7
  6
CONTINUOUS
 10
250.09497903
 20
180.1825610876
 40
8.0
100
AcDbArc
 50
0.0
 51
27.5650942734
  0
CIRCLE
  5
3E6
100
AcDbEntity
  8
BEZUGSACHSEN
100
AcDbCircle
 62
7
  6
CONTINUOUS
 10
250.09497903
 20
112.1825610876
 40
7.11325
  0
ARC
  5
3E7
100
AcDbEntity
  8
0
100
AcDbCircle
 62
7
  6
CONTINUOUS
 10
257.09497903
 20
137.1825610876
 40
4.5
100
AcDbArc
 50
0.0
 51
79.3577329759
  0
ARC
  5
3E8
100
AcDbEntity
  8
RUNDUNGEN
100
AcDbCircle
 62
7
  6
CONTINUOUS
 10
243.09497903
 20
137.1825610876
 40
4.5
100
AcDbArc
 50
100.6422670241
 51
180.0
  0
ARC
  5
3E9
100
AcDbEntity
  8
KONSTRUKTIONSELEMENTE
100
AcDbCircle
 62
7
  6
CONTINUOUS
 10
265.6513282161
 20
181.6262119015
 40
3.0
100
AcDbArc
 50
45.0
 51
225.0
  0
ARC
  5
3EA
100
AcDbEntity
  8
0
100
AcDbCircle
 62
7
  6
CONTINUOUS
 10
258.2626955696
 20
139.5261526262
 40
2.1137820273
100
AcDbArc
 50
120.594603582
 51
123.533879228
  0
ARC
  5
3EB
100
AcDbEntity
  8
RUNDUNGEN
100
AcDbCircle
 62
7
  6
CONTINUOUS
 10
241.9272624905
 20
139.5261526262
 40
2.1137820273
100
AcDbArc
 50
56.466120772
 51
59.405396418
  0
ARC
  5
3EC
100
AcDbEntity
  8
0
100
AcDbCircle
 62
7
  6
CONTINUOUS
 10
250.09497903
 20
197.1825610876
 40
47.0
100
AcDbArc
 50
180.0
 51
260.1961109843
  0
ARC
  5
3ED
100
AcDbEntity
  8
0
100
AcDbCircle
 62
7
  6
CONTINUOUS
 10
250.09497903
 20
197.1825610876
 40
47.0
100
AcDbArc
 50
279.8038890157
 51
311.3385477827
  0
ARC
  5
3EE
100
AcDbEntity
  8
0
100
AcDbCircle
 62
7
  6
CONTINUOUS
 10
250.09497903
 20
197.1825610876
 40
47.0
100
AcDbArc
 50
318.6614522173
 51
360.0
  0
ARC
  5
3EF
100
AcDbEntity
  8
0
100
AcDbCircle
 62
7
  6
CONTINUOUS
 10
250.09497903
 20
262.1825610876
 40
47.0
100
AcDbArc
 50
0.0
 51
73.934727261
  0
ARC
  5
3F0
100
AcDbEntity
  8
0
100
AcDbCircle
 62
7
  6
CONTINUOUS
 10
250.09497903
 20
262.1825610876
 40
47.0
100
AcDbArc
 50
106.065272739
 51
180.0
  0
ARC
  5
3F1
100
AcDbEntity
  8
0
100
AcDbCircle
 62
7
  6
CONTINUOUS
 10
250.09497903
 20
197.1825610876
 40
25.0
100
AcDbArc
 50
180.0
 51
251.3310699785
  0
ARC
  5
3F2
100
AcDbEntity
  8
0
100
AcDbCircle
 62
7
  6
CONTINUOUS
 10
250.09497903
 20
197.1825610876
 40
25.0
100
AcDbArc
 50
288.6689300215
 51
308.104478947
  0
ARC
  5
3F3
100
AcDbEntity
  8
0
100
AcDbCircle
 62
7
  6
CONTINUOUS
 10
250.09497903
 20
197.1825610876
 40
25.0
100
AcDbArc
 50
321.895521053
 51
360.0
  0
ARC
  5
3F4
100
AcDbEntity
  8
0
100
AcDbCircle
 62
7
  6
CONTINUOUS
 10
250.09497903
 20
262.1825610876
 40
25.0
100
AcDbArc
 50
0.0
 51
58.6481498128
  0
ARC
  5
3F5
100
AcDbEntity
  8
0
100
AcDbCircle
 62
7
  6
CONTINUOUS
 10
250.09497903
 20
262.1825610876
 40
25.0
100
AcDbArc
 50
121.3518501872
 51
180.0
  0
ARC
  5
3F6
100
AcDbEntity
  8
0
100
AcDbCircle
 62
7
  6
CONTINUOUS
 10
250.09497903
 20
274.1825610876
 40
13.0
100
AcDbArc
 50
180.0
 51
360.0
  0
ARC
  5
3F7
100
AcDbEntity
  8
KONSTRUKTIONSELEMENTE
100
AcDbCircle
 62
7
  6
CONTINUOUS
 10
295.0316149744
 20
152.2459251432
 40
9.55
100
AcDbArc
 50
153.3390960058
 51
225.0
  0
ARC
  5
3F8
100
AcDbEntity
  8
KONSTRUKTIONSELEMENTE
100
AcDbCircle
 62
7
  6
CONTINUOUS
 10
295.0316149744
 20
152.2459251432
 40
9.55
100
AcDbArc
 50
45.0
 51
116.6609039942
  0
ARC
  5
3F9
100
AcDbEntity
  8
KONSTRUKTIONSELEMENTE
100
AcDbCircle
 62
7
  6
CONTINUOUS
 10
295.0316149744
 20
152.2459251432
 40
4.55
100
AcDbArc
 50
176.2724010126
 51
225.0
  0
ARC
  5
3FA
100
AcDbEntity
  8
KONSTRUKTIONSELEMENTE
100
AcDbCircle
 62
7
  6
CONTINUOUS
 10
295.0316149744
 20
152.2459251432
 40
4.55
100
AcDbArc
 50
45.0
 51
93.7275989874
  0
ARC
  5
3FB
100
AcDbEntity
  8
KONSTRUKTIONSELEMENTE
100
AcDbCircle
 62
7
  6
CONTINUOUS
 10
294.6427062448
 20
152.6348338728
 40
3.0
100
AcDbArc
 50
225.0
 51
45.0
  0
ARC
  5
3FC
100
AcDbEntity
  8
0
100
AcDbCircle
 62
7
  6
CONTINUOUS
 10
250.09497903
 20
560.1825610876
 40
13.0
100
AcDbArc
 50
0.0
 51
180.0
  0
ARC
  5
3FD
100
AcDbEntity
  8
KONSTRUKTIONSELEMENTE
100
AcDbCircle
 62
7
  6
CONTINUOUS
 10
303.4461856705
 20
143.8313544471
 40
9.55
100
AcDbArc
 50
328.6297070454
 51
45.0
  0
ARC
  5
3FE
100
AcDbEntity
  8
KONSTRUKTIONSELEMENTE
100
AcDbCircle
 62
7
  6
CONTINUOUS
 10
303.4461856705
 20
143.8313544471
 40
9.55
100
AcDbArc
 50
225.0
 51
301.3702929546
  0
ARC
  5
3FF
100
AcDbEntity
  8
KONSTRUKTIONSELEMENTE
100
AcDbCircle
 62
7
  6
CONTINUOUS
 10
324.6947444452
 20
122.5827956724
 40
8.0
100
AcDbArc
 50
151.3642958278
 51
225.0
  0
ARC
  5
400
100
AcDbEntity
  8
KONSTRUKTIONSELEMENTE
100
AcDbCircle
 62
7
  6
CONTINUOUS
 10
324.6947444452
 20
122.5827956724
 40
8.0
100
AcDbArc
 50
45.0
 51
118.6357041722
  0
ARC
  5
401
100
AcDbEntity
  8
KONSTRUKTIONSELEMENTE
100
AcDbCircle
 62
7
  6
CONTINUOUS
 10
303.4461856705
 20
143.8313544471
 40
4.55
100
AcDbArc
 50
344.6522021471
 51
45.0
  0
ARC
  5
402
100
AcDbEntity
  8
KONSTRUKTIONSELEMENTE
100
AcDbCircle
 62
7
  6
CONTINUOUS
 10
303.4461856705
 20
143.8313544471
 40
4.55
100
AcDbArc
 50
225.0
 51
285.3477978529
  0
ARC
  5
403
100
AcDbEntity
  8
KONSTRUKTIONSELEMENTE
100
AcDbCircle
 62
7
  6
CONTINUOUS
 10
324.6947444452
 20
122.5827956724
 40
3.5
100
AcDbArc
 50
175.1538775079
 51
225.0
  0
ARC
  5
404
100
AcDbEntity
  8
KONSTRUKTIONSELEMENTE
100
AcDbCircle
 62
7
  6
CONTINUOUS
 10
324.6947444452
 20
122.5827956724
 40
3.5
100
AcDbArc
 50
45.0
 51
94.8461224921
  0
ARC
  5
405
100
AcDbEntity
  8
KONSTRUKTIONSELEMENTE
100
AcDbCircle
 62
7
  6
CONTINUOUS
 10
305.0725312673
 20
142.2050088503
 40
2.25
100
AcDbArc
 50
45.0
 51
225.0
  0
ARC
  5
406
100
AcDbEntity
  8
KONSTRUKTIONSELEMENTE
100
AcDbCircle
 62
7
  6
CONTINUOUS
 10
323.8108609687
 20
123.4666791489
 40
2.25
100
AcDbArc
 50
225.0
 51
45.0
  0
ARC
  5
407
100
AcDbEntity
  8
KONSTRUKTIONSELEMENTE
100
AcDbCircle
 62
7
  6
CONTINUOUS
 10
364.6109222432
 20
82.6666178744
 40
9.55
100
AcDbArc
 50
330.1951355235
 51
45.0
  0
ARC
  5
408
100
AcDbEntity
  8
KONSTRUKTIONSELEMENTE
100
AcDbCircle
 62
7
  6
CONTINUOUS
 10
364.6109222432
 20
82.6666178744
 40
9.55
100
AcDbArc
 50
225.0
 51
299.8048644765
  0
ARC
  5
409
100
AcDbEntity
  8
KONSTRUKTIONSELEMENTE
100
AcDbCircle
 62
7
  6
CONTINUOUS
 10
356.1963515471
 20
91.0811885705
 40
9.55
100
AcDbArc
 50
148.6297070454
 51
225.0
  0
ARC
  5
40A
100
AcDbEntity
  8
KONSTRUKTIONSELEMENTE
100
AcDbCircle
 62
7
  6
CONTINUOUS
 10
356.1963515471
 20
91.0811885705
 40
9.55
100
AcDbArc
 50
45.0
 51
121.3702929546
  0
ARC
  5
40B
100
AcDbEntity
  8
KONSTRUKTIONSELEMENTE
100
AcDbCircle
 62
7
  6
CONTINUOUS
 10
335.301346163
 20
111.9761939546
 40
8.0
100
AcDbArc
 50
331.3642958278
 51
45.0
  0
ARC
  5
40C
100
AcDbEntity
  8
KONSTRUKTIONSELEMENTE
100
AcDbCircle
 62
7
  6
CONTINUOUS
 10
335.301346163
 20
111.9761939546
 40
8.0
100
AcDbArc
 50
225.0
 51
298.6357041722
  0
ARC
  5
40D
100
AcDbEntity
  8
KONSTRUKTIONSELEMENTE
100
AcDbCircle
 62
7
  6
CONTINUOUS
 10
364.6109222432
 20
82.6666178744
 40
4.55
100
AcDbArc
 50
348.3583327703
 51
45.0
  0
ARC
  5
40E
100
AcDbEntity
  8
KONSTRUKTIONSELEMENTE
100
AcDbCircle
 62
7
  6
CONTINUOUS
 10
364.6109222432
 20
82.6666178744
 40
4.55
100
AcDbArc
 50
225.0
 51
281.6416672297
  0
ARC
  5
40F
100
AcDbEntity
  8
KONSTRUKTIONSELEMENTE
100
AcDbCircle
 62
7
  6
CONTINUOUS
 10
356.1963515471
 20
91.0811885705
 40
4.55
100
AcDbArc
 50
164.6522021471
 51
225.0
  0
ARC
  5
410
100
AcDbEntity
  8
KONSTRUKTIONSELEMENTE
100
AcDbCircle
 62
7
  6
CONTINUOUS
 10
356.1963515471
 20
91.0811885705
 40
4.55
100
AcDbArc
 50
45.0
 51
105.3477978529
  0
ARC
  5
411
100
AcDbEntity
  8
KONSTRUKTIONSELEMENTE
100
AcDbCircle
 62
7
  6
CONTINUOUS
 10
335.301346163
 20
111.9761939546
 40
3.5
100
AcDbArc
 50
355.1538775079
 51
45.0
  0
ARC
  5
412
100
AcDbEntity
  8
KONSTRUKTIONSELEMENTE
100
AcDbCircle
 62
7
  6
CONTINUOUS
 10
335.301346163
 20
111.9761939546
 40
3.5
100
AcDbArc
 50
225.0
 51
274.8461224921
  0
ARC
  5
413
100
AcDbEntity
  8
KONSTRUKTIONSELEMENTE
100
AcDbCircle
 62
7
  6
CONTINUOUS
 10
336.1852296395
 20
111.0923104781
 40
2.25
100
AcDbArc
 50
45.0
 51
225.0
  0
ARC
  5
414
100
AcDbEntity
  8
KONSTRUKTIONSELEMENTE
100
AcDbCircle
 62
7
  6
CONTINUOUS
 10
354.9235593409
 20
92.3539807767
 40
2.25
100
AcDbArc
 50
225.0
 51
45.0
  0
SPLINE
  5
415
100
AcDbEntity
  8
KONSTRUKTIONSELEMENTE
100
AcDbSpline
 62
7
  6
CONTINUOUS
 70
0
 71
3
 72
10
 73
6
 74
0
 42
0.0000001
 43
0.0000001
 44
0.0000000001
 40
0.0
 40
0.0
 40
0.0
 40
0.0
 40
0.3192646009
 40
0.6086079864
 40
1.0
 40
1.0
 40
1.0
 40
1.0
 10
569.1309320603
 20
96.4198447685
 30
0.0
 10
569.1309320603
 20
96.2481049933
 30
0.0
 10
568.9889162738
 20
95.9272537784
 30
0.0
 10
568.6231102591
 20
95.533901439
 30
0.0
 10
568.3198224264
 20
95.3208615257
 30
0.0
 10
568.1372861253
 20
95.2159469292
 30
0.0
  0
SPLINE
  5
416
100
AcDbEntity
  8
KONSTRUKTIONSELEMENTE
100
AcDbSpline
 62
7
  6
CONTINUOUS
 70
0
 71
3
 72
10
 73
6
 74
0
 42
0.0000001
 43
0.0000001
 44
0.0000000001
 40
0.0
 40
0.0
 40
0.0
 40
0.0
 40
0.3914026107
 40
0.6807340322
 40
1.0
 40
1.0
 40
1.0
 40
1.0
 10
563.1244864592
 20
95.2159994004
 30
0.0
 10
562.9419592158
 20
95.3209148099
 30
0.0
 10
562.638719635
 20
95.5339738814
 30
0.0
 10
562.2728989304
 20
95.927272242
 30
0.0
 10
562.1309320603
 20
96.2481149829
 30
0.0
 10
562.1309320603
 20
96.4198447685
 30
0.0
  0
SPLINE
  5
417
100
AcDbEntity
  8
KONSTRUKTIONSELEMENTE
100
AcDbSpline
 62
7
  6
CONTINUOUS
 70
0
 71
3
 72
13
 73
9
 74
0
 42
0.0000001
 43
0.0000001
 44
0.0000000001
 40
0.0
 40
0.0
 40
0.0
 40
0.0
 40
0.1197290731
 40
0.2397365246
 40
0.3609040964
 40
0.4836831257
 40
0.7359942557
 40
1.0
 40
1.0
 40
1.0
 40
1.0
 10
573.6309320603
 20
96.4198447685
 30
0.0
 10
573.6309320603
 20
96.0706310664
 30
0.0
 10
573.5588284385
 20
95.3692900304
 30
0.0
 10
573.2405431038
 20
94.3590717822
 30
0.0
 10
572.7311595621
 20
93.4204935636
 30
0.0
 10
571.8193590336
 20
92.2877190569
 30
0.0
 10
570.303467768
 20
91.1505756408
 30
0.0
 10
568.8805809179
 20
90.6040299169
 30
0.0
 10
568.1343563962
 20
90.4140614263
 30
0.0
  0
SPLINE
  5
418
100
AcDbEntity
  8
KONSTRUKTIONSELEMENTE
100
AcDbSpline
 62
7
  6
CONTINUOUS
 70
0
 71
3
 72
13
 73
9
 74
0
 42
0.0000001
 43
0.0000001
 44
0.0000000001
 40
0.0
 40
0.0
 40
0.0
 40
0.0
 40
0.2640112835
 40
0.5163080567
 40
0.6390830379
 40
0.7602378991
 40
0.8802701562
 40
1.0
 40
1.0
 40
1.0
 40
1.0
 10
563.1266042578
 20
90.4143086158
 30
0.0
 10
562.3804644355
 20
90.6043432171
 30
0.0
 10
560.9577879941
 20
91.1509098483
 30
0.0
 10
559.442197927
 20
92.2880551893
 30
0.0
 10
558.5306076496
 20
93.4206706979
 30
0.0
 10
558.0212167338
 20
94.3591479844
 30
0.0
 10
557.7030800147
 20
95.3693360876
 30
0.0
 10
557.6309320603
 20
96.0706659711
 30
0.0
 10
557.6309320603
 20
96.4198447685
 30
0.0
  0
SPLINE
  5
419
100
AcDbEntity
  8
KONSTRUKTIONSELEMENTE
100
AcDbSpline
 62
7
  6
CONTINUOUS
 70
0
 71
3
 72
9
 73
5
 74
0
 42
0.0000001
 43
0.0000001
 44
0.0000000001
 40
0.0
 40
0.0
 40
0.0
 40
0.0
 40
0.2444683944
 40
1.0
 40
1.0
 40
1.0
 40
1.0
 10
560.1052327473
 20
142.7343059562
 30
0.0
 10
560.3236982759
 20
142.8976825782
 30
0.0
 10
561.2540093306
 20
143.5164951915
 30
0.0
 10
562.3104803075
 20
143.9369352165
 30
0.0
 10
563.1275077244
 20
144.1449282008
 30
0.0
  0
SPLINE
  5
41A
100
AcDbEntity
  8
KONSTRUKTIONSELEMENTE
100
AcDbSpline
 62
7
  6
CONTINUOUS
 70
0
 71
3
 72
9
 73
5
 74
0
 42
0.0000001
 43
0.0000001
 44
0.0000000001
 40
0.0
 40
0.0
 40
0.0
 40
0.0
 40
0.2564950214
 40
1.0
 40
1.0
 40
1.0
 40
1.0
 10
568.1352598628
 20
144.1446810112
 30
0.0
 10
568.4127778295
 20
144.0739998673
 30
0.0
 10
569.4815585669
 20
143.7511538896
 30
0.0
 10
570.4949291516
 20
143.2296655969
 30
0.0
 10
571.1594734671
 20
142.7321827042
 30
0.0
  0
SPLINE
  5
41B
100
AcDbEntity
  8
KONSTRUKTIONSELEMENTE
100
AcDbSpline
 62
7
  6
CONTINUOUS
 70
0
 71
3
 72
10
 73
6
 74
0
 42
0.0000001
 43
0.0000001
 44
0.0000000001
 40
0.0
 40
0.0
 40
0.0
 40
0.0
 40
0.3116645009
 40
0.6060899939
 40
1.0
 40
1.0
 40
1.0
 40
1.0
 10
569.1309320603
 20
127.5325431407
 30
0.0
 10
569.1309320603
 20
127.3353882943
 30
0.0
 10
568.9434035038
 20
126.9640620996
 30
0.0
 10
568.4860842341
 20
126.5301890098
 30
0.0
 10
568.1076829219
 20
126.3027789764
 30
0.0
 10
567.8829239486
 20
126.1951908454
 30
0.0
  0
SPLINE
  5
41C
100
AcDbEntity
  8
KONSTRUKTIONSELEMENTE
100
AcDbSpline
 62
7
  6
CONTINUOUS
 70
0
 71
3
 72
10
 73
6
 74
0
 42
0.0000001
 43
0.0000001
 44
0.0000000001
 40
0.0
 40
0.0
 40
0.0
 40
0.0
 40
0.3939255147
 40
0.6883533687
 40
1.0
 40
1.0
 40
1.0
 40
1.0
 10
563.3791828248
 20
126.1950789173
 30
0.0
 10
563.1543749189
 20
126.302668818
 30
0.0
 10
562.7759123972
 20
126.5301143863
 30
0.0
 10
562.3184708795
 20
126.9639921296
 30
0.0
 10
562.1309320603
 20
127.3353718369
 30
0.0
 10
562.1309320603
 20
127.5325431407
 30
0.0
  0
SPLINE
  5
41D
100
AcDbEntity
  8
KONSTRUKTIONSELEMENTE
100
AcDbSpline
 62
7
  6
CONTINUOUS
 70
0
 71
3
 72
9
 73
5
 74
0
 42
0.0000001
 43
0.0000001
 44
0.0000000001
 40
0.0
 40
0.0
 40
0.0
 40
0.0
 40
0.4887193927
 40
1.0
 40
1.0
 40
1.0
 40
1.0
 10
571.8915825583
 20
123.5690690602
 30
0.0
 10
571.3625757561
 20
123.0456517653
 30
0.0
 10
570.0964802516
 20
122.1527407402
 30
0.0
 10
568.6443081996
 20
121.6389543036
 30
0.0
 10
567.8850443808
 20
121.4667770201
 30
0.0
  0
SPLINE
  5
41E
100
AcDbEntity
  8
KONSTRUKTIONSELEMENTE
100
AcDbSpline
 62
7
  6
CONTINUOUS
 70
0
 71
3
 72
9
 73
5
 74
0
 42
0.0000001
 43
0.0000001
 44
0.0000000001
 40
0.0
 40
0.0
 40
0.0
 40
0.0
 40
0.5112935852
 40
1.0
 40
1.0
 40
1.0
 40
1.0
 10
563.3787612815
 20
121.4663458077
 30
0.0
 10
562.6198799295
 20
121.6383099587
 30
0.0
 10
561.1684074977
 20
122.1513577205
 30
0.0
 10
559.9025917806
 20
123.0430745577
 30
0.0
 10
559.3735546999
 20
123.5658351353
 30
0.0
  0
SPLINE
  5
41F
100
AcDbEntity
  8
KONSTRUKTIONSELEMENTE
100
AcDbSpline
 62
7
  6
CONTINUOUS
 70
0
 71
3
 72
9
 73
5
 74
0
 42
0.0000001
 43
0.0000001
 44
0.0000000001
 40
0.0
 40
0.0
 40
0.0
 40
0.0
 40
0.4883932588
 40
1.0
 40
1.0
 40
1.0
 40
1.0
 10
580.5066705779
 20
153.5466647179
 30
0.0
 10
578.6908412284
 20
152.4486852695
 30
0.0
 10
574.6582311722
 20
150.7012272941
 30
0.0
 10
570.348913202
 20
149.9073480937
 30
0.0
 10
568.1329262424
 20
149.732969848
 30
0.0
  0
SPLINE
  5
420
100
AcDbEntity
  8
KONSTRUKTIONSELEMENTE
100
AcDbSpline
 62
7
  6
CONTINUOUS
 70
0
 71
3
 72
9
 73
5
 74
0
 42
0.0000001
 43
0.0000001
 44
0.0000000001
 40
0.0
 40
0.0
 40
0.0
 40
0.0
 40
0.5116009649
 40
1.0
 40
1.0
 40
1.0
 40
1.0
 10
563.1296114101
 20
149.7329095154
 30
0.0
 10
560.9145432695
 20
149.90715381
 30
0.0
 10
556.6069636249
 20
150.700480692
 30
0.0
 10
552.575720857
 20
152.446468207
 30
0.0
 10
550.7603312616
 20
153.5435602348
 30
0.0
  0
SPLINE
  5
421
100
AcDbEntity
  8
KONSTRUKTIONSELEMENTE
100
AcDbSpline
 62
7
  6
CONTINUOUS
 70
0
 71
3
 72
9
 73
5
 74
0
 42
0.0000001
 43
0.0000001
 44
0.0000000001
 40
0.0
 40
0.0
 40
0.0
 40
0.0
 40
0.2342381365
 40
1.0
 40
1.0
 40
1.0
 40
1.0
 10
580.3373847836
 20
160.9732743284
 30
0.0
 10
580.0565588869
 20
160.6867985938
 30
0.0
 10
578.79964696
 20
159.520915571
 30
0.0
 10
577.3364843706
 20
158.5873431644
 30
0.0
 10
576.164825727
 20
157.9981433377
 30
0.0
  0
SPLINE
  5
422
100
AcDbEntity
  8
KONSTRUKTIONSELEMENTE
100
AcDbSpline
 62
7
  6
CONTINUOUS
 70
0
 71
3
 72
9
 73
5
 74
0
 42
0.0000001
 43
0.0000001
 44
0.0000000001
 40
0.0
 40
0.0
 40
0.0
 40
0.0
 40
0.2660085388
 40
1.0
 40
1.0
 40
1.0
 40
1.0
 10
555.0959301224
 20
157.9986953365
 30
0.0
 10
554.6890630604
 20
158.2033293946
 30
0.0
 10
553.1884513651
 20
159.0268547289
 30
0.0
 10
551.8039527255
 20
160.0760671595
 30
0.0
 10
550.9242741269
 20
160.9734802254
 30
0.0
  0
SPLINE
  5
423
100
AcDbEntity
  8
0
100
AcDbSpline
 62
7
  6
CONTINUOUS
 70
0
 71
3
 72
11
 73
7
 74
0
 42
0.0000001
 43
0.0000001
 44
0.0000000001
 40
0.0
 40
0.0
 40
0.0
 40
0.0
 40
0.2192989281
 40
0.4548225453
 40
0.7152180566
 40
1.0
 40
1.0
 40
1.0
 40
1.0
 10
580.222797394
 20
67.0042026711
 30
0.0
 10
580.222797394
 20
67.2931667759
 30
0.0
 10
580.0928586199
 20
67.8981225389
 30
0.0
 10
579.5506383156
 20
68.6915033877
 30
0.0
 10
578.7273465509
 20
69.3300626076
 30
0.0
 10
578.0599549237
 20
69.6160132512
 30
0.0
 10
577.7013596309
 20
69.7265637787
 30
0.0
  0
SPLINE
  5
424
100
AcDbEntity
  8
0
100
AcDbSpline
 62
7
  6
CONTINUOUS
 70
0
 71
3
 72
17
 73
13
 74
0
 42
0.0000001
 43
0.0000001
 44
0.0000000001
 40
0.0
 40
0.0
 40
0.0
 40
0.0
 40
0.0517809237
 40
0.1054811646
 40
0.2228479209
 40
0.3562855052
 40
0.5
 40
0.6437144948
 40
0.7771520791
 40
0.8945188354
 40
0.9482190763
 40
1.0
 40
1.0
 40
1.0
 40
1.0
 10
567.1494656266
 20
66.2722307713
 30
0.0
 10
567.1494656266
 20
66.184646718
 30
0.0
 10
567.1749662005
 20
66.0053327601
 30
0.0
 10
567.3273470362
 20
65.6562970034
 30
0.0
 10
567.7039031107
 20
65.2795047447
 30
0.0
 10
568.3221124217
 20
65.0018392919
 30
0.0
 10
569.0365333068
 20
64.9047030224
 30
0.0
 10
569.750954192
 20
65.0018392919
 30
0.0
 10
570.369163503
 20
65.2795047447
 30
0.0
 10
570.7457195774
 20
65.6562970034
 30
0.0
 10
570.8981004132
 20
66.0053327601
 30
0.0
 10
570.9236009871
 20
66.184646718
 30
0.0
 10
570.9236009871
 20
66.2722307713
 30
0.0
  0
SPLINE
  5
425
100
AcDbEntity
  8
0
100
AcDbSpline
 62
7
  6
CONTINUOUS
 70
0
 71
3
 72
12
 73
8
 74
0
 42
0.0000001
 43
0.0000001
 44
0.0000000001
 40
0.0
 40
0.0
 40
0.0
 40
0.0
 40
0.1035930223
 40
0.210949621
 40
0.4457011106
 40
0.7125563401
 40
1.0
 40
1.0
 40
1.0
 40
1.0
 10
564.7426280615
 20
68.3528540969
 30
0.0
 10
564.7426141814
 20
68.4453797101
 30
0.0
 10
564.7156413089
 20
68.6347441486
 30
0.0
 10
564.5545425193
 20
69.0032807657
 30
0.0
 10
564.1568071934
 20
69.401161011
 30
0.0
 10
563.5043750149
 20
69.6943973276
 30
0.0
 10
563.0062001112
 20
69.7619191178
 30
0.0
 10
562.7494656266
 20
69.7619191178
 30
0.0
  0
SPLINE
  5
426
100
AcDbEntity
  8
0
100
AcDbSpline
 62
7
  6
CONTINUOUS
 70
0
 71
3
 72
9
 73
5
 74
0
 42
0.0000001
 43
0.0000001
 44
0.0000000001
 40
0.0
 40
0.0
 40
0.0
 40
0.0
 40
0.4402133985
 40
1.0
 40
1.0
 40
1.0
 40
1.0
 10
553.8186643251
 20
66.3465933646
 30
0.0
 10
553.8186643251
 20
66.3234141508
 30
0.0
 10
553.8543621144
 20
66.272938663
 30
0.0
 10
553.9091890447
 20
66.2617405509
 30
0.0
 10
553.9386643251
 20
66.2617405509
 30
0.0
  0
SPLINE
  5
427
100
AcDbEntity
  8
0
100
AcDbSpline
 62
7
  6
CONTINUOUS
 70
0
 71
3
 72
9
 73
5
 74
0
 42
0.0000001
 43
0.0000001
 44
0.0000000001
 40
0.0
 40
0.0
 40
0.0
 40
0.0
 40
0.4402133985
 40
1.0
 40
1.0
 40
1.0
 40
1.0
 10
554.6436643251
 20
66.3890197715
 30
0.0
 10
554.6436643251
 20
66.4121989853
 30
0.0
 10
554.6079665357
 20
66.4626744731
 30
0.0
 10
554.5531396054
 20
66.4738725853
 30
0.0
 10
554.5236643251
 20
66.4738725853
 30
0.0
  0
SPLINE
  5
428
100
AcDbEntity
  8
0
100
AcDbSpline
 62
7
  6
CONTINUOUS
 70
0
 71
3
 72
9
 73
5
 74
0
 42
0.0000001
 43
0.0000001
 44
0.0000000001
 40
0.0
 40
0.0
 40
0.0
 40
0.0
 40
0.4402133985
 40
1.0
 40
1.0
 40
1.0
 40
1.0
 10
554.6436643251
 20
68.5103401151
 30
0.0
 10
554.6436643251
 20
68.5335193289
 30
0.0
 10
554.6079665357
 20
68.5839948167
 30
0.0
 10
554.5531396054
 20
68.5951929288
 30
0.0
 10
554.5236643251
 20
68.5951929288
 30
0.0
  0
SPLINE
  5
429
100
AcDbEntity
  8
0
100
AcDbSpline
 62
7
  6
CONTINUOUS
 70
0
 71
3
 72
11
 73
7
 74
0
 42
0.0000001
 43
0.0000001
 44
0.0000000001
 40
0.0
 40
0.0
 40
0.0
 40
0.0
 40
0.2094668498
 40
0.4446559298
 40
0.7120302568
 40
1.0
 40
1.0
 40
1.0
 40
1.0
 10
552.9936643251
 20
67.4284667399
 30
0.0
 10
552.9936643251
 20
67.4003566651
 30
0.0
 10
553.0119197881
 20
67.3399777183
 30
0.0
 10
553.081826442
 20
67.2708345387
 30
0.0
 10
553.1800239322
 20
67.2264382365
 30
0.0
 10
553.2550193031
 20
67.2163347055
 30
0.0
 10
553.2936643251
 20
67.2163347055
 30
0.0
  0
SPLINE
  5
42A
100
AcDbEntity
  8
0
100
AcDbSpline
 62
7
  6
CONTINUOUS
 70
0
 71
3
 72
11
 73
7
 74
0
 42
0.0000001
 43
0.0000001
 44
0.0000000001
 40
0.0
 40
0.0
 40
0.0
 40
0.0
 40
0.2094668498
 40
0.4446559298
 40
0.7120302568
 40
1.0
 40
1.0
 40
1.0
 40
1.0
 10
552.9936643251
 20
65.3071463963
 30
0.0
 10
552.9936643251
 20
65.2790363215
 30
0.0
 10
553.0119197881
 20
65.2186573747
 30
0.0
 10
553.081826442
 20
65.1495141951
 30
0.0
 10
553.1800239322
 20
65.1051178929
 30
0.0
 10
553.2550193031
 20
65.0950143619
 30
0.0
 10
553.2936643251
 20
65.0950143619
 30
0.0
  0
SPLINE
  5
42B
100
AcDbEntity
  8
0
100
AcDbSpline
 62
7
  6
CONTINUOUS
 70
0
 71
3
 72
9
 73
5
 74
0
 42
0.0000001
 43
0.0000001
 44
0.0000000001
 40
0.0
 40
0.0
 40
0.0
 40
0.0
 40
0.2432035461
 40
1.0
 40
1.0
 40
1.0
 40
1.0
 10
557.0436643251
 20
69.3376550491
 30
0.0
 10
557.0436643251
 20
69.3543026657
 30
0.0
 10
557.0379722234
 20
69.4227564356
 30
0.0
 10
557.0085559698
 20
69.4882393713
 30
0.0
 10
556.9782692751
 20
69.5302672821
 30
0.0
  0
SPLINE
  5
42C
100
AcDbEntity
  8
0
100
AcDbSpline
 62
7
  6
CONTINUOUS
 70
0
 71
3
 72
9
 73
5
 74
0
 42
0.0000001
 43
0.0000001
 44
0.0000000001
 40
0.0
 40
0.0
 40
0.0
 40
0.0
 40
0.2250156934
 40
1.0
 40
1.0
 40
1.0
 40
1.0
 10
556.9782692751
 20
69.5302672821
 30
0.0
 10
556.9521734618
 20
69.5664796363
 30
0.0
 10
556.8089415722
 20
69.7076801732
 30
0.0
 10
556.5973949203
 20
69.7619191178
 30
0.0
 10
556.4436643251
 20
69.7619191178
 30
0.0
  0
SPLINE
  5
42D
100
AcDbEntity
  8
RUNDUNGEN
100
AcDbSpline
 62
7
  6
CONTINUOUS
 70
0
 71
3
 72
11
 73
7
 74
0
 42
0.0000001
 43
0.0000001
 44
0.0000000001
 40
0.0
 40
0.0
 40
0.0
 40
0.0
 40
0.2256934588
 40
0.4632957354
 40
0.7206235605
 40
1.0
 40
1.0
 40
1.0
 40
1.0
 10
533.1526704801
 20
71.7033952673
 30
0.0
 10
533.1527241761
 20
71.7886004125
 30
0.0
 10
533.1837078983
 20
71.964733104
 30
0.0
 10
533.3163734668
 20
72.2068428193
 30
0.0
 10
533.5241445176
 20
72.4168931945
 30
0.0
 10
533.6977731805
 20
72.5248470583
 30
0.0
 10
533.7922938298
 20
72.5716462638
 30
0.0
  0
SPLINE
  5
42E
100
AcDbEntity
  8
RUNDUNGEN
100
AcDbSpline
 62
7
  6
CONTINUOUS
 70
0
 71
3
 72
9
 73
5
 74
0
 42
0.0000001
 43
0.0000001
 44
0.0000000001
 40
0.0
 40
0.0
 40
0.0
 40
0.0
 40
0.4805181646
 40
1.0
 40
1.0
 40
1.0
 40
1.0
 10
533.1526691876
 20
68.1678191738
 30
0.0
 10
533.1526076714
 20
68.0589326891
 30
0.0
 10
533.2043507811
 20
67.8301934327
 30
0.0
 10
533.3411018681
 20
67.6425453995
 30
0.0
 10
533.4239304179
 20
67.5589007284
 30
0.0
  0
SPLINE
  5
42F
100
AcDbEntity
  8
RUNDUNGEN
100
AcDbSpline
 62
7
  6
CONTINUOUS
 70
0
 71
3
 72
11
 73
7
 74
0
 42
0.0000001
 43
0.0000001
 44
0.0000000001
 40
0.0
 40
0.0
 40
0.0
 40
0.0
 40
0.2256919297
 40
0.4632773963
 40
0.7205986282
 40
1.0
 40
1.0
 40
1.0
 40
1.0
 10
522.7115360038
 20
83.0264928602
 30
0.0
 10
522.7114811719
 20
83.3107022109
 30
0.0
 10
522.8142603664
 20
83.8982966132
 30
0.0
 10
523.2563259262
 20
84.706138803
 30
0.0
 10
523.9491800147
 20
85.4069979565
 30
0.0
 10
524.5283391352
 20
85.7671537276
 30
0.0
 10
524.843651396
 20
85.9232716067
 30
0.0
  0
SPLINE
  5
430
100
AcDbEntity
  8
RUNDUNGEN
100
AcDbSpline
 62
7
  6
CONTINUOUS
 70
0
 71
3
 72
10
 73
6
 74
0
 42
0.0000001
 43
0.0000001
 44
0.0000000001
 40
0.0
 40
0.0
 40
0.0
 40
0.0
 40
0.2382860828
 40
0.4819052527
 40
1.0
 40
1.0
 40
1.0
 40
1.0
 10
522.7115360038
 20
79.4909589543
 30
0.0
 10
522.7115707842
 20
79.3106820016
 30
0.0
 10
522.7518112684
 20
78.9448372669
 30
0.0
 10
522.9922120144
 20
78.2229784925
 30
0.0
 10
523.3399721369
 20
77.7422176631
 30
0.0
 10
523.6157733563
 20
77.4636989357
 30
0.0
  0
SPLINE
  5
431
100
AcDbEntity
  8
RUNDUNGEN
100
AcDbSpline
 62
7
  6
CONTINUOUS
 70
0
 71
3
 72
11
 73
7
 74
0
 42
0.0000001
 43
0.0000001
 44
0.0000000001
 40
0.0
 40
0.0
 40
0.0
 40
0.0
 40
0.237780559
 40
0.4809056754
 40
0.7339193747
 40
1.0
 40
1.0
 40
1.0
 40
1.0
 10
581.1502967794
 20
47.3625899556
 30
0.0
 10
581.1502967985
 20
47.9035684853
 30
0.0
 10
581.2703065641
 20
49.0011789356
 30
0.0
 10
581.802426303
 20
50.5959098155
 30
0.0
 10
582.6703725219
 20
52.1090209206
 30
0.0
 10
583.4370624177
 20
53.016135641
 30
0.0
 10
583.863016115
 20
53.4462863197
 30
0.0
  0
SPLINE
  5
432
100
AcDbEntity
  8
RUNDUNGEN
100
AcDbSpline
 62
7
  6
CONTINUOUS
 70
0
 71
3
 72
9
 73
5
 74
0
 42
0.0000001
 43
0.0000001
 44
0.0000000001
 40
0.0
 40
0.0
 40
0.0
 40
0.0
 40
0.483225943
 40
1.0
 40
1.0
 40
1.0
 40
1.0
 10
581.3602857101
 20
49.1295856177
 30
0.0
 10
581.5489706627
 20
48.3407500658
 30
0.0
 10
582.2001598992
 20
46.76366775
 30
0.0
 10
583.2526873711
 20
45.430768994
 30
0.0
 10
583.863016115
 20
44.8144265955
 30
0.0
  0
SPLINE
  5
433
100
AcDbEntity
  8
RUNDUNGEN
100
AcDbSpline
 62
7
  6
CONTINUOUS
 70
0
 71
3
 72
10
 73
6
 74
0
 42
0.0000001
 43
0.0000001
 44
0.0000000001
 40
0.0
 40
0.0
 40
0.0
 40
0.0
 40
0.2382826319
 40
0.4819247904
 40
1.0
 40
1.0
 40
1.0
 40
1.0
 10
531.6309320603
 20
27.7763976066
 30
0.0
 10
531.6309320603
 20
27.9567225603
 30
0.0
 10
531.671052334
 20
28.3227009041
 30
0.0
 10
531.9114792237
 20
29.0447872444
 30
0.0
 10
532.2593035973
 20
29.5257101349
 30
0.0
 10
532.5351718389
 20
29.804296545
 30
0.0
  0
SPLINE
  5
434
100
AcDbEntity
  8
BEZUGSACHSEN
100
AcDbSpline
 62
7
  6
CONTINUOUS
 70
0
 71
3
 72
9
 73
5
 74
0
 42
0.0000001
 43
0.0000001
 44
0.0000000001
 40
0.0
 40
0.0
 40
0.0
 40
0.0
 40
0.4742612099
 40
1.0
 40
1.0
 40
1.0
 40
1.0
 10
560.732961081
 20
77.6741539531
 30
0.0
 10
561.0076353194
 20
77.2939515073
 30
0.0
 10
561.7437069822
 20
76.6024194672
 30
0.0
 10
562.6399908905
 20
76.1565229133
 30
0.0
 10
563.1290172179
 20
75.979877052
 30
0.0
  0
SPLINE
  5
435
100
AcDbEntity
  8
BEZUGSACHSEN
100
AcDbSpline
 62
7
  6
CONTINUOUS
 70
0
 71
3
 72
9
 73
5
 74
0
 42
0.0000001
 43
0.0000001
 44
0.0000000001
 40
0.0
 40
0.0
 40
0.0
 40
0.0
 40
0.5257387901
 40
1.0
 40
1.0
 40
1.0
 40
1.0
 10
568.1328469027
 20
75.979877052
 30
0.0
 10
568.6218732301
 20
76.1565229133
 30
0.0
 10
569.5181571384
 20
76.6024194672
 30
0.0
 10
570.2542288013
 20
77.2939515073
 30
0.0
 10
570.5289030396
 20
77.6741539531
 30
0.0
  0
SPLINE
  5
436
100
AcDbEntity
  8
BEZUGSACHSEN
100
AcDbSpline
 62
7
  6
CONTINUOUS
 70
0
 71
3
 72
11
 73
7
 74
0
 42
0.0000001
 43
0.0000001
 44
0.0000000001
 40
0.0
 40
0.0
 40
0.0
 40
0.0
 40
0.2211778223
 40
0.4572018266
 40
0.7166414314
 40
1.0
 40
1.0
 40
1.0
 40
1.0
 10
571.1309320603
 20
75.9077378376
 30
0.0
 10
571.1309320603
 20
76.2659746721
 30
0.0
 10
570.9796489289
 20
77.0129815432
 30
0.0
 10
570.3422286346
 20
78.0081914212
 30
0.0
 10
569.3644456763
 20
78.8293959659
 30
0.0
 10
568.5644988014
 20
79.2152114321
 30
0.0
 10
568.1328469027
 20
79.3711325291
 30
0.0
  0
SPLINE
  5
437
100
AcDbEntity
  8
BEZUGSACHSEN
100
AcDbSpline
 62
7
  6
CONTINUOUS
 70
0
 71
3
 72
11
 73
7
 74
0
 42
0.0000001
 43
0.0000001
 44
0.0000000001
 40
0.0
 40
0.0
 40
0.0
 40
0.0
 40
0.2833585686
 40
0.5427981734
 40
0.7788221777
 40
1.0
 40
1.0
 40
1.0
 40
1.0
 10
563.1290172179
 20
79.3711325291
 30
0.0
 10
562.6973653193
 20
79.2152114321
 30
0.0
 10
561.8974184443
 20
78.8293959659
 30
0.0
 10
560.919635486
 20
78.0081914212
 30
0.0
 10
560.2822151918
 20
77.0129815432
 30
0.0
 10
560.1309320603
 20
76.2659746721
 30
0.0
 10
560.1309320603
 20
75.9077378376
 30
0.0
  0
SPLINE
  5
438
100
AcDbEntity
  8
RUNDUNGEN
100
AcDbSpline
 62
7
  6
CONTINUOUS
 70
0
 71
3
 72
10
 73
6
 74
0
 42
0.0000001
 43
0.0000001
 44
0.0000000001
 40
0.0
 40
0.0
 40
0.0
 40
0.0
 40
0.5180750537
 40
0.7617172794
 40
1.0
 40
1.0
 40
1.0
 40
1.0
 10
598.7266922818
 20
29.804296545
 30
0.0
 10
599.0025604408
 20
29.5257102184
 30
0.0
 10
599.3503847955
 20
29.0447874119
 30
0.0
 10
599.5908117491
 20
28.3227010899
 30
0.0
 10
599.6309320603
 20
27.9567226277
 30
0.0
 10
599.6309320603
 20
27.7763976066
 30
0.0
  0
SPLINE
  5
439
100
AcDbEntity
  8
RUNDUNGEN
100
AcDbSpline
 62
7
  6
CONTINUOUS
 70
0
 71
3
 72
11
 73
7
 74
0
 42
0.0000001
 43
0.0000001
 44
0.0000000001
 40
0.0
 40
0.0
 40
0.0
 40
0.0
 40
0.2793755914
 40
0.5367190118
 40
0.774320888
 40
1.0
 40
1.0
 40
1.0
 40
1.0
 10
609.2852448797
 20
84.5037423498
 30
0.0
 10
609.3797669127
 20
84.4569424592
 30
0.0
 10
609.5534026951
 20
84.3489828726
 30
0.0
 10
609.7611807899
 20
84.138923356
 30
0.0
 10
609.8938401884
 20
83.8968039863
 30
0.0
 10
609.9248186365
 20
83.7206731352
 30
0.0
 10
609.9248693655
 20
83.6354718986
 30
0.0
  0
SPLINE
  5
43A
100
AcDbEntity
  8
RUNDUNGEN
100
AcDbSpline
 62
7
  6
CONTINUOUS
 70
0
 71
3
 72
10
 73
6
 74
0
 42
0.0000001
 43
0.0000001
 44
0.0000000001
 40
0.0
 40
0.0
 40
0.0
 40
0.0
 40
0.4809192537
 40
0.7459271807
 40
1.0
 40
1.0
 40
1.0
 40
1.0
 10
599.987614169
 20
87.8123722149
 30
0.0
 10
600.2366918494
 20
88.0639040926
 30
0.0
 10
600.7982710488
 20
88.2798222266
 30
0.0
 10
601.5351689591
 20
88.2668447887
 30
0.0
 10
601.9091102204
 20
88.1558251955
 30
0.0
 10
602.0767068899
 20
88.0728444814
 30
0.0
  0
SPLINE
  5
43B
100
AcDbEntity
  8
0
100
AcDbSpline
 62
7
  6
CONTINUOUS
 70
0
 71
3
 72
9
 73
5
 74
0
 42
0.0000001
 43
0.0000001
 44
0.0000000001
 40
0.0
 40
0.0
 40
0.0
 40
0.0
 40
0.2419317135
 40
1.0
 40
1.0
 40
1.0
 40
1.0
 10
574.2345786056
 20
84.2426039271
 30
0.0
 10
573.7735075157
 20
84.470890136
 30
0.0
 10
571.823267373
 20
85.3234942263
 30
0.0
 10
569.7244667857
 20
85.822482035
 30
0.0
 10
568.1236897084
 20
86.013260975
 30
0.0
  0
SPLINE
  5
43C
100
AcDbEntity
  8
0
100
AcDbSpline
 62
7
  6
CONTINUOUS
 70
0
 71
3
 72
9
 73
5
 74
0
 42
0.0000001
 43
0.0000001
 44
0.0000000001
 40
0.0
 40
0.0
 40
0.0
 40
0.0
 40
0.2576205058
 40
1.0
 40
1.0
 40
1.0
 40
1.0
 10
563.1381744123
 20
86.013260975
 30
0.0
 10
562.5942296854
 20
85.9484342106
 30
0.0
 10
560.4942810491
 20
85.6139301395
 30
0.0
 10
558.4419481153
 20
84.9430337936
 30
0.0
 10
557.0272855151
 20
84.2426039271
 30
0.0
  0
SPLINE
  5
43D
100
AcDbEntity
  8
RUNDUNGEN
100
AcDbSpline
 62
7
  6
CONTINUOUS
 70
0
 71
3
 72
13
 73
9
 74
0
 42
0.0000001
 43
0.0000001
 44
0.0000000001
 40
0.0
 40
0.0
 40
0.0
 40
0.0
 40
0.2520973512
 40
0.3837531518
 40
0.5156914539
 40
0.6454036045
 40
0.7706002144
 40
1.0
 40
1.0
 40
1.0
 40
1.0
 10
525.6628034403
 20
86.3288513944
 30
0.0
 10
527.2270214411
 20
87.1033293549
 30
0.0
 10
529.8239433538
 20
87.8794377074
 30
0.0
 10
533.3876674749
 20
88.1795782055
 30
0.0
 10
536.116289801
 20
88.03393959
 30
0.0
 10
538.7551472848
 20
87.5164488988
 30
0.0
 10
541.9203769014
 20
86.3962817245
 30
0.0
 10
544.0434251176
 20
85.026365602
 30
0.0
 10
545.1610021692
 20
83.897776907
 30
0.0
  0
SPLINE
  5
43E
100
AcDbEntity
  8
0
100
AcDbSpline
 62
7
  6
CONTINUOUS
 70
0
 71
3
 72
11
 73
7
 74
0
 42
0.0000001
 43
0.0000001
 44
0.0000000001
 40
0.0
 40
0.0
 40
0.0
 40
0.0
 40
0.2880052506
 40
0.5553344723
 40
0.7905070702
 40
1.0
 40
1.0
 40
1.0
 40
1.0
 10
551.6436643251
 20
69.7619191178
 30
0.0
 10
551.5663652925
 20
69.7619191178
 30
0.0
 10
551.4163693735
 20
69.7417274683
 30
0.0
 10
551.2200162309
 20
69.6528824377
 30
0.0
 10
551.0801670505
 20
69.5146512931
 30
0.0
 10
551.0436643251
 20
69.3938818045
 30
0.0
 10
551.0436643251
 20
69.3376550491
 30
0.0
  0
SPLINE
  5
43F
100
AcDbEntity
  8
0
100
AcDbSpline
 62
7
  6
CONTINUOUS
 70
0
 71
3
 72
11
 73
7
 74
0
 42
0.0000001
 43
0.0000001
 44
0.0000000001
 40
0.0
 40
0.0
 40
0.0
 40
0.0
 40
0.2879697432
 40
0.5553440702
 40
0.7905331502
 40
1.0
 40
1.0
 40
1.0
 40
1.0
 10
554.7936643251
 20
67.2163347055
 30
0.0
 10
554.832309347
 20
67.2163347055
 30
0.0
 10
554.907304718
 20
67.2264382365
 30
0.0
 10
555.0055022081
 20
67.2708345387
 30
0.0
 10
555.0754088621
 20
67.3399777183
 30
0.0
 10
555.0936643251
 20
67.4003566651
 30
0.0
 10
555.0936643251
 20
67.4284667399
 30
0.0
  0
SPLINE
  5
440
100
AcDbEntity
  8
0
100
AcDbSpline
 62
7
  6
CONTINUOUS
 70
0
 71
3
 72
11
 73
7
 74
0
 42
0.0000001
 43
0.0000001
 44
0.0000000001
 40
0.0
 40
0.0
 40
0.0
 40
0.0
 40
0.2879697432
 40
0.5553440702
 40
0.7905331502
 40
1.0
 40
1.0
 40
1.0
 40
1.0
 10
554.7936643251
 20
65.0950143619
 30
0.0
 10
554.832309347
 20
65.0950143619
 30
0.0
 10
554.907304718
 20
65.1051178929
 30
0.0
 10
555.0055022081
 20
65.1495141951
 30
0.0
 10
555.0754088621
 20
65.2186573747
 30
0.0
 10
555.0936643251
 20
65.2790363215
 30
0.0
 10
555.0936643251
 20
65.3071463963
 30
0.0
  0
SPLINE
  5
441
100
AcDbEntity
  8
0
100
AcDbSpline
 62
7
  6
CONTINUOUS
 70
0
 71
3
 72
9
 73
5
 74
0
 42
0.0000001
 43
0.0000001
 44
0.0000000001
 40
0.0
 40
0.0
 40
0.0
 40
0.0
 40
0.5597866015
 40
1.0
 40
1.0
 40
1.0
 40
1.0
 10
553.5636643251
 20
68.5951929288
 30
0.0
 10
553.5341890447
 20
68.5951929288
 30
0.0
 10
553.4793621144
 20
68.5839948167
 30
0.0
 10
553.4436643251
 20
68.5335193289
 30
0.0
 10
553.4436643251
 20
68.5103401151
 30
0.0
  0
SPLINE
  5
442
100
AcDbEntity
  8
0
100
AcDbSpline
 62
7
  6
CONTINUOUS
 70
0
 71
3
 72
9
 73
5
 74
0
 42
0.0000001
 43
0.0000001
 44
0.0000000001
 40
0.0
 40
0.0
 40
0.0
 40
0.0
 40
0.5597866015
 40
1.0
 40
1.0
 40
1.0
 40
1.0
 10
553.5636643251
 20
66.4738725853
 30
0.0
 10
553.5341890447
 20
66.4738725853
 30
0.0
 10
553.4793621144
 20
66.4626744731
 30
0.0
 10
553.4436643251
 20
66.4121989853
 30
0.0
 10
553.4436643251
 20
66.3890197715
 30
0.0
  0
SPLINE
  5
443
100
AcDbEntity
  8
0
100
AcDbSpline
 62
7
  6
CONTINUOUS
 70
0
 71
3
 72
9
 73
5
 74
0
 42
0.0000001
 43
0.0000001
 44
0.0000000001
 40
0.0
 40
0.0
 40
0.0
 40
0.0
 40
0.5597866015
 40
1.0
 40
1.0
 40
1.0
 40
1.0
 10
554.1486643251
 20
66.2617405509
 30
0.0
 10
554.1781396054
 20
66.2617405509
 30
0.0
 10
554.2329665357
 20
66.272938663
 30
0.0
 10
554.2686643251
 20
66.3234141508
 30
0.0
 10
554.2686643251
 20
66.3465933646
 30
0.0
  0
SPLINE
  5
444
100
AcDbEntity
  8
0
100
AcDbSpline
 62
7
  6
CONTINUOUS
 70
0
 71
3
 72
11
 73
7
 74
0
 42
0.0000001
 43
0.0000001
 44
0.0000000001
 40
0.0
 40
0.0
 40
0.0
 40
0.0
 40
0.2880001164
 40
0.5553425139
 40
0.7905343079
 40
1.0
 40
1.0
 40
1.0
 40
1.0
 10
562.7494656266
 20
67.5866229
 30
0.0
 10
562.8890092711
 20
67.5866229
 30
0.0
 10
563.1597864884
 20
67.6230979199
 30
0.0
 10
563.5143106765
 20
67.7834229618
 30
0.0
 10
563.7667243406
 20
68.0330364616
 30
0.0
 10
563.8326136358
 20
68.2510457767
 30
0.0
 10
563.8326136358
 20
68.3525374234
 30
0.0
  0
SPLINE
  5
445
100
AcDbEntity
  8
0
100
AcDbSpline
 62
7
  6
CONTINUOUS
 70
0
 71
3
 72
9
 73
5
 74
0
 42
0.0000001
 43
0.0000001
 44
0.0000000001
 40
0.0
 40
0.0
 40
0.0
 40
0.0
 40
0.2457811574
 40
1.0
 40
1.0
 40
1.0
 40
1.0
 10
577.7013596309
 20
69.7265637787
 30
0.0
 10
577.6823432646
 20
69.732426291
 30
0.0
 10
577.6040441229
 20
69.7531922551
 30
0.0
 10
577.522632945
 20
69.7619191178
 30
0.0
 10
577.4615680547
 20
69.7619191178
 30
0.0
  0
SPLINE
  5
446
100
AcDbEntity
  8
0
100
AcDbSpline
 62
7
  6
CONTINUOUS
 70
0
 71
3
 72
11
 73
7
 74
0
 42
0.0000001
 43
0.0000001
 44
0.0000000001
 40
0.0
 40
0.0
 40
0.0
 40
0.0
 40
0.2779817175
 40
0.5346952233
 40
0.772857858
 40
1.0
 40
1.0
 40
1.0
 40
1.0
 10
577.6650036047
 20
64.9973050613
 30
0.0
 10
577.8753085209
 20
65.1111853201
 30
0.0
 10
578.2606214562
 20
65.3697387516
 30
0.0
 10
578.71850606
 20
65.8611839463
 30
0.0
 10
579.0089509342
 20
66.4199454982
 30
0.0
 10
579.076196749
 20
66.8229254321
 30
0.0
 10
579.076196749
 20
67.0183448068
 30
0.0
  0
SPLINE
  5
447
100
AcDbEntity
  8
0
100
AcDbSpline
 62
7
  6
CONTINUOUS
 70
0
 71
3
 72
9
 73
5
 74
0
 42
0.0000001
 43
0.0000001
 44
0.0000000001
 40
0.0
 40
0.0
 40
0.0
 40
0.0
 40
0.2591205677
 40
1.0
 40
1.0
 40
1.0
 40
1.0
 10
577.4826045327
 20
64.9535930057
 30
0.0
 10
577.4988942785
 20
64.9535930057
 30
0.0
 10
577.5616478662
 20
64.9571882756
 30
0.0
 10
577.6240470658
 20
64.9751270669
 30
0.0
 10
577.6650036047
 20
64.9973050613
 30
0.0
  0
SPLINE
  5
448
100
AcDbEntity
  8
RUNDUNGEN
100
AcDbSpline
 62
7
  6
CONTINUOUS
 70
0
 71
3
 72
11
 73
7
 74
0
 42
0.0000001
 43
0.0000001
 44
0.0000000001
 40
0.0
 40
0.0
 40
0.0
 40
0.0
 40
0.2880068215
 40
0.5553366529
 40
0.7905059061
 40
1.0
 40
1.0
 40
1.0
 40
1.0
 10
538.9809320603
 20
14.7490115415
 30
0.0
 10
539.0453482806
 20
14.7490115415
 30
0.0
 10
539.1703452133
 20
14.7658385567
 30
0.0
 10
539.3339731049
 20
14.8398752638
 30
0.0
 10
539.4505129042
 20
14.9550684223
 30
0.0
 10
539.4809320603
 20
15.055709036
 30
0.0
 10
539.4809320603
 20
15.1025649321
 30
0.0
  0
SPLINE
  5
449
100
AcDbEntity
  8
RUNDUNGEN
100
AcDbSpline
 62
7
  6
CONTINUOUS
 70
0
 71
3
 72
13
 73
9
 74
0
 42
0.0000001
 43
0.0000001
 44
0.0000000001
 40
0.0
 40
0.0
 40
0.0
 40
0.0
 40
0.1034546555
 40
0.2106690395
 40
0.3244963599
 40
0.4464318111
 40
0.7129511617
 40
1.0
 40
1.0
 40
1.0
 40
1.0
 10
531.6309320603
 20
18.2845454474
 30
0.0
 10
531.6309320603
 20
18.052412691
 30
0.0
 10
531.698297774
 20
17.5773000202
 30
0.0
 10
531.9930862843
 20
16.9031316723
 30
0.0
 10
532.465957874
 20
16.2874126445
 30
0.0
 10
533.3302691078
 20
15.5533967767
 30
0.0
 10
534.7384096653
 20
14.9167222449
 30
0.0
 10
535.986848546
 20
14.7490115415
 30
0.0
 10
536.6309320603
 20
14.7490115415
 30
0.0
  0
SPLINE
  5
44A
100
AcDbEntity
  8
RUNDUNGEN
100
AcDbSpline
 62
7
  6
CONTINUOUS
 70
0
 71
3
 72
10
 73
6
 74
0
 42
0.0000001
 43
0.0000001
 44
0.0000000001
 40
0.0
 40
0.0
 40
0.0
 40
0.0
 40
0.4808964563
 40
0.7459158441
 40
1.0
 40
1.0
 40
1.0
 40
1.0
 10
526.1968673199
 20
74.8571730917
 30
0.0
 10
526.4459333654
 20
74.6056529635
 30
0.0
 10
527.0074968271
 20
74.3897307052
 30
0.0
 10
527.7443964401
 20
74.4026946413
 30
0.0
 10
528.1183557773
 20
74.5137163511
 30
0.0
 10
528.2859600408
 20
74.5967008252
 30
0.0
  0
SPLINE
  5
44B
100
AcDbEntity
  8
RUNDUNGEN
100
AcDbSpline
 62
7
  6
CONTINUOUS
 70
0
 71
3
 72
9
 73
5
 74
0
 42
0.0000001
 43
0.0000001
 44
0.0000000001
 40
0.0
 40
0.0
 40
0.0
 40
0.0
 40
0.5194816775
 40
1.0
 40
1.0
 40
1.0
 40
1.0
 10
609.6536082916
 20
79.4909968144
 30
0.0
 10
609.7364438467
 20
79.5746485598
 30
0.0
 10
609.8732051054
 20
79.7623150051
 30
0.0
 10
609.9249392533
 20
79.9910787532
 30
0.0
 10
609.9248681278
 20
80.0999745101
 30
0.0
  0
SPLINE
  5
44C
100
AcDbEntity
  8
RUNDUNGEN
100
AcDbSpline
 62
7
  6
CONTINUOUS
 70
0
 71
3
 72
13
 73
9
 74
0
 42
0.0000001
 43
0.0000001
 44
0.0000000001
 40
0.0
 40
0.0
 40
0.0
 40
0.0
 40
0.2870490624
 40
0.5535683755
 40
0.6755038246
 40
0.7893311355
 40
0.8965454157
 40
1.0
 40
1.0
 40
1.0
 40
1.0
 10
594.6309320603
 20
14.7490115415
 30
0.0
 10
595.2750160772
 20
14.7490115415
 30
0.0
 10
596.5234554061
 20
14.9167224047
 30
0.0
 10
597.9315961701
 20
15.5533974915
 30
0.0
 10
598.7959071245
 20
16.2874135312
 30
0.0
 10
599.2687782893
 20
16.9031325548
 30
0.0
 10
599.5635664891
 20
17.5773005678
 30
0.0
 10
599.6309320603
 20
18.0524128507
 30
0.0
 10
599.6309320603
 20
18.2845454474
 30
0.0
  0
SPLINE
  5
44D
100
AcDbEntity
  8
RUNDUNGEN
100
AcDbSpline
 62
7
  6
CONTINUOUS
 70
0
 71
3
 72
11
 73
7
 74
0
 42
0.0000001
 43
0.0000001
 44
0.0000000001
 40
0.0
 40
0.0
 40
0.0
 40
0.0
 40
0.2094942263
 40
0.444667264
 40
0.7119932261
 40
1.0
 40
1.0
 40
1.0
 40
1.0
 10
591.7809320603
 20
15.1025649321
 30
0.0
 10
591.7809320603
 20
15.0557090103
 30
0.0
 10
591.8113518008
 20
14.9550676238
 30
0.0
 10
591.9278919094
 20
14.8398746936
 30
0.0
 10
592.0915197659
 20
14.7658382117
 30
0.0
 10
592.216515856
 20
14.7490115415
 30
0.0
 10
592.2809320603
 20
14.7490115415
 30
0.0
  0
SPLINE
  5
44E
100
AcDbEntity
  8
RUNDUNGEN
100
AcDbSpline
 62
7
  6
CONTINUOUS
 70
0
 71
3
 72
10
 73
6
 74
0
 42
0.0000001
 43
0.0000001
 44
0.0000000001
 40
0.0
 40
0.0
 40
0.0
 40
0.0
 40
0.47201694
 40
0.7322443513
 40
1.0
 40
1.0
 40
1.0
 40
1.0
 10
575.823137931
 20
24.7419278833
 30
0.0
 10
576.3163194779
 20
24.2438869495
 30
0.0
 10
577.2962994402
 20
23.6764276857
 30
0.0
 10
578.7346255152
 20
23.3007514025
 30
0.0
 10
579.5213017733
 20
23.2342929157
 30
0.0
 10
579.9188981525
 20
23.2342929157
 30
0.0
  0
SPLINE
  5
44F
100
AcDbEntity
  8
RUNDUNGEN
100
AcDbSpline
 62
7
  6
CONTINUOUS
 70
0
 71
3
 72
10
 73
6
 74
0
 42
0.0000001
 43
0.0000001
 44
0.0000000001
 40
0.0
 40
0.0
 40
0.0
 40
0.0
 40
0.2677558652
 40
0.5279833681
 40
1.0
 40
1.0
 40
1.0
 40
1.0
 10
551.3429659682
 20
23.2342929157
 30
0.0
 10
551.7405626709
 20
23.2342929157
 30
0.0
 10
552.527239396
 20
23.3007514855
 30
0.0
 10
553.9655654199
 20
23.6764280472
 30
0.0
 10
554.945544962
 20
24.243887272
 30
0.0
 10
555.4387261896
 20
24.7419278833
 30
0.0
  0
SPLINE
  5
450
100
AcDbEntity
  8
RUNDUNGEN
100
AcDbSpline
 62
7
  6
CONTINUOUS
 70
0
 71
3
 72
13
 73
9
 74
0
 42
0.0000001
 43
0.0000001
 44
0.0000000001
 40
0.0
 40
0.0
 40
0.0
 40
0.0
 40
0.1034546555
 40
0.2106690395
 40
0.3244963599
 40
0.4464318111
 40
0.7129511617
 40
1.0
 40
1.0
 40
1.0
 40
1.0
 10
539.4809320603
 20
19.6987590098
 30
0.0
 10
539.4809320603
 20
19.9308917662
 30
0.0
 10
539.548297774
 20
20.406004437
 30
0.0
 10
539.8430862843
 20
21.0801727848
 30
0.0
 10
540.315957874
 20
21.6958918127
 30
0.0
 10
541.1802691078
 20
22.4299076805
 30
0.0
 10
542.5884096653
 20
23.0665822122
 30
0.0
 10
543.836848546
 20
23.2342929157
 30
0.0
 10
544.4809320603
 20
23.2342929157
 30
0.0
  0
SPLINE
  5
451
100
AcDbEntity
  8
RUNDUNGEN
100
AcDbSpline
 62
7
  6
CONTINUOUS
 70
0
 71
3
 72
13
 73
9
 74
0
 42
0.0000001
 43
0.0000001
 44
0.0000000001
 40
0.0
 40
0.0
 40
0.0
 40
0.0
 40
0.2870490624
 40
0.5535683755
 40
0.6755038246
 40
0.7893311355
 40
0.8965454157
 40
1.0
 40
1.0
 40
1.0
 40
1.0
 10
586.7809320603
 20
23.2342929157
 30
0.0
 10
587.4250160772
 20
23.2342929157
 30
0.0
 10
588.6734554061
 20
23.0665820525
 30
0.0
 10
590.0815961701
 20
22.4299069656
 30
0.0
 10
590.9459071245
 20
21.6958909259
 30
0.0
 10
591.4187782893
 20
21.0801719023
 30
0.0
 10
591.7135664891
 20
20.4060038893
 30
0.0
 10
591.7809320603
 20
19.9308916065
 30
0.0
 10
591.7809320603
 20
19.6987590098
 30
0.0
  0
SPLINE
  5
452
100
AcDbEntity
  8
RUNDUNGEN
100
AcDbSpline
 62
7
  6
CONTINUOUS
 70
0
 71
3
 72
13
 73
9
 74
0
 42
0.0000001
 43
0.0000001
 44
0.0000000001
 40
0.0
 40
0.0
 40
0.0
 40
0.0
 40
0.2360077172
 40
0.3661261163
 40
0.500000078
 40
0.6338740716
 40
0.7639924399
 40
1.0
 40
1.0
 40
1.0
 40
1.0
 10
560.7160197946
 20
30.0712194015
 30
0.0
 10
561.3078357451
 20
30.6688665975
 30
0.0
 10
562.483596036
 20
31.3498434611
 30
0.0
 10
564.2102334295
 20
31.8006136596
 30
0.0
 10
565.6309330358
 20
31.9208326827
 30
0.0
 10
567.0516325073
 20
31.8006133634
 30
0.0
 10
568.7782692738
 20
31.3498429252
 30
0.0
 10
569.9540287695
 20
30.6688661997
 30
0.0
 10
570.5458443261
 20
30.0712194015
 30
0.0
  0
SPLINE
  5
453
100
AcDbEntity
  8
RUNDUNGEN
100
AcDbSpline
 62
7
  6
CONTINUOUS
 70
0
 71
3
 72
9
 73
5
 74
0
 42
0.0000001
 43
0.0000001
 44
0.0000000001
 40
0.0
 40
0.0
 40
0.0
 40
0.0
 40
0.5167739528
 40
1.0
 40
1.0
 40
1.0
 40
1.0
 10
547.3988480056
 20
44.8144265955
 30
0.0
 10
548.0091730172
 20
45.4307652249
 30
0.0
 10
549.0616949592
 20
46.7636551835
 30
0.0
 10
549.7128845319
 20
48.340726011
 30
0.0
 10
549.9015714203
 20
49.129556348
 30
0.0
  0
SPLINE
  5
454
100
AcDbEntity
  8
RUNDUNGEN
100
AcDbSpline
 62
7
  6
CONTINUOUS
 70
0
 71
3
 72
11
 73
7
 74
0
 42
0.0000001
 43
0.0000001
 44
0.0000000001
 40
0.0
 40
0.0
 40
0.0
 40
0.0
 40
0.2660806488
 40
0.5190943636
 40
0.7622194616
 40
1.0
 40
1.0
 40
1.0
 40
1.0
 10
547.3988480056
 20
53.4462863197
 30
0.0
 10
547.8248017964
 20
53.0161355465
 30
0.0
 10
548.5914918245
 20
52.1090206136
 30
0.0
 10
549.4594381137
 20
50.5959092263
 30
0.0
 10
549.9915577479
 20
49.0011781261
 30
0.0
 10
550.1115673605
 20
47.9035676074
 30
0.0
 10
550.1115673413
 20
47.3625890536
 30
0.0
  0
SPLINE
  5
455
100
AcDbEntity
  8
RUNDUNGEN
100
AcDbSpline
 62
7
  6
CONTINUOUS
 70
0
 71
3
 72
11
 73
7
 74
0
 42
0.0000001
 43
0.0000001
 44
0.0000000001
 40
0.0
 40
0.0
 40
0.0
 40
0.0
 40
0.2524507309
 40
0.5157647478
 40
0.7702968692
 40
1.0
 40
1.0
 40
1.0
 40
1.0
 10
531.562568218
 20
76.2190199759
 30
0.0
 10
531.841908881
 20
76.3573275435
 30
0.0
 10
532.4630430043
 20
76.5430776988
 30
0.0
 10
533.425034728
 20
76.5565358292
 30
0.0
 10
534.3290487753
 20
76.3192120918
 30
0.0
 10
534.8448264708
 20
75.9864288022
 30
0.0
 10
535.0443894196
 20
75.7848995317
 30
0.0
  0
SPLINE
  5
456
100
AcDbEntity
  8
RUNDUNGEN
100
AcDbSpline
 62
7
  6
CONTINUOUS
 70
0
 71
3
 72
9
 73
5
 74
0
 42
0.0000001
 43
0.0000001
 44
0.0000000001
 40
0.0
 40
0.0
 40
0.0
 40
0.0
 40
0.5194825986
 40
1.0
 40
1.0
 40
1.0
 40
1.0
 10
537.6828410268
 20
73.1204508911
 30
0.0
 10
537.8209003984
 20
72.9810312012
 30
0.0
 10
538.0488352584
 20
72.6682539218
 30
0.0
 10
538.1350594618
 20
72.2869815897
 30
0.0
 10
538.1349409612
 20
72.1054891826
 30
0.0
  0
SPLINE
  5
457
100
AcDbEntity
  8
RUNDUNGEN
100
AcDbSpline
 62
7
  6
CONTINUOUS
 70
0
 71
3
 72
11
 73
7
 74
0
 42
0.0000001
 43
0.0000001
 44
0.0000000001
 40
0.0
 40
0.0
 40
0.0
 40
0.0
 40
0.2524375529
 40
0.5157480446
 40
0.7702932073
 40
1.0
 40
1.0
 40
1.0
 40
1.0
 10
585.0473855902
 20
78.8889507298
 30
0.0
 10
585.6060380001
 20
78.6123499115
 30
0.0
 10
586.8482604578
 20
78.2408568542
 30
0.0
 10
588.7722368092
 20
78.2138814282
 30
0.0
 10
590.5802975594
 20
78.6885496675
 30
0.0
 10
591.6118955562
 20
79.3541264732
 30
0.0
 10
592.0110279934
 20
79.7571916181
 30
0.0
  0
SPLINE
  5
458
100
AcDbEntity
  8
RUNDUNGEN
100
AcDbSpline
 62
7
  6
CONTINUOUS
 70
0
 71
3
 72
11
 73
7
 74
0
 42
0.0000001
 43
0.0000001
 44
0.0000000001
 40
0.0
 40
0.0
 40
0.0
 40
0.0
 40
0.2297109937
 40
0.4842558728
 40
0.7475644511
 40
1.0
 40
1.0
 40
1.0
 40
1.0
 10
545.9678828904
 20
83.0829458771
 30
0.0
 10
546.3670226263
 20
82.6798733614
 30
0.0
 10
547.3986320555
 20
82.0142940075
 30
0.0
 10
549.2066995979
 20
81.5396335687
 30
0.0
 10
551.1306650355
 20
81.566614788
 30
0.0
 10
552.3728773197
 20
81.9381063668
 30
0.0
 10
552.9315252936
 20
82.2147049887
 30
0.0
  0
SPLINE
  5
459
100
AcDbEntity
  8
0
100
AcDbSpline
 62
7
  6
CONTINUOUS
 70
0
 71
3
 72
11
 73
7
 74
0
 42
0.0000001
 43
0.0000001
 44
0.0000000001
 40
0.0
 40
0.0
 40
0.0
 40
0.0
 40
0.2094656921
 40
0.4446574861
 40
0.7119998836
 40
1.0
 40
1.0
 40
1.0
 40
1.0
 10
563.8326136358
 20
68.3525374234
 30
0.0
 10
563.8326136358
 20
68.4540290702
 30
0.0
 10
563.7667243406
 20
68.6720383853
 30
0.0
 10
563.5143106765
 20
68.9216518851
 30
0.0
 10
563.1597864884
 20
69.081976927
 30
0.0
 10
562.8890092711
 20
69.1184519469
 30
0.0
 10
562.7494656266
 20
69.1184519469
 30
0.0
  0
SPLINE
  5
45A
100
AcDbEntity
  8
0
100
AcDbSpline
 62
7
  6
CONTINUOUS
 70
0
 71
3
 72
9
 73
5
 74
0
 42
0.0000001
 43
0.0000001
 44
0.0000000001
 40
0.0
 40
0.0
 40
0.0
 40
0.0
 40
0.4402133985
 40
1.0
 40
1.0
 40
1.0
 40
1.0
 10
553.4436643251
 20
67.6193855708
 30
0.0
 10
553.4436643251
 20
67.596206357
 30
0.0
 10
553.4793621144
 20
67.5457308691
 30
0.0
 10
553.5341890447
 20
67.534532757
 30
0.0
 10
553.5636643251
 20
67.534532757
 30
0.0
  0
SPLINE
  5
45B
100
AcDbEntity
  8
0
100
AcDbSpline
 62
7
  6
CONTINUOUS
 70
0
 71
3
 72
11
 73
7
 74
0
 42
0.0000001
 43
0.0000001
 44
0.0000000001
 40
0.0
 40
0.0
 40
0.0
 40
0.0
 40
0.2094929298
 40
0.4446655277
 40
0.7119947494
 40
1.0
 40
1.0
 40
1.0
 40
1.0
 10
551.0436643251
 20
64.6707502932
 30
0.0
 10
551.0436643251
 20
64.6145235378
 30
0.0
 10
551.0801670505
 20
64.4937540492
 30
0.0
 10
551.2200162309
 20
64.3555229046
 30
0.0
 10
551.4163693735
 20
64.266677874
 30
0.0
 10
551.5663652925
 20
64.2464862245
 30
0.0
 10
551.6436643251
 20
64.2464862245
 30
0.0
  0
SPLINE
  5
45C
100
AcDbEntity
  8
0
100
AcDbSpline
 62
7
  6
CONTINUOUS
 70
0
 71
3
 72
11
 73
7
 74
0
 42
0.0000001
 43
0.0000001
 44
0.0000000001
 40
0.0
 40
0.0
 40
0.0
 40
0.0
 40
0.2094668498
 40
0.4446559298
 40
0.7120302568
 40
1.0
 40
1.0
 40
1.0
 40
1.0
 10
555.0936643251
 20
66.5799386024
 30
0.0
 10
555.0936643251
 20
66.6080486772
 30
0.0
 10
555.0754088621
 20
66.668427624
 30
0.0
 10
555.0055022081
 20
66.7375708036
 30
0.0
 10
554.907304718
 20
66.7819671058
 30
0.0
 10
554.832309347
 20
66.7920706368
 30
0.0
 10
554.7936643251
 20
66.7920706368
 30
0.0
  0
SPLINE
  5
45D
100
AcDbEntity
  8
0
100
AcDbSpline
 62
7
  6
CONTINUOUS
 70
0
 71
3
 72
11
 73
7
 74
0
 42
0.0000001
 43
0.0000001
 44
0.0000000001
 40
0.0
 40
0.0
 40
0.0
 40
0.0
 40
0.2880052506
 40
0.5553344723
 40
0.7905070702
 40
1.0
 40
1.0
 40
1.0
 40
1.0
 10
556.4436643251
 20
64.2464862245
 30
0.0
 10
556.5209633576
 20
64.2464862245
 30
0.0
 10
556.6709592766
 20
64.266677874
 30
0.0
 10
556.8673124192
 20
64.3555229046
 30
0.0
 10
557.0071615996
 20
64.4937540492
 30
0.0
 10
557.0436643251
 20
64.6145235378
 30
0.0
 10
557.0436643251
 20
64.6707502932
 30
0.0
  0
SPLINE
  5
45E
100
AcDbEntity
  8
0
100
AcDbSpline
 62
7
  6
CONTINUOUS
 70
0
 71
3
 72
9
 73
5
 74
0
 42
0.0000001
 43
0.0000001
 44
0.0000000001
 40
0.0
 40
0.0
 40
0.0
 40
0.0
 40
0.2445376398
 40
1.0
 40
1.0
 40
1.0
 40
1.0
 10
551.0436643251
 20
65.0243036838
 30
0.0
 10
551.0436643251
 20
65.010462961
 30
0.0
 10
551.0476396651
 20
64.9538821864
 30
0.0
 10
551.0677487237
 20
64.8988539516
 30
0.0
 10
551.0893366056
 20
64.8619448538
 30
0.0
  0
SPLINE
  5
45F
100
AcDbEntity
  8
0
100
AcDbSpline
 62
7
  6
CONTINUOUS
 70
0
 71
3
 72
9
 73
5
 74
0
 42
0.0000001
 43
0.0000001
 44
0.0000000001
 40
0.0
 40
0.0
 40
0.0
 40
0.0
 40
0.461013727
 40
1.0
 40
1.0
 40
1.0
 40
1.0
 10
551.0893366056
 20
64.8619448538
 30
0.0
 10
551.1384180924
 20
64.7780295624
 30
0.0
 10
551.316776419
 20
64.6399393526
 30
0.0
 10
551.5300070054
 20
64.6000396151
 30
0.0
 10
551.6436643251
 20
64.6000396151
 30
0.0
  0
SPLINE
  5
460
100
AcDbEntity
  8
0
100
AcDbSpline
 62
7
  6
CONTINUOUS
 70
0
 71
3
 72
11
 73
7
 74
0
 42
0.0000001
 43
0.0000001
 44
0.0000000001
 40
0.0
 40
0.0
 40
0.0
 40
0.0
 40
0.2879697432
 40
0.5553440702
 40
0.7905331502
 40
1.0
 40
1.0
 40
1.0
 40
1.0
 10
553.2936643251
 20
66.7920706368
 30
0.0
 10
553.2550193031
 20
66.7920706368
 30
0.0
 10
553.1800239322
 20
66.7819671058
 30
0.0
 10
553.081826442
 20
66.7375708036
 30
0.0
 10
553.0119197881
 20
66.668427624
 30
0.0
 10
552.9936643251
 20
66.6080486772
 30
0.0
 10
552.9936643251
 20
66.5799386024
 30
0.0
  0
SPLINE
  5
461
100
AcDbEntity
  8
RUNDUNGEN
100
AcDbSpline
 62
7
  6
CONTINUOUS
 70
0
 71
3
 72
11
 73
7
 74
0
 42
0.0000001
 43
0.0000001
 44
0.0000000001
 40
0.0
 40
0.0
 40
0.0
 40
0.0
 40
0.237780559
 40
0.4809056754
 40
0.7339193747
 40
1.0
 40
1.0
 40
1.0
 40
1.0
 10
550.1115673413
 20
47.3625890536
 30
0.0
 10
550.1115673221
 20
46.821610524
 30
0.0
 10
549.9915575566
 20
45.7240000736
 30
0.0
 10
549.4594378176
 20
44.1292691938
 30
0.0
 10
548.5914915987
 20
42.6161580886
 30
0.0
 10
547.8248017029
 20
41.7090433683
 30
0.0
 10
547.3988480056
 20
41.2788926895
 30
0.0
  0
SPLINE
  5
462
100
AcDbEntity
  8
0
100
AcDbSpline
 62
7
  6
CONTINUOUS
 70
0
 71
3
 72
11
 73
7
 74
0
 42
0.0000001
 43
0.0000001
 44
0.0000000001
 40
0.0
 40
0.0
 40
0.0
 40
0.0
 40
0.2879697432
 40
0.5553440702
 40
0.7905331502
 40
1.0
 40
1.0
 40
1.0
 40
1.0
 10
553.2936643251
 20
68.9133909804
 30
0.0
 10
553.2550193031
 20
68.9133909804
 30
0.0
 10
553.1800239322
 20
68.9032874494
 30
0.0
 10
553.081826442
 20
68.8588911472
 30
0.0
 10
553.0119197881
 20
68.7897479676
 30
0.0
 10
552.9936643251
 20
68.7293690208
 30
0.0
 10
552.9936643251
 20
68.701258946
 30
0.0
  0
SPLINE
  5
463
100
AcDbEntity
  8
0
100
AcDbSpline
 62
7
  6
CONTINUOUS
 70
0
 71
3
 72
9
 73
5
 74
0
 42
0.0000001
 43
0.0000001
 44
0.0000000001
 40
0.0
 40
0.0
 40
0.0
 40
0.0
 40
0.5597866015
 40
1.0
 40
1.0
 40
1.0
 40
1.0
 10
553.9386643251
 20
67.7466647914
 30
0.0
 10
553.9091890447
 20
67.7466647914
 30
0.0
 10
553.8543621144
 20
67.7354666793
 30
0.0
 10
553.8186643251
 20
67.6849911915
 30
0.0
 10
553.8186643251
 20
67.6618119777
 30
0.0
  0
SPLINE
  5
464
100
AcDbEntity
  8
0
100
AcDbSpline
 62
7
  6
CONTINUOUS
 70
0
 71
3
 72
9
 73
5
 74
0
 42
0.0000001
 43
0.0000001
 44
0.0000000001
 40
0.0
 40
0.0
 40
0.0
 40
0.0
 40
0.5597866015
 40
1.0
 40
1.0
 40
1.0
 40
1.0
 10
554.5236643251
 20
67.534532757
 30
0.0
 10
554.5531396054
 20
67.534532757
 30
0.0
 10
554.6079665357
 20
67.5457308691
 30
0.0
 10
554.6436643251
 20
67.596206357
 30
0.0
 10
554.6436643251
 20
67.6193855708
 30
0.0
  0
SPLINE
  5
465
100
AcDbEntity
  8
RUNDUNGEN
100
AcDbSpline
 62
7
  6
CONTINUOUS
 70
0
 71
3
 72
10
 73
6
 74
0
 42
0.0000001
 43
0.0000001
 44
0.0000000001
 40
0.0
 40
0.0
 40
0.0
 40
0.0
 40
0.2382827206
 40
0.4819249463
 40
1.0
 40
1.0
 40
1.0
 40
1.0
 10
599.6309320603
 20
24.2408637007
 30
0.0
 10
599.6309320603
 20
24.4211887217
 30
0.0
 10
599.5908117491
 20
24.787167184
 30
0.0
 10
599.3503847955
 20
25.509253506
 30
0.0
 10
599.0025604408
 20
25.9901763124
 30
0.0
 10
598.7266922818
 20
26.268762639
 30
0.0
  0
SPLINE
  5
466
100
AcDbEntity
  8
0
100
AcDbSpline
 62
7
  6
CONTINUOUS
 70
0
 71
3
 72
9
 73
5
 74
0
 42
0.0000001
 43
0.0000001
 44
0.0000000001
 40
0.0
 40
0.0
 40
0.0
 40
0.0
 40
0.5597866015
 40
1.0
 40
1.0
 40
1.0
 40
1.0
 10
554.5236643251
 20
65.4132124135
 30
0.0
 10
554.5531396054
 20
65.4132124135
 30
0.0
 10
554.6079665357
 20
65.4244105256
 30
0.0
 10
554.6436643251
 20
65.4748860134
 30
0.0
 10
554.6436643251
 20
65.4980652272
 30
0.0
  0
SPLINE
  5
467
100
AcDbEntity
  8
RUNDUNGEN
100
AcDbSpline
 62
7
  6
CONTINUOUS
 70
0
 71
3
 72
11
 73
7
 74
0
 42
0.0000001
 43
0.0000001
 44
0.0000000001
 40
0.0
 40
0.0
 40
0.0
 40
0.0
 40
0.2256941656
 40
0.4632959394
 40
0.7206237852
 40
1.0
 40
1.0
 40
1.0
 40
1.0
 10
609.9248681278
 20
80.0999745101
 30
0.0
 10
609.9248124765
 20
80.1851786503
 30
0.0
 10
609.8938256258
 20
80.3613080125
 30
0.0
 10
609.7611591424
 20
80.6034123773
 30
0.0
 10
609.5533901313
 20
80.8134580269
 30
0.0
 10
609.3797640435
 20
80.9214099739
 30
0.0
 10
609.2852448797
 20
80.9682084439
 30
0.0
  0
SPLINE
  5
468
100
AcDbEntity
  8
0
100
AcDbSpline
 62
7
  6
CONTINUOUS
 70
0
 71
3
 72
11
 73
7
 74
0
 42
0.0000001
 43
0.0000001
 44
0.0000000001
 40
0.0
 40
0.0
 40
0.0
 40
0.0
 40
0.2865059912
 40
0.5484241175
 40
0.7833822346
 40
1.0
 40
1.0
 40
1.0
 40
1.0
 10
563.3716141455
 20
67.0135742535
 30
0.0
 10
563.5627980187
 20
67.0579909956
 30
0.0
 10
563.9212307976
 20
67.184372098
 30
0.0
 10
564.3694927347
 20
67.4925758624
 30
0.0
 10
564.6696076864
 20
67.8918786647
 30
0.0
 10
564.7426503231
 20
68.2044565493
 30
0.0
 10
564.7426280615
 20
68.3528540969
 30
0.0
  0
SPLINE
  5
469
100
AcDbEntity
  8
0
100
AcDbSpline
 62
7
  6
CONTINUOUS
 70
0
 71
3
 72
9
 73
5
 74
0
 42
0.0000001
 43
0.0000001
 44
0.0000000001
 40
0.0
 40
0.0
 40
0.0
 40
0.0
 40
0.4402133985
 40
1.0
 40
1.0
 40
1.0
 40
1.0
 10
553.4436643251
 20
67.9729389614
 30
0.0
 10
553.4436643251
 20
67.9497597475
 30
0.0
 10
553.4793621144
 20
67.8992842597
 30
0.0
 10
553.5341890447
 20
67.8880861476
 30
0.0
 10
553.5636643251
 20
67.8880861476
 30
0.0
  0
SPLINE
  5
46A
100
AcDbEntity
  8
0
100
AcDbSpline
 62
7
  6
CONTINUOUS
 70
0
 71
3
 72
9
 73
5
 74
0
 42
0.0000001
 43
0.0000001
 44
0.0000000001
 40
0.0
 40
0.0
 40
0.0
 40
0.0
 40
0.2536121958
 40
1.0
 40
1.0
 40
1.0
 40
1.0
 10
577.4615680547
 20
64.2464862245
 30
0.0
 10
577.4821007219
 20
64.2464862245
 30
0.0
 10
577.5630235552
 20
64.249419597
 30
0.0
 10
577.6436132841
 20
64.2640390736
 30
0.0
 10
577.7013596309
 20
64.2818415636
 30
0.0
  0
SPLINE
  5
46B
100
AcDbEntity
  8
0
100
AcDbSpline
 62
7
  6
CONTINUOUS
 70
0
 71
3
 72
11
 73
7
 74
0
 42
0.0000001
 43
0.0000001
 44
0.0000000001
 40
0.0
 40
0.0
 40
0.0
 40
0.0
 40
0.2847819434
 40
0.5451774547
 40
0.7807010719
 40
1.0
 40
1.0
 40
1.0
 40
1.0
 10
577.7013596309
 20
64.2818415636
 30
0.0
 10
578.0599549237
 20
64.3923920911
 30
0.0
 10
578.7273465509
 20
64.6783427346
 30
0.0
 10
579.5506383156
 20
65.3169019546
 30
0.0
 10
580.0928586199
 20
66.1102828034
 30
0.0
 10
580.222797394
 20
66.7152385664
 30
0.0
 10
580.222797394
 20
67.0042026711
 30
0.0
  0
SPLINE
  5
46C
100
AcDbEntity
  8
0
100
AcDbSpline
 62
7
  6
CONTINUOUS
 70
0
 71
3
 72
9
 73
5
 74
0
 42
0.0000001
 43
0.0000001
 44
0.0000000001
 40
0.0
 40
0.0
 40
0.0
 40
0.0
 40
0.239729366
 40
1.0
 40
1.0
 40
1.0
 40
1.0
 10
577.6650036047
 20
69.0393845523
 30
0.0
 10
577.6517471971
 20
69.0465629062
 30
0.0
 10
577.5943153967
 20
69.0724951499
 30
0.0
 10
577.5304135193
 20
69.0830966078
 30
0.0
 10
577.4826045327
 20
69.0830966078
 30
0.0
  0
SPLINE
  5
46D
100
AcDbEntity
  8
RUNDUNGEN
100
AcDbSpline
 62
7
  6
CONTINUOUS
 70
0
 71
3
 72
10
 73
6
 74
0
 42
0.0000001
 43
0.0000001
 44
0.0000000001
 40
0.0
 40
0.0
 40
0.0
 40
0.0
 40
0.5180752096
 40
0.7617173681
 40
1.0
 40
1.0
 40
1.0
 40
1.0
 10
532.5351718389
 20
26.268762639
 30
0.0
 10
532.2593035973
 20
25.990176229
 30
0.0
 10
531.9114792237
 20
25.5092533385
 30
0.0
 10
531.671052334
 20
24.7871669982
 30
0.0
 10
531.6309320603
 20
24.4211886544
 30
0.0
 10
531.6309320603
 20
24.2408637007
 30
0.0
  0
SPLINE
  5
46E
100
AcDbEntity
  8
RUNDUNGEN
100
AcDbSpline
 62
7
  6
CONTINUOUS
 70
0
 71
3
 72
11
 73
7
 74
0
 42
0.0000001
 43
0.0000001
 44
0.0000000001
 40
0.0
 40
0.0
 40
0.0
 40
0.0
 40
0.2793752682
 40
0.5367194959
 40
0.7743217448
 40
1.0
 40
1.0
 40
1.0
 40
1.0
 10
533.7922938298
 20
69.0361123579
 30
0.0
 10
533.6977700278
 20
68.9893115914
 30
0.0
 10
533.5241307906
 20
68.8813493942
 30
0.0
 10
533.3163497588
 20
68.6712837784
 30
0.0
 10
533.1836917032
 20
68.4291569532
 30
0.0
 10
533.1527173235
 20
68.2530217815
 30
0.0
 10
533.1526691876
 20
68.1678191738
 30
0.0
  0
SPLINE
  5
46F
100
AcDbEntity
  8
0
100
AcDbSpline
 62
7
  6
CONTINUOUS
 70
0
 71
3
 72
11
 73
7
 74
0
 42
0.0000001
 43
0.0000001
 44
0.0000000001
 40
0.0
 40
0.0
 40
0.0
 40
0.0
 40
0.2094668498
 40
0.4446559298
 40
0.7120302568
 40
1.0
 40
1.0
 40
1.0
 40
1.0
 10
555.0936643251
 20
68.701258946
 30
0.0
 10
555.0936643251
 20
68.7293690208
 30
0.0
 10
555.0754088621
 20
68.7897479676
 30
0.0
 10
555.0055022081
 20
68.8588911472
 30
0.0
 10
554.907304718
 20
68.9032874494
 30
0.0
 10
554.832309347
 20
68.9133909804
 30
0.0
 10
554.7936643251
 20
68.9133909804
 30
0.0
  0
SPLINE
  5
470
100
AcDbEntity
  8
RUNDUNGEN
100
AcDbSpline
 62
7
  6
CONTINUOUS
 70
0
 71
3
 72
11
 73
7
 74
0
 42
0.0000001
 43
0.0000001
 44
0.0000000001
 40
0.0
 40
0.0
 40
0.0
 40
0.0
 40
0.2794013718
 40
0.5367226037
 40
0.7743080703
 40
1.0
 40
1.0
 40
1.0
 40
1.0
 10
524.843651396
 20
82.3877377008
 30
0.0
 10
524.5283391352
 20
82.2316198217
 30
0.0
 10
523.9491800147
 20
81.8714640505
 30
0.0
 10
523.2563259262
 20
81.1706048971
 30
0.0
 10
522.8142603664
 20
80.3627627073
 30
0.0
 10
522.7114811719
 20
79.775168305
 30
0.0
 10
522.7115360038
 20
79.4909589543
 30
0.0
  0
SPLINE
  5
471
100
AcDbEntity
  8
RUNDUNGEN
100
AcDbSpline
 62
7
  6
CONTINUOUS
 70
0
 71
3
 72
13
 73
9
 74
0
 42
0.0000001
 43
0.0000001
 44
0.0000000001
 40
0.0
 40
0.0
 40
0.0
 40
0.0
 40
0.2294024489
 40
0.3545997024
 40
0.4843111916
 40
0.6162488545
 40
0.7479039449
 40
1.0
 40
1.0
 40
1.0
 40
1.0
 10
545.1610021692
 20
80.3622430011
 30
0.0
 10
544.0434121801
 20
81.490844761
 30
0.0
 10
541.9203385821
 20
82.8607672833
 30
0.0
 10
538.7550886273
 20
83.9809309245
 30
0.0
 10
536.1162340033
 20
84.4984117853
 30
0.0
 10
533.3876255209
 20
84.6440436073
 30
0.0
 10
529.8239203787
 20
84.343897833
 30
0.0
 10
527.227013347
 20
83.5677914414
 30
0.0
 10
525.6628034403
 20
82.7933174884
 30
0.0
  0
SPLINE
  5
472
100
AcDbEntity
  8
0
100
AcDbSpline
 62
7
  6
CONTINUOUS
 70
0
 71
3
 72
9
 73
5
 74
0
 42
0.0000001
 43
0.0000001
 44
0.0000000001
 40
0.0
 40
0.0
 40
0.0
 40
0.0
 40
0.2419366003
 40
1.0
 40
1.0
 40
1.0
 40
1.0
 10
574.2345786056
 20
80.7070700212
 30
0.0
 10
573.7740764124
 20
80.9350745571
 30
0.0
 10
571.8263358412
 20
81.786720782
 30
0.0
 10
569.7303645548
 20
82.2856166395
 30
0.0
 10
568.1316790132
 20
82.4767733454
 30
0.0
  0
SPLINE
  5
473
100
AcDbEntity
  8
0
100
AcDbSpline
 62
7
  6
CONTINUOUS
 70
0
 71
3
 72
9
 73
5
 74
0
 42
0.0000001
 43
0.0000001
 44
0.0000000001
 40
0.0
 40
0.0
 40
0.0
 40
0.0
 40
0.2576167678
 40
1.0
 40
1.0
 40
1.0
 40
1.0
 10
563.1301851075
 20
82.4767733454
 30
0.0
 10
562.5869552902
 20
82.4118187188
 30
0.0
 10
560.4897537841
 20
82.077014272
 30
0.0
 10
558.4401816525
 20
81.406625274
 30
0.0
 10
557.0272855151
 20
80.7070700212
 30
0.0
  0
SPLINE
  5
474
100
AcDbEntity
  8
RUNDUNGEN
100
AcDbSpline
 62
7
  6
CONTINUOUS
 70
0
 71
3
 72
10
 73
6
 74
0
 42
0.0000001
 43
0.0000001
 44
0.0000000001
 40
0.0
 40
0.0
 40
0.0
 40
0.0
 40
0.2540841022
 40
0.5191024011
 40
1.0
 40
1.0
 40
1.0
 40
1.0
 10
602.0767068899
 20
84.5373105754
 30
0.0
 10
601.9091026674
 20
84.6202950292
 30
0.0
 10
601.5351441779
 20
84.731316559
 30
0.0
 10
600.7982446793
 20
84.7442808997
 30
0.0
 10
600.2366807979
 20
84.5283590262
 30
0.0
 10
599.987614169
 20
84.2768383089
 30
0.0
  0
SPLINE
  5
475
100
AcDbEntity
  8
BEZUGSACHSEN
100
AcDbSpline
 62
7
  6
CONTINUOUS
 70
0
 71
3
 72
19
 73
15
 74
0
 42
0.0000001
 43
0.0000001
 44
0.0000000001
 40
0.0
 40
0.0
 40
0.0
 40
0.0
 40
0.0517279957
 40
0.105334459
 40
0.1622489926
 40
0.2232158543
 40
0.3564755372
 40
0.5
 40
0.6435244628
 40
0.7767841457
 40
0.8377510074
 40
0.894665541
 40
0.9482720043
 40
1.0
 40
1.0
 40
1.0
 40
1.0
 10
560.1309320603
 20
75.9077378376
 30
0.0
 10
560.1309320603
 20
75.6523885125
 30
0.0
 10
560.2050370647
 20
75.1297649228
 30
0.0
 10
560.5293009991
 20
74.3881765171
 30
0.0
 10
561.0494796924
 20
73.7108891802
 30
0.0
 10
562.0001062073
 20
72.9034728706
 30
0.0
 10
563.5500719989
 20
72.2031323797
 30
0.0
 10
565.6309320603
 20
71.9229887873
 30
0.0
 10
567.7117921218
 20
72.2031323797
 30
0.0
 10
569.2617579133
 20
72.9034728706
 30
0.0
 10
570.2123844282
 20
73.7108891802
 30
0.0
 10
570.7325631215
 20
74.3881765171
 30
0.0
 10
571.0568270559
 20
75.1297649228
 30
0.0
 10
571.1309320603
 20
75.6523885125
 30
0.0
 10
571.1309320603
 20
75.9077378376
 30
0.0
  0
SPLINE
  5
476
100
AcDbEntity
  8
0
100
AcDbSpline
 62
7
  6
CONTINUOUS
 70
0
 71
3
 72
11
 73
7
 74
0
 42
0.0000001
 43
0.0000001
 44
0.0000000001
 40
0.0
 40
0.0
 40
0.0
 40
0.0
 40
0.227142142
 40
0.4653047767
 40
0.7220182825
 40
1.0
 40
1.0
 40
1.0
 40
1.0
 10
579.076196749
 20
67.0183448068
 30
0.0
 10
579.076196749
 20
67.2137641814
 30
0.0
 10
579.0089509342
 20
67.6167441154
 30
0.0
 10
578.71850606
 20
68.1755056672
 30
0.0
 10
578.2606214562
 20
68.666950862
 30
0.0
 10
577.8753085209
 20
68.9255042934
 30
0.0
 10
577.6650036047
 20
69.0393845523
 30
0.0
  0
SPLINE
  5
477
100
AcDbEntity
  8
0
100
AcDbSpline
 62
7
  6
CONTINUOUS
 70
0
 71
3
 72
19
 73
15
 74
0
 42
0.0000001
 43
0.0000001
 44
0.0000000001
 40
0.0
 40
0.0
 40
0.0
 40
0.0
 40
0.0517234907
 40
0.1053372095
 40
0.1622487312
 40
0.2232163938
 40
0.3564752704
 40
0.5
 40
0.6435247296
 40
0.7767836062
 40
0.8377512688
 40
0.8946627905
 40
0.9482765093
 40
1.0
 40
1.0
 40
1.0
 40
1.0
 10
566.1894656266
 20
66.2722307713
 30
0.0
 10
566.1894656266
 20
66.1400615119
 30
0.0
 10
566.2278495762
 20
65.8695264466
 30
0.0
 10
566.3956639236
 20
65.4856271215
 30
0.0
 10
566.6649820798
 20
65.135050392
 30
0.0
 10
567.1570417548
 20
64.7170786183
 30
0.0
 10
567.9593870936
 20
64.3545580463
 30
0.0
 10
569.0365333068
 20
64.2095246493
 30
0.0
 10
570.1136795201
 20
64.3545580463
 30
0.0
 10
570.9160248589
 20
64.7170786183
 30
0.0
 10
571.4080845338
 20
65.135050392
 30
0.0
 10
571.6774026901
 20
65.4856271215
 30
0.0
 10
571.8452170374
 20
65.8695264466
 30
0.0
 10
571.8836009871
 20
66.1400615119
 30
0.0
 10
571.8836009871
 20
66.2722307713
 30
0.0
  0
SPLINE
  5
478
100
AcDbEntity
  8
0
100
AcDbSpline
 62
7
  6
CONTINUOUS
 70
0
 71
3
 72
9
 73
5
 74
0
 42
0.0000001
 43
0.0000001
 44
0.0000000001
 40
0.0
 40
0.0
 40
0.0
 40
0.0
 40
0.4402133985
 40
1.0
 40
1.0
 40
1.0
 40
1.0
 10
553.4436643251
 20
65.4980652272
 30
0.0
 10
553.4436643251
 20
65.4748860134
 30
0.0
 10
553.4793621144
 20
65.4244105256
 30
0.0
 10
553.5341890447
 20
65.4132124135
 30
0.0
 10
553.5636643251
 20
65.4132124135
 30
0.0
  0
SPLINE
  5
479
100
AcDbEntity
  8
0
100
AcDbSpline
 62
7
  6
CONTINUOUS
 70
0
 71
3
 72
9
 73
5
 74
0
 42
0.0000001
 43
0.0000001
 44
0.0000000001
 40
0.0
 40
0.0
 40
0.0
 40
0.0
 40
0.4402133985
 40
1.0
 40
1.0
 40
1.0
 40
1.0
 10
553.4436643251
 20
65.8516186178
 30
0.0
 10
553.4436643251
 20
65.828439404
 30
0.0
 10
553.4793621144
 20
65.7779639162
 30
0.0
 10
553.5341890447
 20
65.7667658041
 30
0.0
 10
553.5636643251
 20
65.7667658041
 30
0.0
  0
SPLINE
  5
47A
100
AcDbEntity
  8
0
100
AcDbSpline
 62
7
  6
CONTINUOUS
 70
0
 71
3
 72
17
 73
13
 74
0
 42
0.0000001
 43
0.0000001
 44
0.0000000001
 40
0.0
 40
0.0
 40
0.0
 40
0.0
 40
0.0519082659
 40
0.1062678596
 40
0.2250851405
 40
0.3581749994
 40
0.5
 40
0.6418250006
 40
0.7749148595
 40
0.8937321404
 40
0.9480917341
 40
1.0
 40
1.0
 40
1.0
 40
1.0
 10
566.2105825944
 20
66.3813769296
 30
0.0
 10
566.2317434949
 20
66.2590751231
 30
0.0
 10
566.3077059929
 20
66.0133721122
 30
0.0
 10
566.5853876073
 20
65.5475162304
 30
0.0
 10
567.1547790272
 20
65.0571696569
 30
0.0
 10
568.0369975695
 20
64.6954500478
 30
0.0
 10
569.0365333068
 20
64.5698914493
 30
0.0
 10
570.0360690442
 20
64.6954500478
 30
0.0
 10
570.9182875865
 20
65.0571696569
 30
0.0
 10
571.4876790063
 20
65.5475162304
 30
0.0
 10
571.7653606208
 20
66.0133721122
 30
0.0
 10
571.8413231188
 20
66.2590751231
 30
0.0
 10
571.8624840193
 20
66.3813769296
 30
0.0
  0
SPLINE
  5
47B
100
AcDbEntity
  8
0
100
AcDbSpline
 62
7
  6
CONTINUOUS
 70
0
 71
3
 72
9
 73
5
 74
0
 42
0.0000001
 43
0.0000001
 44
0.0000000001
 40
0.0
 40
0.0
 40
0.0
 40
0.0
 40
0.2536121958
 40
1.0
 40
1.0
 40
1.0
 40
1.0
 10
577.4615680547
 20
64.6000396151
 30
0.0
 10
577.4821007219
 20
64.6000396151
 30
0.0
 10
577.5630235552
 20
64.6029729876
 30
0.0
 10
577.6436132841
 20
64.6175924642
 30
0.0
 10
577.7013596309
 20
64.6353949542
 30
0.0
  0
SPLINE
  5
47C
100
AcDbEntity
  8
0
100
AcDbSpline
 62
7
  6
CONTINUOUS
 70
0
 71
3
 72
11
 73
7
 74
0
 42
0.0000001
 43
0.0000001
 44
0.0000000001
 40
0.0
 40
0.0
 40
0.0
 40
0.0
 40
0.2816347582
 40
0.5420479832
 40
0.7798483853
 40
1.0
 40
1.0
 40
1.0
 40
1.0
 10
577.7013596309
 20
64.6353949542
 30
0.0
 10
578.0252347833
 20
64.7352416886
 30
0.0
 10
578.632521194
 20
64.9882907338
 30
0.0
 10
579.4034429543
 20
65.5394934889
 30
0.0
 10
579.9557018371
 20
66.2202812727
 30
0.0
 10
580.1507067668
 20
66.7499934315
 30
0.0
 10
580.1941151898
 20
67.0113414042
 30
0.0
  0
SPLINE
  5
47D
100
AcDbEntity
  8
0
100
AcDbSpline
 62
7
  6
CONTINUOUS
 70
0
 71
3
 72
9
 73
5
 74
0
 42
0.0000001
 43
0.0000001
 44
0.0000000001
 40
0.0
 40
0.0
 40
0.0
 40
0.0
 40
0.2591205677
 40
1.0
 40
1.0
 40
1.0
 40
1.0
 10
577.4826045327
 20
69.4366499984
 30
0.0
 10
577.4988942785
 20
69.4366499984
 30
0.0
 10
577.5616478662
 20
69.4330547286
 30
0.0
 10
577.6240470658
 20
69.4151159372
 30
0.0
 10
577.6650036047
 20
69.3929379429
 30
0.0
  0
SPLINE
  5
47E
100
AcDbEntity
  8
0
100
AcDbSpline
 62
7
  6
CONTINUOUS
 70
0
 71
3
 72
11
 73
7
 74
0
 42
0.0000001
 43
0.0000001
 44
0.0000000001
 40
0.0
 40
0.0
 40
0.0
 40
0.0
 40
0.2779697373
 40
0.5346991835
 40
0.7728568778
 40
1.0
 40
1.0
 40
1.0
 40
1.0
 10
577.6650036047
 20
69.3929379429
 30
0.0
 10
577.8753002109
 20
69.2790621839
 30
0.0
 10
578.2606085336
 20
69.0204978007
 30
0.0
 10
578.718523556
 20
68.5290759045
 30
0.0
 10
579.0089573577
 20
67.9702938824
 30
0.0
 10
579.07621474
 20
67.5673191155
 30
0.0
 10
579.07621474
 20
67.3718981974
 30
0.0
  0
SPLINE
  5
47F
100
AcDbEntity
  8
0
100
AcDbSpline
 62
7
  6
CONTINUOUS
 70
0
 71
3
 72
11
 73
7
 74
0
 42
0.0000001
 43
0.0000001
 44
0.0000000001
 40
0.0
 40
0.0
 40
0.0
 40
0.0
 40
0.2782911642
 40
0.539206302
 40
0.7792454761
 40
1.0
 40
1.0
 40
1.0
 40
1.0
 10
563.3716141455
 20
67.3671276441
 30
0.0
 10
563.5236651549
 20
67.4024528541
 30
0.0
 10
563.8130669953
 20
67.4974085525
 30
0.0
 10
564.1956617359
 20
67.7156356535
 30
0.0
 10
564.4942492396
 20
67.9951227286
 30
0.0
 10
564.6287286555
 20
68.2214916105
 30
0.0
 10
564.673080358
 20
68.3371030295
 30
0.0
  0
SPLINE
  5
480
100
AcDbEntity
  8
0
100
AcDbSpline
 62
7
  6
CONTINUOUS
 70
0
 71
3
 72
8
 73
4
 74
0
 42
0.0000001
 43
0.0000001
 44
0.0000000001
 40
0.0
 40
0.0
 40
0.0
 40
0.0
 40
1.0
 40
1.0
 40
1.0
 40
1.0
 10
564.673080358
 20
68.3371030295
 30
0.0
 10
564.6960263858
 20
68.3969163555
 30
0.0
 10
564.7138172649
 20
68.4590124702
 30
0.0
 10
564.7255547115
 20
68.5219917247
 30
0.0
  0
SPLINE
  5
481
100
AcDbEntity
  8
0
100
AcDbSpline
 62
7
  6
CONTINUOUS
 70
0
 71
3
 72
11
 73
7
 74
0
 42
0.0000001
 43
0.0000001
 44
0.0000000001
 40
0.0
 40
0.0
 40
0.0
 40
0.0
 40
0.2880066977
 40
0.5553334191
 40
0.790532629
 40
1.0
 40
1.0
 40
1.0
 40
1.0
 10
562.7494656266
 20
69.4720053375
 30
0.0
 10
562.8890119285
 20
69.4720053375
 30
0.0
 10
563.1597884362
 20
69.4355445376
 30
0.0
 10
563.5142940344
 20
69.2751815294
 30
0.0
 10
563.7667068797
 20
69.0255891284
 30
0.0
 10
563.8326323332
 20
68.8075828878
 30
0.0
 10
563.8326323332
 20
68.706090814
 30
0.0
  0
SPLINE
  5
482
100
AcDbEntity
  8
RUNDUNGEN
100
AcDbSpline
 62
7
  6
CONTINUOUS
 70
0
 71
3
 72
11
 73
7
 74
0
 42
0.0000001
 43
0.0000001
 44
0.0000000001
 40
0.0
 40
0.0
 40
0.0
 40
0.0
 40
0.2256927635
 40
0.4632951072
 40
0.7206222905
 40
1.0
 40
1.0
 40
1.0
 40
1.0
 10
538.1349409612
 20
72.1054891826
 30
0.0
 10
538.1348482421
 20
71.9634830741
 30
0.0
 10
538.0832043361
 20
71.6699344057
 30
0.0
 10
537.8620941073
 20
71.2664274573
 30
0.0
 10
537.5158123807
 20
70.9163498193
 30
0.0
 10
537.2264348897
 20
70.7364294256
 30
0.0
 10
537.068902007
 20
70.6584315086
 30
0.0
  0
SPLINE
  5
483
100
AcDbEntity
  8
0
100
AcDbSpline
 62
7
  6
CONTINUOUS
 70
0
 71
3
 72
9
 73
5
 74
0
 42
0.0000001
 43
0.0000001
 44
0.0000000001
 40
0.0
 40
0.0
 40
0.0
 40
0.0
 40
0.5597866015
 40
1.0
 40
1.0
 40
1.0
 40
1.0
 10
554.5236643251
 20
65.7667658041
 30
0.0
 10
554.5531396054
 20
65.7667658041
 30
0.0
 10
554.6079665357
 20
65.7779639162
 30
0.0
 10
554.6436643251
 20
65.828439404
 30
0.0
 10
554.6436643251
 20
65.8516186178
 30
0.0
  0
SPLINE
  5
484
100
AcDbEntity
  8
0
100
AcDbSpline
 62
7
  6
CONTINUOUS
 70
0
 71
3
 72
9
 73
5
 74
0
 42
0.0000001
 43
0.0000001
 44
0.0000000001
 40
0.0
 40
0.0
 40
0.0
 40
0.0
 40
0.4402133985
 40
1.0
 40
1.0
 40
1.0
 40
1.0
 10
553.8186643251
 20
68.0153653682
 30
0.0
 10
553.8186643251
 20
68.0385445821
 30
0.0
 10
553.8543621144
 20
68.0890200699
 30
0.0
 10
553.9091890447
 20
68.100218182
 30
0.0
 10
553.9386643251
 20
68.100218182
 30
0.0
  0
SPLINE
  5
485
100
AcDbEntity
  8
0
100
AcDbSpline
 62
7
  6
CONTINUOUS
 70
0
 71
3
 72
9
 73
5
 74
0
 42
0.0000001
 43
0.0000001
 44
0.0000000001
 40
0.0
 40
0.0
 40
0.0
 40
0.0
 40
0.5597866015
 40
1.0
 40
1.0
 40
1.0
 40
1.0
 10
554.1486643251
 20
68.100218182
 30
0.0
 10
554.1781396054
 20
68.100218182
 30
0.0
 10
554.2329665357
 20
68.0890200699
 30
0.0
 10
554.2686643251
 20
68.0385445821
 30
0.0
 10
554.2686643251
 20
68.0153653682
 30
0.0
  0
SPLINE
  5
486
100
AcDbEntity
  8
0
100
AcDbSpline
 62
7
  6
CONTINUOUS
 70
0
 71
3
 72
9
 73
5
 74
0
 42
0.0000001
 43
0.0000001
 44
0.0000000001
 40
0.0
 40
0.0
 40
0.0
 40
0.0
 40
0.5597866015
 40
1.0
 40
1.0
 40
1.0
 40
1.0
 10
554.5236643251
 20
67.8880861476
 30
0.0
 10
554.5531396054
 20
67.8880861476
 30
0.0
 10
554.6079665357
 20
67.8992842597
 30
0.0
 10
554.6436643251
 20
67.9497597475
 30
0.0
 10
554.6436643251
 20
67.9729389614
 30
0.0
  0
SPLINE
  5
487
100
AcDbEntity
  8
0
100
AcDbSpline
 62
7
  6
CONTINUOUS
 70
0
 71
3
 72
11
 73
7
 74
0
 42
0.0000001
 43
0.0000001
 44
0.0000000001
 40
0.0
 40
0.0
 40
0.0
 40
0.0
 40
0.2876567391
 40
0.555407049
 40
0.7907201247
 40
1.0
 40
1.0
 40
1.0
 40
1.0
 10
554.7936643251
 20
69.2669443709
 30
0.0
 10
554.8322617502
 20
69.2669443709
 30
0.0
 10
554.9071989615
 20
69.2566876409
 30
0.0
 10
555.0055798993
 20
69.212574377
 30
0.0
 10
555.0752538367
 20
69.143176023
 30
0.0
 10
555.0936643251
 20
69.0828932512
 30
0.0
 10
555.0936643251
 20
69.0548123366
 30
0.0
  0
SPLINE
  5
488
100
AcDbEntity
  8
0
100
AcDbSpline
 62
7
  6
CONTINUOUS
 70
0
 71
3
 72
8
 73
4
 74
0
 42
0.0000001
 43
0.0000001
 44
0.0000000001
 40
0.0
 40
0.0
 40
0.0
 40
0.0
 40
1.0
 40
1.0
 40
1.0
 40
1.0
 10
554.8737838635
 20
67.1378103009
 30
0.0
 10
554.8976142816
 20
67.1331328076
 30
0.0
 10
554.921165203
 20
67.1263446907
 30
0.0
 10
554.9436643251
 20
67.1172037237
 30
0.0
  0
SPLINE
  5
489
100
AcDbEntity
  8
0
100
AcDbSpline
 62
7
  6
CONTINUOUS
 70
0
 71
3
 72
9
 73
5
 74
0
 42
0.0000001
 43
0.0000001
 44
0.0000000001
 40
0.0
 40
0.0
 40
0.0
 40
0.0
 40
0.5424756321
 40
1.0
 40
1.0
 40
1.0
 40
1.0
 10
554.9436643251
 20
67.1172037237
 30
0.0
 10
554.9851962358
 20
67.1003300953
 30
0.0
 10
555.0584362715
 20
67.0543959736
 30
0.0
 10
555.0936643251
 20
66.9713006154
 30
0.0
 10
555.0936643251
 20
66.933491993
 30
0.0
  0
SPLINE
  5
48A
100
AcDbEntity
  8
0
100
AcDbSpline
 62
7
  6
CONTINUOUS
 70
0
 71
3
 72
9
 73
5
 74
0
 42
0.0000001
 43
0.0000001
 44
0.0000000001
 40
0.0
 40
0.0
 40
0.0
 40
0.0
 40
0.4575243679
 40
1.0
 40
1.0
 40
1.0
 40
1.0
 10
552.9936643251
 20
66.933491993
 30
0.0
 10
552.9936643251
 20
66.9713006154
 30
0.0
 10
553.0288923786
 20
67.0543959736
 30
0.0
 10
553.1021324144
 20
67.1003300953
 30
0.0
 10
553.1436643251
 20
67.1172037237
 30
0.0
  0
SPLINE
  5
48B
100
AcDbEntity
  8
0
100
AcDbSpline
 62
7
  6
CONTINUOUS
 70
0
 71
3
 72
9
 73
5
 74
0
 42
0.0000001
 43
0.0000001
 44
0.0000000001
 40
0.0
 40
0.0
 40
0.0
 40
0.0
 40
0.2441493338
 40
1.0
 40
1.0
 40
1.0
 40
1.0
 10
553.1436643251
 20
67.1172037237
 30
0.0
 10
553.1552148822
 20
67.1218964962
 30
0.0
 10
553.2035559606
 20
67.1385012823
 30
0.0
 10
553.2550668999
 20
67.1456240274
 30
0.0
 10
553.2936643251
 20
67.1456240274
 30
0.0
  0
SPLINE
  5
48C
100
AcDbEntity
  8
0
100
AcDbSpline
 62
7
  6
CONTINUOUS
 70
0
 71
3
 72
11
 73
7
 74
0
 42
0.0000001
 43
0.0000001
 44
0.0000000001
 40
0.0
 40
0.0
 40
0.0
 40
0.0
 40
0.2092798753
 40
0.444592951
 40
0.7123432609
 40
1.0
 40
1.0
 40
1.0
 40
1.0
 10
552.9936643251
 20
69.0548123366
 30
0.0
 10
552.9936643251
 20
69.0828932512
 30
0.0
 10
553.0120748134
 20
69.143176023
 30
0.0
 10
553.0817487508
 20
69.212574377
 30
0.0
 10
553.1801296886
 20
69.2566876409
 30
0.0
 10
553.2550668999
 20
69.2669443709
 30
0.0
 10
553.2936643251
 20
69.2669443709
 30
0.0
  0
SPLINE
  5
48D
100
AcDbEntity
  8
RUNDUNGEN
100
AcDbSpline
 62
7
  6
CONTINUOUS
 70
0
 71
3
 72
11
 73
7
 74
0
 42
0.0000001
 43
0.0000001
 44
0.0000000001
 40
0.0
 40
0.0
 40
0.0
 40
0.0
 40
0.2660806488
 40
0.5190943636
 40
0.7622194616
 40
1.0
 40
1.0
 40
1.0
 40
1.0
 10
583.863016115
 20
41.2788926895
 30
0.0
 10
583.4370623242
 20
41.7090434627
 30
0.0
 10
582.6703722962
 20
42.6161583957
 30
0.0
 10
581.8024260069
 20
44.1292697829
 30
0.0
 10
581.2703063728
 20
45.7240008832
 30
0.0
 10
581.1502967602
 20
46.8216114019
 30
0.0
 10
581.1502967794
 20
47.3625899556
 30
0.0
  0
SPLINE
  5
48E
100
AcDbEntity
  8
0
100
AcDbSpline
 62
7
  6
CONTINUOUS
 70
0
 71
3
 72
9
 73
5
 74
0
 42
0.0000001
 43
0.0000001
 44
0.0000000001
 40
0.0
 40
0.0
 40
0.0
 40
0.0
 40
0.538986273
 40
1.0
 40
1.0
 40
1.0
 40
1.0
 10
556.4436643251
 20
64.6000396151
 30
0.0
 10
556.5573216447
 20
64.6000396151
 30
0.0
 10
556.7705522311
 20
64.6399393526
 30
0.0
 10
556.9489105577
 20
64.7780295624
 30
0.0
 10
556.9979920446
 20
64.8619448538
 30
0.0
  0
SPLINE
  5
48F
100
AcDbEntity
  8
0
100
AcDbSpline
 62
7
  6
CONTINUOUS
 70
0
 71
3
 72
9
 73
5
 74
0
 42
0.0000001
 43
0.0000001
 44
0.0000000001
 40
0.0
 40
0.0
 40
0.0
 40
0.0
 40
0.2592261758
 40
1.0
 40
1.0
 40
1.0
 40
1.0
 10
556.9979920446
 20
64.8619448538
 30
0.0
 10
557.005397948
 20
64.8746068285
 30
0.0
 10
557.0310212837
 20
64.9250856363
 30
0.0
 10
557.0436643251
 20
64.9823856722
 30
0.0
 10
557.0436643251
 20
65.0243036838
 30
0.0
  0
SPLINE
  5
490
100
AcDbEntity
  8
RUNDUNGEN
100
AcDbSpline
 62
7
  6
CONTINUOUS
 70
0
 71
3
 72
11
 73
7
 74
0
 42
0.0000001
 43
0.0000001
 44
0.0000000001
 40
0.0
 40
0.0
 40
0.0
 40
0.0
 40
0.2297109937
 40
0.4842558728
 40
0.7475644511
 40
1.0
 40
1.0
 40
1.0
 40
1.0
 10
592.0110279934
 20
76.2216577122
 30
0.0
 10
591.6118882575
 20
75.8185851966
 30
0.0
 10
590.5802788284
 20
75.1530058427
 30
0.0
 10
588.7722112859
 20
74.6783454039
 30
0.0
 10
586.8482458483
 20
74.7053266231
 30
0.0
 10
585.6060335641
 20
75.0768182019
 30
0.0
 10
585.0473855902
 20
75.3534168239
 30
0.0
  0
SPLINE
  5
491
100
AcDbEntity
  8
0
100
AcDbSpline
 62
7
  6
CONTINUOUS
 70
0
 71
3
 72
9
 73
5
 74
0
 42
0.0000001
 43
0.0000001
 44
0.0000000001
 40
0.0
 40
0.0
 40
0.0
 40
0.0
 40
0.4402133985
 40
1.0
 40
1.0
 40
1.0
 40
1.0
 10
554.2686643251
 20
67.6618119777
 30
0.0
 10
554.2686643251
 20
67.6849911915
 30
0.0
 10
554.2329665357
 20
67.7354666793
 30
0.0
 10
554.1781396054
 20
67.7466647914
 30
0.0
 10
554.1486643251
 20
67.7466647914
 30
0.0
  0
SPLINE
  5
492
100
AcDbEntity
  8
RUNDUNGEN
100
AcDbSpline
 62
7
  6
CONTINUOUS
 70
0
 71
3
 72
11
 73
7
 74
0
 42
0.0000001
 43
0.0000001
 44
0.0000000001
 40
0.0
 40
0.0
 40
0.0
 40
0.0
 40
0.2524375529
 40
0.5157480446
 40
0.7702932073
 40
1.0
 40
1.0
 40
1.0
 40
1.0
 10
552.9315252936
 20
78.6791710828
 30
0.0
 10
552.3728728837
 20
78.4025702645
 30
0.0
 10
551.130650426
 20
78.0310772072
 30
0.0
 10
549.2066740746
 20
78.0041017812
 30
0.0
 10
547.3986133244
 20
78.4787700205
 30
0.0
 10
546.3670153276
 20
79.1443468261
 30
0.0
 10
545.9678828904
 20
79.5474119711
 30
0.0
  0
SPLINE
  5
493
100
AcDbEntity
  8
KONSTRUKTIONSELEMENTE
100
AcDbSpline
 62
7
  6
CONTINUOUS
 70
0
 71
3
 72
9
 73
5
 74
0
 42
0.0000001
 43
0.0000001
 44
0.0000000001
 40
0.0
 40
0.0
 40
0.0
 40
0.0
 40
0.5024826949
 40
1.0
 40
1.0
 40
1.0
 40
1.0
 10
571.8809320603
 20
121.6895546315
 30
0.0
 10
573.0623312646
 20
121.4805052119
 30
0.0
 10
575.3936268924
 20
120.9428136769
 30
0.0
 10
577.6524579121
 20
120.1488227435
 30
0.0
 10
578.7450231389
 20
119.6825610876
 30
0.0
  0
SPLINE
  5
494
100
AcDbEntity
  8
RUNDUNGEN
100
AcDbSpline
 62
7
  6
CONTINUOUS
 70
0
 71
3
 72
16
 73
12
 74
0
 42
0.0000001
 43
0.0000001
 44
0.0000000001
 40
0.0
 40
0.0
 40
0.0
 40
0.0
 40
0.0242874348
 40
0.0512771385
 40
0.082901453
 40
0.1202969766
 40
0.2141635644
 40
0.3338260053
 40
0.4770520394
 40
0.6397399996
 40
1.0
 40
1.0
 40
1.0
 40
1.0
 10
594.1309320603
 20
124.3657624674
 30
0.0
 10
594.1309320603
 20
124.4051037248
 30
0.0
 10
594.1149227976
 20
124.4886886995
 30
0.0
 10
594.047384018
 20
124.6067358585
 30
0.0
 10
593.9394797394
 20
124.7201985476
 30
0.0
 10
593.7268337218
 20
124.8779003941
 30
0.0
 10
593.3574358572
 20
125.0543855664
 30
0.0
 10
592.8063641586
 20
125.2306818327
 30
0.0
 10
592.1318055372
 20
125.3773528493
 30
0.0
 10
591.0629489394
 20
125.5293989821
 30
0.0
 10
590.2144881885
 20
125.5715338333
 30
0.0
 10
589.6309320603
 20
125.5715338333
 30
0.0
  0
SPLINE
  5
495
100
AcDbEntity
  8
KONSTRUKTIONSELEMENTE
100
AcDbSpline
 62
7
  6
CONTINUOUS
 70
0
 71
3
 72
9
 73
5
 74
0
 42
0.0000001
 43
0.0000001
 44
0.0000000001
 40
0.0
 40
0.0
 40
0.0
 40
0.0
 40
0.4975177047
 40
1.0
 40
1.0
 40
1.0
 40
1.0
 10
552.5168409817
 20
119.6825610876
 30
0.0
 10
553.6094070839
 20
120.148823117
 30
0.0
 10
555.8682382236
 20
120.9428137155
 30
0.0
 10
558.1995337977
 20
121.4805053785
 30
0.0
 10
559.3809320603
 20
121.6895546315
 30
0.0
  0
SPLINE
  5
496
100
AcDbEntity
  8
KONSTRUKTIONSELEMENTE
100
AcDbSpline
 62
7
  6
CONTINUOUS
 70
0
 71
3
 72
11
 73
7
 74
0
 42
0.0000001
 43
0.0000001
 44
0.0000000001
 40
0.0
 40
0.0
 40
0.0
 40
0.0
 40
0.2498418809
 40
0.4997992424
 40
0.7498631476
 40
1.0
 40
1.0
 40
1.0
 40
1.0
 10
550.7954718383
 20
116.0455610876
 30
0.0
 10
550.7954718383
 20
116.3887941661
 30
0.0
 10
550.8871842163
 20
117.0783193616
 30
0.0
 10
551.2665416276
 20
118.0444477243
 30
0.0
 10
551.8231013596
 20
118.9176198627
 30
0.0
 10
552.2762292683
 20
119.4372178752
 30
0.0
 10
552.5168409817
 20
119.6825610876
 30
0.0
  0
SPLINE
  5
497
100
AcDbEntity
  8
KONSTRUKTIONSELEMENTE
100
AcDbSpline
 62
7
  6
CONTINUOUS
 70
0
 71
3
 72
9
 73
5
 74
0
 42
0.0000001
 43
0.0000001
 44
0.0000000001
 40
0.0
 40
0.0
 40
0.0
 40
0.0
 40
0.5001839413
 40
1.0
 40
1.0
 40
1.0
 40
1.0
 10
550.0663648068
 20
108.6825610876
 30
0.0
 10
550.2870076369
 20
109.1865806831
 30
0.0
 10
550.6559964976
 20
110.2294488216
 30
0.0
 10
550.7954718383
 20
111.3327666911
 30
0.0
 10
550.7954718383
 20
111.8825610876
 30
0.0
  0
SPLINE
  5
498
100
AcDbEntity
  8
KONSTRUKTIONSELEMENTE
100
AcDbSpline
 62
7
  6
CONTINUOUS
 70
0
 71
3
 72
9
 73
5
 74
0
 42
0.0000001
 43
0.0000001
 44
0.0000000001
 40
0.0
 40
0.0
 40
0.0
 40
0.0
 40
0.4998160587
 40
1.0
 40
1.0
 40
1.0
 40
1.0
 10
580.4663922824
 20
111.8825610876
 30
0.0
 10
580.4663922824
 20
111.3327666911
 30
0.0
 10
580.6058676231
 20
110.2294488216
 30
0.0
 10
580.9748564837
 20
109.1865806831
 30
0.0
 10
581.1954993139
 20
108.6825610876
 30
0.0
  0
SPLINE
  5
499
100
AcDbEntity
  8
KONSTRUKTIONSELEMENTE
100
AcDbSpline
 62
7
  6
CONTINUOUS
 70
0
 71
3
 72
11
 73
7
 74
0
 42
0.0000001
 43
0.0000001
 44
0.0000000001
 40
0.0
 40
0.0
 40
0.0
 40
0.0
 40
0.2501369337
 40
0.5002009564
 40
0.7501583912
 40
1.0
 40
1.0
 40
1.0
 40
1.0
 10
578.7450231389
 20
119.6825610876
 30
0.0
 10
578.9856349305
 20
119.4372177955
 30
0.0
 10
579.438763009
 20
118.9176195705
 30
0.0
 10
579.9953229126
 20
118.0444470791
 30
0.0
 10
580.3746799689
 20
117.0783186914
 30
0.0
 10
580.4663922824
 20
116.3887937922
 30
0.0
 10
580.4663922824
 20
116.0455610876
 30
0.0
  0
SPLINE
  5
49A
100
AcDbEntity
  8
KONSTRUKTIONSELEMENTE
100
AcDbSpline
 62
7
  6
CONTINUOUS
 70
0
 71
3
 72
9
 73
5
 74
0
 42
0.0000001
 43
0.0000001
 44
0.0000000001
 40
0.0
 40
0.0
 40
0.0
 40
0.0
 40
0.4749716346
 40
1.0
 40
1.0
 40
1.0
 40
1.0
 10
584.78988541
 20
94.6825610876
 30
0.0
 10
584.8044572095
 20
94.6825610876
 30
0.0
 10
584.8357759799
 20
94.6905044023
 30
0.0
 10
584.8583804367
 20
94.7129318344
 30
0.0
 10
584.8680738167
 20
94.7257961302
 30
0.0
  0
SPLINE
  5
49B
100
AcDbEntity
  8
KONSTRUKTIONSELEMENTE
100
AcDbSpline
 62
7
  6
CONTINUOUS
 70
0
 71
3
 72
20
 73
16
 74
0
 42
0.0000001
 43
0.0000001
 44
0.0000000001
 40
0.0
 40
0.0
 40
0.0
 40
0.0
 40
0.0052706207
 40
0.0123641056
 40
0.0326624155
 40
0.0614056838
 40
0.098500764
 40
0.1436502594
 40
0.1964195188
 40
0.2562845615
 40
0.3226349797
 40
0.4720457108
 40
0.6387980916
 40
0.8167487559
 40
1.0
 40
1.0
 40
1.0
 40
1.0
 10
584.8680738167
 20
94.7257961302
 30
0.0
 10
584.8834409356
 20
94.7461901687
 30
0.0
 10
584.9086751666
 20
94.8017495383
 30
0.0
 10
584.9434899479
 20
94.9563693685
 30
0.0
 10
584.9542277275
 20
95.229814256
 30
0.0
 10
584.9329458507
 20
95.6463937468
 30
0.0
 10
584.8742128137
 20
96.1813048631
 30
0.0
 10
584.7783047675
 20
96.8283950477
 30
0.0
 10
584.6443722369
 20
97.5811296244
 30
0.0
 10
584.4723825222
 20
98.4311269726
 30
0.0
 10
584.1801824944
 20
99.7342288675
 30
0.0
 10
583.7203415258
 20
101.5300184083
 30
0.0
 10
583.0379684835
 20
103.8252987927
 30
0.0
 10
582.204532197
 20
106.2444714428
 30
0.0
 10
581.5515408275
 20
107.8692471014
 30
0.0
 10
581.1954993139
 20
108.6825610876
 30
0.0
  0
SPLINE
  5
49C
100
AcDbEntity
  8
RUNDUNGEN
100
AcDbSpline
 62
7
  6
CONTINUOUS
 70
0
 71
3
 72
9
 73
5
 74
0
 42
0.0000001
 43
0.0000001
 44
0.0000000001
 40
0.0
 40
0.0
 40
0.0
 40
0.0
 40
0.4924379896
 40
1.0
 40
1.0
 40
1.0
 40
1.0
 10
553.6766569787
 20
141.6825610876
 30
0.0
 10
552.774116003
 20
141.6825610876
 30
0.0
 10
550.9420818851
 20
141.6171454638
 30
0.0
 10
549.1096724655
 20
141.5700432813
 30
0.0
 10
548.1794121652
 20
141.5700432813
 30
0.0
  0
SPLINE
  5
49D
100
AcDbEntity
  8
KONSTRUKTIONSELEMENTE
100
AcDbSpline
 62
7
  6
CONTINUOUS
 70
0
 71
3
 72
24
 73
20
 74
0
 42
0.0000001
 43
0.0000001
 44
0.0000000001
 40
0.0
 40
0.0
 40
0.0
 40
0.0
 40
0.1913874409
 40
0.3766227337
 40
0.5488612775
 40
0.6278871631
 40
0.7010292476
 40
0.7674709147
 40
0.8264694342
 40
0.8773617793
 40
0.9195966859
 40
0.9373354831
 40
0.9527689538
 40
0.9658759409
 40
0.9766663346
 40
0.9851857887
 40
0.9915684094
 40
0.9961893607
 40
1.0
 40
1.0
 40
1.0
 40
1.0
 10
550.0663648068
 20
108.6825610876
 30
0.0
 10
549.6921674261
 20
107.8277732282
 30
0.0
 10
549.0095600586
 20
106.1217780085
 30
0.0
 10
548.1467478285
 20
103.58777973
 30
0.0
 10
547.5503212126
 20
101.5441895521
 30
0.0
 10
547.1545802271
 20
100.0127739393
 30
0.0
 10
546.9088200964
 20
98.9755868321
 30
0.0
 10
546.7053528175
 20
98.0289497638
 30
0.0
 10
546.544059665
 20
97.1844131746
 30
0.0
 10
546.4248170722
 20
96.4522836903
 30
0.0
 10
546.3564316325
 20
95.9159030225
 30
0.0
 10
546.3249028549
 20
95.5495555945
 30
0.0
 10
546.3131919661
 20
95.3241777696
 30
0.0
 10
546.31187894
 20
95.1323163314
 30
0.0
 10
546.320836991
 20
94.9744340807
 30
0.0
 10
546.3399636107
 20
94.8501817972
 30
0.0
 10
546.3691968008
 20
94.7593502797
 30
0.0
 10
546.4113719975
 20
94.6974181858
 30
0.0
 10
546.4534000168
 20
94.6825610876
 30
0.0
 10
546.4719787107
 20
94.6825610876
 30
0.0
  0
SPLINE
  5
49E
100
AcDbEntity
  8
RUNDUNGEN
100
AcDbSpline
 62
7
  6
CONTINUOUS
 70
0
 71
3
 72
16
 73
12
 74
0
 42
0.0000001
 43
0.0000001
 44
0.0000000001
 40
0.0
 40
0.0
 40
0.0
 40
0.0
 40
0.0242874348
 40
0.0512771385
 40
0.082901453
 40
0.1202969766
 40
0.2141635644
 40
0.3338260053
 40
0.4770520394
 40
0.6397399996
 40
1.0
 40
1.0
 40
1.0
 40
1.0
 10
537.1309320603
 20
124.3657624674
 30
0.0
 10
537.1309320603
 20
124.4051037248
 30
0.0
 10
537.146941323
 20
124.4886886995
 30
0.0
 10
537.2144801026
 20
124.6067358585
 30
0.0
 10
537.3223843812
 20
124.7201985476
 30
0.0
 10
537.5350303988
 20
124.8779003941
 30
0.0
 10
537.9044282634
 20
125.0543855664
 30
0.0
 10
538.4554999621
 20
125.2306818327
 30
0.0
 10
539.1300585835
 20
125.3773528493
 30
0.0
 10
540.1989151812
 20
125.5293989821
 30
0.0
 10
541.0473759322
 20
125.5715338333
 30
0.0
 10
541.6309320603
 20
125.5715338333
 30
0.0
  0
SPLINE
  5
49F
100
AcDbEntity
  8
RUNDUNGEN
100
AcDbSpline
 62
7
  6
CONTINUOUS
 70
0
 71
3
 72
9
 73
5
 74
0
 42
0.0000001
 43
0.0000001
 44
0.0000000001
 40
0.0
 40
0.0
 40
0.0
 40
0.0
 40
0.2404036222
 40
1.0
 40
1.0
 40
1.0
 40
1.0
 10
589.6934138999
 20
141.3456749885
 30
0.0
 10
589.5345347229
 20
141.3969736761
 30
0.0
 10
588.8624741466
 20
141.5754182248
 30
0.0
 10
588.1595297604
 20
141.6250212297
 30
0.0
 10
587.632379287
 20
141.605158302
 30
0.0
  0
SPLINE
  5
4A0
100
AcDbEntity
  8
RUNDUNGEN
100
AcDbSpline
 62
7
  6
CONTINUOUS
 70
0
 71
3
 72
9
 73
5
 74
0
 42
0.0000001
 43
0.0000001
 44
0.0000000001
 40
0.0
 40
0.0
 40
0.0
 40
0.0
 40
0.2515165758
 40
1.0
 40
1.0
 40
1.0
 40
1.0
 10
545.3160780211
 20
141.5700432813
 30
0.0
 10
545.1747613302
 20
141.5700432822
 30
0.0
 10
544.6128999263
 20
141.5732658745
 30
0.0
 10
544.051172285
 20
141.5891833732
 30
0.0
 10
543.6309320603
 20
141.6051034619
 30
0.0
  0
SPLINE
  5
4A1
100
AcDbEntity
  8
RUNDUNGEN
100
AcDbSpline
 62
7
  6
CONTINUOUS
 70
0
 71
3
 72
9
 73
5
 74
0
 42
0.0000001
 43
0.0000001
 44
0.0000000001
 40
0.0
 40
0.0
 40
0.0
 40
0.0
 40
0.2478013891
 40
1.0
 40
1.0
 40
1.0
 40
1.0
 10
587.6323792954
 20
141.6051583022
 30
0.0
 10
587.4931313546
 20
141.5998803639
 30
0.0
 10
586.9311435777
 20
141.5801946721
 30
0.0
 10
586.3687751028
 20
141.5700432813
 30
0.0
 10
585.9457858694
 20
141.5700432813
 30
0.0
  0
SPLINE
  5
4A2
100
AcDbEntity
  8
RUNDUNGEN
100
AcDbSpline
 62
7
  6
CONTINUOUS
 70
0
 71
3
 72
16
 73
12
 74
0
 42
0.0000001
 43
0.0000001
 44
0.0000000001
 40
0.0
 40
0.0
 40
0.0
 40
0.0
 40
0.0242874348
 40
0.0512771385
 40
0.082901453
 40
0.1202969766
 40
0.2141635644
 40
0.3338260053
 40
0.4770520394
 40
0.6397399996
 40
1.0
 40
1.0
 40
1.0
 40
1.0
 10
594.1309320603
 20
118.4767897217
 30
0.0
 10
594.1309320603
 20
118.516130979
 30
0.0
 10
594.1149227976
 20
118.5997159538
 30
0.0
 10
594.047384018
 20
118.7177631127
 30
0.0
 10
593.9394797394
 20
118.8312258019
 30
0.0
 10
593.7268337218
 20
118.9889276484
 30
0.0
 10
593.3574358572
 20
119.1654128207
 30
0.0
 10
592.8063641586
 20
119.3417090869
 30
0.0
 10
592.1318055372
 20
119.4883801036
 30
0.0
 10
591.0629489394
 20
119.6404262364
 30
0.0
 10
590.2144881885
 20
119.6825610876
 30
0.0
 10
589.6309320603
 20
119.6825610876
 30
0.0
  0
SPLINE
  5
4A3
100
AcDbEntity
  8
RUNDUNGEN
100
AcDbSpline
 62
7
  6
CONTINUOUS
 70
0
 71
3
 72
9
 73
5
 74
0
 42
0.0000001
 43
0.0000001
 44
0.0000000001
 40
0.0
 40
0.0
 40
0.0
 40
0.0
 40
0.5075627293
 40
1.0
 40
1.0
 40
1.0
 40
1.0
 10
583.0824519555
 20
141.5700432813
 30
0.0
 10
582.1522087478
 20
141.5700432813
 30
0.0
 10
580.3198355412
 20
141.6171420881
 30
0.0
 10
578.4878377823
 20
141.6825610876
 30
0.0
 10
577.5853159857
 20
141.6825610876
 30
0.0
  0
SPLINE
  5
4A4
100
AcDbEntity
  8
RUNDUNGEN
100
AcDbSpline
 62
7
  6
CONTINUOUS
 70
0
 71
3
 72
16
 73
12
 74
0
 42
0.0000001
 43
0.0000001
 44
0.0000000001
 40
0.0
 40
0.0
 40
0.0
 40
0.0
 40
0.3602600004
 40
0.5229479606
 40
0.6661739947
 40
0.7858364356
 40
0.8797030234
 40
0.917098547
 40
0.9487228615
 40
0.9757125652
 40
1.0
 40
1.0
 40
1.0
 40
1.0
 10
541.6309320603
 20
119.6825610876
 30
0.0
 10
541.0473759322
 20
119.6825610876
 30
0.0
 10
540.1989151812
 20
119.6404262364
 30
0.0
 10
539.1300585835
 20
119.4883801036
 30
0.0
 10
538.4554999621
 20
119.3417090869
 30
0.0
 10
537.9044282634
 20
119.1654128207
 30
0.0
 10
537.5350303988
 20
118.9889276484
 30
0.0
 10
537.3223843812
 20
118.8312258019
 30
0.0
 10
537.2144801026
 20
118.7177631127
 30
0.0
 10
537.146941323
 20
118.5997159538
 30
0.0
 10
537.1309320603
 20
118.516130979
 30
0.0
 10
537.1309320603
 20
118.4767897217
 30
0.0
  0
SPLINE
  5
4A5
100
AcDbEntity
  8
RUNDUNGEN
100
AcDbSpline
 62
7
  6
CONTINUOUS
 70
0
 71
3
 72
9
 73
5
 74
0
 42
0.0000001
 43
0.0000001
 44
0.0000000001
 40
0.0
 40
0.0
 40
0.0
 40
0.0
 40
0.259310087
 40
1.0
 40
1.0
 40
1.0
 40
1.0
 10
543.6309320603
 20
141.6051034619
 30
0.0
 10
543.4508961343
 20
141.6119238178
 30
0.0
 10
542.7563250757
 20
141.6119264891
 30
0.0
 10
542.0581769286
 20
141.5037972666
 30
0.0
 10
541.5684502207
 20
141.3456749885
 30
0.0
  0
LINE
  5
4A6
100
AcDbEntity
  8
0
100
AcDbLine
 62
7
  6
CONTINUOUS
 10
260.49497903
 20
118.4767897217
 11
264.99497903
 21
119.6825610876
  0
LINE
  5
4A7
100
AcDbEntity
  8
0
100
AcDbLine
 62
7
  6
CONTINUOUS
 10
257.09497903
 20
124.3657624674
 11
261.59497903
 21
125.5715338333
  0
SPLINE
  5
4A8
100
AcDbEntity
  8
0
100
AcDbSpline
 62
7
  6
CONTINUOUS
 70
0
 71
3
 72
10
 73
6
 74
0
 42
0.0000001
 43
0.0000001
 44
0.0000000001
 40
0.0
 40
0.0
 40
0.0
 40
0.0
 40
0.62119975
 40
0.8379889831
 40
1.0
 40
1.0
 40
1.0
 40
1.0
 10
257.1868643412
 20
141.3456749885
 30
0.0
 10
257.3284823775
 20
141.4293373187
 30
0.0
 10
257.5263605711
 20
141.5349536175
 30
0.0
 10
257.7814743035
 20
141.6080394189
 30
0.0
 10
257.8838541845
 20
141.6130350554
 30
0.0
 10
257.9260228792
 20
141.605158302
 30
0.0
  0
SPLINE
  5
4A9
100
AcDbEntity
  8
0
100
AcDbSpline
 62
7
  6
CONTINUOUS
 70
0
 71
3
 72
11
 73
7
 74
0
 42
0.0000001
 43
0.0000001
 44
0.0000000001
 40
0.0
 40
0.0
 40
0.0
 40
0.0
 40
0.2505755997
 40
0.5000000009
 40
0.7494244022
 40
1.0
 40
1.0
 40
1.0
 40
1.0
 10
247.1731975148
 20
174.402846632
 30
0.0
 10
246.971548942
 20
175.4582136788
 30
0.0
 10
246.6590397871
 20
177.5827969182
 30
0.0
 10
246.4981615473
 20
180.7974149646
 30
0.0
 10
246.6590397837
 20
184.0120330033
 30
0.0
 10
246.9715489435
 20
186.1366162345
 30
0.0
 10
247.1731975148
 20
187.1919832733
 30
0.0
  0
SPLINE
  5
4AA
100
AcDbEntity
  8
0
100
AcDbSpline
 62
7
  6
CONTINUOUS
 70
0
 71
3
 72
11
 73
7
 74
0
 42
0.0000001
 43
0.0000001
 44
0.0000000001
 40
0.0
 40
0.0
 40
0.0
 40
0.0
 40
0.2500438599
 40
0.5000000009
 40
0.7499561421
 40
1.0
 40
1.0
 40
1.0
 40
1.0
 10
247.1731975148
 20
156.9325610876
 30
0.0
 10
246.9708575578
 20
158.3791622376
 30
0.0
 10
246.658492908
 20
161.2858589524
 30
0.0
 10
246.4983207908
 20
165.6677038761
 30
0.0
 10
246.6584929046
 20
170.049548789
 30
0.0
 10
246.9708575594
 20
172.9562454931
 30
0.0
 10
247.1731975148
 20
174.402846632
 30
0.0
  0
SPLINE
  5
4AB
100
AcDbEntity
  8
0
100
AcDbSpline
 62
7
  6
CONTINUOUS
 70
0
 71
3
 72
9
 73
5
 74
0
 42
0.0000001
 43
0.0000001
 44
0.0000000001
 40
0.0
 40
0.0
 40
0.0
 40
0.0
 40
0.7498762812
 40
1.0
 40
1.0
 40
1.0
 40
1.0
 10
246.5624441424
 20
149.3358352834
 30
0.0
 10
246.5983790788
 20
151.2411253351
 30
0.0
 10
246.7678540256
 20
153.7816247794
 30
0.0
 10
247.0851475647
 20
156.3030603157
 30
0.0
 10
247.1731975148
 20
156.9325610876
 30
0.0
  0
SPLINE
  5
4AC
100
AcDbEntity
  8
0
100
AcDbSpline
 62
7
  6
CONTINUOUS
 70
0
 71
3
 72
11
 73
7
 74
0
 42
0.0000001
 43
0.0000001
 44
0.0000000001
 40
0.0
 40
0.0
 40
0.0
 40
0.0
 40
0.2574351421
 40
0.5000000008
 40
0.7425648595
 40
1.0
 40
1.0
 40
1.0
 40
1.0
 10
247.1731975148
 20
187.1919832733
 30
0.0
 10
246.9794319026
 20
187.5631733094
 30
0.0
 10
246.6667656455
 20
188.3221318738
 30
0.0
 10
246.4958860353
 20
189.532557729
 30
0.0
 10
246.6667656425
 20
190.7429835828
 30
0.0
 10
246.9794319039
 20
191.5019421427
 30
0.0
 10
247.1731975148
 20
191.8731321764
 30
0.0
  0
SPLINE
  5
4AD
100
AcDbEntity
  8
0
100
AcDbSpline
 62
7
  6
CONTINUOUS
 70
0
 71
3
 72
11
 73
7
 74
0
 42
0.0000001
 43
0.0000001
 44
0.0000000001
 40
0.0
 40
0.0
 40
0.0
 40
0.0
 40
0.2574351421
 40
0.5000000008
 40
0.7425648595
 40
1.0
 40
1.0
 40
1.0
 40
1.0
 10
253.0167605453
 20
187.1919832733
 30
0.0
 10
253.2105261574
 20
187.5631733094
 30
0.0
 10
253.5231924146
 20
188.3221318738
 30
0.0
 10
253.6940720247
 20
189.532557729
 30
0.0
 10
253.5231924176
 20
190.7429835828
 30
0.0
 10
253.2105261561
 20
191.5019421427
 30
0.0
 10
253.0167605453
 20
191.8731321764
 30
0.0
  0
SPLINE
  5
4AE
100
AcDbEntity
  8
0
100
AcDbSpline
 62
7
  6
CONTINUOUS
 70
0
 71
3
 72
11
 73
7
 74
0
 42
0.0000001
 43
0.0000001
 44
0.0000000001
 40
0.0
 40
0.0
 40
0.0
 40
0.0
 40
0.2505755997
 40
0.5000000009
 40
0.7494244022
 40
1.0
 40
1.0
 40
1.0
 40
1.0
 10
253.0167605453
 20
174.402846632
 30
0.0
 10
253.2184091181
 20
175.4582136788
 30
0.0
 10
253.5309182729
 20
177.5827969182
 30
0.0
 10
253.6917965127
 20
180.7974149646
 30
0.0
 10
253.5309182763
 20
184.0120330033
 30
0.0
 10
253.2184091165
 20
186.1366162345
 30
0.0
 10
253.0167605453
 20
187.1919832733
 30
0.0
  0
SPLINE
  5
4AF
100
AcDbEntity
  8
0
100
AcDbSpline
 62
7
  6
CONTINUOUS
 70
0
 71
3
 72
11
 73
7
 74
0
 42
0.0000001
 43
0.0000001
 44
0.0000000001
 40
0.0
 40
0.0
 40
0.0
 40
0.0
 40
0.2500438599
 40
0.5000000009
 40
0.7499561421
 40
1.0
 40
1.0
 40
1.0
 40
1.0
 10
253.0167605453
 20
156.9325610876
 30
0.0
 10
253.2191005022
 20
158.3791622376
 30
0.0
 10
253.5314651521
 20
161.2858589524
 30
0.0
 10
253.6916372692
 20
165.6677038761
 30
0.0
 10
253.5314651555
 20
170.049548789
 30
0.0
 10
253.2191005006
 20
172.9562454931
 30
0.0
 10
253.0167605453
 20
174.402846632
 30
0.0
  0
SPLINE
  5
4B0
100
AcDbEntity
  8
0
100
AcDbSpline
 62
7
  6
CONTINUOUS
 70
0
 71
3
 72
9
 73
5
 74
0
 42
0.0000001
 43
0.0000001
 44
0.0000000001
 40
0.0
 40
0.0
 40
0.0
 40
0.0
 40
0.7498762812
 40
1.0
 40
1.0
 40
1.0
 40
1.0
 10
253.6275139176
 20
149.3358352834
 30
0.0
 10
253.5915789812
 20
151.2411253351
 30
0.0
 10
253.4221040344
 20
153.7816247794
 30
0.0
 10
253.1048104954
 20
156.3030603157
 30
0.0
 10
253.0167605453
 20
156.9325610876
 30
0.0
  0
LINE
  5
4B1
100
AcDbEntity
  8
RUNDUNGEN
100
AcDbLine
 62
7
  6
CONTINUOUS
 10
239.69497903
 20
118.4767897217
 11
235.19497903
 21
119.6825610876
  0
LINE
  5
4B2
100
AcDbEntity
  8
RUNDUNGEN
100
AcDbLine
 62
7
  6
CONTINUOUS
 10
243.09497903
 20
124.3657624674
 11
238.59497903
 21
125.5715338333
  0
SPLINE
  5
4B3
100
AcDbEntity
  8
RUNDUNGEN
100
AcDbSpline
 62
7
  6
CONTINUOUS
 70
0
 71
3
 72
10
 73
6
 74
0
 42
0.0000001
 43
0.0000001
 44
0.0000000001
 40
0.0
 40
0.0
 40
0.0
 40
0.0
 40
0.62119975
 40
0.8379889831
 40
1.0
 40
1.0
 40
1.0
 40
1.0
 10
243.0030937188
 20
141.3456749885
 30
0.0
 10
242.8614756825
 20
141.4293373187
 30
0.0
 10
242.6635974889
 20
141.5349536175
 30
0.0
 10
242.4084837565
 20
141.6080394189
 30
0.0
 10
242.3061038755
 20
141.6130350554
 30
0.0
 10
242.2639351808
 20
141.605158302
 30
0.0
  0
SPLINE
  5
4B4
100
AcDbEntity
  8
RUNDUNGEN
100
AcDbSpline
 62
7
  6
CONTINUOUS
 70
0
 71
3
 72
20
 73
16
 74
0
 42
0.0000001
 43
0.0000001
 44
0.0000000001
 40
0.0
 40
0.0
 40
0.0
 40
0.0
 40
0.0667628012
 40
0.1315386043
 40
0.1625736967
 40
0.1925172092
 40
0.2500616327
 40
0.307117001
 40
0.3649623926
 40
0.4240220687
 40
0.4843638829
 40
0.6083982105
 40
0.7363872629
 40
0.8672441355
 40
1.0
 40
1.0
 40
1.0
 40
1.0
 10
242.2688874238
 20
102.1803110876
 30
0.0
 10
241.9817115632
 20
102.1803110876
 30
0.0
 10
241.4133692812
 20
102.1361873333
 30
0.0
 10
240.7452642511
 20
101.8709102366
 30
0.0
 10
240.3358206476
 20
101.5096483272
 30
0.0
 10
240.0410894824
 20
101.0881317582
 30
0.0
 10
239.8709207365
 20
100.4704296271
 30
0.0
 10
239.9316198839
 20
99.7211797406
 30
0.0
 10
240.1750322767
 20
99.0075498825
 30
0.0
 10
240.5550146048
 20
98.3423905659
 30
0.0
 10
241.2080694063
 20
97.519915575
 30
0.0
 10
242.2366032346
 20
96.6365197403
 30
0.0
 10
243.6724705935
 20
95.8150130243
 30
0.0
 10
245.2527017169
 20
95.2148822024
 30
0.0
 10
246.3615423011
 20
94.9603993106
 30
0.0
 10
246.9250269518
 20
94.8678110876
 30
0.0
  0
SPLINE
  5
4B5
100
AcDbEntity
  8
0
100
AcDbSpline
 62
7
  6
CONTINUOUS
 70
0
 71
3
 72
20
 73
16
 74
0
 42
0.0000001
 43
0.0000001
 44
0.0000000001
 40
0.0
 40
0.0
 40
0.0
 40
0.0
 40
0.0667628012
 40
0.1315386043
 40
0.1625736967
 40
0.1925172092
 40
0.2500616327
 40
0.307117001
 40
0.3649623926
 40
0.4240220687
 40
0.4843638829
 40
0.6083982105
 40
0.7363872629
 40
0.8672441355
 40
1.0
 40
1.0
 40
1.0
 40
1.0
 10
257.9210706362
 20
102.1803110876
 30
0.0
 10
258.2082464968
 20
102.1803110876
 30
0.0
 10
258.7765887789
 20
102.1361873333
 30
0.0
 10
259.4446938089
 20
101.8709102366
 30
0.0
 10
259.8541374124
 20
101.5096483272
 30
0.0
 10
260.1488685776
 20
101.0881317582
 30
0.0
 10
260.3190373236
 20
100.4704296271
 30
0.0
 10
260.2583381762
 20
99.7211797406
 30
0.0
 10
260.0149257833
 20
99.0075498825
 30
0.0
 10
259.6349434552
 20
98.3423905659
 30
0.0
 10
258.9818886537
 20
97.519915575
 30
0.0
 10
257.9533548254
 20
96.6365197403
 30
0.0
 10
256.5174874665
 20
95.8150130243
 30
0.0
 10
254.9372563431
 20
95.2148822024
 30
0.0
 10
253.8284157589
 20
94.9603993106
 30
0.0
 10
253.2649311083
 20
94.8678110876
 30
0.0
  0
ELLIPSE
  5
4B6
100
AcDbEntity
  8
0
100
AcDbEllipse
 62
7
  6
CONTINUOUS
 10
257.5121934228
 20
135.1825610876
 30
0.0
 11
1.020028169
 21
6.4800083213
 31
0.0
 40
0.4994016261
 41
0.4286154991
 42
1.6492465757
  0
ELLIPSE
  5
4B7
100
AcDbEntity
  8
RUNDUNGEN
100
AcDbEllipse
 62
7
  6
CONTINUOUS
 10
242.6777646372
 20
135.1825610876
 30
0.0
 11
-1.020028169
 21
6.4800083213
 31
0.0
 40
0.4994016261
 41
-1.6492465757
 42
-0.4286154991
  0
ENDSEC
  0
SECTION
  2
OBJECTS
  0
DICTIONARY
  5
C
100
AcDbDictionary
280
0
281
1
  3
ACAD_GROUP
350
D
  3
ACAD_MLINESTYLE
350
17
  3
ACAD_LAYOUT
350
1A
  3
ACAD_PLOTSETTINGS
350
19
  3
ACAD_PLOTSTYLENAME
350
E
  0
DICTIONARY
  5
D
102
{ACAD_REACTORS
330
C
102
}
100
AcDbDictionary
280
0
281
1
  0
ACDBDICTIONARYWDFLT
  5
E
102
{ACAD_REACTORS
330
C
102
}
100
AcDbDictionary
281
1
  3
Normal
350
F
100
AcDbDictionaryWithDefault
340
F
  0
DICTIONARY
  5
17
102
{ACAD_REACTORS
330
C
102
}
100
AcDbDictionary
280
0
281
1
  3
Standard
350
18
  0
DICTIONARY
  5
19
102
{ACAD_REACTORS
330
C
102
}
100
AcDbDictionary
281
1
  0
DICTIONARY
  5
1A
102
{ACAD_REACTORS
330
C
102
}
100
AcDbDictionary
281
1
  3
Model
350
4B8
  3
Layout1
350
4B9
  0
ACDBPLACEHOLDER
  5
F
102
{ACAD_REACTORS
330
E
102
}
  0
MLINESTYLE
  5
18
102
{ACAD_REACTORS
330
17
102
}
100
AcDbMlineStyle
  2
STANDARD
 70
0
  3

 62
256
 51
90.0
 52
90.0
 71
2
 49
0.5
 62
256
  6
BYLAYER
 49
-0.5
 62
256
  6
BYLAYER
  0
LAYOUT
  5
4B8
102
{ACAD_REACTORS
330
1A
102
}
100
AcDbPlotSettings
  1

  2
none_device
  4
ISO_A1_(594.00_x_841.00_MM)
  6

 40
0.0
 41
0.0
 42
0.0
 43
0.0
 44
841.0
 45
594.0
 46
0.0
 47
0.0
 48
0.0
 49
0.0
140
0.0
141
0.0
142
1.0
143
1.0
 70
1024
 72
1
 73
0
 74
0
  7

 75
0
147
1.0
148
0.0
149
0.0
100
AcDbLayout
  1
Model
 70
0
 71
0
 10
0.0
 20
0.0
 11
841.0
 21
594.0
 12
0.0
 22
0.0
 32
0.0
 14
0.0
 24
0.0
 34
0.0
 15
0.0
 25
0.0
 35
0.0
146
0.0
 13
0.0
 23
0.0
 33
0.0
 16
1.0
 26
0.0
 36
0.0
 17
0.0
 27
1.0
 37
0.0
 76
0
330
20A
345
0
346
0
  0
LAYOUT
  5
4B9
102
{ACAD_REACTORS
330
1A
102
}
100
AcDbPlotSettings
  1

  2
none_device
  4
ISO_A1_(594.00_x_841.00_MM)
  6

 40
0.0
 41
0.0
 42
0.0
 43
0.0
 44
841.0
 45
594.0
 46
0.0
 47
0.0
 48
0.0
 49
0.0
140
0.0
141
0.0
142
1.0
143
1.0
 70
0
 72
1
 73
0
 74
0
  7

 75
0
147
1.0
148
0.0
149
0.0
100
AcDbLayout
  1
Layout1
 70
0
 71
1
 10
0.0
 20
0.0
 11
841.0
 21
594.0
 12
0.0
 22
0.0
 32
0.0
 14
0.0
 24
0.0
 34
0.0
 15
0.0
 25
0.0
 35
0.0
146
0.0
 13
0.0
 23
0.0
 33
0.0
 16
1.0
 26
0.0
 36
0.0
 17
0.0
 27
1.0
 37
0.0
 76
0
330
20B
345
0
346
0
  0
ENDSEC
  0
EOF
