999
DXF file: IBK-RG-1-8_7903042_M34546-P-2.dxf
999
Pro/ENGINEER 2010140 by Parametric Technology Corporation
  0
SECTION
  2
HEADER
  9
$ACADVER
  1
AC1015
  9
$DWGCODEPAGE
  3
ANSI_1252
  9
$EXTMAX
 10
420.0
 20
297.0
 30
0.0
  9
$EXTMIN
 10
0.0
 20
0.0
 30
0.0
  9
$LIMMIN
 10
0.0
 20
0.0
  9
$LIMMAX
 10
420.0
 20
297.0
  9
$VIEWCTR
 10
210.0
 20
148.5
  9
$VIEWSIZE
 40
297.0
  9
$CLAYER
  8
0
  9
$LTSCALE
 40
23.1
  9
$CELTYPE
  6
BYLAYER
  9
$DIMSCALE
 40
1.0
  9
$DIMASZ
 40
3.5
  9
$DIMEXO
 40
2.625
  9
$DIMDLI
 40
15.96
  9
$DIMEXE
 40
7.56
  9
$DIMCEN
 40
3.78
  9
$DIMLFAC
 40
1.0
  9
$DIMBLK
  1
_FILLED
  9
$DIMTXT
 40
3.5
  9
$DIMTOL
 70
1
  9
$DIMLIM
 70
0
  9
$DIMTFAC
 40
1.0
  9
$DIMTP
 40
0.005
  9
$DIMTM
 40
0.005
  9
$PDMODE
 70
3
  9
$PDSIZE
 40
0.3125
  9
$HANDSEED
  5
4BF
  9
$TILEMODE
 70
1
  9
$MEASUREMENT
 70
1
  9
$INSUNITS
 70
4
  0
ENDSEC
  0
SECTION
  2
CLASSES
  0
CLASS
  1
ACDBDICTIONARYWDFLT
  2
AcDbDictionaryWithDefault
  3
AutoCAD 2000
 90
0
280
0
281
0
  0
CLASS
  1
ACDBPLACEHOLDER
  2
AcDbPlaceHolder
  3
AutoCAD 2000
 90
0
280
0
281
0
  0
CLASS
  1
LAYOUT
  2
AcDbLayout
  3
AutoCAD 2000
 90
0
280
0
281
0
  0
ENDSEC
  0
SECTION
  2
TABLES
  0
TABLE
  2
VPORT
  5
8
100
AcDbSymbolTable
 70
2
  0
VPORT
  5
1F4
100
AcDbSymbolTableRecord
100
AcDbViewportTableRecord
  2
*ACTIVE
 70
0
 10
0.0
 20
0.0
 11
1.0
 21
1.0
 12
210.0
 22
148.5
 13
0.0
 23
0.0
 14
1.0
 24
1.0
 15
0.0
 25
0.0
 16
0.0
 26
0.0
 36
1.0
 17
0.0
 27
0.0
 37
0.0
 40
297.0
 41
1.4141414141
 42
50.0
 43
0.0
 44
0.0
 50
0.0
 51
0.0
 71
0
 72
100
 73
1
 74
1
 75
0
 76
0
 77
0
 78
0
  0
ENDTAB
  0
TABLE
  2
LTYPE
  5
5
100
AcDbSymbolTable
 70
6
  0
LTYPE
  5
14
100
AcDbSymbolTableRecord
100
AcDbLinetypeTableRecord
  2
BYBLOCK
 70
0
  3

 72
65
 73
0
 40
0.0
  0
LTYPE
  5
15
100
AcDbSymbolTableRecord
100
AcDbLinetypeTableRecord
  2
BYLAYER
 70
0
  3

 72
65
 73
0
 40
0.0
  0
LTYPE
  5
16
100
AcDbSymbolTableRecord
100
AcDbLinetypeTableRecord
  2
CONTINUOUS
 70
64
  3
Solid line
 72
65
 73
0
 40
0.0
  0
LTYPE
  5
1F5
100
AcDbSymbolTableRecord
100
AcDbLinetypeTableRecord
  2
CENTER
 70
64
  3
____ _ ____ _ ____ _ ____ _ ____ _ ____ _ ____
 72
65
 73
4
 40
0.6
 49
0.375
 74
0
 49
-0.075
 74
0
 49
0.075
 74
0
 49
-0.075
 74
0
  0
LTYPE
  5
1F6
100
AcDbSymbolTableRecord
100
AcDbLinetypeTableRecord
  2
HIDDEN
 70
64
  3
- - - - - - - - - - - - - - - - - - - -
 72
65
 73
2
 40
0.2
 49
0.1
 74
0
 49
-0.1
 74
0
  0
LTYPE
  5
1F7
100
AcDbSymbolTableRecord
100
AcDbLinetypeTableRecord
  2
PHANTOM
 70
64
  3
_____ _ _ _____ _ _ _____ _ _ _____
 72
65
 73
6
 40
0.8
 49
0.45
 74
0
 49
-0.05
 74
0
 49
0.1
 74
0
 49
-0.05
 74
0
 49
0.1
 74
0
 49
-0.05
 74
0
  0
LTYPE
  5
1F8
100
AcDbSymbolTableRecord
100
AcDbLinetypeTableRecord
  2
DOT
 70
64
  3
. . . . . . . . . . . . . . . . . . . .
 72
65
 73
2
 40
0.2
 49
0.1
 74
0
 49
-0.1
 74
0
  0
LTYPE
  5
1F9
100
AcDbSymbolTableRecord
100
AcDbLinetypeTableRecord
  2
DASHED
 70
64
  3
- - - - - - - - - - - - - - - - - - - -
 72
65
 73
2
 40
0.2
 49
0.1
 74
0
 49
-0.1
 74
0
  0
ENDTAB
  0
TABLE
  2
LAYER
  5
2
100
AcDbSymbolTable
 70
36
  0
LAYER
  5
10
100
AcDbSymbolTableRecord
100
AcDbLayerTableRecord
  2
0
 70
0
 62
7
  6
CONTINUOUS
370
-3
390
F
  0
LAYER
  5
1FA
100
AcDbSymbolTableRecord
100
AcDbLayerTableRecord
  2
DEFAULT_1
 70
0
 62
7
  6
CENTER
370
-3
390
F
  0
LAYER
  5
1FB
100
AcDbSymbolTableRecord
100
AcDbLayerTableRecord
  2
DEFAULT_2
 70
0
 62
8
  6
HIDDEN
370
-3
390
F
  0
LAYER
  5
1FC
100
AcDbSymbolTableRecord
100
AcDbLayerTableRecord
  2
DEFAULT_3
 70
0
 62
7
  6
PHANTOM
370
-3
390
F
  0
LAYER
  5
1FD
100
AcDbSymbolTableRecord
100
AcDbLayerTableRecord
  2
BEZUGSACHSEN
 70
0
 62
7
  6
CONTINUOUS
370
-3
390
F
  0
LAYER
  5
1FE
100
AcDbSymbolTableRecord
100
AcDbLayerTableRecord
  2
BEZUGSEBENEN
 70
0
 62
7
  6
CONTINUOUS
370
-3
390
F
  0
LAYER
  5
1FF
100
AcDbSymbolTableRecord
100
AcDbLayerTableRecord
  2
BG_STARTBEZUEGE
 70
0
 62
7
  6
CONTINUOUS
370
-3
390
F
  0
LAYER
  5
200
100
AcDbSymbolTableRecord
100
AcDbLayerTableRecord
  2
FASEN
 70
0
 62
7
  6
CONTINUOUS
370
-3
390
F
  0
LAYER
  5
201
100
AcDbSymbolTableRecord
100
AcDbLayerTableRecord
  2
HILFEN
 70
0
 62
7
  6
CONTINUOUS
370
-3
390
F
  0
LAYER
  5
202
100
AcDbSymbolTableRecord
100
AcDbLayerTableRecord
  2
KONSTRUKTIONSELEMENTE
 70
0
 62
7
  6
CONTINUOUS
370
-3
390
F
  0
LAYER
  5
203
100
AcDbSymbolTableRecord
100
AcDbLayerTableRecord
  2
NORM
 70
0
 62
7
  6
CONTINUOUS
370
-3
390
F
  0
LAYER
  5
204
100
AcDbSymbolTableRecord
100
AcDbLayerTableRecord
  2
PLATZIERUNG
 70
0
 62
7
  6
CONTINUOUS
370
-3
390
F
  0
LAYER
  5
205
100
AcDbSymbolTableRecord
100
AcDbLayerTableRecord
  2
RUNDUNGEN
 70
0
 62
7
  6
CONTINUOUS
370
-3
390
F
  0
LAYER
  5
206
100
AcDbSymbolTableRecord
100
AcDbLayerTableRecord
  2
TEIL_STARTBEZUEGE
 70
0
 62
7
  6
CONTINUOUS
370
-3
390
F
  0
LAYER
  5
207
100
AcDbSymbolTableRecord
100
AcDbLayerTableRecord
  2
T_STARTBEZUEGE
 70
0
 62
7
  6
CONTINUOUS
370
-3
390
F
  0
ENDTAB
  0
TABLE
  2
STYLE
  5
3
100
AcDbSymbolTable
 70
1
  0
STYLE
  5
11
100
AcDbSymbolTableRecord
100
AcDbTextStyleTableRecord
  2
STANDARD
 70
0
 40
0.0
 41
0.7
 50
0.0
 71
0
 42
0.2
  3
txt
  4

  0
STYLE
  5
208
100
AcDbSymbolTableRecord
100
AcDbTextStyleTableRecord
  2
TEXTSTYLE_1
 70
0
 40
0.0
 41
0.8
 50
0.0
 71
0
 42
0.2
  3
gdt
  4

  0
ENDTAB
  0
TABLE
  2
VIEW
  5
6
100
AcDbSymbolTable
 70
0
  0
ENDTAB
  0
TABLE
  2
UCS
  5
7
100
AcDbSymbolTable
 70
0
  0
ENDTAB
  0
TABLE
  2
APPID
  5
9
100
AcDbSymbolTable
 70
1
  0
APPID
  5
209
100
AcDbSymbolTableRecord
100
AcDbRegAppTableRecord
  2
ACAD
 70
0
  0
ENDTAB
  0
TABLE
  2
BLOCK_RECORD
  5
1
100
AcDbSymbolTable
 70
0
  0
BLOCK_RECORD
  5
20A
100
AcDbSymbolTableRecord
100
AcDbBlockTableRecord
  2
*Model_Space
  0
BLOCK_RECORD
  5
20B
100
AcDbSymbolTableRecord
100
AcDbBlockTableRecord
  2
*Paper_Space
  0
ENDTAB
  0
TABLE
  2
DIMSTYLE
  5
A
100
AcDbSymbolTable
 70
1
100
AcDbDimStyleTable
 71
0
  0
DIMSTYLE
105
20C
100
AcDbSymbolTableRecord
100
AcDbDimStyleTableRecord
  2
STANDARD
 70
0
  3

  4

 40
1.0
 41
3.5
 42
0.0625
 43
0.38
 44
0.18
 45
0.0
 46
0.0
 47
0.005
 48
0.005
140
3.5
141
0.09
142
0.0
143
25.4
144
1.0
145
0.0
146
1.0
147
0.09
 71
1.0
 72
0.0
 73
0
 74
0
 75
0
 76
0
 77
1
 78
8
170
0
171
2
172
0
173
0
174
0
175
0
176
0
177
0
178
5
270
2
271
3
272
3
273
2
274
2
275
0
280
0
281
0
282
0
283
1
284
8
285
0
286
0
287
3
288
0
340
11
  0
ENDTAB
  0
ENDSEC
  0
SECTION
  2
BLOCKS
  0
BLOCK
  5
20
100
AcDbEntity
  8
0
100
AcDbBlockBegin
  2
*Model_Space
 70
0
 10
0.0
 20
0.0
 30
0.0
  3
*Model_Space
  1

  0
ENDBLK
  5
21
100
AcDbEntity
  8
0
100
AcDbBlockEnd
  0
BLOCK
  5
1C
100
AcDbEntity
  8
0
100
AcDbBlockBegin
  2
*Paper_Space
 70
0
 10
0.0
 20
0.0
 30
0.0
  3
*Paper_Space
  1

  0
ENDBLK
  5
1D
100
AcDbEntity
  8
0
100
AcDbBlockEnd
  0
ENDSEC
  0
SECTION
  2
ENTITIES
  0
MTEXT
  5
20D
100
AcDbEntity
  8
0
100
AcDbMText
 62
5
  6
CONTINUOUS
  7
STANDARD
 71
1
 72
1
 10
311.5789473684
 20
199.4797932331
 30
0.0
 11
0.0
 21
1.0
 31
0.0
 44
0.9
  1
RUD
 40
5.0
 41
13.3333333333
  0
MTEXT
  5
20E
100
AcDbEntity
  8
0
100
AcDbMText
 62
5
  6
CONTINUOUS
  7
STANDARD
 71
1
 72
1
 10
370.8520676692
 20
186.9187030075
 30
0.0
 11
0.0
 21
1.0
 31
0.0
 44
0.9
  1
IBK-RG 1-8
 40
5.0
 41
37.7380952381
  0
MTEXT
  5
20F
100
AcDbEntity
  8
0
100
AcDbMText
 62
5
  6
CONTINUOUS
  7
STANDARD
 71
1
 72
1
 10
100.3242481203
 20
180.600093985
 30
0.0
 11
0.0
 21
1.0
 31
0.0
 44
0.9
  1
RUD IBK-RG 1-8
 40
5.0
 41
54.0476190476
  0
LINE
  5
210
100
AcDbEntity
  8
0
100
AcDbLine
 62
7
  6
CONTINUOUS
 10
0.0
 20
0.0
 11
0.0
 21
297.0
  0
LINE
  5
211
100
AcDbEntity
  8
0
100
AcDbLine
 62
7
  6
CONTINUOUS
 10
0.0
 20
0.0
 11
420.0
 21
0.0
  0
LINE
  5
212
100
AcDbEntity
  8
0
100
AcDbLine
 62
7
  6
CONTINUOUS
 10
0.0
 20
297.0
 11
420.0
 21
297.0
  0
LINE
  5
213
100
AcDbEntity
  8
0
100
AcDbLine
 62
7
  6
CONTINUOUS
 10
420.0
 20
0.0
 11
420.0
 21
297.0
  0
LINE
  5
214
100
AcDbEntity
  8
RUNDUNGEN
100
AcDbLine
 62
7
  6
CONTINUOUS
 10
181.4880811015
 20
17.6344080978
 11
177.9525471955
 21
21.1699420037
  0
LINE
  5
215
100
AcDbEntity
  8
RUNDUNGEN
100
AcDbLine
 62
7
  6
CONTINUOUS
 10
226.8608655732
 20
70.0782603814
 11
230.3963994791
 21
66.5427264755
  0
LINE
  5
216
100
AcDbEntity
  8
RUNDUNGEN
100
AcDbLine
 62
7
  6
CONTINUOUS
 10
238.6988629028
 20
74.8451898992
 11
235.1633289969
 21
78.3807238051
  0
LINE
  5
217
100
AcDbEntity
  8
KONSTRUKTIONSELEMENTE
100
AcDbLine
 62
7
  6
CONTINUOUS
 10
233.9554042655
 20
80.0719368766
 11
230.4198703596
 21
83.6074707825
  0
LINE
  5
218
100
AcDbEntity
  8
KONSTRUKTIONSELEMENTE
100
AcDbLine
 62
7
  6
CONTINUOUS
 10
234.3089576561
 20
80.4254902672
 11
230.7734237502
 21
83.9610241731
  0
LINE
  5
219
100
AcDbEntity
  8
0
100
AcDbLine
 62
7
  6
CONTINUOUS
 10
343.3226407744
 20
101.0545016766
 11
344.9226407744
 21
101.0545016766
  0
LINE
  5
21A
100
AcDbEntity
  8
0
100
AcDbLine
 62
7
  6
CONTINUOUS
 10
337.7817674894
 20
107.0527016766
 11
350.4635140593
 21
107.0527016766
  0
LINE
  5
21B
100
AcDbEntity
  8
0
100
AcDbLine
 62
7
  6
CONTINUOUS
 10
342.3726407744
 20
121.7615137902
 11
345.8726407744
 21
121.7615137902
  0
LINE
  5
21C
100
AcDbEntity
  8
0
100
AcDbLine
 62
7
  6
CONTINUOUS
 10
345.8726407744
 20
129.1278566802
 11
342.3726407744
 21
129.1278566802
  0
LINE
  5
21D
100
AcDbEntity
  8
0
100
AcDbLine
 62
7
  6
CONTINUOUS
 10
341.4529550096
 20
136.7935722915
 11
346.7923265392
 21
136.7935722915
  0
LINE
  5
21E
100
AcDbEntity
  8
KONSTRUKTIONSELEMENTE
100
AcDbLine
 62
7
  6
CONTINUOUS
 10
295.9686689756
 20
149.1562693985
 11
291.9381603228
 21
145.1257607457
  0
LINE
  5
21F
100
AcDbEntity
  8
KONSTRUKTIONSELEMENTE
100
AcDbLine
 62
7
  6
CONTINUOUS
 10
291.5846069322
 20
144.7722073551
 11
287.5540982795
 21
140.7416987024
  0
LINE
  5
220
100
AcDbEntity
  8
KONSTRUKTIONSELEMENTE
100
AcDbLine
 62
7
  6
CONTINUOUS
 10
234.8039324029
 20
87.9915328259
 11
230.7734237502
 21
83.9610241731
  0
LINE
  5
221
100
AcDbEntity
  8
KONSTRUKTIONSELEMENTE
100
AcDbLine
 62
7
  6
CONTINUOUS
 10
230.4198703596
 20
83.6074707825
 11
226.3893617068
 21
79.5769621297
  0
LINE
  5
222
100
AcDbEntity
  8
KONSTRUKTIONSELEMENTE
100
AcDbLine
 62
7
  6
CONTINUOUS
 10
267.4015550156
 20
118.3971244169
 11
256.7949532978
 21
107.7905226991
  0
LINE
  5
223
100
AcDbEntity
  8
KONSTRUKTIONSELEMENTE
100
AcDbLine
 62
7
  6
CONTINUOUS
 10
299.5042028815
 20
145.6207354926
 11
295.4736942287
 21
141.5902268398
  0
LINE
  5
224
100
AcDbEntity
  8
KONSTRUKTIONSELEMENTE
100
AcDbLine
 62
7
  6
CONTINUOUS
 10
295.1201408382
 20
141.2366734492
 11
291.0896321854
 21
137.2061647964
  0
LINE
  5
225
100
AcDbEntity
  8
KONSTRUKTIONSELEMENTE
100
AcDbLine
 62
7
  6
CONTINUOUS
 10
238.3394663089
 20
84.4559989199
 11
234.3089576561
 21
80.4254902672
  0
LINE
  5
226
100
AcDbEntity
  8
KONSTRUKTIONSELEMENTE
100
AcDbLine
 62
7
  6
CONTINUOUS
 10
233.9554042655
 20
80.0719368766
 11
229.9248956128
 21
76.0414282238
  0
LINE
  5
227
100
AcDbEntity
  8
0
100
AcDbLine
 62
7
  6
CONTINUOUS
 10
342.1176321185
 20
151.0545016766
 11
346.1276494302
 21
151.0545016766
  0
LINE
  5
228
100
AcDbEntity
  8
KONSTRUKTIONSELEMENTE
100
AcDbLine
 62
7
  6
CONTINUOUS
 10
295.1201408382
 20
141.2366734492
 11
291.5846069322
 21
144.7722073551
  0
LINE
  5
229
100
AcDbEntity
  8
KONSTRUKTIONSELEMENTE
100
AcDbLine
 62
7
  6
CONTINUOUS
 10
295.4736942287
 20
141.5902268398
 11
291.9381603228
 21
145.1257607457
  0
LINE
  5
22A
100
AcDbEntity
  8
KONSTRUKTIONSELEMENTE
100
AcDbLine
 62
7
  6
CONTINUOUS
 10
270.583535531
 20
115.2151439015
 11
259.9769338132
 21
104.6085421837
  0
LINE
  5
22B
100
AcDbEntity
  8
KONSTRUKTIONSELEMENTE
100
AcDbLine
 62
7
  6
CONTINUOUS
 10
300.989127122
 20
144.9136287114
 11
329.9309950234
 21
173.8554966128
  0
LINE
  5
22C
100
AcDbEntity
  8
RUNDUNGEN
100
AcDbLine
 62
7
  6
CONTINUOUS
 10
177.9525471955
 20
21.1699420037
 11
235.1634201326
 21
78.3808149408
  0
LINE
  5
22D
100
AcDbEntity
  8
KONSTRUKTIONSELEMENTE
100
AcDbLine
 62
7
  6
CONTINUOUS
 10
241.2386041117
 20
84.1024455293
 11
259.9472890869
 21
102.8111305045
  0
LINE
  5
22E
100
AcDbEntity
  8
KONSTRUKTIONSELEMENTE
100
AcDbLine
 62
7
  6
CONTINUOUS
 10
272.3513024839
 20
115.2151439015
 11
291.0599874591
 21
133.9238288767
  0
LINE
  5
22F
100
AcDbEntity
  8
KONSTRUKTIONSELEMENTE
100
AcDbLine
 62
7
  6
CONTINUOUS
 10
244.4205846271
 20
80.920465014
 11
263.1292696023
 21
99.6291499892
  0
LINE
  5
230
100
AcDbEntity
  8
KONSTRUKTIONSELEMENTE
100
AcDbLine
 62
7
  6
CONTINUOUS
 10
275.5332829993
 20
112.0331633862
 11
294.2419679745
 21
130.7418483614
  0
LINE
  5
231
100
AcDbEntity
  8
RUNDUNGEN
100
AcDbLine
 62
7
  6
CONTINUOUS
 10
181.4880811015
 20
17.6344080978
 11
238.6989474963
 21
74.8452744926
  0
LINE
  5
232
100
AcDbEntity
  8
KONSTRUKTIONSELEMENTE
100
AcDbLine
 62
7
  6
CONTINUOUS
 10
305.2812779363
 20
140.7204981515
 11
334.1736357106
 21
169.6128559257
  0
LINE
  5
233
100
AcDbEntity
  8
KONSTRUKTIONSELEMENTE
100
AcDbLine
 62
7
  6
CONTINUOUS
 10
264.9266812815
 20
99.6587947154
 11
275.5332829993
 21
110.2653964332
  0
LINE
  5
234
100
AcDbEntity
  8
KONSTRUKTIONSELEMENTE
100
AcDbLine
 62
7
  6
CONTINUOUS
 10
236.3595673216
 20
69.606756515
 11
244.7741380177
 21
78.0213272111
  0
LINE
  5
235
100
AcDbEntity
  8
KONSTRUKTIONSELEMENTE
100
AcDbLine
 62
7
  6
CONTINUOUS
 10
297.5243038942
 20
130.7714930876
 11
305.9388745903
 21
139.1860637838
  0
LINE
  5
236
100
AcDbEntity
  8
0
100
AcDbLine
 62
7
  6
CONTINUOUS
 10
306.1226407744
 20
183.8045016766
 11
306.1226407744
 21
228.8045016766
  0
LINE
  5
237
100
AcDbEntity
  8
KONSTRUKTIONSELEMENTE
100
AcDbLine
 62
7
  6
CONTINUOUS
 10
268.1086617968
 20
96.4768142001
 11
278.7152635146
 21
107.0834159179
  0
LINE
  5
238
100
AcDbEntity
  8
KONSTRUKTIONSELEMENTE
100
AcDbLine
 62
7
  6
CONTINUOUS
 10
239.8951012275
 20
66.0712226091
 11
248.3096719236
 21
74.4857933052
  0
LINE
  5
239
100
AcDbEntity
  8
KONSTRUKTIONSELEMENTE
100
AcDbLine
 62
7
  6
CONTINUOUS
 10
301.0598378001
 20
127.2359591817
 11
309.4744084962
 21
135.6505298778
  0
LINE
  5
23A
100
AcDbEntity
  8
0
100
AcDbLine
 62
7
  6
CONTINUOUS
 10
342.1176321185
 20
165.3154310618
 11
346.1276494302
 21
165.3154310618
  0
LINE
  5
23B
100
AcDbEntity
  8
0
100
AcDbLine
 62
7
  6
CONTINUOUS
 10
342.1176321185
 20
175.7551559349
 11
346.1276494302
 21
175.7551559349
  0
LINE
  5
23C
100
AcDbEntity
  8
0
100
AcDbLine
 62
7
  6
CONTINUOUS
 10
324.1226407744
 20
183.8045016766
 11
324.1226407744
 21
228.8045016766
  0
LINE
  5
23D
100
AcDbEntity
  8
0
100
AcDbLine
 62
7
  6
CONTINUOUS
 10
338.607934892
 20
172.9956781472
 11
342.1176321185
 21
179.5763604469
  0
LINE
  5
23E
100
AcDbEntity
  8
0
100
AcDbLine
 62
7
  6
CONTINUOUS
 10
346.1276494302
 20
179.5763604469
 11
342.1176321185
 21
179.5763604469
  0
LINE
  5
23F
100
AcDbEntity
  8
0
100
AcDbLine
 62
7
  6
CONTINUOUS
 10
332.1226407744
 20
112.2545016766
 11
332.1226407744
 21
123.0545016766
  0
LINE
  5
240
100
AcDbEntity
  8
0
100
AcDbLine
 62
7
  6
CONTINUOUS
 10
335.1226407744
 20
134.7045016766
 11
335.1226407744
 21
128.2506540993
  0
LINE
  5
241
100
AcDbEntity
  8
0
100
AcDbLine
 62
7
  6
CONTINUOUS
 10
332.1226407744
 20
123.0545016766
 11
335.1226407744
 21
128.2506540993
  0
LINE
  5
242
100
AcDbEntity
  8
0
100
AcDbLine
 62
7
  6
CONTINUOUS
 10
337.8726407744
 20
146.7801416803
 11
337.8726407744
 21
138.2027155066
  0
LINE
  5
243
100
AcDbEntity
  8
BEZUGSACHSEN
100
AcDbLine
 62
7
  6
CONTINUOUS
 10
337.8726407744
 20
146.7804316441
 11
337.8726407744
 21
170.0545016766
  0
LINE
  5
244
100
AcDbEntity
  8
0
100
AcDbLine
 62
7
  6
CONTINUOUS
 10
342.3726407744
 20
129.1278566802
 11
342.3726407744
 21
121.7615137902
  0
LINE
  5
245
100
AcDbEntity
  8
0
100
AcDbLine
 62
7
  6
CONTINUOUS
 10
345.8726407744
 20
129.1278566802
 11
345.8726407744
 21
121.7615137902
  0
LINE
  5
246
100
AcDbEntity
  8
0
100
AcDbLine
 62
7
  6
CONTINUOUS
 10
341.6082636786
 20
144.8533225387
 11
341.4529550096
 21
136.7935722915
  0
LINE
  5
247
100
AcDbEntity
  8
RUNDUNGEN
100
AcDbLine
 62
7
  6
CONTINUOUS
 10
356.1226407744
 20
123.0545016766
 11
353.1226407744
 21
128.2506540993
  0
LINE
  5
248
100
AcDbEntity
  8
0
100
AcDbLine
 62
7
  6
CONTINUOUS
 10
342.3726407744
 20
121.7615137902
 11
341.1077574459
 21
132.3045016766
  0
LINE
  5
249
100
AcDbEntity
  8
0
100
AcDbLine
 62
7
  6
CONTINUOUS
 10
342.3726407744
 20
129.1278566802
 11
341.4529550096
 21
136.7935722915
  0
LINE
  5
24A
100
AcDbEntity
  8
0
100
AcDbLine
 62
7
  6
CONTINUOUS
 10
346.6370178702
 20
144.8533225387
 11
346.7923265392
 21
136.7935722915
  0
LINE
  5
24B
100
AcDbEntity
  8
RUNDUNGEN
100
AcDbLine
 62
7
  6
CONTINUOUS
 10
350.3726407744
 20
146.7801416803
 11
350.3726407744
 21
138.2027155066
  0
LINE
  5
24C
100
AcDbEntity
  8
BEZUGSACHSEN
100
AcDbLine
 62
7
  6
CONTINUOUS
 10
350.3726407744
 20
146.7804316441
 11
350.3726407744
 21
170.0545016766
  0
LINE
  5
24D
100
AcDbEntity
  8
RUNDUNGEN
100
AcDbLine
 62
7
  6
CONTINUOUS
 10
353.1226407744
 20
134.7045016766
 11
353.1226407744
 21
128.2506540993
  0
LINE
  5
24E
100
AcDbEntity
  8
RUNDUNGEN
100
AcDbLine
 62
7
  6
CONTINUOUS
 10
356.1226407744
 20
112.2545016766
 11
356.1226407744
 21
123.0545016766
  0
LINE
  5
24F
100
AcDbEntity
  8
0
100
AcDbLine
 62
7
  6
CONTINUOUS
 10
345.8726407744
 20
129.1278566802
 11
346.7923265392
 21
136.7935722915
  0
LINE
  5
250
100
AcDbEntity
  8
RUNDUNGEN
100
AcDbLine
 62
7
  6
CONTINUOUS
 10
345.8726407744
 20
121.7615137902
 11
347.1375241029
 21
132.3045016766
  0
LINE
  5
251
100
AcDbEntity
  8
KONSTRUKTIONSELEMENTE
100
AcDbLine
 62
7
  6
CONTINUOUS
 10
346.1276494302
 20
179.5763604469
 11
349.6373466567
 21
172.9956781472
  0
LINE
  5
252
100
AcDbEntity
  8
0
100
AcDbLine
 62
7
  6
CONTINUOUS
 10
364.1226407744
 20
228.8045016766
 11
364.1226407744
 21
183.8045016766
  0
LINE
  5
253
100
AcDbEntity
  8
0
100
AcDbLine
 62
7
  6
CONTINUOUS
 10
382.1226407744
 20
228.8045016766
 11
382.1226407744
 21
183.8045016766
  0
LINE
  5
254
100
AcDbEntity
  8
RUNDUNGEN
100
AcDbLine
 62
7
  6
CONTINUOUS
 10
79.7525874231
 20
17.6344080978
 11
82.3525874231
 21
17.6344080978
  0
LINE
  5
255
100
AcDbEntity
  8
RUNDUNGEN
100
AcDbLine
 62
7
  6
CONTINUOUS
 10
124.1525874231
 20
17.6344080978
 11
126.7525874231
 21
17.6344080978
  0
LINE
  5
256
100
AcDbEntity
  8
RUNDUNGEN
100
AcDbLine
 62
7
  6
CONTINUOUS
 10
86.3525874231
 20
24.7054759097
 11
91.8022975647
 21
24.7054759097
  0
LINE
  5
257
100
AcDbEntity
  8
RUNDUNGEN
100
AcDbLine
 62
7
  6
CONTINUOUS
 10
114.7028772816
 20
24.7054759097
 11
120.1525874231
 21
24.7054759097
  0
LINE
  5
258
100
AcDbEntity
  8
0
100
AcDbLine
 62
7
  6
CONTINUOUS
 10
92.0627732349
 20
57.5152305567
 11
95.9027732349
 21
57.5152305567
  0
LINE
  5
259
100
AcDbEntity
  8
0
100
AcDbLine
 62
7
  6
CONTINUOUS
 10
97.9394142761
 20
57.5152305567
 11
98.7074142761
 21
57.5152305567
  0
LINE
  5
25A
100
AcDbEntity
  8
0
100
AcDbLine
 62
7
  6
CONTINUOUS
 10
102.3657774097
 20
57.5152305567
 11
103.2525874231
 21
57.5152305567
  0
LINE
  5
25B
100
AcDbEntity
  8
0
100
AcDbLine
 62
7
  6
CONTINUOUS
 10
109.9347225646
 20
57.5152305567
 11
112.7170962187
 21
57.5152305567
  0
LINE
  5
25C
100
AcDbEntity
  8
0
100
AcDbLine
 62
7
  6
CONTINUOUS
 10
92.0627732349
 20
57.7980732692
 11
95.9027732349
 21
57.7980732692
  0
LINE
  5
25D
100
AcDbEntity
  8
0
100
AcDbLine
 62
7
  6
CONTINUOUS
 10
97.9394142761
 20
57.7980732692
 11
98.7074142761
 21
57.7980732692
  0
LINE
  5
25E
100
AcDbEntity
  8
0
100
AcDbLine
 62
7
  6
CONTINUOUS
 10
102.3657774097
 20
57.7980732692
 11
103.0216473155
 21
57.7980732692
  0
LINE
  5
25F
100
AcDbEntity
  8
0
100
AcDbLine
 62
7
  6
CONTINUOUS
 10
109.9347225646
 20
57.7980732692
 11
112.7170962187
 21
57.7980732692
  0
LINE
  5
260
100
AcDbEntity
  8
0
100
AcDbLine
 62
7
  6
CONTINUOUS
 10
112.733925401
 20
58.0809159817
 11
110.7027225646
 21
58.0809159817
  0
LINE
  5
261
100
AcDbEntity
  8
0
100
AcDbLine
 62
7
  6
CONTINUOUS
 10
94.5827732349
 20
58.1940530667
 11
93.3827732349
 21
58.1940530667
  0
LINE
  5
262
100
AcDbEntity
  8
0
100
AcDbLine
 62
7
  6
CONTINUOUS
 10
93.5987732349
 20
58.4486115079
 11
94.3667732349
 21
58.4486115079
  0
LINE
  5
263
100
AcDbEntity
  8
0
100
AcDbLine
 62
7
  6
CONTINUOUS
 10
93.5987732349
 20
58.7314542204
 11
94.3667732349
 21
58.7314542204
  0
LINE
  5
264
100
AcDbEntity
  8
0
100
AcDbLine
 62
7
  6
CONTINUOUS
 10
94.0667732349
 20
59.1274340178
 11
93.8987732349
 21
59.1274340178
  0
LINE
  5
265
100
AcDbEntity
  8
0
100
AcDbLine
 62
7
  6
CONTINUOUS
 10
94.3667732349
 20
59.2971396453
 11
94.1627732349
 21
59.2971396453
  0
LINE
  5
266
100
AcDbEntity
  8
0
100
AcDbLine
 62
7
  6
CONTINUOUS
 10
93.8027732349
 20
59.2971396453
 11
93.5987732349
 21
59.2971396453
  0
LINE
  5
267
100
AcDbEntity
  8
0
100
AcDbLine
 62
7
  6
CONTINUOUS
 10
93.3827732349
 20
59.5516980865
 11
93.8027732349
 21
59.5516980865
  0
LINE
  5
268
100
AcDbEntity
  8
0
100
AcDbLine
 62
7
  6
CONTINUOUS
 10
94.1627732349
 20
59.5516980865
 11
94.5827732349
 21
59.5516980865
  0
LINE
  5
269
100
AcDbEntity
  8
0
100
AcDbLine
 62
7
  6
CONTINUOUS
 10
98.7074142761
 20
59.6442818891
 11
100.6274142761
 21
59.6442818891
  0
LINE
  5
26A
100
AcDbEntity
  8
0
100
AcDbLine
 62
7
  6
CONTINUOUS
 10
93.3827732349
 20
59.834540799
 11
93.8027732349
 21
59.834540799
  0
LINE
  5
26B
100
AcDbEntity
  8
0
100
AcDbLine
 62
7
  6
CONTINUOUS
 10
94.1627732349
 20
59.834540799
 11
94.5827732349
 21
59.834540799
  0
LINE
  5
26C
100
AcDbEntity
  8
0
100
AcDbLine
 62
7
  6
CONTINUOUS
 10
94.5827732349
 20
59.8911093415
 11
94.1627732349
 21
59.8911093415
  0
LINE
  5
26D
100
AcDbEntity
  8
0
100
AcDbLine
 62
7
  6
CONTINUOUS
 10
93.8027732349
 20
59.8911093415
 11
93.3827732349
 21
59.8911093415
  0
LINE
  5
26E
100
AcDbEntity
  8
0
100
AcDbLine
 62
7
  6
CONTINUOUS
 10
98.7074142761
 20
59.9271246016
 11
100.6274142761
 21
59.9271246016
  0
LINE
  5
26F
100
AcDbEntity
  8
0
100
AcDbLine
 62
7
  6
CONTINUOUS
 10
93.5987732349
 20
60.1456677827
 11
93.8027732349
 21
60.1456677827
  0
LINE
  5
270
100
AcDbEntity
  8
0
100
AcDbLine
 62
7
  6
CONTINUOUS
 10
94.1627732349
 20
60.1456677827
 11
94.3667732349
 21
60.1456677827
  0
LINE
  5
271
100
AcDbEntity
  8
0
100
AcDbLine
 62
7
  6
CONTINUOUS
 10
100.9474142761
 20
60.1873398971
 11
98.7074142761
 21
60.1873398971
  0
LINE
  5
272
100
AcDbEntity
  8
0
100
AcDbLine
 62
7
  6
CONTINUOUS
 10
93.8987732349
 20
60.3153734102
 11
94.0667732349
 21
60.3153734102
  0
LINE
  5
273
100
AcDbEntity
  8
0
100
AcDbLine
 62
7
  6
CONTINUOUS
 10
93.5987732349
 20
60.4285104952
 11
93.8027732349
 21
60.4285104952
  0
LINE
  5
274
100
AcDbEntity
  8
0
100
AcDbLine
 62
7
  6
CONTINUOUS
 10
94.1627732349
 20
60.4285104952
 11
94.3667732349
 21
60.4285104952
  0
LINE
  5
275
100
AcDbEntity
  8
0
100
AcDbLine
 62
7
  6
CONTINUOUS
 10
93.8987732349
 20
60.5982161227
 11
94.0667732349
 21
60.5982161227
  0
LINE
  5
276
100
AcDbEntity
  8
0
100
AcDbLine
 62
7
  6
CONTINUOUS
 10
110.7027225646
 20
60.9093431064
 11
109.9347225646
 21
60.9093431064
  0
LINE
  5
277
100
AcDbEntity
  8
0
100
AcDbLine
 62
7
  6
CONTINUOUS
 10
98.7074142761
 20
60.9376273777
 11
97.9394142761
 21
60.9376273777
  0
LINE
  5
278
100
AcDbEntity
  8
0
100
AcDbLine
 62
7
  6
CONTINUOUS
 10
94.3667732349
 20
60.9941959202
 11
93.5987732349
 21
60.9941959202
  0
LINE
  5
279
100
AcDbEntity
  8
0
100
AcDbLine
 62
7
  6
CONTINUOUS
 10
93.3827732349
 20
61.2487543614
 11
94.5827732349
 21
61.2487543614
  0
LINE
  5
27A
100
AcDbEntity
  8
0
100
AcDbLine
 62
7
  6
CONTINUOUS
 10
109.9347225646
 20
61.3845188634
 11
112.733925401
 21
61.3845188634
  0
LINE
  5
27B
100
AcDbEntity
  8
0
100
AcDbLine
 62
7
  6
CONTINUOUS
 10
97.9394142761
 20
61.4128031346
 11
100.9474142761
 21
61.4128031346
  0
LINE
  5
27C
100
AcDbEntity
  8
0
100
AcDbLine
 62
7
  6
CONTINUOUS
 10
93.3827732349
 20
61.5315970739
 11
94.5827732349
 21
61.5315970739
  0
LINE
  5
27D
100
AcDbEntity
  8
0
100
AcDbLine
 62
7
  6
CONTINUOUS
 10
109.9347225646
 20
61.6673615758
 11
112.733925401
 21
61.6673615758
  0
LINE
  5
27E
100
AcDbEntity
  8
0
100
AcDbLine
 62
7
  6
CONTINUOUS
 10
97.9394142761
 20
61.6956458471
 11
100.9474142761
 21
61.6956458471
  0
LINE
  5
27F
100
AcDbEntity
  8
0
100
AcDbLine
 62
7
  6
CONTINUOUS
 10
112.7170962187
 20
61.9275768713
 11
109.9347225646
 21
61.9275768713
  0
LINE
  5
280
100
AcDbEntity
  8
0
100
AcDbLine
 62
7
  6
CONTINUOUS
 10
108.2547225646
 20
61.9275768713
 11
107.4867225646
 21
61.9275768713
  0
LINE
  5
281
100
AcDbEntity
  8
0
100
AcDbLine
 62
7
  6
CONTINUOUS
 10
104.4674142761
 20
61.9275768713
 11
103.6994142761
 21
61.9275768713
  0
LINE
  5
282
100
AcDbEntity
  8
0
100
AcDbLine
 62
7
  6
CONTINUOUS
 10
100.9474142761
 20
61.9275768713
 11
97.9394142761
 21
61.9275768713
  0
LINE
  5
283
100
AcDbEntity
  8
0
100
AcDbLine
 62
7
  6
CONTINUOUS
 10
95.9027732349
 20
61.9275768713
 11
92.0627732349
 21
61.9275768713
  0
LINE
  5
284
100
AcDbEntity
  8
RUNDUNGEN
100
AcDbLine
 62
7
  6
CONTINUOUS
 10
68.9404604599
 20
68.8160111533
 11
70.8332626999
 21
66.9045588677
  0
LINE
  5
285
100
AcDbEntity
  8
RUNDUNGEN
100
AcDbLine
 62
7
  6
CONTINUOUS
 10
76.626384707
 20
61.0543564177
 11
88.6669201794
 21
48.8951838624
  0
LINE
  5
286
100
AcDbEntity
  8
RUNDUNGEN
100
AcDbLine
 62
7
  6
CONTINUOUS
 10
107.3483476446
 20
30.029685675
 11
111.4262691044
 21
25.9115838837
  0
LINE
  5
287
100
AcDbEntity
  8
RUNDUNGEN
100
AcDbLine
 62
7
  6
CONTINUOUS
 10
80.1154283986
 20
65.5441545267
 11
77.9931955841
 21
67.6872979985
  0
LINE
  5
288
100
AcDbEntity
  8
RUNDUNGEN
100
AcDbLine
 62
7
  6
CONTINUOUS
 10
118.6546859199
 20
66.4857810318
 11
110.1355046593
 21
70.7038108236
  0
LINE
  5
289
100
AcDbEntity
  8
RUNDUNGEN
100
AcDbLine
 62
7
  6
CONTINUOUS
 10
130.0291956003
 20
26.8502089759
 11
117.8382546669
 21
39.1612689583
  0
LINE
  5
28A
100
AcDbEntity
  8
RUNDUNGEN
100
AcDbLine
 62
7
  6
CONTINUOUS
 10
87.5221480872
 20
69.7760843836
 11
85.4883517866
 21
71.829919964
  0
LINE
  5
28B
100
AcDbEntity
  8
RUNDUNGEN
100
AcDbLine
 62
7
  6
CONTINUOUS
 10
130.0291956003
 20
30.3857428818
 11
117.8382546669
 21
42.6968028642
  0
LINE
  5
28C
100
AcDbEntity
  8
RUNDUNGEN
100
AcDbLine
 62
7
  6
CONTINUOUS
 10
87.5221480872
 20
73.3116182895
 11
85.4883517866
 21
75.3654538699
  0
LINE
  5
28D
100
AcDbEntity
  8
RUNDUNGEN
100
AcDbLine
 62
7
  6
CONTINUOUS
 10
110.1355046593
 20
74.2393447295
 11
118.6546859199
 21
70.0213149377
  0
LINE
  5
28E
100
AcDbEntity
  8
0
100
AcDbLine
 62
7
  6
CONTINUOUS
 10
100.6274142761
 20
59.6442818891
 11
102.3657774097
 21
57.5152305567
  0
LINE
  5
28F
100
AcDbEntity
  8
0
100
AcDbLine
 62
7
  6
CONTINUOUS
 10
100.6274142761
 20
59.9271246016
 11
102.3657774097
 21
57.7980732692
  0
LINE
  5
290
100
AcDbEntity
  8
0
100
AcDbLine
 62
7
  6
CONTINUOUS
 10
103.2525874231
 20
57.5152305567
 11
101.4451330913
 21
59.7289009799
  0
LINE
  5
291
100
AcDbEntity
  8
RUNDUNGEN
100
AcDbLine
 62
7
  6
CONTINUOUS
 10
138.8760376786
 20
71.6196187599
 11
132.9781429597
 21
74.5397932311
  0
LINE
  5
292
100
AcDbEntity
  8
RUNDUNGEN
100
AcDbLine
 62
7
  6
CONTINUOUS
 10
138.8760376786
 20
75.1551526658
 11
132.9781429597
 21
78.075327137
  0
LINE
  5
293
100
AcDbEntity
  8
RUNDUNGEN
100
AcDbLine
 62
7
  6
CONTINUOUS
 10
68.2170686371
 20
70.438330304
 11
68.2170686371
 21
73.9738642099
  0
LINE
  5
294
100
AcDbEntity
  8
0
100
AcDbLine
 62
7
  6
CONTINUOUS
 10
88.991658038
 20
175.7551559349
 11
78.5519331649
 21
165.3154310618
  0
LINE
  5
295
100
AcDbEntity
  8
KONSTRUKTIONSELEMENTE
100
AcDbLine
 62
7
  6
CONTINUOUS
 10
122.5613874231
 20
101.0545016766
 11
118.9763089239
 21
101.0545016766
  0
LINE
  5
296
100
AcDbEntity
  8
0
100
AcDbLine
 62
7
  6
CONTINUOUS
 10
118.9763089239
 20
101.0545016766
 11
118.9413322299
 21
101.0545016766
  0
LINE
  5
297
100
AcDbEntity
  8
0
100
AcDbLine
 62
7
  6
CONTINUOUS
 10
87.5638426163
 20
101.0545016766
 11
87.5288659223
 21
101.0545016766
  0
LINE
  5
298
100
AcDbEntity
  8
KONSTRUKTIONSELEMENTE
100
AcDbLine
 62
7
  6
CONTINUOUS
 10
87.5288659223
 20
101.0545016766
 11
83.9437874231
 21
101.0545016766
  0
LINE
  5
299
100
AcDbEntity
  8
RUNDUNGEN
100
AcDbLine
 62
7
  6
CONTINUOUS
 10
83.9437874231
 20
101.0545016766
 11
80.2525874231
 21
107.0527016766
  0
LINE
  5
29A
100
AcDbEntity
  8
RUNDUNGEN
100
AcDbLine
 62
7
  6
CONTINUOUS
 10
75.7525874231
 20
20.4628352225
 11
75.7525874231
 21
28.7634237311
  0
LINE
  5
29B
100
AcDbEntity
  8
RUNDUNGEN
100
AcDbLine
 62
7
  6
CONTINUOUS
 10
76.4093671602
 20
61.5410521629
 11
76.4093671602
 21
65.0765860689
  0
LINE
  5
29C
100
AcDbEntity
  8
0
100
AcDbLine
 62
7
  6
CONTINUOUS
 10
78.5519331649
 20
129.1278566802
 11
78.5519331649
 21
136.7935722915
  0
LINE
  5
29D
100
AcDbEntity
  8
0
100
AcDbLine
 62
7
  6
CONTINUOUS
 10
78.5519331649
 20
165.3154310618
 11
74.7307286528
 21
151.0545016766
  0
LINE
  5
29E
100
AcDbEntity
  8
BEZUGSACHSEN
100
AcDbLine
 62
7
  6
CONTINUOUS
 10
98.2525874231
 20
109.4045016766
 11
108.2525874231
 21
109.4045016766
  0
LINE
  5
29F
100
AcDbEntity
  8
BEZUGSACHSEN
100
AcDbLine
 62
7
  6
CONTINUOUS
 10
98.2525874231
 20
112.4234372533
 11
108.2525874231
 21
112.4234372533
  0
LINE
  5
2A0
100
AcDbEntity
  8
0
100
AcDbLine
 62
7
  6
CONTINUOUS
 10
74.7307286528
 20
151.0545016766
 11
78.5519331649
 21
136.7935722915
  0
LINE
  5
2A1
100
AcDbEntity
  8
0
100
AcDbLine
 62
7
  6
CONTINUOUS
 10
78.5519331649
 20
129.1278566802
 11
80.2525874231
 21
121.7615137902
  0
LINE
  5
2A2
100
AcDbEntity
  8
RUNDUNGEN
100
AcDbLine
 62
7
  6
CONTINUOUS
 10
80.2525874231
 20
107.0527016766
 11
80.2525874231
 21
132.3045016766
  0
LINE
  5
2A3
100
AcDbEntity
  8
RUNDUNGEN
100
AcDbLine
 62
7
  6
CONTINUOUS
 10
82.3525874231
 20
17.6344080978
 11
82.3525874231
 21
21.8770487849
  0
LINE
  5
2A4
100
AcDbEntity
  8
0
100
AcDbLine
 62
7
  6
CONTINUOUS
 10
86.2875472196
 20
133.341760525
 11
86.2875472196
 21
129.527520525
  0
LINE
  5
2A5
100
AcDbEntity
  8
0
100
AcDbLine
 62
7
  6
CONTINUOUS
 10
86.7643272196
 20
129.527520525
 11
86.7643272196
 21
131.2317554428
  0
LINE
  5
2A6
100
AcDbEntity
  8
0
100
AcDbLine
 62
7
  6
CONTINUOUS
 10
86.7643272196
 20
131.7186796401
 11
86.7643272196
 21
132.9359903606
  0
LINE
  5
2A7
100
AcDbEntity
  8
BEZUGSACHSEN
100
AcDbLine
 62
7
  6
CONTINUOUS
 10
98.2525874231
 20
117.6855661
 11
108.2525874231
 21
117.6855661
  0
LINE
  5
2A8
100
AcDbEntity
  8
BEZUGSACHSEN
100
AcDbLine
 62
7
  6
CONTINUOUS
 10
98.2525874231
 20
120.7045016766
 11
108.2525874231
 21
120.7045016766
  0
LINE
  5
2A9
100
AcDbEntity
  8
RUNDUNGEN
100
AcDbLine
 62
7
  6
CONTINUOUS
 10
83.8525874231
 20
123.0545016766
 11
94.2420977752
 21
123.0545016766
  0
LINE
  5
2AA
100
AcDbEntity
  8
RUNDUNGEN
100
AcDbLine
 62
7
  6
CONTINUOUS
 10
112.2630770711
 20
123.0545016766
 11
122.6525874231
 21
123.0545016766
  0
LINE
  5
2AB
100
AcDbEntity
  8
0
100
AcDbLine
 62
7
  6
CONTINUOUS
 10
90.4991037347
 20
129.7709826521
 11
90.8169572196
 21
129.608674565
  0
LINE
  5
2AC
100
AcDbEntity
  8
0
100
AcDbLine
 62
7
  6
CONTINUOUS
 10
90.8964207045
 20
130.095598812
 11
90.6580307045
 21
130.2579069346
  0
LINE
  5
2AD
100
AcDbEntity
  8
0
100
AcDbLine
 62
7
  6
CONTINUOUS
 10
88.9098372196
 20
133.0171443935
 11
88.591983962
 21
133.2606064921
  0
LINE
  5
2AE
100
AcDbEntity
  8
0
100
AcDbLine
 62
7
  6
CONTINUOUS
 10
90.1812507045
 20
130.095598812
 11
90.4991037347
 21
129.7709826521
  0
LINE
  5
2AF
100
AcDbEntity
  8
0
100
AcDbLine
 62
7
  6
CONTINUOUS
 10
88.5125204771
 20
132.8548363278
 11
88.6714472196
 21
132.692528262
  0
LINE
  5
2B0
100
AcDbEntity
  8
0
100
AcDbLine
 62
7
  6
CONTINUOUS
 10
89.1482272196
 20
132.692528262
 11
88.9098372196
 21
133.0171443935
  0
LINE
  5
2B1
100
AcDbEntity
  8
0
100
AcDbLine
 62
7
  6
CONTINUOUS
 10
90.6580307045
 20
130.2579069346
 11
90.4991037347
 21
130.5013690332
  0
LINE
  5
2B2
100
AcDbEntity
  8
0
100
AcDbLine
 62
7
  6
CONTINUOUS
 10
90.022323962
 20
130.4202150004
 11
90.1812507045
 21
130.095598812
  0
LINE
  5
2B3
100
AcDbEntity
  8
0
100
AcDbLine
 62
7
  6
CONTINUOUS
 10
89.307153962
 20
129.527520525
 11
88.591983962
 21
131.3940635086
  0
LINE
  5
2B4
100
AcDbEntity
  8
0
100
AcDbLine
 62
7
  6
CONTINUOUS
 10
88.1152038483
 20
131.2317554428
 11
88.7509104771
 21
129.527520525
  0
LINE
  5
2B5
100
AcDbEntity
  8
0
100
AcDbLine
 62
7
  6
CONTINUOUS
 10
88.6714472196
 20
132.692528262
 11
88.7509104771
 21
132.4490661634
  0
LINE
  5
2B6
100
AcDbEntity
  8
0
100
AcDbLine
 62
7
  6
CONTINUOUS
 10
89.2276904771
 20
132.4490661634
 11
89.1482272196
 21
132.692528262
  0
LINE
  5
2B7
100
AcDbEntity
  8
0
100
AcDbLine
 62
7
  6
CONTINUOUS
 10
88.7509104771
 20
132.4490661634
 11
88.7509104771
 21
132.2056038374
  0
LINE
  5
2B8
100
AcDbEntity
  8
0
100
AcDbLine
 62
7
  6
CONTINUOUS
 10
89.2276904771
 20
132.1244498045
 11
89.2276904771
 21
132.4490661634
  0
LINE
  5
2B9
100
AcDbEntity
  8
0
100
AcDbLine
 62
7
  6
CONTINUOUS
 10
89.9428604771
 20
133.341760525
 11
89.9428604771
 21
130.8259851648
  0
LINE
  5
2BA
100
AcDbEntity
  8
0
100
AcDbLine
 62
7
  6
CONTINUOUS
 10
90.4196407045
 20
130.8259851648
 11
90.4196407045
 21
133.341760525
  0
LINE
  5
2BB
100
AcDbEntity
  8
KONSTRUKTIONSELEMENTE
100
AcDbLine
 62
7
  6
CONTINUOUS
 10
91.2962053617
 20
115.1045016766
 11
91.2962053617
 21
118.8949016766
  0
LINE
  5
2BC
100
AcDbEntity
  8
0
100
AcDbLine
 62
7
  6
CONTINUOUS
 10
91.5827732349
 20
61.5881656164
 11
91.5827732349
 21
57.8546418117
  0
LINE
  5
2BD
100
AcDbEntity
  8
0
100
AcDbLine
 62
7
  6
CONTINUOUS
 10
92.3267607045
 20
133.341760525
 11
92.3267607045
 21
130.8259851648
  0
LINE
  5
2BE
100
AcDbEntity
  8
0
100
AcDbLine
 62
7
  6
CONTINUOUS
 10
92.8035407045
 20
130.8259851648
 11
92.8035407045
 21
133.341760525
  0
LINE
  5
2BF
100
AcDbEntity
  8
0
100
AcDbLine
 62
7
  6
CONTINUOUS
 10
93.1427732349
 20
58.3637586941
 11
93.1427732349
 21
59.6648351715
  0
LINE
  5
2C0
100
AcDbEntity
  8
0
100
AcDbLine
 62
7
  6
CONTINUOUS
 10
93.1427732349
 20
60.060814969
 11
93.1427732349
 21
61.3618914464
  0
LINE
  5
2C1
100
AcDbEntity
  8
0
100
AcDbLine
 62
7
  6
CONTINUOUS
 10
93.4392472196
 20
133.341760525
 11
93.4392472196
 21
129.527520525
  0
LINE
  5
2C2
100
AcDbEntity
  8
0
100
AcDbLine
 62
7
  6
CONTINUOUS
 10
93.5027732349
 20
60.9263136692
 11
93.5027732349
 21
60.2135500337
  0
LINE
  5
2C3
100
AcDbEntity
  8
0
100
AcDbLine
 62
7
  6
CONTINUOUS
 10
93.5027732349
 20
59.2292573943
 11
93.5027732349
 21
58.5164937589
  0
LINE
  5
2C4
100
AcDbEntity
  8
0
100
AcDbLine
 62
7
  6
CONTINUOUS
 10
93.8027732349
 20
59.1953162688
 11
93.8027732349
 21
59.2971396453
  0
LINE
  5
2C5
100
AcDbEntity
  8
0
100
AcDbLine
 62
7
  6
CONTINUOUS
 10
93.8027732349
 20
59.5516980865
 11
93.8027732349
 21
59.8911093415
  0
LINE
  5
2C6
100
AcDbEntity
  8
0
100
AcDbLine
 62
7
  6
CONTINUOUS
 10
93.8027732349
 20
60.1456677827
 11
93.8027732349
 21
60.5303338717
  0
LINE
  5
2C7
100
AcDbEntity
  8
0
100
AcDbLine
 62
7
  6
CONTINUOUS
 10
93.9160272196
 20
130.0144447791
 11
93.9160272196
 21
132.8548363278
  0
LINE
  5
2C8
100
AcDbEntity
  8
0
100
AcDbLine
 62
7
  6
CONTINUOUS
 10
94.1627732349
 20
60.5303338717
 11
94.1627732349
 21
60.1456677827
  0
LINE
  5
2C9
100
AcDbEntity
  8
0
100
AcDbLine
 62
7
  6
CONTINUOUS
 10
94.1627732349
 20
59.8911093415
 11
94.1627732349
 21
59.5516980865
  0
LINE
  5
2CA
100
AcDbEntity
  8
0
100
AcDbLine
 62
7
  6
CONTINUOUS
 10
94.1627732349
 20
59.2971396453
 11
94.1627732349
 21
59.1953162688
  0
LINE
  5
2CB
100
AcDbEntity
  8
0
100
AcDbLine
 62
7
  6
CONTINUOUS
 10
94.2525874231
 20
257.7472768011
 11
94.2525874231
 21
154.8617265522
  0
LINE
  5
2CC
100
AcDbEntity
  8
0
100
AcDbLine
 62
7
  6
CONTINUOUS
 10
94.4627732349
 20
58.5164937589
 11
94.4627732349
 21
59.2292573943
  0
LINE
  5
2CD
100
AcDbEntity
  8
0
100
AcDbLine
 62
7
  6
CONTINUOUS
 10
94.4627732349
 20
60.2135500337
 11
94.4627732349
 21
60.9263136692
  0
LINE
  5
2CE
100
AcDbEntity
  8
0
100
AcDbLine
 62
7
  6
CONTINUOUS
 10
94.8227732349
 20
61.3618914464
 11
94.8227732349
 21
60.060814969
  0
LINE
  5
2CF
100
AcDbEntity
  8
0
100
AcDbLine
 62
7
  6
CONTINUOUS
 10
94.8227732349
 20
59.6648351715
 11
94.8227732349
 21
58.3637586941
  0
LINE
  5
2D0
100
AcDbEntity
  8
KONSTRUKTIONSELEMENTE
100
AcDbLine
 62
7
  6
CONTINUOUS
 10
95.2525874231
 20
86.5773192635
 11
95.2525874231
 21
97.1839209813
  0
LINE
  5
2D1
100
AcDbEntity
  8
0
100
AcDbLine
 62
7
  6
CONTINUOUS
 10
96.1410002498
 20
132.0432957716
 11
96.1410002498
 21
130.8259851648
  0
LINE
  5
2D2
100
AcDbEntity
  8
0
100
AcDbLine
 62
7
  6
CONTINUOUS
 10
92.7240772196
 20
130.4202150004
 11
92.8035407045
 21
130.8259851648
  0
LINE
  5
2D3
100
AcDbEntity
  8
0
100
AcDbLine
 62
7
  6
CONTINUOUS
 10
92.3267607045
 20
130.8259851648
 11
92.2472972196
 21
130.5013690332
  0
LINE
  5
2D4
100
AcDbEntity
  8
0
100
AcDbLine
 62
7
  6
CONTINUOUS
 10
88.7509104771
 20
132.2056038374
 11
88.6714472196
 21
131.9621417387
  0
LINE
  5
2D5
100
AcDbEntity
  8
0
100
AcDbLine
 62
7
  6
CONTINUOUS
 10
89.1482272196
 20
131.8809877059
 11
89.2276904771
 21
132.1244498045
  0
LINE
  5
2D6
100
AcDbEntity
  8
0
100
AcDbLine
 62
7
  6
CONTINUOUS
 10
95.6642202498
 20
130.095598812
 11
95.3463672196
 21
130.0144447791
  0
LINE
  5
2D7
100
AcDbEntity
  8
0
100
AcDbLine
 62
7
  6
CONTINUOUS
 10
91.8499807045
 20
130.095598812
 11
91.5321272196
 21
130.0144447791
  0
LINE
  5
2D8
100
AcDbEntity
  8
0
100
AcDbLine
 62
7
  6
CONTINUOUS
 10
120.2074416194
 20
129.527520525
 11
120.5534894418
 21
129.608674565
  0
LINE
  5
2D9
100
AcDbEntity
  8
0
100
AcDbLine
 62
7
  6
CONTINUOUS
 10
113.9093615111
 20
129.527520525
 11
114.2554097294
 21
129.608674565
  0
LINE
  5
2DA
100
AcDbEntity
  8
0
100
AcDbLine
 62
7
  6
CONTINUOUS
 10
119.8613930051
 20
133.341760525
 11
119.5153443907
 21
133.2606064921
  0
LINE
  5
2DB
100
AcDbEntity
  8
0
100
AcDbLine
 62
7
  6
CONTINUOUS
 10
113.2864744804
 20
133.341760525
 11
112.9404258661
 21
133.2606064921
  0
LINE
  5
2DC
100
AcDbEntity
  8
0
100
AcDbLine
 62
7
  6
CONTINUOUS
 10
95.3463672196
 20
129.527520525
 11
95.7436841894
 21
129.608674565
  0
LINE
  5
2DD
100
AcDbEntity
  8
0
100
AcDbLine
 62
7
  6
CONTINUOUS
 10
91.5321272196
 20
129.527520525
 11
91.9294437347
 21
129.608674565
  0
LINE
  5
2DE
100
AcDbEntity
  8
RUNDUNGEN
100
AcDbLine
 62
7
  6
CONTINUOUS
 10
122.6525874231
 20
128.2506540993
 11
107.4243524959
 21
128.2506540993
  0
LINE
  5
2DF
100
AcDbEntity
  8
RUNDUNGEN
100
AcDbLine
 62
7
  6
CONTINUOUS
 10
99.0808223503
 20
128.2506540993
 11
83.8525874231
 21
128.2506540993
  0
LINE
  5
2E0
100
AcDbEntity
  8
0
100
AcDbLine
 62
7
  6
CONTINUOUS
 10
86.2875472196
 20
129.527520525
 11
86.7643272196
 21
129.527520525
  0
LINE
  5
2E1
100
AcDbEntity
  8
0
100
AcDbLine
 62
7
  6
CONTINUOUS
 10
88.7509104771
 20
129.527520525
 11
89.307153962
 21
129.527520525
  0
LINE
  5
2E2
100
AcDbEntity
  8
0
100
AcDbLine
 62
7
  6
CONTINUOUS
 10
91.2142737347
 20
129.527520525
 11
91.5321272196
 21
129.527520525
  0
LINE
  5
2E3
100
AcDbEntity
  8
0
100
AcDbLine
 62
7
  6
CONTINUOUS
 10
93.4392472196
 20
129.527520525
 11
95.3463672196
 21
129.527520525
  0
LINE
  5
2E4
100
AcDbEntity
  8
0
100
AcDbLine
 62
7
  6
CONTINUOUS
 10
108.0265394231
 20
129.527520525
 11
108.4417974435
 21
129.527520525
  0
LINE
  5
2E5
100
AcDbEntity
  8
0
100
AcDbLine
 62
7
  6
CONTINUOUS
 10
108.9954747711
 20
129.527520525
 11
109.4107327915
 21
129.527520525
  0
LINE
  5
2E6
100
AcDbEntity
  8
0
100
AcDbLine
 62
7
  6
CONTINUOUS
 10
111.1409745763
 20
129.527520525
 11
111.6254423988
 21
129.527520525
  0
LINE
  5
2E7
100
AcDbEntity
  8
0
100
AcDbLine
 62
7
  6
CONTINUOUS
 10
113.2864744804
 20
129.527520525
 11
113.9093615111
 21
129.527520525
  0
LINE
  5
2E8
100
AcDbEntity
  8
0
100
AcDbLine
 62
7
  6
CONTINUOUS
 10
119.792183599
 20
129.527520525
 11
120.2074416194
 21
129.527520525
  0
LINE
  5
2E9
100
AcDbEntity
  8
0
100
AcDbLine
 62
7
  6
CONTINUOUS
 10
120.1382314213
 20
129.9332907463
 11
119.8613930051
 21
129.9332907463
  0
LINE
  5
2EA
100
AcDbEntity
  8
0
100
AcDbLine
 62
7
  6
CONTINUOUS
 10
113.9093615111
 20
130.0144447791
 11
113.2864744804
 21
130.0144447791
  0
LINE
  5
2EB
100
AcDbEntity
  8
0
100
AcDbLine
 62
7
  6
CONTINUOUS
 10
95.3463672196
 20
130.0144447791
 11
93.9160272196
 21
130.0144447791
  0
LINE
  5
2EC
100
AcDbEntity
  8
0
100
AcDbLine
 62
7
  6
CONTINUOUS
 10
91.5321272196
 20
130.0144447791
 11
91.2142737347
 21
130.0144447791
  0
LINE
  5
2ED
100
AcDbEntity
  8
0
100
AcDbLine
 62
7
  6
CONTINUOUS
 10
113.840151709
 20
131.15060141
 11
114.4630387396
 21
131.15060141
  0
LINE
  5
2EE
100
AcDbEntity
  8
0
100
AcDbLine
 62
7
  6
CONTINUOUS
 10
86.7643272196
 20
131.2317554428
 11
88.1152038483
 21
131.2317554428
  0
LINE
  5
2EF
100
AcDbEntity
  8
0
100
AcDbLine
 62
7
  6
CONTINUOUS
 10
109.4107327915
 20
131.2317554428
 11
110.5872971497
 21
131.2317554428
  0
LINE
  5
2F0
100
AcDbEntity
  8
0
100
AcDbLine
 62
7
  6
CONTINUOUS
 10
119.8613930051
 20
131.3129094757
 11
120.1382314213
 21
131.3129094757
  0
LINE
  5
2F1
100
AcDbEntity
  8
0
100
AcDbLine
 62
7
  6
CONTINUOUS
 10
120.1382314213
 20
131.6375256072
 11
119.8613930051
 21
131.6375256072
  0
LINE
  5
2F2
100
AcDbEntity
  8
0
100
AcDbLine
 62
7
  6
CONTINUOUS
 10
114.87829676
 20
131.6375256072
 11
113.840151709
 21
131.6375256072
  0
LINE
  5
2F3
100
AcDbEntity
  8
0
100
AcDbLine
 62
7
  6
CONTINUOUS
 10
110.7257165559
 20
131.7186796401
 11
109.4107327915
 21
131.7186796401
  0
LINE
  5
2F4
100
AcDbEntity
  8
0
100
AcDbLine
 62
7
  6
CONTINUOUS
 10
88.2741304771
 20
131.7186796401
 11
86.7643272196
 21
131.7186796401
  0
LINE
  5
2F5
100
AcDbEntity
  8
0
100
AcDbLine
 62
7
  6
CONTINUOUS
 10
114.4630387396
 20
132.3679119031
 11
114.87829676
 21
132.3679119031
  0
LINE
  5
2F6
100
AcDbEntity
  8
0
100
AcDbLine
 62
7
  6
CONTINUOUS
 10
93.9160272196
 20
132.8548363278
 11
95.3463672196
 21
132.8548363278
  0
LINE
  5
2F7
100
AcDbEntity
  8
0
100
AcDbLine
 62
7
  6
CONTINUOUS
 10
113.2864744804
 20
132.8548363278
 11
113.9093615111
 21
132.8548363278
  0
LINE
  5
2F8
100
AcDbEntity
  8
0
100
AcDbLine
 62
7
  6
CONTINUOUS
 10
86.7643272196
 20
132.9359903606
 11
88.2741304771
 21
132.9359903606
  0
LINE
  5
2F9
100
AcDbEntity
  8
0
100
AcDbLine
 62
7
  6
CONTINUOUS
 10
109.4107327915
 20
132.9359903606
 11
110.7257165559
 21
132.9359903606
  0
LINE
  5
2FA
100
AcDbEntity
  8
0
100
AcDbLine
 62
7
  6
CONTINUOUS
 10
119.8613930051
 20
132.9359903606
 11
120.1382314213
 21
132.9359903606
  0
LINE
  5
2FB
100
AcDbEntity
  8
0
100
AcDbLine
 62
7
  6
CONTINUOUS
 10
120.1382314213
 20
133.341760525
 11
119.8613930051
 21
133.341760525
  0
LINE
  5
2FC
100
AcDbEntity
  8
0
100
AcDbLine
 62
7
  6
CONTINUOUS
 10
113.9093615111
 20
133.341760525
 11
113.2864744804
 21
133.341760525
  0
LINE
  5
2FD
100
AcDbEntity
  8
0
100
AcDbLine
 62
7
  6
CONTINUOUS
 10
110.6565069518
 20
133.341760525
 11
108.9954747711
 21
133.341760525
  0
LINE
  5
2FE
100
AcDbEntity
  8
0
100
AcDbLine
 62
7
  6
CONTINUOUS
 10
108.4417974435
 20
133.341760525
 11
108.0265394231
 21
133.341760525
  0
LINE
  5
2FF
100
AcDbEntity
  8
0
100
AcDbLine
 62
7
  6
CONTINUOUS
 10
95.3463672196
 20
133.341760525
 11
93.4392472196
 21
133.341760525
  0
LINE
  5
300
100
AcDbEntity
  8
0
100
AcDbLine
 62
7
  6
CONTINUOUS
 10
92.8035407045
 20
133.341760525
 11
92.3267607045
 21
133.341760525
  0
LINE
  5
301
100
AcDbEntity
  8
0
100
AcDbLine
 62
7
  6
CONTINUOUS
 10
90.4196407045
 20
133.341760525
 11
89.9428604771
 21
133.341760525
  0
LINE
  5
302
100
AcDbEntity
  8
0
100
AcDbLine
 62
7
  6
CONTINUOUS
 10
88.1946672196
 20
133.341760525
 11
86.2875472196
 21
133.341760525
  0
LINE
  5
303
100
AcDbEntity
  8
0
100
AcDbLine
 62
7
  6
CONTINUOUS
 10
90.8169572196
 20
129.608674565
 11
91.2142737347
 21
129.527520525
  0
LINE
  5
304
100
AcDbEntity
  8
0
100
AcDbLine
 62
7
  6
CONTINUOUS
 10
88.591983962
 20
133.2606064921
 11
88.1946672196
 21
133.341760525
  0
LINE
  5
305
100
AcDbEntity
  8
0
100
AcDbLine
 62
7
  6
CONTINUOUS
 10
95.7436841894
 20
133.2606064921
 11
95.3463672196
 21
133.341760525
  0
LINE
  5
306
100
AcDbEntity
  8
0
100
AcDbLine
 62
7
  6
CONTINUOUS
 10
112.9404258661
 20
129.608674565
 11
113.2864744804
 21
129.527520525
  0
LINE
  5
307
100
AcDbEntity
  8
0
100
AcDbLine
 62
7
  6
CONTINUOUS
 10
119.4461349847
 20
129.608674565
 11
119.792183599
 21
129.527520525
  0
LINE
  5
308
100
AcDbEntity
  8
0
100
AcDbLine
 62
7
  6
CONTINUOUS
 10
91.2142737347
 20
130.0144447791
 11
90.8964207045
 21
130.095598812
  0
LINE
  5
309
100
AcDbEntity
  8
0
100
AcDbLine
 62
7
  6
CONTINUOUS
 10
95.3463672196
 20
132.8548363278
 11
95.6642202498
 21
132.7736822949
  0
LINE
  5
30A
100
AcDbEntity
  8
0
100
AcDbLine
 62
7
  6
CONTINUOUS
 10
113.2864744804
 20
130.0144447791
 11
113.0096356682
 21
130.095598812
  0
LINE
  5
30B
100
AcDbEntity
  8
0
100
AcDbLine
 62
7
  6
CONTINUOUS
 10
88.2741304771
 20
132.9359903606
 11
88.5125204771
 21
132.8548363278
  0
LINE
  5
30C
100
AcDbEntity
  8
0
100
AcDbLine
 62
7
  6
CONTINUOUS
 10
96.0615372196
 20
133.0982984264
 11
95.7436841894
 21
133.2606064921
  0
LINE
  5
30D
100
AcDbEntity
  8
0
100
AcDbLine
 62
7
  6
CONTINUOUS
 10
95.6642202498
 20
132.7736822949
 11
95.9026102498
 21
132.6113742291
  0
LINE
  5
30E
100
AcDbEntity
  8
0
100
AcDbLine
 62
7
  6
CONTINUOUS
 10
96.3793902498
 20
132.7736822949
 11
96.0615372196
 21
133.0982984264
  0
LINE
  5
30F
100
AcDbEntity
  8
0
100
AcDbLine
 62
7
  6
CONTINUOUS
 10
95.9026102498
 20
132.6113742291
 11
96.0615372196
 21
132.3679119031
  0
LINE
  5
310
100
AcDbEntity
  8
0
100
AcDbLine
 62
7
  6
CONTINUOUS
 10
96.5383172196
 20
132.4490661634
 11
96.3793902498
 21
132.7736822949
  0
LINE
  5
311
100
AcDbEntity
  8
0
100
AcDbLine
 62
7
  6
CONTINUOUS
 10
90.4991037347
 20
130.5013690332
 11
90.4196407045
 21
130.8259851648
  0
LINE
  5
312
100
AcDbEntity
  8
0
100
AcDbLine
 62
7
  6
CONTINUOUS
 10
96.0615372196
 20
132.3679119031
 11
96.1410002498
 21
132.0432957716
  0
LINE
  5
313
100
AcDbEntity
  8
0
100
AcDbLine
 62
7
  6
CONTINUOUS
 10
89.9428604771
 20
130.8259851648
 11
90.022323962
 21
130.4202150004
  0
LINE
  5
314
100
AcDbEntity
  8
0
100
AcDbLine
 62
7
  6
CONTINUOUS
 10
96.6177802498
 20
132.0432957716
 11
96.5383172196
 21
132.4490661634
  0
LINE
  5
315
100
AcDbEntity
  8
0
100
AcDbLine
 62
7
  6
CONTINUOUS
 10
96.3827732349
 20
57.8546418117
 11
96.3827732349
 21
61.5881656164
  0
LINE
  5
316
100
AcDbEntity
  8
0
100
AcDbLine
 62
7
  6
CONTINUOUS
 10
96.6177802498
 20
130.8259851648
 11
96.6177802498
 21
132.0432957716
  0
LINE
  5
317
100
AcDbEntity
  8
0
100
AcDbLine
 62
7
  6
CONTINUOUS
 10
97.9394142761
 20
61.9275768713
 11
97.9394142761
 21
61.4128031346
  0
LINE
  5
318
100
AcDbEntity
  8
0
100
AcDbLine
 62
7
  6
CONTINUOUS
 10
97.9394142761
 20
60.9376273777
 11
97.9394142761
 21
57.5152305567
  0
LINE
  5
319
100
AcDbEntity
  8
0
100
AcDbLine
 62
7
  6
CONTINUOUS
 10
98.2525874231
 20
115.1045016766
 11
98.2525874231
 21
105.2671919121
  0
LINE
  5
31A
100
AcDbEntity
  8
KONSTRUKTIONSELEMENTE
100
AcDbLine
 62
7
  6
CONTINUOUS
 10
98.2525874231
 20
115.1045016766
 11
98.2525874231
 21
125.4945016766
  0
LINE
  5
31B
100
AcDbEntity
  8
0
100
AcDbLine
 62
7
  6
CONTINUOUS
 10
98.7074142761
 20
57.5152305567
 11
98.7074142761
 21
59.9271246016
  0
LINE
  5
31C
100
AcDbEntity
  8
0
100
AcDbLine
 62
7
  6
CONTINUOUS
 10
98.7074142761
 20
60.1873398971
 11
98.7074142761
 21
60.9376273777
  0
LINE
  5
31D
100
AcDbEntity
  8
KONSTRUKTIONSELEMENTE
100
AcDbLine
 62
7
  6
CONTINUOUS
 10
99.7525874231
 20
86.5773192635
 11
99.7525874231
 21
97.1839209813
  0
LINE
  5
31E
100
AcDbEntity
  8
KONSTRUKTIONSELEMENTE
100
AcDbLine
 62
7
  6
CONTINUOUS
 10
99.7525874231
 20
120.7045016766
 11
99.7525874231
 21
128.2966193535
  0
LINE
  5
31F
100
AcDbEntity
  8
0
100
AcDbLine
 62
7
  6
CONTINUOUS
 10
100.6274142761
 20
59.6442818891
 11
100.6274142761
 21
59.9271246016
  0
LINE
  5
320
100
AcDbEntity
  8
KONSTRUKTIONSELEMENTE
100
AcDbLine
 62
7
  6
CONTINUOUS
 10
100.7525874231
 20
65.7740923694
 11
100.7525874231
 21
88.2283493382
  0
LINE
  5
321
100
AcDbEntity
  8
KONSTRUKTIONSELEMENTE
100
AcDbLine
 62
7
  6
CONTINUOUS
 10
100.7525874231
 20
126.938828942
 11
100.7525874231
 21
129.8184577164
  0
LINE
  5
322
100
AcDbEntity
  8
KONSTRUKTIONSELEMENTE
100
AcDbLine
 62
7
  6
CONTINUOUS
 10
100.7525874231
 20
138.5620176928
 11
100.7525874231
 21
146.1649682291
  0
LINE
  5
323
100
AcDbEntity
  8
KONSTRUKTIONSELEMENTE
100
AcDbLine
 62
7
  6
CONTINUOUS
 10
101.0025874231
 20
96.4328604967
 11
101.0025874231
 21
109.4045016766
  0
LINE
  5
324
100
AcDbEntity
  8
0
100
AcDbLine
 62
7
  6
CONTINUOUS
 10
101.4451330913
 20
59.7289009799
 11
101.4451330913
 21
60.0117436924
  0
LINE
  5
325
100
AcDbEntity
  8
0
100
AcDbLine
 62
7
  6
CONTINUOUS
 10
101.8139476415
 20
61.0829142283
 11
101.8139476415
 21
60.8000715159
  0
LINE
  5
326
100
AcDbEntity
  8
0
100
AcDbLine
 62
7
  6
CONTINUOUS
 10
102.3657774097
 20
57.5152305567
 11
102.3657774097
 21
57.7980732692
  0
LINE
  5
327
100
AcDbEntity
  8
0
100
AcDbLine
 62
7
  6
CONTINUOUS
 10
103.6994142761
 20
61.9275768713
 11
103.6994142761
 21
59.1358261942
  0
LINE
  5
328
100
AcDbEntity
  8
0
100
AcDbLine
 62
7
  6
CONTINUOUS
 10
104.4674142761
 20
59.1358261942
 11
104.4674142761
 21
61.9275768713
  0
LINE
  5
329
100
AcDbEntity
  8
0
100
AcDbLine
 62
7
  6
CONTINUOUS
 10
96.5383172196
 20
130.4202150004
 11
96.6177802498
 21
130.8259851648
  0
LINE
  5
32A
100
AcDbEntity
  8
0
100
AcDbLine
 62
7
  6
CONTINUOUS
 10
96.1410002498
 20
130.8259851648
 11
96.0615372196
 21
130.5013690332
  0
LINE
  5
32B
100
AcDbEntity
  8
0
100
AcDbLine
 62
7
  6
CONTINUOUS
 10
92.5651507045
 20
130.095598812
 11
92.7240772196
 21
130.4202150004
  0
LINE
  5
32C
100
AcDbEntity
  8
0
100
AcDbLine
 62
7
  6
CONTINUOUS
 10
96.3793902498
 20
130.095598812
 11
96.5383172196
 21
130.4202150004
  0
LINE
  5
32D
100
AcDbEntity
  8
0
100
AcDbLine
 62
7
  6
CONTINUOUS
 10
92.2472972196
 20
130.5013690332
 11
92.0883707045
 21
130.2579069346
  0
LINE
  5
32E
100
AcDbEntity
  8
0
100
AcDbLine
 62
7
  6
CONTINUOUS
 10
96.0615372196
 20
130.5013690332
 11
95.9026102498
 21
130.2579069346
  0
LINE
  5
32F
100
AcDbEntity
  8
0
100
AcDbLine
 62
7
  6
CONTINUOUS
 10
88.9098372196
 20
131.5563715743
 11
89.1482272196
 21
131.8809877059
  0
LINE
  5
330
100
AcDbEntity
  8
0
100
AcDbLine
 62
7
  6
CONTINUOUS
 10
88.6714472196
 20
131.9621417387
 11
88.5125204771
 21
131.799833673
  0
LINE
  5
331
100
AcDbEntity
  8
0
100
AcDbLine
 62
7
  6
CONTINUOUS
 10
92.2472972196
 20
129.7709826521
 11
92.5651507045
 21
130.095598812
  0
LINE
  5
332
100
AcDbEntity
  8
RUNDUNGEN
100
AcDbLine
 62
7
  6
CONTINUOUS
 10
119.7852968454
 20
138.2027155066
 11
117.2465715677
 21
138.2027155066
  0
LINE
  5
333
100
AcDbEntity
  8
RUNDUNGEN
100
AcDbLine
 62
7
  6
CONTINUOUS
 10
89.2586032785
 20
138.2027155066
 11
86.7198776827
 21
138.2027155066
  0
LINE
  5
334
100
AcDbEntity
  8
RUNDUNGEN
100
AcDbLine
 62
7
  6
CONTINUOUS
 10
93.8311913302
 20
138.3045016766
 11
112.673970596
 21
138.3045016766
  0
LINE
  5
335
100
AcDbEntity
  8
0
100
AcDbLine
 62
7
  6
CONTINUOUS
 10
111.0025551701
 20
133.2606064921
 11
110.6565069518
 21
133.341760525
  0
LINE
  5
336
100
AcDbEntity
  8
0
100
AcDbLine
 62
7
  6
CONTINUOUS
 10
114.2554097294
 20
133.2606064921
 11
113.9093615111
 21
133.341760525
  0
LINE
  5
337
100
AcDbEntity
  8
0
100
AcDbLine
 62
7
  6
CONTINUOUS
 10
120.4842800357
 20
133.2606064921
 11
120.1382314213
 21
133.341760525
  0
LINE
  5
338
100
AcDbEntity
  8
0
100
AcDbLine
 62
7
  6
CONTINUOUS
 10
119.8613930051
 20
129.9332907463
 11
119.5845545888
 21
130.0144447791
  0
LINE
  5
339
100
AcDbEntity
  8
0
100
AcDbLine
 62
7
  6
CONTINUOUS
 10
113.9093615111
 20
132.8548363278
 11
114.1861999273
 21
132.7736822949
  0
LINE
  5
33A
100
AcDbEntity
  8
0
100
AcDbLine
 62
7
  6
CONTINUOUS
 10
120.1382314213
 20
131.3129094757
 11
120.4150706296
 21
131.2317554428
  0
LINE
  5
33B
100
AcDbEntity
  8
0
100
AcDbLine
 62
7
  6
CONTINUOUS
 10
119.8613930051
 20
131.6375256072
 11
119.5845545888
 21
131.7186796401
  0
LINE
  5
33C
100
AcDbEntity
  8
0
100
AcDbLine
 62
7
  6
CONTINUOUS
 10
120.1382314213
 20
132.9359903606
 11
120.4150706296
 21
132.8548363278
  0
LINE
  5
33D
100
AcDbEntity
  8
0
100
AcDbLine
 62
7
  6
CONTINUOUS
 10
110.7257165559
 20
132.9359903606
 11
110.9333455661
 21
132.8548363278
  0
LINE
  5
33E
100
AcDbEntity
  8
0
100
AcDbLine
 62
7
  6
CONTINUOUS
 10
119.5845545888
 20
130.0144447791
 11
119.3077153805
 21
130.1767528449
  0
LINE
  5
33F
100
AcDbEntity
  8
0
100
AcDbLine
 62
7
  6
CONTINUOUS
 10
120.8303286501
 20
131.3940635086
 11
120.6919090459
 21
131.4752175415
  0
LINE
  5
340
100
AcDbEntity
  8
0
100
AcDbLine
 62
7
  6
CONTINUOUS
 10
112.6635874498
 20
129.7709826521
 11
112.9404258661
 21
129.608674565
  0
LINE
  5
341
100
AcDbEntity
  8
0
100
AcDbLine
 62
7
  6
CONTINUOUS
 10
114.5322485417
 20
133.0982984264
 11
114.2554097294
 21
133.2606064921
  0
LINE
  5
342
100
AcDbEntity
  8
0
100
AcDbLine
 62
7
  6
CONTINUOUS
 10
119.1692965684
 20
131.5563715743
 11
119.3077153805
 21
131.4752175415
  0
LINE
  5
343
100
AcDbEntity
  8
0
100
AcDbLine
 62
7
  6
CONTINUOUS
 10
120.4150706296
 20
131.2317554428
 11
120.6919090459
 21
131.0694473771
  0
LINE
  5
344
100
AcDbEntity
  8
0
100
AcDbLine
 62
7
  6
CONTINUOUS
 10
119.1000863703
 20
129.852136685
 11
119.4461349847
 21
129.608674565
  0
LINE
  5
345
100
AcDbEntity
  8
0
100
AcDbLine
 62
7
  6
CONTINUOUS
 10
113.0096356682
 20
130.095598812
 11
112.8020066579
 21
130.2579069346
  0
LINE
  5
346
100
AcDbEntity
  8
0
100
AcDbLine
 62
7
  6
CONTINUOUS
 10
114.1861999273
 20
132.7736822949
 11
114.3938289375
 21
132.6113742291
  0
LINE
  5
347
100
AcDbEntity
  8
0
100
AcDbLine
 62
7
  6
CONTINUOUS
 10
111.2793939824
 20
133.0171443935
 11
111.0025551701
 21
133.2606064921
  0
LINE
  5
348
100
AcDbEntity
  8
0
100
AcDbLine
 62
7
  6
CONTINUOUS
 10
112.3867486375
 20
130.095598812
 11
112.6635874498
 21
129.7709826521
  0
LINE
  5
349
100
AcDbEntity
  8
0
100
AcDbLine
 62
7
  6
CONTINUOUS
 10
110.9333455661
 20
132.8548363278
 11
111.0717649722
 21
132.692528262
  0
LINE
  5
34A
100
AcDbEntity
  8
KONSTRUKTIONSELEMENTE
100
AcDbLine
 62
7
  6
CONTINUOUS
 10
105.5025874231
 20
96.4328604967
 11
105.5025874231
 21
109.4045016766
  0
LINE
  5
34B
100
AcDbEntity
  8
KONSTRUKTIONSELEMENTE
100
AcDbLine
 62
7
  6
CONTINUOUS
 10
105.7525874231
 20
65.7740923694
 11
105.7525874231
 21
88.2283493382
  0
LINE
  5
34C
100
AcDbEntity
  8
KONSTRUKTIONSELEMENTE
100
AcDbLine
 62
7
  6
CONTINUOUS
 10
105.7525874231
 20
126.938828942
 11
105.7525874231
 21
129.8184577164
  0
LINE
  5
34D
100
AcDbEntity
  8
KONSTRUKTIONSELEMENTE
100
AcDbLine
 62
7
  6
CONTINUOUS
 10
105.7525874231
 20
138.5620176928
 11
105.7525874231
 21
146.1649682291
  0
LINE
  5
34E
100
AcDbEntity
  8
KONSTRUKTIONSELEMENTE
100
AcDbLine
 62
7
  6
CONTINUOUS
 10
106.7525874231
 20
128.2966193535
 11
106.7525874231
 21
120.7045016766
  0
LINE
  5
34F
100
AcDbEntity
  8
KONSTRUKTIONSELEMENTE
100
AcDbLine
 62
7
  6
CONTINUOUS
 10
106.7525874231
 20
97.1839209813
 11
106.7525874231
 21
86.5773192635
  0
LINE
  5
350
100
AcDbEntity
  8
0
100
AcDbLine
 62
7
  6
CONTINUOUS
 10
107.4867225646
 20
61.9275768713
 11
107.4867225646
 21
59.1358261942
  0
LINE
  5
351
100
AcDbEntity
  8
0
100
AcDbLine
 62
7
  6
CONTINUOUS
 10
108.0265394231
 20
133.341760525
 11
108.0265394231
 21
129.527520525
  0
LINE
  5
352
100
AcDbEntity
  8
0
100
AcDbLine
 62
7
  6
CONTINUOUS
 10
108.2525874231
 20
105.2671919121
 11
108.2525874231
 21
115.1045016766
  0
LINE
  5
353
100
AcDbEntity
  8
KONSTRUKTIONSELEMENTE
100
AcDbLine
 62
7
  6
CONTINUOUS
 10
108.2525874231
 20
115.1045016766
 11
108.2525874231
 21
125.4945019339
  0
LINE
  5
354
100
AcDbEntity
  8
0
100
AcDbLine
 62
7
  6
CONTINUOUS
 10
108.2547225646
 20
59.1358261942
 11
108.2547225646
 21
61.9275768713
  0
LINE
  5
355
100
AcDbEntity
  8
0
100
AcDbLine
 62
7
  6
CONTINUOUS
 10
108.4417974435
 20
129.527520525
 11
108.4417974435
 21
133.341760525
  0
LINE
  5
356
100
AcDbEntity
  8
0
100
AcDbLine
 62
7
  6
CONTINUOUS
 10
108.9954747711
 20
133.341760525
 11
108.9954747711
 21
129.527520525
  0
LINE
  5
357
100
AcDbEntity
  8
0
100
AcDbLine
 62
7
  6
CONTINUOUS
 10
109.4107327915
 20
129.527520525
 11
109.4107327915
 21
131.2317554428
  0
LINE
  5
358
100
AcDbEntity
  8
0
100
AcDbLine
 62
7
  6
CONTINUOUS
 10
109.4107327915
 20
131.7186796401
 11
109.4107327915
 21
132.9359903606
  0
LINE
  5
359
100
AcDbEntity
  8
0
100
AcDbLine
 62
7
  6
CONTINUOUS
 10
109.9347225646
 20
61.9275768713
 11
109.9347225646
 21
61.3845188634
  0
LINE
  5
35A
100
AcDbEntity
  8
0
100
AcDbLine
 62
7
  6
CONTINUOUS
 10
109.9347225646
 20
60.9093431064
 11
109.9347225646
 21
57.5152305567
  0
LINE
  5
35B
100
AcDbEntity
  8
0
100
AcDbLine
 62
7
  6
CONTINUOUS
 10
110.7027225646
 20
58.0809159817
 11
110.7027225646
 21
60.9093431064
  0
LINE
  5
35C
100
AcDbEntity
  8
0
100
AcDbLine
 62
7
  6
CONTINUOUS
 10
111.1409745763
 20
132.4490661634
 11
111.1409745763
 21
132.2056038374
  0
LINE
  5
35D
100
AcDbEntity
  8
KONSTRUKTIONSELEMENTE
100
AcDbLine
 62
7
  6
CONTINUOUS
 10
111.2525874231
 20
97.1839209813
 11
111.2525874231
 21
86.5773192635
  0
LINE
  5
35E
100
AcDbEntity
  8
0
100
AcDbLine
 62
7
  6
CONTINUOUS
 10
111.5562325967
 20
132.1244498045
 11
111.5562325967
 21
132.4490661634
  0
LINE
  5
35F
100
AcDbEntity
  8
0
100
AcDbLine
 62
7
  6
CONTINUOUS
 10
112.1791196273
 20
132.0432957716
 11
112.1791196273
 21
130.8259851648
  0
LINE
  5
360
100
AcDbEntity
  8
0
100
AcDbLine
 62
7
  6
CONTINUOUS
 10
112.2525874231
 20
257.7472768011
 11
112.2525874231
 21
154.8617265522
  0
LINE
  5
361
100
AcDbEntity
  8
0
100
AcDbLine
 62
7
  6
CONTINUOUS
 10
112.5943776477
 20
130.8259851648
 11
112.5943776477
 21
132.0432957716
  0
LINE
  5
362
100
AcDbEntity
  8
0
100
AcDbLine
 62
7
  6
CONTINUOUS
 10
96.0615372196
 20
129.7709826521
 11
96.3793902498
 21
130.095598812
  0
LINE
  5
363
100
AcDbEntity
  8
0
100
AcDbLine
 62
7
  6
CONTINUOUS
 10
92.0883707045
 20
130.2579069346
 11
91.8499807045
 21
130.095598812
  0
LINE
  5
364
100
AcDbEntity
  8
0
100
AcDbLine
 62
7
  6
CONTINUOUS
 10
95.9026102498
 20
130.2579069346
 11
95.6642202498
 21
130.095598812
  0
LINE
  5
365
100
AcDbEntity
  8
0
100
AcDbLine
 62
7
  6
CONTINUOUS
 10
88.591983962
 20
131.3940635086
 11
88.9098372196
 21
131.5563715743
  0
LINE
  5
366
100
AcDbEntity
  8
0
100
AcDbLine
 62
7
  6
CONTINUOUS
 10
91.9294437347
 20
129.608674565
 11
92.2472972196
 21
129.7709826521
  0
LINE
  5
367
100
AcDbEntity
  8
0
100
AcDbLine
 62
7
  6
CONTINUOUS
 10
95.7436841894
 20
129.608674565
 11
96.0615372196
 21
129.7709826521
  0
LINE
  5
368
100
AcDbEntity
  8
0
100
AcDbLine
 62
7
  6
CONTINUOUS
 10
88.5125204771
 20
131.799833673
 11
88.2741304771
 21
131.7186796401
  0
LINE
  5
369
100
AcDbEntity
  8
0
100
AcDbLine
 62
7
  6
CONTINUOUS
 10
120.8303286501
 20
133.0171443935
 11
120.4842800357
 21
133.2606064921
  0
LINE
  5
36A
100
AcDbEntity
  8
0
100
AcDbLine
 62
7
  6
CONTINUOUS
 10
119.5845545888
 20
131.7186796401
 11
119.3077153805
 21
131.9621417387
  0
LINE
  5
36B
100
AcDbEntity
  8
0
100
AcDbLine
 62
7
  6
CONTINUOUS
 10
121.1071670663
 20
131.15060141
 11
120.8303286501
 21
131.3940635086
  0
LINE
  5
36C
100
AcDbEntity
  8
0
100
AcDbLine
 62
7
  6
CONTINUOUS
 10
120.4150706296
 20
132.8548363278
 11
120.6919090459
 21
132.6113742291
  0
LINE
  5
36D
100
AcDbEntity
  8
0
100
AcDbLine
 62
7
  6
CONTINUOUS
 10
114.809087354
 20
132.7736822949
 11
114.5322485417
 21
133.0982984264
  0
LINE
  5
36E
100
AcDbEntity
  8
0
100
AcDbLine
 62
7
  6
CONTINUOUS
 10
118.8924573601
 20
130.095598812
 11
119.1000863703
 21
129.852136685
  0
LINE
  5
36F
100
AcDbEntity
  8
0
100
AcDbLine
 62
7
  6
CONTINUOUS
 10
118.9616675582
 20
131.799833673
 11
119.1692965684
 21
131.5563715743
  0
LINE
  5
370
100
AcDbEntity
  8
0
100
AcDbLine
 62
7
  6
CONTINUOUS
 10
121.0379576603
 20
132.7736822949
 11
120.8303286501
 21
133.0171443935
  0
LINE
  5
371
100
AcDbEntity
  8
0
100
AcDbLine
 62
7
  6
CONTINUOUS
 10
111.4870227946
 20
132.692528262
 11
111.2793939824
 21
133.0171443935
  0
LINE
  5
372
100
AcDbEntity
  8
0
100
AcDbLine
 62
7
  6
CONTINUOUS
 10
119.3077153805
 20
130.1767528449
 11
119.1000863703
 21
130.5013690332
  0
LINE
  5
373
100
AcDbEntity
  8
0
100
AcDbLine
 62
7
  6
CONTINUOUS
 10
120.6919090459
 20
131.0694473771
 11
120.8995380561
 21
130.7448311319
  0
LINE
  5
374
100
AcDbEntity
  8
0
100
AcDbLine
 62
7
  6
CONTINUOUS
 10
112.8020066579
 20
130.2579069346
 11
112.6635874498
 21
130.5013690332
  0
LINE
  5
375
100
AcDbEntity
  8
0
100
AcDbLine
 62
7
  6
CONTINUOUS
 10
119.3077153805
 20
131.9621417387
 11
119.1692965684
 21
132.2056038374
  0
LINE
  5
376
100
AcDbEntity
  8
0
100
AcDbLine
 62
7
  6
CONTINUOUS
 10
112.2483294294
 20
130.4202150004
 11
112.3867486375
 21
130.095598812
  0
LINE
  5
377
100
AcDbEntity
  8
0
100
AcDbLine
 62
7
  6
CONTINUOUS
 10
111.6254423988
 20
129.527520525
 11
111.0025551701
 21
131.3940635086
  0
LINE
  5
378
100
AcDbEntity
  8
0
100
AcDbLine
 62
7
  6
CONTINUOUS
 10
110.5872971497
 20
131.2317554428
 11
111.1409745763
 21
129.527520525
  0
LINE
  5
379
100
AcDbEntity
  8
0
100
AcDbLine
 62
7
  6
CONTINUOUS
 10
111.0717649722
 20
132.692528262
 11
111.1409745763
 21
132.4490661634
  0
LINE
  5
37A
100
AcDbEntity
  8
0
100
AcDbLine
 62
7
  6
CONTINUOUS
 10
111.5562325967
 20
132.4490661634
 11
111.4870227946
 21
132.692528262
  0
LINE
  5
37B
100
AcDbEntity
  8
0
100
AcDbLine
 62
7
  6
CONTINUOUS
 10
114.3938289375
 20
132.6113742291
 11
114.4630387396
 21
132.3679119031
  0
LINE
  5
37C
100
AcDbEntity
  8
0
100
AcDbLine
 62
7
  6
CONTINUOUS
 10
112.6635874498
 20
130.5013690332
 11
112.5943776477
 21
130.8259851648
  0
LINE
  5
37D
100
AcDbEntity
  8
0
100
AcDbLine
 62
7
  6
CONTINUOUS
 10
112.1791196273
 20
130.8259851648
 11
112.2483294294
 21
130.4202150004
  0
LINE
  5
37E
100
AcDbEntity
  8
0
100
AcDbLine
 62
7
  6
CONTINUOUS
 10
114.87829676
 20
132.3679119031
 11
114.809087354
 21
132.7736822949
  0
LINE
  5
37F
100
AcDbEntity
  8
0
100
AcDbLine
 62
7
  6
CONTINUOUS
 10
113.840151709
 20
131.6375256072
 11
113.840151709
 21
131.15060141
  0
LINE
  5
380
100
AcDbEntity
  8
0
100
AcDbLine
 62
7
  6
CONTINUOUS
 10
114.0088135669
 20
60.015560135
 11
114.0088135669
 21
59.7327174225
  0
LINE
  5
381
100
AcDbEntity
  8
0
100
AcDbLine
 62
7
  6
CONTINUOUS
 10
114.4630387396
 20
131.15060141
 11
114.4630387396
 21
130.5013690332
  0
LINE
  5
382
100
AcDbEntity
  8
0
100
AcDbLine
 62
7
  6
CONTINUOUS
 10
114.87829676
 20
130.4202150004
 11
114.87829676
 21
131.6375256072
  0
LINE
  5
383
100
AcDbEntity
  8
KONSTRUKTIONSELEMENTE
100
AcDbLine
 62
7
  6
CONTINUOUS
 10
115.2089694846
 20
115.1045016766
 11
115.2089694846
 21
118.8949016766
  0
LINE
  5
384
100
AcDbEntity
  8
0
100
AcDbLine
 62
7
  6
CONTINUOUS
 10
118.754038548
 20
130.7448311319
 11
118.754038548
 21
130.5013690332
  0
LINE
  5
385
100
AcDbEntity
  8
0
100
AcDbLine
 62
7
  6
CONTINUOUS
 10
118.823247954
 20
132.3679119031
 11
118.823247954
 21
132.1244498045
  0
LINE
  5
386
100
AcDbEntity
  8
0
100
AcDbLine
 62
7
  6
CONTINUOUS
 10
119.1000863703
 20
130.5013690332
 11
119.1000863703
 21
130.7448311319
  0
LINE
  5
387
100
AcDbEntity
  8
0
100
AcDbLine
 62
7
  6
CONTINUOUS
 10
119.1692965684
 20
132.2056038374
 11
119.1692965684
 21
132.3679119031
  0
LINE
  5
388
100
AcDbEntity
  8
0
100
AcDbLine
 62
7
  6
CONTINUOUS
 10
120.8303286501
 20
132.3679119031
 11
120.8303286501
 21
132.2056038374
  0
LINE
  5
389
100
AcDbEntity
  8
0
100
AcDbLine
 62
7
  6
CONTINUOUS
 10
120.8995380561
 20
130.7448311319
 11
120.8995380561
 21
130.5013690332
  0
LINE
  5
38A
100
AcDbEntity
  8
0
100
AcDbLine
 62
7
  6
CONTINUOUS
 10
121.1763764724
 20
132.1244498045
 11
121.1763764724
 21
132.3679119031
  0
LINE
  5
38B
100
AcDbEntity
  8
0
100
AcDbLine
 62
7
  6
CONTINUOUS
 10
121.2455866705
 20
130.5013690332
 11
121.2455866705
 21
130.7448311319
  0
LINE
  5
38C
100
AcDbEntity
  8
0
100
AcDbLine
 62
7
  6
CONTINUOUS
 10
112.2483294294
 20
132.4490661634
 11
112.1791196273
 21
132.0432957716
  0
LINE
  5
38D
100
AcDbEntity
  8
0
100
AcDbLine
 62
7
  6
CONTINUOUS
 10
112.5943776477
 20
132.0432957716
 11
112.6635874498
 21
132.3679119031
  0
LINE
  5
38E
100
AcDbEntity
  8
0
100
AcDbLine
 62
7
  6
CONTINUOUS
 10
114.809087354
 20
130.095598812
 11
114.87829676
 21
130.4202150004
  0
LINE
  5
38F
100
AcDbEntity
  8
0
100
AcDbLine
 62
7
  6
CONTINUOUS
 10
111.1409745763
 20
132.2056038374
 11
111.0717649722
 21
131.9621417387
  0
LINE
  5
390
100
AcDbEntity
  8
0
100
AcDbLine
 62
7
  6
CONTINUOUS
 10
111.4870227946
 20
131.8809877059
 11
111.5562325967
 21
132.1244498045
  0
LINE
  5
391
100
AcDbEntity
  8
0
100
AcDbLine
 62
7
  6
CONTINUOUS
 10
114.4630387396
 20
130.5013690332
 11
114.3938289375
 21
130.2579069346
  0
LINE
  5
392
100
AcDbEntity
  8
0
100
AcDbLine
 62
7
  6
CONTINUOUS
 10
118.9616675582
 20
132.7736822949
 11
118.823247954
 21
132.3679119031
  0
LINE
  5
393
100
AcDbEntity
  8
0
100
AcDbLine
 62
7
  6
CONTINUOUS
 10
118.8924573601
 20
131.15060141
 11
118.754038548
 21
130.7448311319
  0
LINE
  5
394
100
AcDbEntity
  8
0
100
AcDbLine
 62
7
  6
CONTINUOUS
 10
112.3867486375
 20
132.7736822949
 11
112.2483294294
 21
132.4490661634
  0
LINE
  5
395
100
AcDbEntity
  8
0
100
AcDbLine
 62
7
  6
CONTINUOUS
 10
112.6635874498
 20
132.3679119031
 11
112.8020066579
 21
132.6113742291
  0
LINE
  5
396
100
AcDbEntity
  8
0
100
AcDbLine
 62
7
  6
CONTINUOUS
 10
119.1692965684
 20
132.3679119031
 11
119.3077153805
 21
132.6113742291
  0
LINE
  5
397
100
AcDbEntity
  8
0
100
AcDbLine
 62
7
  6
CONTINUOUS
 10
111.2793939824
 20
131.5563715743
 11
111.4870227946
 21
131.8809877059
  0
LINE
  5
398
100
AcDbEntity
  8
0
100
AcDbLine
 62
7
  6
CONTINUOUS
 10
111.0717649722
 20
131.9621417387
 11
110.9333455661
 21
131.799833673
  0
LINE
  5
399
100
AcDbEntity
  8
0
100
AcDbLine
 62
7
  6
CONTINUOUS
 10
112.6635874498
 20
133.0982984264
 11
112.3867486375
 21
132.7736822949
  0
LINE
  5
39A
100
AcDbEntity
  8
0
100
AcDbLine
 62
7
  6
CONTINUOUS
 10
114.5322485417
 20
129.7709826521
 11
114.809087354
 21
130.095598812
  0
LINE
  5
39B
100
AcDbEntity
  8
0
100
AcDbLine
 62
7
  6
CONTINUOUS
 10
119.1692965684
 20
133.0171443935
 11
118.9616675582
 21
132.7736822949
  0
LINE
  5
39C
100
AcDbEntity
  8
0
100
AcDbLine
 62
7
  6
CONTINUOUS
 10
119.3077153805
 20
132.6113742291
 11
119.5845545888
 21
132.8548363278
  0
LINE
  5
39D
100
AcDbEntity
  8
0
100
AcDbLine
 62
7
  6
CONTINUOUS
 10
119.1692965684
 20
131.3940635086
 11
118.8924573601
 21
131.15060141
  0
LINE
  5
39E
100
AcDbEntity
  8
0
100
AcDbLine
 62
7
  6
CONTINUOUS
 10
112.8020066579
 20
132.6113742291
 11
113.0096356682
 21
132.7736822949
  0
LINE
  5
39F
100
AcDbEntity
  8
0
100
AcDbLine
 62
7
  6
CONTINUOUS
 10
114.3938289375
 20
130.2579069346
 11
114.1861999273
 21
130.095598812
  0
LINE
  5
3A0
100
AcDbEntity
  8
0
100
AcDbLine
 62
7
  6
CONTINUOUS
 10
119.5153443907
 20
133.2606064921
 11
119.1692965684
 21
133.0171443935
  0
LINE
  5
3A1
100
AcDbEntity
  8
0
100
AcDbLine
 62
7
  6
CONTINUOUS
 10
112.9404258661
 20
133.2606064921
 11
112.6635874498
 21
133.0982984264
  0
LINE
  5
3A2
100
AcDbEntity
  8
0
100
AcDbLine
 62
7
  6
CONTINUOUS
 10
111.0025551701
 20
131.3940635086
 11
111.2793939824
 21
131.5563715743
  0
LINE
  5
3A3
100
AcDbEntity
  8
0
100
AcDbLine
 62
7
  6
CONTINUOUS
 10
114.2554097294
 20
129.608674565
 11
114.5322485417
 21
129.7709826521
  0
LINE
  5
3A4
100
AcDbEntity
  8
0
100
AcDbLine
 62
7
  6
CONTINUOUS
 10
119.3077153805
 20
131.4752175415
 11
119.1692965684
 21
131.3940635086
  0
LINE
  5
3A5
100
AcDbEntity
  8
0
100
AcDbLine
 62
7
  6
CONTINUOUS
 10
119.3077153805
 20
131.0694473771
 11
119.5845545888
 21
131.2317554428
  0
LINE
  5
3A6
100
AcDbEntity
  8
0
100
AcDbLine
 62
7
  6
CONTINUOUS
 10
120.6919090459
 20
131.4752175415
 11
120.8303286501
 21
131.5563715743
  0
LINE
  5
3A7
100
AcDbEntity
  8
0
100
AcDbLine
 62
7
  6
CONTINUOUS
 10
110.9333455661
 20
131.799833673
 11
110.7257165559
 21
131.7186796401
  0
LINE
  5
3A8
100
AcDbEntity
  8
0
100
AcDbLine
 62
7
  6
CONTINUOUS
 10
113.0096356682
 20
132.7736822949
 11
113.2864744804
 21
132.8548363278
  0
LINE
  5
3A9
100
AcDbEntity
  8
0
100
AcDbLine
 62
7
  6
CONTINUOUS
 10
119.5845545888
 20
132.8548363278
 11
119.8613930051
 21
132.9359903606
  0
LINE
  5
3AA
100
AcDbEntity
  8
0
100
AcDbLine
 62
7
  6
CONTINUOUS
 10
114.1861999273
 20
130.095598812
 11
113.9093615111
 21
130.0144447791
  0
LINE
  5
3AB
100
AcDbEntity
  8
0
100
AcDbLine
 62
7
  6
CONTINUOUS
 10
120.4150706296
 20
131.7186796401
 11
120.1382314213
 21
131.6375256072
  0
LINE
  5
3AC
100
AcDbEntity
  8
0
100
AcDbLine
 62
7
  6
CONTINUOUS
 10
119.5845545888
 20
131.2317554428
 11
119.8613930051
 21
131.3129094757
  0
LINE
  5
3AD
100
AcDbEntity
  8
0
100
AcDbLine
 62
7
  6
CONTINUOUS
 10
120.4150706296
 20
130.0144447791
 11
120.1382314213
 21
129.9332907463
  0
LINE
  5
3AE
100
AcDbEntity
  8
0
100
AcDbLine
 62
7
  6
CONTINUOUS
 10
120.6919090459
 20
132.6113742291
 11
120.8303286501
 21
132.3679119031
  0
LINE
  5
3AF
100
AcDbEntity
  8
0
100
AcDbLine
 62
7
  6
CONTINUOUS
 10
118.823247954
 20
132.1244498045
 11
118.9616675582
 21
131.799833673
  0
LINE
  5
3B0
100
AcDbEntity
  8
0
100
AcDbLine
 62
7
  6
CONTINUOUS
 10
118.754038548
 20
130.5013690332
 11
118.8924573601
 21
130.095598812
  0
LINE
  5
3B1
100
AcDbEntity
  8
0
100
AcDbLine
 62
7
  6
CONTINUOUS
 10
121.2455866705
 20
130.7448311319
 11
121.1071670663
 21
131.15060141
  0
LINE
  5
3B2
100
AcDbEntity
  8
0
100
AcDbLine
 62
7
  6
CONTINUOUS
 10
121.1763764724
 20
132.3679119031
 11
121.0379576603
 21
132.7736822949
  0
LINE
  5
3B3
100
AcDbEntity
  8
RUNDUNGEN
100
AcDbLine
 62
7
  6
CONTINUOUS
 10
124.1525874231
 20
21.8770487849
 11
124.1525874231
 21
17.6344080978
  0
LINE
  5
3B4
100
AcDbEntity
  8
RUNDUNGEN
100
AcDbLine
 62
7
  6
CONTINUOUS
 10
126.2525874231
 20
107.0527016766
 11
126.2525874231
 21
132.3045016766
  0
LINE
  5
3B5
100
AcDbEntity
  8
0
100
AcDbLine
 62
7
  6
CONTINUOUS
 10
127.9532416814
 20
129.1278566802
 11
127.9532416814
 21
136.7935722915
  0
LINE
  5
3B6
100
AcDbEntity
  8
RUNDUNGEN
100
AcDbLine
 62
7
  6
CONTINUOUS
 10
130.7525874231
 20
20.4628352225
 11
130.7525874231
 21
28.7634237311
  0
LINE
  5
3B7
100
AcDbEntity
  8
0
100
AcDbLine
 62
7
  6
CONTINUOUS
 10
127.9532416814
 20
129.1278566802
 11
126.2525874231
 21
121.7615137902
  0
LINE
  5
3B8
100
AcDbEntity
  8
0
100
AcDbLine
 62
7
  6
CONTINUOUS
 10
127.9532416814
 20
136.7935722915
 11
131.7744461934
 21
151.0545016766
  0
LINE
  5
3B9
100
AcDbEntity
  8
0
100
AcDbLine
 62
7
  6
CONTINUOUS
 10
121.1071670663
 20
130.095598812
 11
121.2455866705
 21
130.5013690332
  0
LINE
  5
3BA
100
AcDbEntity
  8
0
100
AcDbLine
 62
7
  6
CONTINUOUS
 10
121.0379576603
 20
131.799833673
 11
121.1763764724
 21
132.1244498045
  0
LINE
  5
3BB
100
AcDbEntity
  8
0
100
AcDbLine
 62
7
  6
CONTINUOUS
 10
120.8303286501
 20
132.2056038374
 11
120.6919090459
 21
131.9621417387
  0
LINE
  5
3BC
100
AcDbEntity
  8
0
100
AcDbLine
 62
7
  6
CONTINUOUS
 10
119.1000863703
 20
130.7448311319
 11
119.3077153805
 21
131.0694473771
  0
LINE
  5
3BD
100
AcDbEntity
  8
0
100
AcDbLine
 62
7
  6
CONTINUOUS
 10
120.8995380561
 20
130.5013690332
 11
120.6919090459
 21
130.1767528449
  0
LINE
  5
3BE
100
AcDbEntity
  8
0
100
AcDbLine
 62
7
  6
CONTINUOUS
 10
120.8303286501
 20
131.5563715743
 11
121.0379576603
 21
131.799833673
  0
LINE
  5
3BF
100
AcDbEntity
  8
0
100
AcDbLine
 62
7
  6
CONTINUOUS
 10
120.8995380561
 20
129.852136685
 11
121.1071670663
 21
130.095598812
  0
LINE
  5
3C0
100
AcDbEntity
  8
0
100
AcDbLine
 62
7
  6
CONTINUOUS
 10
120.6919090459
 20
131.9621417387
 11
120.4150706296
 21
131.7186796401
  0
LINE
  5
3C1
100
AcDbEntity
  8
0
100
AcDbLine
 62
7
  6
CONTINUOUS
 10
120.5534894418
 20
129.608674565
 11
120.8995380561
 21
129.852136685
  0
LINE
  5
3C2
100
AcDbEntity
  8
0
100
AcDbLine
 62
7
  6
CONTINUOUS
 10
120.6919090459
 20
130.1767528449
 11
120.4150706296
 21
130.0144447791
  0
LINE
  5
3C3
100
AcDbEntity
  8
RUNDUNGEN
100
AcDbLine
 62
7
  6
CONTINUOUS
 10
139.387745955
 20
70.9245452015
 11
139.387745955
 21
74.4600791074
  0
LINE
  5
3C4
100
AcDbEntity
  8
0
100
AcDbLine
 62
7
  6
CONTINUOUS
 10
127.9532416814
 20
165.3154310618
 11
117.5135168083
 21
175.7551559349
  0
LINE
  5
3C5
100
AcDbEntity
  8
0
100
AcDbLine
 62
7
  6
CONTINUOUS
 10
131.7744461934
 20
151.0545016766
 11
127.9532416814
 21
165.3154310618
  0
LINE
  5
3C6
100
AcDbEntity
  8
RUNDUNGEN
100
AcDbLine
 62
7
  6
CONTINUOUS
 10
122.5613874231
 20
101.0545016766
 11
126.2525874231
 21
107.0527016766
  0
LINE
  5
3C7
100
AcDbEntity
  8
RUNDUNGEN
100
AcDbLine
 62
7
  6
CONTINUOUS
 10
71.5610669802
 20
77.1019356466
 11
69.9227628917
 21
76.2907760713
  0
LINE
  5
3C8
100
AcDbEntity
  8
0
100
AcDbLine
 62
7
  6
CONTINUOUS
 10
94.2525874231
 20
177.1648177151
 11
88.991658038
 21
175.7551559349
  0
LINE
  5
3C9
100
AcDbEntity
  8
0
100
AcDbLine
 62
7
  6
CONTINUOUS
 10
117.5135168083
 20
175.7551559349
 11
112.2525874231
 21
177.1648177151
  0
LINE
  5
3CA
100
AcDbEntity
  8
RUNDUNGEN
100
AcDbLine
 62
7
  6
CONTINUOUS
 10
71.5610669802
 20
73.5664017407
 11
69.9227628917
 21
72.7552421653
  0
LINE
  5
3CB
100
AcDbEntity
  8
RUNDUNGEN
100
AcDbLine
 62
7
  6
CONTINUOUS
 10
88.6669201794
 20
42.6968028642
 11
76.475979246
 21
30.3857428818
  0
LINE
  5
3CC
100
AcDbEntity
  8
RUNDUNGEN
100
AcDbLine
 62
7
  6
CONTINUOUS
 10
75.2077386228
 20
68.0345943538
 11
72.5045368766
 21
66.6961810545
  0
LINE
  5
3CD
100
AcDbEntity
  8
RUNDUNGEN
100
AcDbLine
 62
7
  6
CONTINUOUS
 10
76.9210754365
 20
65.7716596273
 11
78.9133497193
 21
66.7580774556
  0
LINE
  5
3CE
100
AcDbEntity
  8
RUNDUNGEN
100
AcDbLine
 62
7
  6
CONTINUOUS
 10
96.3696701869
 20
74.2393447295
 11
93.0930620098
 21
72.6170255788
  0
LINE
  5
3CF
100
AcDbEntity
  8
RUNDUNGEN
100
AcDbLine
 62
7
  6
CONTINUOUS
 10
76.9210754365
 20
62.2361257214
 11
79.6242771827
 21
63.5745390207
  0
LINE
  5
3D0
100
AcDbEntity
  8
RUNDUNGEN
100
AcDbLine
 62
7
  6
CONTINUOUS
 10
96.3696701869
 20
70.7038108236
 11
93.0930620098
 21
69.0814916729
  0
LINE
  5
3D1
100
AcDbEntity
  8
RUNDUNGEN
100
AcDbLine
 62
7
  6
CONTINUOUS
 10
88.6669201794
 20
39.1612689583
 11
76.475979246
 21
26.8502089759
  0
LINE
  5
3D2
100
AcDbEntity
  8
RUNDUNGEN
100
AcDbLine
 62
7
  6
CONTINUOUS
 10
124.2255998425
 20
70.7159076484
 11
131.306868783
 21
77.8669493238
  0
LINE
  5
3D3
100
AcDbEntity
  8
RUNDUNGEN
100
AcDbLine
 62
7
  6
CONTINUOUS
 10
124.2255998425
 20
67.1803737425
 11
131.306868783
 21
74.3314154179
  0
LINE
  5
3D4
100
AcDbEntity
  8
RUNDUNGEN
100
AcDbLine
 62
7
  6
CONTINUOUS
 10
95.0789057418
 20
25.9115838837
 11
99.1568272017
 21
30.029685675
  0
LINE
  5
3D5
100
AcDbEntity
  8
RUNDUNGEN
100
AcDbLine
 62
7
  6
CONTINUOUS
 10
117.8382546669
 20
48.8951838624
 11
139.1707284081
 21
70.4378494562
  0
ARC
  5
3D6
100
AcDbEntity
  8
KONSTRUKTIONSELEMENTE
100
AcDbCircle
 62
7
  6
CONTINUOUS
 10
233.1422314672
 20
72.8240923694
 40
9.55
100
AcDbArc
 50
135.0
 51
209.8048644765
  0
ARC
  5
3D7
100
AcDbEntity
  8
KONSTRUKTIONSELEMENTE
100
AcDbCircle
 62
7
  6
CONTINUOUS
 10
233.1422314672
 20
72.8240923694
 40
9.55
100
AcDbArc
 50
240.1951355235
 51
315.0
  0
ARC
  5
3D8
100
AcDbEntity
  8
KONSTRUKTIONSELEMENTE
100
AcDbCircle
 62
7
  6
CONTINUOUS
 10
241.5568021633
 20
81.2386630655
 40
9.55
100
AcDbArc
 50
315.0
 51
31.3702929546
  0
ARC
  5
3D9
100
AcDbEntity
  8
KONSTRUKTIONSELEMENTE
100
AcDbCircle
 62
7
  6
CONTINUOUS
 10
241.5568021633
 20
81.2386630655
 40
9.55
100
AcDbArc
 50
58.6297070454
 51
135.0
  0
ARC
  5
3DA
100
AcDbEntity
  8
KONSTRUKTIONSELEMENTE
100
AcDbCircle
 62
7
  6
CONTINUOUS
 10
233.1422314672
 20
72.8240923694
 40
4.55
100
AcDbArc
 50
135.0
 51
191.6416672297
  0
ARC
  5
3DB
100
AcDbEntity
  8
KONSTRUKTIONSELEMENTE
100
AcDbCircle
 62
7
  6
CONTINUOUS
 10
233.1422314672
 20
72.8240923694
 40
4.55
100
AcDbArc
 50
258.3583327703
 51
315.0
  0
ARC
  5
3DC
100
AcDbEntity
  8
KONSTRUKTIONSELEMENTE
100
AcDbCircle
 62
7
  6
CONTINUOUS
 10
241.5568021633
 20
81.2386630655
 40
4.55
100
AcDbArc
 50
315.0
 51
15.3477978529
  0
ARC
  5
3DD
100
AcDbEntity
  8
KONSTRUKTIONSELEMENTE
100
AcDbCircle
 62
7
  6
CONTINUOUS
 10
241.5568021633
 20
81.2386630655
 40
4.55
100
AcDbArc
 50
74.6522021471
 51
135.0
  0
ARC
  5
3DE
100
AcDbEntity
  8
KONSTRUKTIONSELEMENTE
100
AcDbCircle
 62
7
  6
CONTINUOUS
 10
242.8295943694
 20
82.5114552717
 40
2.25
100
AcDbArc
 50
135.0
 51
315.0
  0
ARC
  5
3DF
100
AcDbEntity
  8
KONSTRUKTIONSELEMENTE
100
AcDbCircle
 62
7
  6
CONTINUOUS
 10
262.4518075473
 20
102.1336684496
 40
8.0
100
AcDbArc
 50
135.0
 51
208.6357041722
  0
ARC
  5
3E0
100
AcDbEntity
  8
KONSTRUKTIONSELEMENTE
100
AcDbCircle
 62
7
  6
CONTINUOUS
 10
262.4518075473
 20
102.1336684496
 40
8.0
100
AcDbArc
 50
241.3642958278
 51
315.0
  0
ARC
  5
3E1
100
AcDbEntity
  8
KONSTRUKTIONSELEMENTE
100
AcDbCircle
 62
7
  6
CONTINUOUS
 10
273.0584092651
 20
112.7402701674
 40
8.0
100
AcDbArc
 50
315.0
 51
28.6357041722
  0
ARC
  5
3E2
100
AcDbEntity
  8
KONSTRUKTIONSELEMENTE
100
AcDbCircle
 62
7
  6
CONTINUOUS
 10
273.0584092651
 20
112.7402701674
 40
8.0
100
AcDbArc
 50
61.3642958278
 51
135.0
  0
ARC
  5
3E3
100
AcDbEntity
  8
KONSTRUKTIONSELEMENTE
100
AcDbCircle
 62
7
  6
CONTINUOUS
 10
262.4518075473
 20
102.1336684496
 40
3.5
100
AcDbArc
 50
135.0
 51
184.8461224921
  0
ARC
  5
3E4
100
AcDbEntity
  8
KONSTRUKTIONSELEMENTE
100
AcDbCircle
 62
7
  6
CONTINUOUS
 10
262.4518075473
 20
102.1336684496
 40
3.5
100
AcDbArc
 50
265.1538775079
 51
315.0
  0
ARC
  5
3E5
100
AcDbEntity
  8
KONSTRUKTIONSELEMENTE
100
AcDbCircle
 62
7
  6
CONTINUOUS
 10
273.0584092651
 20
112.7402701674
 40
3.5
100
AcDbArc
 50
315.0
 51
4.8461224921
  0
ARC
  5
3E6
100
AcDbEntity
  8
KONSTRUKTIONSELEMENTE
100
AcDbCircle
 62
7
  6
CONTINUOUS
 10
273.0584092651
 20
112.7402701674
 40
3.5
100
AcDbArc
 50
85.1538775079
 51
135.0
  0
ARC
  5
3E7
100
AcDbEntity
  8
KONSTRUKTIONSELEMENTE
100
AcDbCircle
 62
7
  6
CONTINUOUS
 10
273.9422927416
 20
113.6241536439
 40
2.25
100
AcDbArc
 50
135.0
 51
315.0
  0
ARC
  5
3E8
100
AcDbEntity
  8
KONSTRUKTIONSELEMENTE
100
AcDbCircle
 62
7
  6
CONTINUOUS
 10
261.5679240709
 20
101.2497849731
 40
2.25
100
AcDbArc
 50
315.0
 51
135.0
  0
ARC
  5
3E9
100
AcDbEntity
  8
KONSTRUKTIONSELEMENTE
100
AcDbCircle
 62
7
  6
CONTINUOUS
 10
294.3069680398
 20
133.988828942
 40
9.55
100
AcDbArc
 50
135.0
 51
211.3702929546
  0
ARC
  5
3EA
100
AcDbEntity
  8
KONSTRUKTIONSELEMENTE
100
AcDbCircle
 62
7
  6
CONTINUOUS
 10
294.3069680398
 20
133.988828942
 40
9.55
100
AcDbArc
 50
238.6297070454
 51
315.0
  0
ARC
  5
3EB
100
AcDbEntity
  8
KONSTRUKTIONSELEMENTE
100
AcDbCircle
 62
7
  6
CONTINUOUS
 10
302.7215387359
 20
142.4033996382
 40
9.55
100
AcDbArc
 50
315.0
 51
26.6609039942
  0
ARC
  5
3EC
100
AcDbEntity
  8
KONSTRUKTIONSELEMENTE
100
AcDbCircle
 62
7
  6
CONTINUOUS
 10
302.7215387359
 20
142.4033996382
 40
9.55
100
AcDbArc
 50
63.3390960058
 51
135.0
  0
ARC
  5
3ED
100
AcDbEntity
  8
KONSTRUKTIONSELEMENTE
100
AcDbCircle
 62
7
  6
CONTINUOUS
 10
294.3069680398
 20
133.988828942
 40
4.55
100
AcDbArc
 50
135.0
 51
195.3477978529
  0
ARC
  5
3EE
100
AcDbEntity
  8
KONSTRUKTIONSELEMENTE
100
AcDbCircle
 62
7
  6
CONTINUOUS
 10
294.3069680398
 20
133.988828942
 40
4.55
100
AcDbArc
 50
254.6522021471
 51
315.0
  0
ARC
  5
3EF
100
AcDbEntity
  8
KONSTRUKTIONSELEMENTE
100
AcDbCircle
 62
7
  6
CONTINUOUS
 10
302.7215387359
 20
142.4033996382
 40
4.55
100
AcDbArc
 50
315.0
 51
3.7275989874
  0
ARC
  5
3F0
100
AcDbEntity
  8
KONSTRUKTIONSELEMENTE
100
AcDbCircle
 62
7
  6
CONTINUOUS
 10
302.7215387359
 20
142.4033996382
 40
4.55
100
AcDbArc
 50
86.2724010126
 51
135.0
  0
ARC
  5
3F1
100
AcDbEntity
  8
KONSTRUKTIONSELEMENTE
100
AcDbCircle
 62
7
  6
CONTINUOUS
 10
303.1104474656
 20
142.7923083678
 40
3.0
100
AcDbArc
 50
135.0
 51
315.0
  0
ARC
  5
3F2
100
AcDbEntity
  8
KONSTRUKTIONSELEMENTE
100
AcDbCircle
 62
7
  6
CONTINUOUS
 10
292.6806224431
 20
132.3624833453
 40
2.25
100
AcDbArc
 50
315.0
 51
135.0
  0
ARC
  5
3F3
100
AcDbEntity
  8
RUNDUNGEN
100
AcDbCircle
 62
7
  6
CONTINUOUS
 10
344.9226407744
 20
112.2545016766
 40
11.2
100
AcDbArc
 50
270.0
 51
360.0
  0
ARC
  5
3F4
100
AcDbEntity
  8
0
100
AcDbCircle
 62
7
  6
CONTINUOUS
 10
343.3226407744
 20
112.2545016766
 40
11.2
100
AcDbArc
 50
180.0
 51
270.0
  0
ARC
  5
3F5
100
AcDbEntity
  8
RUNDUNGEN
100
AcDbCircle
 62
7
  6
CONTINUOUS
 10
345.0143026042
 20
111.7111335113
 40
10.6489600174
100
AcDbArc
 50
279.3184681096
 51
283.0943592224
  0
ARC
  5
3F6
100
AcDbEntity
  8
RUNDUNGEN
100
AcDbCircle
 62
7
  6
CONTINUOUS
 10
345.1139121306
 20
111.2801783609
 40
10.2066433843
100
AcDbArc
 50
283.0978155991
 51
286.1037786302
  0
ARC
  5
3F7
100
AcDbEntity
  8
RUNDUNGEN
100
AcDbCircle
 62
7
  6
CONTINUOUS
 10
345.1865870211
 20
111.0220988479
 40
9.938532428
100
AcDbArc
 50
286.1139388483
 51
286.7775108568
  0
CIRCLE
  5
3F8
100
AcDbEntity
  8
BEZUGSACHSEN
100
AcDbCircle
 62
7
  6
CONTINUOUS
 10
344.1226407744
 20
115.0545016766
 40
5.6906
  0
ARC
  5
3F9
100
AcDbEntity
  8
0
100
AcDbCircle
 62
7
  6
CONTINUOUS
 10
338.7226407744
 20
134.7045016766
 40
3.6
100
AcDbArc
 50
103.3863540691
 51
179.9999506524
  0
ARC
  5
3FA
100
AcDbEntity
  8
RUNDUNGEN
100
AcDbCircle
 62
7
  6
CONTINUOUS
 10
349.5226407744
 20
134.7045016766
 40
3.6
100
AcDbArc
 50
0.0000493476
 51
76.6136459309
  0
ARC
  5
3FB
100
AcDbEntity
  8
RUNDUNGEN
100
AcDbCircle
 62
7
  6
CONTINUOUS
 10
351.0461979915
 20
135.90072344
 40
2.3471789212
100
AcDbArc
 50
126.886498031
 51
130.4738884922
  0
ARC
  5
3FC
100
AcDbEntity
  8
0
100
AcDbCircle
 62
7
  6
CONTINUOUS
 10
337.1990835573
 20
135.90072344
 40
2.3471789212
100
AcDbArc
 50
49.5261115078
 51
53.113501969
  0
ARC
  5
3FD
100
AcDbEntity
  8
0
100
AcDbCircle
 62
7
  6
CONTINUOUS
 10
344.1226407744
 20
183.8045016766
 40
38.0
100
AcDbArc
 50
279.4721988504
 51
360.0
  0
ARC
  5
3FE
100
AcDbEntity
  8
0
100
AcDbCircle
 62
7
  6
CONTINUOUS
 10
344.1226407744
 20
183.8045016766
 40
38.0
100
AcDbArc
 50
229.5294312019
 51
260.5278011496
  0
ARC
  5
3FF
100
AcDbEntity
  8
0
100
AcDbCircle
 62
7
  6
CONTINUOUS
 10
344.1226407744
 20
183.8045016766
 40
38.0
100
AcDbArc
 50
180.0
 51
220.4705687981
  0
ARC
  5
400
100
AcDbEntity
  8
0
100
AcDbCircle
 62
7
  6
CONTINUOUS
 10
344.1226407744
 20
228.8045016766
 40
38.0
100
AcDbArc
 50
0.0
 51
180.0
  0
ARC
  5
401
100
AcDbEntity
  8
0
100
AcDbCircle
 62
7
  6
CONTINUOUS
 10
344.1226407744
 20
183.8045016766
 40
20.0
100
AcDbArc
 50
288.2219531704
 51
360.0
  0
ARC
  5
402
100
AcDbEntity
  8
0
100
AcDbCircle
 62
7
  6
CONTINUOUS
 10
344.1226407744
 20
183.8045016766
 40
20.0
100
AcDbArc
 50
233.6293497976
 51
251.7780468296
  0
ARC
  5
403
100
AcDbEntity
  8
0
100
AcDbCircle
 62
7
  6
CONTINUOUS
 10
344.1226407744
 20
183.8045016766
 40
20.0
100
AcDbArc
 50
180.0
 51
216.3706502024
  0
ARC
  5
404
100
AcDbEntity
  8
0
100
AcDbCircle
 62
7
  6
CONTINUOUS
 10
344.1226407744
 20
228.8045016766
 40
20.0
100
AcDbArc
 50
0.0
 51
180.0
  0
ARC
  5
405
100
AcDbEntity
  8
BEZUGSACHSEN
100
AcDbCircle
 62
7
  6
CONTINUOUS
 10
344.1226407744
 20
170.0545016766
 40
6.25
100
AcDbArc
 50
0.0
 51
28.0724869359
  0
ARC
  5
406
100
AcDbEntity
  8
BEZUGSACHSEN
100
AcDbCircle
 62
7
  6
CONTINUOUS
 10
344.1226407744
 20
170.0545016766
 40
6.25
100
AcDbArc
 50
151.9275130641
 51
180.0
  0
ARC
  5
407
100
AcDbEntity
  8
KONSTRUKTIONSELEMENTE
100
AcDbCircle
 62
7
  6
CONTINUOUS
 10
332.1018254942
 20
171.7836863965
 40
3.0
100
AcDbArc
 50
315.0
 51
135.0
  0
ARC
  5
408
100
AcDbEntity
  8
KONSTRUKTIONSELEMENTE
100
AcDbCircle
 62
7
  6
CONTINUOUS
 10
103.3837646733
 20
170.518535816
 40
30.7197128927
100
AcDbArc
 50
274.4262461443
 51
283.6815744353
  0
ARC
  5
409
100
AcDbEntity
  8
KONSTRUKTIONSELEMENTE
100
AcDbCircle
 62
7
  6
CONTINUOUS
 10
103.2525874231
 20
76.9131416766
 40
28.79136
100
AcDbArc
 50
56.9721560344
 51
79.9991254185
  0
ARC
  5
40A
100
AcDbEntity
  8
KONSTRUKTIONSELEMENTE
100
AcDbCircle
 62
7
  6
CONTINUOUS
 10
103.2525874231
 20
76.9131416766
 40
28.79136
100
AcDbArc
 50
100.0008745815
 51
123.0278439656
  0
ARC
  5
40B
100
AcDbEntity
  8
RUNDUNGEN
100
AcDbCircle
 62
7
  6
CONTINUOUS
 10
119.7826752525
 20
165.9593832013
 40
27.7566678186
100
AcDbArc
 50
270.0054115361
 51
270.9708056369
  0
ARC
  5
40C
100
AcDbEntity
  8
RUNDUNGEN
100
AcDbCircle
 62
7
  6
CONTINUOUS
 10
86.7224937333
 20
165.9584538681
 40
27.7557384848
100
AcDbArc
 50
269.029932686
 51
269.9945997237
  0
ARC
  5
40D
100
AcDbEntity
  8
BEZUGSACHSEN
100
AcDbCircle
 62
7
  6
CONTINUOUS
 10
103.2525874231
 20
151.0545016766
 40
12.75
100
AcDbArc
 50
134.9044389838
 51
45.0955610162
  0
ARC
  5
40E
100
AcDbEntity
  8
0
100
AcDbCircle
 62
7
  6
CONTINUOUS
 10
103.2525874231
 20
257.8045016766
 40
9.0
100
AcDbArc
 50
0.0
 51
180.0
  0
ARC
  5
40F
100
AcDbEntity
  8
0
100
AcDbCircle
 62
7
  6
CONTINUOUS
 10
103.2525874231
 20
154.8045016766
 40
9.0
100
AcDbArc
 50
180.0
 51
360.0
  0
ARC
  5
410
100
AcDbEntity
  8
RUNDUNGEN
100
AcDbCircle
 62
7
  6
CONTINUOUS
 10
86.2525874231
 20
132.3045016766
 40
6.0
100
AcDbArc
 50
116.2394469635
 51
180.0
  0
ARC
  5
411
100
AcDbEntity
  8
RUNDUNGEN
100
AcDbCircle
 62
7
  6
CONTINUOUS
 10
120.2525874231
 20
132.3045016766
 40
6.0
100
AcDbArc
 50
0.0
 51
63.7605530365
  0
ARC
  5
412
100
AcDbEntity
  8
KONSTRUKTIONSELEMENTE
100
AcDbCircle
 62
7
  6
CONTINUOUS
 10
103.2525874231
 20
125.4945016766
 40
5.0
100
AcDbArc
 50
0.0000014742
 51
180.0
  0
ARC
  5
413
100
AcDbEntity
  8
RUNDUNGEN
100
AcDbCircle
 62
7
  6
CONTINUOUS
 10
85.4206803413
 20
133.9926411335
 40
4.118010582
100
AcDbArc
 50
113.1855758856
 51
116.2420010499
  0
ARC
  5
414
100
AcDbEntity
  8
RUNDUNGEN
100
AcDbCircle
 62
7
  6
CONTINUOUS
 10
121.0844945049
 20
133.9926411334
 40
4.1180105821
100
AcDbArc
 50
63.7579989501
 51
66.8144241143
  0
ARC
  5
415
100
AcDbEntity
  8
KONSTRUKTIONSELEMENTE
100
AcDbCircle
 62
7
  6
CONTINUOUS
 10
103.2525874231
 20
65.7740923694
 40
2.5
100
AcDbArc
 50
180.0
 51
360.0
  0
ARC
  5
416
100
AcDbEntity
  8
KONSTRUKTIONSELEMENTE
100
AcDbCircle
 62
7
  6
CONTINUOUS
 10
103.2525874231
 20
88.2886630655
 40
2.5
100
AcDbArc
 50
0.0
 51
180.0
  0
ARC
  5
417
100
AcDbEntity
  8
KONSTRUKTIONSELEMENTE
100
AcDbCircle
 62
7
  6
CONTINUOUS
 10
103.2525874231
 20
126.938828942
 40
2.5
100
AcDbArc
 50
180.0
 51
360.0
  0
ARC
  5
418
100
AcDbEntity
  8
KONSTRUKTIONSELEMENTE
100
AcDbCircle
 62
7
  6
CONTINUOUS
 10
103.2525874231
 20
96.3836684496
 40
2.25
100
AcDbArc
 50
180.0
 51
360.0
  0
ARC
  5
419
100
AcDbEntity
  8
KONSTRUKTIONSELEMENTE
100
AcDbCircle
 62
7
  6
CONTINUOUS
 10
103.2525874231
 20
118.4902701674
 40
2.25
100
AcDbArc
 50
79.84376417
 51
100.15623583
  0
CIRCLE
  5
41A
100
AcDbEntity
  8
BEZUGSACHSEN
100
AcDbCircle
 62
7
  6
CONTINUOUS
 10
88.4525874231
 20
114.8545016766
 40
1.75
  0
ARC
  5
41B
100
AcDbEntity
  8
0
100
AcDbCircle
 62
7
  6
CONTINUOUS
 10
113.2228136556
 20
60.0063841546
 40
1.7033694965
100
AcDbArc
 50
350.5636876715
 51
355.3957076166
  0
ARC
  5
41C
100
AcDbEntity
  8
0
100
AcDbCircle
 62
7
  6
CONTINUOUS
 10
94.5825943846
 20
59.5009730301
 40
0.3335678168
100
AcDbArc
 50
78.8903114983
 51
89.9692795104
  0
SPLINE
  5
41D
100
AcDbEntity
  8
0
100
AcDbSpline
 62
7
  6
CONTINUOUS
 70
0
 71
3
 72
11
 73
7
 74
0
 42
0.0000001
 43
0.0000001
 44
0.0000000001
 40
0.0
 40
0.0
 40
0.0
 40
0.0
 40
0.2577328834
 40
0.5000000007
 40
0.7422671179
 40
1.0
 40
1.0
 40
1.0
 40
1.0
 10
342.1176321185
 20
179.5763604469
 30
0.0
 10
341.9563213986
 20
179.2739028471
 30
0.0
 10
341.6956038347
 20
178.6551981744
 30
0.0
 10
341.552648542
 20
177.6657581881
 30
0.0
 10
341.6956038335
 20
176.6763182028
 30
0.0
 10
341.9563213994
 20
176.0576135332
 30
0.0
 10
342.1176321185
 20
175.7551559349
 30
0.0
  0
SPLINE
  5
41E
100
AcDbEntity
  8
0
100
AcDbSpline
 62
7
  6
CONTINUOUS
 70
0
 71
3
 72
9
 73
5
 74
0
 42
0.0000001
 43
0.0000001
 44
0.0000000001
 40
0.0
 40
0.0
 40
0.0
 40
0.0
 40
0.5000869397
 40
1.0
 40
1.0
 40
1.0
 40
1.0
 10
346.1276494302
 20
151.0545016766
 30
0.0
 10
346.2744493134
 20
150.0272555093
 30
0.0
 10
346.5098852352
 20
147.9642937439
 30
0.0
 10
346.6170327417
 20
145.8904516657
 30
0.0
 10
346.6370178702
 20
144.8533225387
 30
0.0
  0
SPLINE
  5
41F
100
AcDbEntity
  8
0
100
AcDbSpline
 62
7
  6
CONTINUOUS
 70
0
 71
3
 72
11
 73
7
 74
0
 42
0.0000001
 43
0.0000001
 44
0.0000000001
 40
0.0
 40
0.0
 40
0.0
 40
0.0
 40
0.2500457849
 40
0.5000000008
 40
0.7499542166
 40
1.0
 40
1.0
 40
1.0
 40
1.0
 10
346.1276494302
 20
165.3154310618
 30
0.0
 10
346.2963544316
 20
164.134901743
 30
0.0
 10
346.5568808806
 20
161.7623597653
 30
0.0
 10
346.6905125628
 20
158.1849663583
 30
0.0
 10
346.5568808819
 20
154.607572958
 30
0.0
 10
346.2963544306
 20
152.2350309886
 30
0.0
 10
346.1276494302
 20
151.0545016766
 30
0.0
  0
SPLINE
  5
420
100
AcDbEntity
  8
0
100
AcDbSpline
 62
7
  6
CONTINUOUS
 70
0
 71
3
 72
11
 73
7
 74
0
 42
0.0000001
 43
0.0000001
 44
0.0000000001
 40
0.0
 40
0.0
 40
0.0
 40
0.0
 40
0.2506004323
 40
0.5000000008
 40
0.7493995691
 40
1.0
 40
1.0
 40
1.0
 40
1.0
 10
346.1276494302
 20
175.7551559349
 30
0.0
 10
346.2957539339
 20
174.8940246006
 30
0.0
 10
346.5564045151
 20
173.1599921661
 30
0.0
 10
346.6906513429
 20
170.5352934904
 30
0.0
 10
346.5564045165
 20
167.9105948194
 30
0.0
 10
346.2957539329
 20
166.1765623911
 30
0.0
 10
346.1276494302
 20
165.3154310618
 30
0.0
  0
SPLINE
  5
421
100
AcDbEntity
  8
0
100
AcDbSpline
 62
7
  6
CONTINUOUS
 70
0
 71
3
 72
11
 73
7
 74
0
 42
0.0000001
 43
0.0000001
 44
0.0000000001
 40
0.0
 40
0.0
 40
0.0
 40
0.0
 40
0.2577328834
 40
0.5000000007
 40
0.7422671179
 40
1.0
 40
1.0
 40
1.0
 40
1.0
 10
346.1276494302
 20
179.5763604469
 30
0.0
 10
346.2889601502
 20
179.2739028471
 30
0.0
 10
346.5496777141
 20
178.6551981744
 30
0.0
 10
346.6926330068
 20
177.6657581881
 30
0.0
 10
346.5496777153
 20
176.6763182028
 30
0.0
 10
346.2889601494
 20
176.0576135332
 30
0.0
 10
346.1276494302
 20
175.7551559349
 30
0.0
  0
SPLINE
  5
422
100
AcDbEntity
  8
RUNDUNGEN
100
AcDbSpline
 62
7
  6
CONTINUOUS
 70
0
 71
3
 72
9
 73
5
 74
0
 42
0.0000001
 43
0.0000001
 44
0.0000000001
 40
0.0
 40
0.0
 40
0.0
 40
0.0
 40
0.1992237026
 40
1.0
 40
1.0
 40
1.0
 40
1.0
 10
350.3560991461
 20
138.2066934393
 30
0.0
 10
350.3539273451
 20
138.2072102887
 30
0.0
 10
350.3427504354
 20
138.2086387865
 30
0.0
 10
350.3314592761
 20
138.2066219296
 30
0.0
 10
350.3227270064
 20
138.204556062
 30
0.0
  0
SPLINE
  5
423
100
AcDbEntity
  8
RUNDUNGEN
100
AcDbSpline
 62
7
  6
CONTINUOUS
 70
0
 71
3
 72
12
 73
8
 74
0
 42
0.0000001
 43
0.0000001
 44
0.0000000001
 40
0.0
 40
0.0
 40
0.0
 40
0.0
 40
0.0542729009
 40
0.1283319023
 40
0.3375862636
 40
0.6288814157
 40
1.0
 40
1.0
 40
1.0
 40
1.0
 10
350.3227270064
 20
138.204556062
 30
0.0
 10
350.3084696828
 20
138.2011830852
 30
0.0
 10
350.2757190293
 20
138.1894137908
 30
0.0
 10
350.1931706152
 20
138.1507712456
 30
0.0
 10
350.059025178
 20
138.0723545125
 30
0.0
 10
349.8624769863
 20
137.9429804835
 30
0.0
 10
349.7174954483
 20
137.8381648126
 30
0.0
 10
349.6373466567
 20
137.7780584673
 30
0.0
  0
SPLINE
  5
424
100
AcDbEntity
  8
RUNDUNGEN
100
AcDbSpline
 62
7
  6
CONTINUOUS
 70
0
 71
3
 72
20
 73
16
 74
0
 42
0.0000001
 43
0.0000001
 44
0.0000000001
 40
0.0
 40
0.0
 40
0.0
 40
0.0
 40
0.1321911901
 40
0.261980541
 40
0.3885473868
 40
0.5110491683
 40
0.6289220928
 40
0.6866661732
 40
0.7442850343
 40
0.7736372648
 40
0.8036535196
 40
0.834594567
 40
0.8665543043
 40
0.9325733822
 40
1.0
 40
1.0
 40
1.0
 40
1.0
 10
348.0554042126
 20
101.5066212065
 30
0.0
 10
348.4340129082
 20
101.6207718298
 30
0.0
 10
349.171803444
 20
101.8923039722
 30
0.0
 10
350.2020912215
 20
102.4385575697
 30
0.0
 10
351.1121055966
 20
103.1241664169
 30
0.0
 10
351.8494949306
 20
103.9474453746
 30
0.0
 10
352.2604095012
 20
104.7595455632
 30
0.0
 10
352.3769220661
 20
105.4531575786
 30
0.0
 10
352.3319828594
 20
105.8915589912
 30
0.0
 10
352.2062684105
 20
106.2202115317
 30
0.0
 10
352.0612473485
 20
106.4504069655
 30
0.0
 10
351.8661879683
 20
106.6512870729
 30
0.0
 10
351.5446713925
 20
106.868725615
 30
0.0
 10
351.0655950194
 20
107.0247807009
 30
0.0
 10
350.6652170782
 20
107.0527016766
 30
0.0
 10
350.4635140593
 20
107.0527016766
 30
0.0
  0
LINE
  5
425
100
AcDbEntity
  8
0
100
AcDbLine
 62
7
  6
CONTINUOUS
 10
338.7226407744
 20
127.2860370066
 11
335.1226407744
 21
128.2506540993
  0
LINE
  5
426
100
AcDbEntity
  8
0
100
AcDbLine
 62
7
  6
CONTINUOUS
 10
332.1226407744
 20
123.0545016766
 11
335.7226407744
 21
122.0898845839
  0
SPLINE
  5
427
100
AcDbEntity
  8
0
100
AcDbSpline
 62
7
  6
CONTINUOUS
 70
0
 71
3
 72
9
 73
5
 74
0
 42
0.0000001
 43
0.0000001
 44
0.0000000001
 40
0.0
 40
0.0
 40
0.0
 40
0.0
 40
0.1992237026
 40
1.0
 40
1.0
 40
1.0
 40
1.0
 10
337.8891824026
 20
138.2066934393
 30
0.0
 10
337.8913542036
 20
138.2072102887
 30
0.0
 10
337.9025311134
 20
138.2086387865
 30
0.0
 10
337.9138222727
 20
138.2066219296
 30
0.0
 10
337.9225545424
 20
138.204556062
 30
0.0
  0
SPLINE
  5
428
100
AcDbEntity
  8
0
100
AcDbSpline
 62
7
  6
CONTINUOUS
 70
0
 71
3
 72
12
 73
8
 74
0
 42
0.0000001
 43
0.0000001
 44
0.0000000001
 40
0.0
 40
0.0
 40
0.0
 40
0.0
 40
0.0542729009
 40
0.1283319023
 40
0.3375862636
 40
0.6288814157
 40
1.0
 40
1.0
 40
1.0
 40
1.0
 10
337.9225545424
 20
138.204556062
 30
0.0
 10
337.936811866
 20
138.2011830852
 30
0.0
 10
337.9695625195
 20
138.1894137908
 30
0.0
 10
338.0521109336
 20
138.1507712456
 30
0.0
 10
338.1862563708
 20
138.0723545125
 30
0.0
 10
338.3828045624
 20
137.9429804835
 30
0.0
 10
338.5277861004
 20
137.8381648126
 30
0.0
 10
338.607934892
 20
137.7780584673
 30
0.0
  0
SPLINE
  5
429
100
AcDbEntity
  8
0
100
AcDbSpline
 62
7
  6
CONTINUOUS
 70
0
 71
3
 72
9
 73
5
 74
0
 42
0.0000001
 43
0.0000001
 44
0.0000000001
 40
0.0
 40
0.0
 40
0.0
 40
0.0
 40
0.5000869397
 40
1.0
 40
1.0
 40
1.0
 40
1.0
 10
342.1176321185
 20
151.0545016766
 30
0.0
 10
341.9708322354
 20
150.0272555093
 30
0.0
 10
341.7353963136
 20
147.9642937439
 30
0.0
 10
341.6282488071
 20
145.8904516657
 30
0.0
 10
341.6082636786
 20
144.8533225387
 30
0.0
  0
SPLINE
  5
42A
100
AcDbEntity
  8
0
100
AcDbSpline
 62
7
  6
CONTINUOUS
 70
0
 71
3
 72
11
 73
7
 74
0
 42
0.0000001
 43
0.0000001
 44
0.0000000001
 40
0.0
 40
0.0
 40
0.0
 40
0.0
 40
0.2500457849
 40
0.5000000008
 40
0.7499542166
 40
1.0
 40
1.0
 40
1.0
 40
1.0
 10
342.1176321185
 20
165.3154310618
 30
0.0
 10
341.9489271172
 20
164.134901743
 30
0.0
 10
341.6884006682
 20
161.7623597653
 30
0.0
 10
341.5547689859
 20
158.1849663583
 30
0.0
 10
341.6884006668
 20
154.607572958
 30
0.0
 10
341.9489271181
 20
152.2350309886
 30
0.0
 10
342.1176321185
 20
151.0545016766
 30
0.0
  0
SPLINE
  5
42B
100
AcDbEntity
  8
0
100
AcDbSpline
 62
7
  6
CONTINUOUS
 70
0
 71
3
 72
11
 73
7
 74
0
 42
0.0000001
 43
0.0000001
 44
0.0000000001
 40
0.0
 40
0.0
 40
0.0
 40
0.0
 40
0.2506004323
 40
0.5000000008
 40
0.7493995691
 40
1.0
 40
1.0
 40
1.0
 40
1.0
 10
342.1176321185
 20
175.7551559349
 30
0.0
 10
341.9495276149
 20
174.8940246006
 30
0.0
 10
341.6888770337
 20
173.1599921661
 30
0.0
 10
341.5546302059
 20
170.5352934904
 30
0.0
 10
341.6888770323
 20
167.9105948194
 30
0.0
 10
341.9495276159
 20
166.1765623911
 30
0.0
 10
342.1176321185
 20
165.3154310618
 30
0.0
  0
LINE
  5
42C
100
AcDbEntity
  8
RUNDUNGEN
100
AcDbLine
 62
7
  6
CONTINUOUS
 10
349.5226407744
 20
127.2860370066
 11
353.1226407744
 21
128.2506540993
  0
LINE
  5
42D
100
AcDbEntity
  8
RUNDUNGEN
100
AcDbLine
 62
7
  6
CONTINUOUS
 10
356.1226407744
 20
123.0545016766
 11
352.5226407744
 21
122.0898845839
  0
SPLINE
  5
42E
100
AcDbEntity
  8
0
100
AcDbSpline
 62
7
  6
CONTINUOUS
 70
0
 71
3
 72
22
 73
18
 74
0
 42
0.0000001
 43
0.0000001
 44
0.0000000001
 40
0.0
 40
0.0
 40
0.0
 40
0.0
 40
0.1326783965
 40
0.263459051
 40
0.3913746768
 40
0.5153371175
 40
0.575643447
 40
0.6346684792
 40
0.6924801705
 40
0.7495023058
 40
0.7781842674
 40
0.807305335
 40
0.8372294965
 40
0.8682440719
 40
0.9003591982
 40
0.9332757143
 40
1.0
 40
1.0
 40
1.0
 40
1.0
 10
341.5066790498
 20
101.2027016909
 30
0.0
 10
341.0558894724
 20
101.2767725744
 30
0.0
 10
340.1688125704
 20
101.4803596119
 30
0.0
 10
338.9046198996
 20
101.9604716239
 30
0.0
 10
337.7559115639
 20
102.617677116
 30
0.0
 10
336.9330972554
 20
103.3244309982
 30
0.0
 10
336.4106265364
 20
103.9823690226
 30
0.0
 10
336.1067324602
 20
104.5146437874
 30
0.0
 10
335.9116948889
 20
105.0850320712
 30
0.0
 10
335.8722405475
 20
105.5857688643
 30
0.0
 10
335.9430955474
 20
105.9769372144
 30
0.0
 10
336.0561969876
 20
106.2595840337
 30
0.0
 10
336.2352888184
 20
106.5162949204
 30
0.0
 10
336.477976545
 20
106.7300577084
 30
0.0
 10
336.7710620469
 20
106.888577081
 30
0.0
 10
337.2058881346
 20
107.0249422398
 30
0.0
 10
337.552024329
 20
107.0527016766
 30
0.0
 10
337.7817674894
 20
107.0527016766
 30
0.0
  0
SPLINE
  5
42F
100
AcDbEntity
  8
KONSTRUKTIONSELEMENTE
100
AcDbSpline
 62
7
  6
CONTINUOUS
 70
0
 71
3
 72
14
 73
10
 74
0
 42
0.0000001
 43
0.0000001
 44
0.0000000001
 40
0.0
 40
0.0
 40
0.0
 40
0.0
 40
0.1193894076
 40
0.2390957115
 40
0.3600148606
 40
0.4826457182
 40
0.6077304619
 40
0.7357412445
 40
1.0
 40
1.0
 40
1.0
 40
1.0
 10
95.2525874231
 20
97.1839209813
 30
0.0
 10
95.2525874231
 20
97.5425605925
 30
0.0
 10
95.3286778745
 20
98.2630647283
 30
0.0
 10
95.6642768719
 20
99.2985717663
 30
0.0
 10
96.2001765803
 20
100.2568494489
 30
0.0
 10
96.912417524
 20
101.1121622012
 30
0.0
 10
97.7733888931
 20
101.8497529358
 30
0.0
 10
99.0976656897
 20
102.6713801498
 30
0.0
 10
100.2243112501
 20
103.0741309569
 30
0.0
 10
100.9984751026
 20
103.2496871019
 30
0.0
  0
SPLINE
  5
430
100
AcDbEntity
  8
KONSTRUKTIONSELEMENTE
100
AcDbSpline
 62
7
  6
CONTINUOUS
 70
0
 71
3
 72
14
 73
10
 74
0
 42
0.0000001
 43
0.0000001
 44
0.0000000001
 40
0.0
 40
0.0
 40
0.0
 40
0.0
 40
0.2642708626
 40
0.3922805637
 40
0.5173547468
 40
0.6399817364
 40
0.7608849187
 40
0.8806119843
 40
1.0
 40
1.0
 40
1.0
 40
1.0
 10
105.5047582019
 20
103.2501183143
 30
0.0
 10
106.2791555284
 20
103.07463821
 30
0.0
 10
107.4061662793
 20
102.67203082
 30
0.0
 10
108.7308727539
 20
101.8504374581
 30
0.0
 10
109.5921024556
 20
101.112832596
 30
0.0
 10
110.3045357881
 20
100.2574893192
 30
0.0
 10
110.8407677497
 20
99.299109459
 30
0.0
 10
111.1764048717
 20
98.2633447806
 30
0.0
 10
111.2525874231
 20
97.5426352516
 30
0.0
 10
111.2525874231
 20
97.1839209813
 30
0.0
  0
SPLINE
  5
431
100
AcDbEntity
  8
KONSTRUKTIONSELEMENTE
100
AcDbSpline
 62
7
  6
CONTINUOUS
 70
0
 71
3
 72
14
 73
10
 74
0
 42
0.0000001
 43
0.0000001
 44
0.0000000001
 40
0.0
 40
0.0
 40
0.0
 40
0.0
 40
0.0551359094
 40
0.1223699656
 40
0.2074507274
 40
0.3149057254
 40
0.4478676734
 40
0.6082995934
 40
1.0
 40
1.0
 40
1.0
 40
1.0
 10
99.7525874231
 20
97.1839209813
 30
0.0
 10
99.7525874231
 20
97.218995979
 30
0.0
 10
99.7586784869
 20
97.2970160482
 30
0.0
 10
99.7928278924
 20
97.4252083752
 30
0.0
 10
99.8615611863
 20
97.5762144009
 30
0.0
 10
99.9744545608
 20
97.7506679233
 30
0.0
 10
100.1430866404
 20
97.9430838354
 30
0.0
 10
100.4706997494
 20
98.2318563983
 30
0.0
 10
100.7758365615
 20
98.4136851456
 30
0.0
 10
101.0005955348
 20
98.5212732766
 30
0.0
  0
SPLINE
  5
432
100
AcDbEntity
  8
KONSTRUKTIONSELEMENTE
100
AcDbSpline
 62
7
  6
CONTINUOUS
 70
0
 71
3
 72
14
 73
10
 74
0
 42
0.0000001
 43
0.0000001
 44
0.0000000001
 40
0.0
 40
0.0
 40
0.0
 40
0.0
 40
0.3917172299
 40
0.5521555057
 40
0.6851138818
 40
0.7925516428
 40
0.877642207
 40
0.9448879032
 40
1.0
 40
1.0
 40
1.0
 40
1.0
 10
105.5043366586
 20
98.5213852047
 30
0.0
 10
105.7291445646
 20
98.413795304
 30
0.0
 10
106.0343460253
 20
98.2319459175
 30
0.0
 10
106.3620186732
 20
97.9431339658
 30
0.0
 10
106.5306977032
 20
97.7507255745
 30
0.0
 10
106.6436113251
 20
97.5762563334
 30
0.0
 10
106.7123256179
 20
97.4252135246
 30
0.0
 10
106.7464808819
 20
97.2970077592
 30
0.0
 10
106.7525874231
 20
97.2189856421
 30
0.0
 10
106.7525874231
 20
97.1839209813
 30
0.0
  0
SPLINE
  5
433
100
AcDbEntity
  8
KONSTRUKTIONSELEMENTE
100
AcDbSpline
 62
7
  6
CONTINUOUS
 70
0
 71
3
 72
12
 73
8
 74
0
 42
0.0000001
 43
0.0000001
 44
0.0000000001
 40
0.0
 40
0.0
 40
0.0
 40
0.0
 40
0.1282453638
 40
0.2146169864
 40
0.321985829
 40
0.6101725692
 40
1.0
 40
1.0
 40
1.0
 40
1.0
 10
106.7525874231
 20
86.5773192635
 30
0.0
 10
106.7525874231
 20
86.5080562537
 30
0.0
 10
106.7329244374
 20
86.391512404
 30
0.0
 10
106.6662345437
 20
86.2304888802
 30
0.0
 10
106.535069653
 20
86.0046777061
 30
0.0
 10
106.2437751926
 20
85.6897032628
 30
0.0
 10
105.9414777892
 20
85.4783360207
 30
0.0
 10
105.7589414881
 20
85.3734214242
 30
0.0
  0
SPLINE
  5
434
100
AcDbEntity
  8
KONSTRUKTIONSELEMENTE
100
AcDbSpline
 62
7
  6
CONTINUOUS
 70
0
 71
3
 72
12
 73
8
 74
0
 42
0.0000001
 43
0.0000001
 44
0.0000000001
 40
0.0
 40
0.0
 40
0.0
 40
0.0
 40
0.3898396094
 40
0.6780156338
 40
0.7853729626
 40
0.8717632718
 40
1.0
 40
1.0
 40
1.0
 40
1.0
 10
100.746141822
 20
85.3734738954
 30
0.0
 10
100.5636145786
 20
85.4783893049
 30
0.0
 10
100.2613668149
 20
85.6897786426
 30
0.0
 10
99.9700618387
 20
86.0046965602
 30
0.0
 10
99.8389236804
 20
86.2305050221
 30
0.0
 10
99.7722778733
 20
86.3915307565
 30
0.0
 10
99.7525874231
 20
86.5080655311
 30
0.0
 10
99.7525874231
 20
86.5773192635
 30
0.0
  0
SPLINE
  5
435
100
AcDbEntity
  8
KONSTRUKTIONSELEMENTE
100
AcDbSpline
 62
7
  6
CONTINUOUS
 70
0
 71
3
 72
14
 73
10
 74
0
 42
0.0000001
 43
0.0000001
 44
0.0000000001
 40
0.0
 40
0.0
 40
0.0
 40
0.0
 40
0.1196424727
 40
0.2395631224
 40
0.3606430533
 40
0.4833332762
 40
0.6083558391
 40
0.7361852119
 40
1.0
 40
1.0
 40
1.0
 40
1.0
 10
111.2525874231
 20
86.5773192635
 30
0.0
 10
111.2525874231
 20
86.2281055614
 30
0.0
 10
111.1804887231
 20
85.5267669248
 30
0.0
 10
110.8621811257
 20
84.5165378235
 30
0.0
 10
110.3528803869
 20
83.5779999713
 30
0.0
 10
109.6744723765
 20
82.7354183742
 30
0.0
 10
108.8524062817
 20
82.0031758821
 30
0.0
 10
107.584908742
 20
81.1785022363
 30
0.0
 10
106.5022362807
 20
80.7615044119
 30
0.0
 10
105.7560117591
 20
80.5715359212
 30
0.0
  0
SPLINE
  5
436
100
AcDbEntity
  8
KONSTRUKTIONSELEMENTE
100
AcDbSpline
 62
7
  6
CONTINUOUS
 70
0
 71
3
 72
14
 73
10
 74
0
 42
0.0000001
 43
0.0000001
 44
0.0000000001
 40
0.0
 40
0.0
 40
0.0
 40
0.0
 40
0.2638203492
 40
0.3916464215
 40
0.5166578653
 40
0.6393440549
 40
0.7604112963
 40
0.8803567455
 40
1.0
 40
1.0
 40
1.0
 40
1.0
 10
100.7482596206
 20
80.5717831108
 30
0.0
 10
100.0021197983
 20
80.7618177121
 30
0.0
 10
98.9195863831
 20
81.1788434411
 30
0.0
 10
97.6523149362
 20
82.0035252581
 30
0.0
 10
96.8304417586
 20
82.7357257443
 30
0.0
 10
96.1521972142
 20
83.578176807
 30
0.0
 10
95.6428895321
 20
84.5166141021
 30
0.0
 10
95.3247304292
 20
85.5268129601
 30
0.0
 10
95.2525874231
 20
86.228140466
 30
0.0
 10
95.2525874231
 20
86.5773192635
 30
0.0
  0
SPLINE
  5
437
100
AcDbEntity
  8
KONSTRUKTIONSELEMENTE
100
AcDbSpline
 62
7
  6
CONTINUOUS
 70
0
 71
3
 72
12
 73
8
 74
0
 42
0.0000001
 43
0.0000001
 44
0.0000000001
 40
0.0
 40
0.0
 40
0.0
 40
0.0
 40
0.1282453638
 40
0.2146169864
 40
0.321985829
 40
0.6101725692
 40
1.0
 40
1.0
 40
1.0
 40
1.0
 10
99.7525874231
 20
128.2966193535
 30
0.0
 10
99.7525874231
 20
128.3658823633
 30
0.0
 10
99.7722504088
 20
128.482426213
 30
0.0
 10
99.8389403025
 20
128.6434497368
 30
0.0
 10
99.9701051933
 20
128.8692609109
 30
0.0
 10
100.2613996537
 20
129.1842353542
 30
0.0
 10
100.5636970571
 20
129.3956025963
 30
0.0
 10
100.7462333581
 20
129.5005171928
 30
0.0
  0
SPLINE
  5
438
100
AcDbEntity
  8
KONSTRUKTIONSELEMENTE
100
AcDbSpline
 62
7
  6
CONTINUOUS
 70
0
 71
3
 72
12
 73
8
 74
0
 42
0.0000001
 43
0.0000001
 44
0.0000000001
 40
0.0
 40
0.0
 40
0.0
 40
0.0
 40
0.3898396094
 40
0.6780156338
 40
0.7853729626
 40
0.8717632718
 40
1.0
 40
1.0
 40
1.0
 40
1.0
 10
105.7590330242
 20
129.5004647216
 30
0.0
 10
105.9415602677
 20
129.3955493121
 30
0.0
 10
106.2438080314
 20
129.1841599744
 30
0.0
 10
106.5351130075
 20
128.8692420568
 30
0.0
 10
106.6662511658
 20
128.6434335949
 30
0.0
 10
106.7328969729
 20
128.4824078604
 30
0.0
 10
106.7525874231
 20
128.3658730859
 30
0.0
 10
106.7525874231
 20
128.2966193535
 30
0.0
  0
SPLINE
  5
439
100
AcDbEntity
  8
KONSTRUKTIONSELEMENTE
100
AcDbSpline
 62
7
  6
CONTINUOUS
 70
0
 71
3
 72
9
 73
5
 74
0
 42
0.0000001
 43
0.0000001
 44
0.0000000001
 40
0.0
 40
0.0
 40
0.0
 40
0.0
 40
0.2518169059
 40
1.0
 40
1.0
 40
1.0
 40
1.0
 10
100.7512667729
 20
139.8903840104
 30
0.0
 10
100.3344488642
 20
139.9231722308
 30
0.0
 10
98.6819778553
 20
140.0860771635
 30
0.0
 10
97.0421422202
 20
140.3800688016
 30
0.0
 10
95.8354963628
 20
140.6753487413
 30
0.0
  0
SPLINE
  5
43A
100
AcDbEntity
  8
KONSTRUKTIONSELEMENTE
100
AcDbSpline
 62
7
  6
CONTINUOUS
 70
0
 71
3
 72
11
 73
7
 74
0
 42
0.0000001
 43
0.0000001
 44
0.0000000001
 40
0.0
 40
0.0
 40
0.0
 40
0.0
 40
0.2312449555
 40
0.4772736391
 40
0.7347896414
 40
1.0
 40
1.0
 40
1.0
 40
1.0
 10
115.8964422262
 20
149.4036805371
 30
0.0
 10
115.2103157485
 20
148.9279508447
 30
0.0
 10
113.7162820818
 20
148.0553367363
 30
0.0
 10
111.2597201297
 20
147.0353016577
 30
0.0
 10
108.5781196541
 20
146.2941596302
 30
0.0
 10
106.7080142461
 20
146.0060176381
 30
0.0
 10
105.7549544235
 20
145.9133801388
 30
0.0
  0
SPLINE
  5
43B
100
AcDbEntity
  8
KONSTRUKTIONSELEMENTE
100
AcDbSpline
 62
7
  6
CONTINUOUS
 70
0
 71
3
 72
11
 73
7
 74
0
 42
0.0000001
 43
0.0000001
 44
0.0000000001
 40
0.0
 40
0.0
 40
0.0
 40
0.0
 40
0.2652138837
 40
0.5227326221
 40
0.7687609384
 40
1.0
 40
1.0
 40
1.0
 40
1.0
 10
100.7505605962
 20
145.9133403643
 30
0.0
 10
99.7972553189
 20
146.0059915733
 30
0.0
 10
97.9266698347
 20
146.2942047698
 30
0.0
 10
95.24441752
 20
147.0356209491
 30
0.0
 10
92.7873318042
 20
148.0560630794
 30
0.0
 10
91.2930580915
 20
148.9290631831
 30
0.0
 10
90.6068447119
 20
149.404986568
 30
0.0
  0
SPLINE
  5
43C
100
AcDbEntity
  8
0
100
AcDbSpline
 62
7
  6
CONTINUOUS
 70
0
 71
3
 72
12
 73
8
 74
0
 42
0.0000001
 43
0.0000001
 44
0.0000000001
 40
0.0
 40
0.0
 40
0.0
 40
0.0
 40
0.1089727213
 40
0.2201620805
 40
0.4554253
 40
0.7155329149
 40
1.0
 40
1.0
 40
1.0
 40
1.0
 10
114.9260796901
 20
59.721403714
 30
0.0
 10
114.9260796901
 20
59.8364031205
 30
0.0
 10
114.9018970951
 20
60.0694334673
 30
0.0
 10
114.7565453334
 20
60.530464148
 30
0.0
 10
114.3883871132
 20
61.0719783064
 30
0.0
 10
113.7297076461
 20
61.5818510632
 30
0.0
 10
113.1958057138
 20
61.810852178
 30
0.0
 10
112.9089294796
 20
61.8992926001
 30
0.0
  0
SPLINE
  5
43D
100
AcDbEntity
  8
0
100
AcDbSpline
 62
7
  6
CONTINUOUS
 70
0
 71
3
 72
19
 73
15
 74
0
 42
0.0000001
 43
0.0000001
 44
0.0000000001
 40
0.0
 40
0.0
 40
0.0
 40
0.0
 40
0.0517123707
 40
0.1053415175
 40
0.1622467977
 40
0.2232148443
 40
0.3564757697
 40
0.5
 40
0.6435242303
 40
0.7767851557
 40
0.8377532023
 40
0.8946584825
 40
0.9482876293
 40
1.0
 40
1.0
 40
1.0
 40
1.0
 10
104.4674142761
 20
59.1358261942
 30
0.0
 10
104.4674142761
 20
59.0657589515
 30
0.0
 10
104.487801747
 20
58.922310811
 30
0.0
 10
104.576734891
 20
58.7187316294
 30
0.0
 10
104.719569747
 20
58.5328428148
 30
0.0
 10
104.9804544064
 20
58.3111921529
 30
0.0
 10
105.4059217164
 20
58.1190076978
 30
0.0
 10
105.9770684203
 20
58.04206602
 30
0.0
 10
106.5482151242
 20
58.1190076978
 30
0.0
 10
106.9736824342
 20
58.3111921529
 30
0.0
 10
107.2345670936
 20
58.5328428148
 30
0.0
 10
107.3774019497
 20
58.7187316294
 30
0.0
 10
107.4663350937
 20
58.922310811
 30
0.0
 10
107.4867225646
 20
59.0657589515
 30
0.0
 10
107.4867225646
 20
59.1358261942
 30
0.0
  0
SPLINE
  5
43E
100
AcDbEntity
  8
0
100
AcDbSpline
 62
7
  6
CONTINUOUS
 70
0
 71
3
 72
13
 73
9
 74
0
 42
0.0000001
 43
0.0000001
 44
0.0000000001
 40
0.0
 40
0.0
 40
0.0
 40
0.0
 40
0.1034557072
 40
0.2106700021
 40
0.3244995741
 40
0.4464358475
 40
0.7129373538
 40
1.0
 40
1.0
 40
1.0
 40
1.0
 10
102.541944224
 20
60.8003248546
 30
0.0
 10
102.54193312
 20
60.8743453452
 30
0.0
 10
102.5203732499
 20
61.0258357236
 30
0.0
 10
102.4263291221
 20
61.2407811992
 30
0.0
 10
102.2755220966
 20
61.4370997617
 30
0.0
 10
101.9999016528
 20
61.671114486
 30
0.0
 10
101.5508861398
 20
61.8741018215
 30
0.0
 10
101.1528018638
 20
61.9275768713
 30
0.0
 10
100.9474142761
 20
61.9275768713
 30
0.0
  0
SPLINE
  5
43F
100
AcDbEntity
  8
0
100
AcDbSpline
 62
7
  6
CONTINUOUS
 70
0
 71
3
 72
11
 73
7
 74
0
 42
0.0000001
 43
0.0000001
 44
0.0000000001
 40
0.0
 40
0.0
 40
0.0
 40
0.0
 40
0.2092798753
 40
0.444592951
 40
0.7123432609
 40
1.0
 40
1.0
 40
1.0
 40
1.0
 10
93.8027732349
 20
59.1953162688
 30
0.0
 10
93.8027732349
 20
59.1863303761
 30
0.0
 10
93.8086645912
 20
59.1670398892
 30
0.0
 10
93.8309602512
 20
59.1448324159
 30
0.0
 10
93.8624421513
 20
59.1307161714
 30
0.0
 10
93.8864220589
 20
59.1274340178
 30
0.0
 10
93.8987732349
 20
59.1274340178
 30
0.0
  0
SPLINE
  5
440
100
AcDbEntity
  8
0
100
AcDbSpline
 62
7
  6
CONTINUOUS
 70
0
 71
3
 72
11
 73
7
 74
0
 42
0.0000001
 43
0.0000001
 44
0.0000000001
 40
0.0
 40
0.0
 40
0.0
 40
0.0
 40
0.2092798753
 40
0.444592951
 40
0.7123432609
 40
1.0
 40
1.0
 40
1.0
 40
1.0
 10
94.4627732349
 20
59.2292573943
 30
0.0
 10
94.4627732349
 20
59.238243287
 30
0.0
 10
94.4568818786
 20
59.257533774
 30
0.0
 10
94.4345862187
 20
59.2797412472
 30
0.0
 10
94.4031043186
 20
59.2938574917
 30
0.0
 10
94.379124411
 20
59.2971396453
 30
0.0
 10
94.3667732349
 20
59.2971396453
 30
0.0
  0
SPLINE
  5
441
100
AcDbEntity
  8
RUNDUNGEN
100
AcDbSpline
 62
7
  6
CONTINUOUS
 70
0
 71
3
 72
10
 73
6
 74
0
 42
0.0000001
 43
0.0000001
 44
0.0000000001
 40
0.0
 40
0.0
 40
0.0
 40
0.0
 40
0.5180750537
 40
0.7617172794
 40
1.0
 40
1.0
 40
1.0
 40
1.0
 10
130.0291956003
 20
30.3857428818
 30
0.0
 10
130.2498901275
 20
30.1628738205
 30
0.0
 10
130.5281496113
 20
29.7781355753
 30
0.0
 10
130.7204911741
 20
29.2004665178
 30
0.0
 10
130.7525874231
 20
28.907683748
 30
0.0
 10
130.7525874231
 20
28.7634237311
 30
0.0
  0
SPLINE
  5
442
100
AcDbEntity
  8
0
100
AcDbSpline
 62
7
  6
CONTINUOUS
 70
0
 71
3
 72
11
 73
7
 74
0
 42
0.0000001
 43
0.0000001
 44
0.0000000001
 40
0.0
 40
0.0
 40
0.0
 40
0.0
 40
0.2092798753
 40
0.444592951
 40
0.7123432609
 40
1.0
 40
1.0
 40
1.0
 40
1.0
 10
94.4627732349
 20
60.9263136692
 30
0.0
 10
94.4627732349
 20
60.9352995618
 30
0.0
 10
94.4568818786
 20
60.9545900488
 30
0.0
 10
94.4345862187
 20
60.9767975221
 30
0.0
 10
94.4031043186
 20
60.9909137665
 30
0.0
 10
94.379124411
 20
60.9941959202
 30
0.0
 10
94.3667732349
 20
60.9941959202
 30
0.0
  0
SPLINE
  5
443
100
AcDbEntity
  8
RUNDUNGEN
100
AcDbSpline
 62
7
  6
CONTINUOUS
 70
0
 71
3
 72
11
 73
7
 74
0
 42
0.0000001
 43
0.0000001
 44
0.0000000001
 40
0.0
 40
0.0
 40
0.0
 40
0.0
 40
0.2793755914
 40
0.5367190118
 40
0.774320888
 40
1.0
 40
1.0
 40
1.0
 40
1.0
 10
138.8760376786
 20
75.1551526658
 30
0.0
 10
138.951655305
 20
75.1177127533
 30
0.0
 10
139.0905639309
 20
75.031345084
 30
0.0
 10
139.2567864068
 20
74.8632974708
 30
0.0
 10
139.3629139256
 20
74.6696019749
 30
0.0
 10
139.3876966841
 20
74.5286972941
 30
0.0
 10
139.3877372673
 20
74.4605363048
 30
0.0
  0
SPLINE
  5
444
100
AcDbEntity
  8
RUNDUNGEN
100
AcDbSpline
 62
7
  6
CONTINUOUS
 70
0
 71
3
 72
11
 73
7
 74
0
 42
0.0000001
 43
0.0000001
 44
0.0000000001
 40
0.0
 40
0.0
 40
0.0
 40
0.0
 40
0.2297148774
 40
0.4842569964
 40
0.7475608951
 40
1.0
 40
1.0
 40
1.0
 40
1.0
 10
131.306868783
 20
77.8669493238
 30
0.0
 10
131.4026638914
 20
77.9636883149
 30
0.0
 10
131.6502510837
 20
78.1234282009
 30
0.0
 10
132.0841864456
 20
78.2373385737
 30
0.0
 10
132.5459350543
 20
78.2308702919
 30
0.0
 10
132.8440656241
 20
78.1417117084
 30
0.0
 10
132.9781429597
 20
78.075327137
 30
0.0
  0
SPLINE
  5
445
100
AcDbEntity
  8
0
100
AcDbSpline
 62
7
  6
CONTINUOUS
 70
0
 71
3
 72
9
 73
5
 74
0
 42
0.0000001
 43
0.0000001
 44
0.0000000001
 40
0.0
 40
0.0
 40
0.0
 40
0.0
 40
0.2423574743
 40
1.0
 40
1.0
 40
1.0
 40
1.0
 10
110.1355046593
 20
74.2393447295
 30
0.0
 10
109.8029274585
 20
74.4040108516
 30
0.0
 10
108.4017655539
 20
75.0243250588
 30
0.0
 10
106.9020932504
 20
75.4144160125
 30
0.0
 10
105.7549117902
 20
75.5873310432
 30
0.0
  0
SPLINE
  5
446
100
AcDbEntity
  8
0
100
AcDbSpline
 62
7
  6
CONTINUOUS
 70
0
 71
3
 72
9
 73
5
 74
0
 42
0.0000001
 43
0.0000001
 44
0.0000000001
 40
0.0
 40
0.0
 40
0.0
 40
0.0
 40
0.2572745118
 40
1.0
 40
1.0
 40
1.0
 40
1.0
 10
100.7502630561
 20
75.5873310432
 30
0.0
 10
100.3607456327
 20
75.5286189566
 30
0.0
 10
98.8558325928
 20
75.2462098322
 30
0.0
 10
97.3887934923
 20
74.7439345877
 30
0.0
 10
96.3696701869
 20
74.2393447295
 30
0.0
  0
SPLINE
  5
447
100
AcDbEntity
  8
RUNDUNGEN
100
AcDbSpline
 62
7
  6
CONTINUOUS
 70
0
 71
3
 72
13
 73
9
 74
0
 42
0.0000001
 43
0.0000001
 44
0.0000000001
 40
0.0
 40
0.0
 40
0.0
 40
0.0
 40
0.2520973212
 40
0.3837531223
 40
0.515691444
 40
0.6454036133
 40
0.770600228
 40
1.0
 40
1.0
 40
1.0
 40
1.0
 10
71.5610669802
 20
77.1019356466
 30
0.0
 10
72.6783654198
 20
77.6551341243
 30
0.0
 10
74.5333094805
 20
78.2094972307
 30
0.0
 10
77.0788266571
 20
78.4238833735
 30
0.0
 10
79.027842802
 20
78.3198558183
 30
0.0
 10
80.9127412179
 20
77.9502195685
 30
0.0
 10
83.1736195577
 20
77.1501001205
 30
0.0
 10
84.6900825111
 20
76.1715886045
 30
0.0
 10
85.4883517866
 20
75.3654538699
 30
0.0
  0
SPLINE
  5
448
100
AcDbEntity
  8
0
100
AcDbSpline
 62
7
  6
CONTINUOUS
 70
0
 71
3
 72
11
 73
7
 74
0
 42
0.0000001
 43
0.0000001
 44
0.0000000001
 40
0.0
 40
0.0
 40
0.0
 40
0.0
 40
0.2094668498
 40
0.4446559298
 40
0.7120302568
 40
1.0
 40
1.0
 40
1.0
 40
1.0
 10
93.1427732349
 20
60.060814969
 30
0.0
 10
93.1427732349
 20
60.0383269092
 30
0.0
 10
93.1573776053
 20
59.9900237517
 30
0.0
 10
93.2133029285
 20
59.934709208
 30
0.0
 10
93.2918609206
 20
59.8991921663
 30
0.0
 10
93.3518572174
 20
59.8911093415
 30
0.0
 10
93.3827732349
 20
59.8911093415
 30
0.0
  0
SPLINE
  5
449
100
AcDbEntity
  8
0
100
AcDbSpline
 62
7
  6
CONTINUOUS
 70
0
 71
3
 72
11
 73
7
 74
0
 42
0.0000001
 43
0.0000001
 44
0.0000000001
 40
0.0
 40
0.0
 40
0.0
 40
0.0
 40
0.2094668498
 40
0.4446559298
 40
0.7120302568
 40
1.0
 40
1.0
 40
1.0
 40
1.0
 10
93.1427732349
 20
58.3637586941
 30
0.0
 10
93.1427732349
 20
58.3412706343
 30
0.0
 10
93.1573776053
 20
58.2929674769
 30
0.0
 10
93.2133029285
 20
58.2376529332
 30
0.0
 10
93.2918609206
 20
58.2021358914
 30
0.0
 10
93.3518572174
 20
58.1940530667
 30
0.0
 10
93.3827732349
 20
58.1940530667
 30
0.0
  0
SPLINE
  5
44A
100
AcDbEntity
  8
0
100
AcDbSpline
 62
7
  6
CONTINUOUS
 70
0
 71
3
 72
9
 73
5
 74
0
 42
0.0000001
 43
0.0000001
 44
0.0000000001
 40
0.0
 40
0.0
 40
0.0
 40
0.0
 40
0.4873302954
 40
1.0
 40
1.0
 40
1.0
 40
1.0
 10
96.3827732349
 20
61.5881656164
 30
0.0
 10
96.3827732349
 20
61.6149300017
 30
0.0
 10
96.3732628181
 20
61.670188257
 30
0.0
 10
96.3469184198
 20
61.7194126695
 30
0.0
 10
96.330457195
 20
61.7422554028
 30
0.0
  0
SPLINE
  5
44B
100
AcDbEntity
  8
0
100
AcDbSpline
 62
7
  6
CONTINUOUS
 70
0
 71
3
 72
9
 73
5
 74
0
 42
0.0000001
 43
0.0000001
 44
0.0000000001
 40
0.0
 40
0.0
 40
0.0
 40
0.0
 40
0.4654299385
 40
1.0
 40
1.0
 40
1.0
 40
1.0
 10
96.330457195
 20
61.7422554028
 30
0.0
 10
96.2870610569
 20
61.8024748833
 30
0.0
 10
96.1490223512
 20
61.8988931013
 30
0.0
 10
95.988026451
 20
61.9275768713
 30
0.0
 10
95.9027732349
 20
61.9275768713
 30
0.0
  0
SPLINE
  5
44C
100
AcDbEntity
  8
RUNDUNGEN
100
AcDbSpline
 62
7
  6
CONTINUOUS
 70
0
 71
3
 72
11
 73
7
 74
0
 42
0.0000001
 43
0.0000001
 44
0.0000000001
 40
0.0
 40
0.0
 40
0.0
 40
0.0
 40
0.2256934588
 40
0.4632957354
 40
0.7206235605
 40
1.0
 40
1.0
 40
1.0
 40
1.0
 10
76.4093767568
 20
65.0770588301
 30
0.0
 10
76.4094197136
 20
65.1452229462
 30
0.0
 10
76.4342066914
 20
65.2861290994
 30
0.0
 10
76.5403391461
 20
65.4798168716
 30
0.0
 10
76.7065559868
 20
65.6478571718
 30
0.0
 10
76.8454589171
 20
65.7342202629
 30
0.0
 10
76.9210754365
 20
65.7716596273
 30
0.0
  0
SPLINE
  5
44D
100
AcDbEntity
  8
RUNDUNGEN
100
AcDbSpline
 62
7
  6
CONTINUOUS
 70
0
 71
3
 72
9
 73
5
 74
0
 42
0.0000001
 43
0.0000001
 44
0.0000000001
 40
0.0
 40
0.0
 40
0.0
 40
0.0
 40
0.4805181646
 40
1.0
 40
1.0
 40
1.0
 40
1.0
 10
76.4093757228
 20
61.5414911741
 30
0.0
 10
76.4093265098
 20
61.4543819863
 30
0.0
 10
76.4507209976
 20
61.2713905812
 30
0.0
 10
76.5601218672
 20
61.1212721546
 30
0.0
 10
76.626384707
 20
61.0543564177
 30
0.0
  0
SPLINE
  5
44E
100
AcDbEntity
  8
RUNDUNGEN
100
AcDbSpline
 62
7
  6
CONTINUOUS
 70
0
 71
3
 72
11
 73
7
 74
0
 42
0.0000001
 43
0.0000001
 44
0.0000000001
 40
0.0
 40
0.0
 40
0.0
 40
0.0
 40
0.2256919297
 40
0.4632773963
 40
0.7205986282
 40
1.0
 40
1.0
 40
1.0
 40
1.0
 10
68.2170705779
 20
73.9733530741
 30
0.0
 10
68.2170267123
 20
74.2007205547
 30
0.0
 10
68.299250068
 20
74.6707960765
 30
0.0
 10
68.6529025158
 20
75.3170698283
 30
0.0
 10
69.2071857866
 20
75.8777571511
 30
0.0
 10
69.6705130831
 20
76.165881768
 30
0.0
 10
69.9227628917
 20
76.2907760713
 30
0.0
  0
SPLINE
  5
44F
100
AcDbEntity
  8
RUNDUNGEN
100
AcDbSpline
 62
7
  6
CONTINUOUS
 70
0
 71
3
 72
10
 73
6
 74
0
 42
0.0000001
 43
0.0000001
 44
0.0000000001
 40
0.0
 40
0.0
 40
0.0
 40
0.0
 40
0.2382860828
 40
0.4819052527
 40
1.0
 40
1.0
 40
1.0
 40
1.0
 10
68.2170705779
 20
70.4378191682
 30
0.0
 10
68.2170984022
 20
70.293597606
 30
0.0
 10
68.2492907896
 20
70.0009218183
 30
0.0
 10
68.4416113864
 20
69.4234347988
 30
0.0
 10
68.7198194844
 20
69.0388261353
 30
0.0
 10
68.9404604599
 20
68.8160111533
 30
0.0
  0
SPLINE
  5
450
100
AcDbEntity
  8
RUNDUNGEN
100
AcDbSpline
 62
7
  6
CONTINUOUS
 70
0
 71
3
 72
11
 73
7
 74
0
 42
0.0000001
 43
0.0000001
 44
0.0000000001
 40
0.0
 40
0.0
 40
0.0
 40
0.0
 40
0.237780559
 40
0.4809056754
 40
0.7339193747
 40
1.0
 40
1.0
 40
1.0
 40
1.0
 10
115.6680791984
 20
44.0282267712
 30
0.0
 10
115.6680792137
 20
44.4610095949
 30
0.0
 10
115.7640870261
 20
45.3390979552
 30
0.0
 10
116.1897828173
 20
46.614882659
 30
0.0
 10
116.8841397924
 20
47.8253715432
 30
0.0
 10
117.4974917091
 20
48.5510633194
 30
0.0
 10
117.8382546669
 20
48.8951838624
 30
0.0
  0
SPLINE
  5
451
100
AcDbEntity
  8
RUNDUNGEN
100
AcDbSpline
 62
7
  6
CONTINUOUS
 70
0
 71
3
 72
9
 73
5
 74
0
 42
0.0000001
 43
0.0000001
 44
0.0000000001
 40
0.0
 40
0.0
 40
0.0
 40
0.0
 40
0.4843491198
 40
1.0
 40
1.0
 40
1.0
 40
1.0
 10
115.9316937169
 20
45.795035437
 30
0.0
 10
116.1024791909
 20
45.2284776815
 30
0.0
 10
116.620867926
 20
44.1045983416
 30
0.0
 10
117.3949798108
 20
43.1444453695
 30
0.0
 10
117.8382546669
 20
42.6968028642
 30
0.0
  0
SPLINE
  5
452
100
AcDbEntity
  8
RUNDUNGEN
100
AcDbSpline
 62
7
  6
CONTINUOUS
 70
0
 71
3
 72
10
 73
6
 74
0
 42
0.0000001
 43
0.0000001
 44
0.0000000001
 40
0.0
 40
0.0
 40
0.0
 40
0.0
 40
0.2382826319
 40
0.4819247904
 40
1.0
 40
1.0
 40
1.0
 40
1.0
 10
75.7525874231
 20
28.7634237311
 30
0.0
 10
75.7525874231
 20
28.9076836941
 30
0.0
 10
75.7846836421
 20
29.2004663691
 30
0.0
 10
75.9770251538
 20
29.7781354413
 30
0.0
 10
76.2552846527
 20
30.1628737538
 30
0.0
 10
76.475979246
 20
30.3857428818
 30
0.0
  0
SPLINE
  5
453
100
AcDbEntity
  8
BEZUGSACHSEN
100
AcDbSpline
 62
7
  6
CONTINUOUS
 70
0
 71
3
 72
9
 73
5
 74
0
 42
0.0000001
 43
0.0000001
 44
0.0000000001
 40
0.0
 40
0.0
 40
0.0
 40
0.0
 40
0.4784360623
 40
1.0
 40
1.0
 40
1.0
 40
1.0
 10
98.9238381524
 20
67.9940396157
 30
0.0
 10
99.1513302745
 20
67.7157297306
 30
0.0
 10
99.7179142623
 20
67.20623709
 30
0.0
 10
100.3874752178
 20
66.8508901423
 30
0.0
 10
100.7501954851
 20
66.7026076513
 30
0.0
  0
SPLINE
  5
454
100
AcDbEntity
  8
BEZUGSACHSEN
100
AcDbSpline
 62
7
  6
CONTINUOUS
 70
0
 71
3
 72
9
 73
5
 74
0
 42
0.0000001
 43
0.0000001
 44
0.0000000001
 40
0.0
 40
0.0
 40
0.0
 40
0.0
 40
0.5215639377
 40
1.0
 40
1.0
 40
1.0
 40
1.0
 10
105.7549793611
 20
66.7026076513
 30
0.0
 10
106.1176996285
 20
66.8508901423
 30
0.0
 10
106.7872605839
 20
67.20623709
 30
0.0
 10
107.3538445717
 20
67.7157297306
 30
0.0
 10
107.5813366938
 20
67.9940396157
 30
0.0
  0
SPLINE
  5
455
100
AcDbEntity
  8
BEZUGSACHSEN
100
AcDbSpline
 62
7
  6
CONTINUOUS
 70
0
 71
3
 72
12
 73
8
 74
0
 42
0.0000001
 43
0.0000001
 44
0.0000000001
 40
0.0
 40
0.0
 40
0.0
 40
0.0
 40
0.1108217967
 40
0.2235429053
 40
0.4598709646
 40
0.718266993
 40
1.0
 40
1.0
 40
1.0
 40
1.0
 10
108.2525874231
 20
66.2279489737
 30
0.0
 10
108.2525874231
 20
66.3823226348
 30
0.0
 10
108.2233511615
 20
66.6944789023
 30
0.0
 10
108.0480871698
 20
67.3137665332
 30
0.0
 10
107.602753853
 20
68.0528188277
 30
0.0
 10
106.7891441638
 20
68.7835536046
 30
0.0
 10
106.118247612
 20
69.1403176916
 30
0.0
 10
105.7549793611
 20
69.2888242019
 30
0.0
  0
SPLINE
  5
456
100
AcDbEntity
  8
BEZUGSACHSEN
100
AcDbSpline
 62
7
  6
CONTINUOUS
 70
0
 71
3
 72
12
 73
8
 74
0
 42
0.0000001
 43
0.0000001
 44
0.0000000001
 40
0.0
 40
0.0
 40
0.0
 40
0.0
 40
0.281733007
 40
0.5401290354
 40
0.7764570947
 40
0.8891782033
 40
1.0
 40
1.0
 40
1.0
 40
1.0
 10
100.7501954851
 20
69.2888242019
 30
0.0
 10
100.3869272342
 20
69.1403176916
 30
0.0
 10
99.7160306824
 20
68.7835536046
 30
0.0
 10
98.9024209932
 20
68.0528188277
 30
0.0
 10
98.4570876765
 20
67.3137665332
 30
0.0
 10
98.2818236847
 20
66.6944789023
 30
0.0
 10
98.2525874231
 20
66.3823226348
 30
0.0
 10
98.2525874231
 20
66.2279489737
 30
0.0
  0
SPLINE
  5
457
100
AcDbEntity
  8
RUNDUNGEN
100
AcDbSpline
 62
7
  6
CONTINUOUS
 70
0
 71
3
 72
13
 73
9
 74
0
 42
0.0000001
 43
0.0000001
 44
0.0000000001
 40
0.0
 40
0.0
 40
0.0
 40
0.0
 40
0.1034546555
 40
0.2106690395
 40
0.3244963599
 40
0.4464318111
 40
0.7129511617
 40
1.0
 40
1.0
 40
1.0
 40
1.0
 10
75.7525874231
 20
20.4628352225
 30
0.0
 10
75.7525874231
 20
20.2771290174
 30
0.0
 10
75.8064799941
 20
19.8970388808
 30
0.0
 10
76.0423108023
 20
19.3577042025
 30
0.0
 10
76.4206080741
 20
18.8651289802
 30
0.0
 10
77.1120570611
 20
18.277916286
 30
0.0
 10
78.2385695071
 20
17.7685766606
 30
0.0
 10
79.2373206117
 20
17.6344080978
 30
0.0
 10
79.7525874231
 20
17.6344080978
 30
0.0
  0
SPLINE
  5
458
100
AcDbEntity
  8
RUNDUNGEN
100
AcDbSpline
 62
7
  6
CONTINUOUS
 70
0
 71
3
 72
11
 73
7
 74
0
 42
0.0000001
 43
0.0000001
 44
0.0000000001
 40
0.0
 40
0.0
 40
0.0
 40
0.0
 40
0.2297023479
 40
0.4842340123
 40
0.7475494683
 40
1.0
 40
1.0
 40
1.0
 40
1.0
 10
70.8332626999
 20
66.9045588677
 30
0.0
 10
70.9290525876
 20
66.8078251487
 30
0.0
 10
71.1766251668
 20
66.6480895332
 30
0.0
 10
71.6105518255
 20
66.5341735354
 30
0.0
 10
72.0723084198
 20
66.5406330829
 30
0.0
 10
72.3704534658
 20
66.6297934752
 30
0.0
 10
72.5045368766
 20
66.6961810545
 30
0.0
  0
SPLINE
  5
459
100
AcDbEntity
  8
RUNDUNGEN
100
AcDbSpline
 62
7
  6
CONTINUOUS
 70
0
 71
3
 72
9
 73
5
 74
0
 42
0.0000001
 43
0.0000001
 44
0.0000000001
 40
0.0
 40
0.0
 40
0.0
 40
0.0
 40
0.5194816775
 40
1.0
 40
1.0
 40
1.0
 40
1.0
 10
139.1707284081
 20
70.4378494562
 30
0.0
 10
139.2369968522
 20
70.5047708526
 30
0.0
 10
139.3464058592
 20
70.6549040088
 30
0.0
 10
139.3877931775
 20
70.8379150073
 30
0.0
 10
139.3877362771
 20
70.9250316128
 30
0.0
  0
SPLINE
  5
45A
100
AcDbEntity
  8
RUNDUNGEN
100
AcDbSpline
 62
7
  6
CONTINUOUS
 70
0
 71
3
 72
13
 73
9
 74
0
 42
0.0000001
 43
0.0000001
 44
0.0000000001
 40
0.0
 40
0.0
 40
0.0
 40
0.0
 40
0.2870490624
 40
0.5535683755
 40
0.6755038246
 40
0.7893311355
 40
0.8965454157
 40
1.0
 40
1.0
 40
1.0
 40
1.0
 10
126.7525874231
 20
17.6344080978
 30
0.0
 10
127.2678546367
 20
17.6344080978
 30
0.0
 10
128.2666060997
 20
17.7685767884
 30
0.0
 10
129.393118711
 20
18.2779168579
 30
0.0
 10
130.0845674745
 20
18.8651296896
 30
0.0
 10
130.4628644063
 20
19.3577049085
 30
0.0
 10
130.6986949661
 20
19.8970393189
 30
0.0
 10
130.7525874231
 20
20.2771291452
 30
0.0
 10
130.7525874231
 20
20.4628352225
 30
0.0
  0
SPLINE
  5
45B
100
AcDbEntity
  8
RUNDUNGEN
100
AcDbSpline
 62
7
  6
CONTINUOUS
 70
0
 71
3
 72
10
 73
6
 74
0
 42
0.0000001
 43
0.0000001
 44
0.0000000001
 40
0.0
 40
0.0
 40
0.0
 40
0.0
 40
0.47201694
 40
0.7322443513
 40
1.0
 40
1.0
 40
1.0
 40
1.0
 10
111.4262691044
 20
25.9115838837
 30
0.0
 10
111.8208143419
 20
25.5131511367
 30
0.0
 10
112.6047983117
 20
25.0591837257
 30
0.0
 10
113.7554591718
 20
24.7586426991
 30
0.0
 10
114.3848001782
 20
24.7054759097
 30
0.0
 10
114.7028772816
 20
24.7054759097
 30
0.0
  0
SPLINE
  5
45C
100
AcDbEntity
  8
RUNDUNGEN
100
AcDbSpline
 62
7
  6
CONTINUOUS
 70
0
 71
3
 72
10
 73
6
 74
0
 42
0.0000001
 43
0.0000001
 44
0.0000000001
 40
0.0
 40
0.0
 40
0.0
 40
0.0
 40
0.2677558652
 40
0.5279833681
 40
1.0
 40
1.0
 40
1.0
 40
1.0
 10
91.8022975647
 20
24.7054759097
 30
0.0
 10
92.1203749269
 20
24.7054759097
 30
0.0
 10
92.749716307
 20
24.7586427655
 30
0.0
 10
93.9003771261
 20
25.0591840148
 30
0.0
 10
94.6843607598
 20
25.5131513947
 30
0.0
 10
95.0789057418
 20
25.9115838837
 30
0.0
  0
SPLINE
  5
45D
100
AcDbEntity
  8
0
100
AcDbSpline
 62
7
  6
CONTINUOUS
 70
0
 71
3
 72
11
 73
7
 74
0
 42
0.0000001
 43
0.0000001
 44
0.0000000001
 40
0.0
 40
0.0
 40
0.0
 40
0.0
 40
0.2880052506
 40
0.5553344723
 40
0.7905070702
 40
1.0
 40
1.0
 40
1.0
 40
1.0
 10
92.0627732349
 20
61.9275768713
 30
0.0
 10
92.0009340089
 20
61.9275768713
 30
0.0
 10
91.8809372737
 20
61.9114235517
 30
0.0
 10
91.7238547596
 20
61.8403475273
 30
0.0
 10
91.6119754153
 20
61.7297626116
 30
0.0
 10
91.5827732349
 20
61.6331470207
 30
0.0
 10
91.5827732349
 20
61.5881656164
 30
0.0
  0
SPLINE
  5
45E
100
AcDbEntity
  8
0
100
AcDbSpline
 62
7
  6
CONTINUOUS
 70
0
 71
3
 72
11
 73
7
 74
0
 42
0.0000001
 43
0.0000001
 44
0.0000000001
 40
0.0
 40
0.0
 40
0.0
 40
0.0
 40
0.2879697432
 40
0.5553440702
 40
0.7905331502
 40
1.0
 40
1.0
 40
1.0
 40
1.0
 10
94.5827732349
 20
59.8911093415
 30
0.0
 10
94.6136892525
 20
59.8911093415
 30
0.0
 10
94.6736855492
 20
59.8991921663
 30
0.0
 10
94.7522435414
 20
59.934709208
 30
0.0
 10
94.8081688645
 20
59.9900237517
 30
0.0
 10
94.8227732349
 20
60.0383269092
 30
0.0
 10
94.8227732349
 20
60.060814969
 30
0.0
  0
SPLINE
  5
45F
100
AcDbEntity
  8
0
100
AcDbSpline
 62
7
  6
CONTINUOUS
 70
0
 71
3
 72
11
 73
7
 74
0
 42
0.0000001
 43
0.0000001
 44
0.0000000001
 40
0.0
 40
0.0
 40
0.0
 40
0.0
 40
0.2879697432
 40
0.5553440702
 40
0.7905331502
 40
1.0
 40
1.0
 40
1.0
 40
1.0
 10
94.5827732349
 20
58.1940530667
 30
0.0
 10
94.6136892525
 20
58.1940530667
 30
0.0
 10
94.6736855492
 20
58.2021358914
 30
0.0
 10
94.7522435414
 20
58.2376529332
 30
0.0
 10
94.8081688645
 20
58.2929674769
 30
0.0
 10
94.8227732349
 20
58.3412706343
 30
0.0
 10
94.8227732349
 20
58.3637586941
 30
0.0
  0
SPLINE
  5
460
100
AcDbEntity
  8
0
100
AcDbSpline
 62
7
  6
CONTINUOUS
 70
0
 71
3
 72
11
 73
7
 74
0
 42
0.0000001
 43
0.0000001
 44
0.0000000001
 40
0.0
 40
0.0
 40
0.0
 40
0.0
 40
0.2876567391
 40
0.555407049
 40
0.7907201247
 40
1.0
 40
1.0
 40
1.0
 40
1.0
 10
93.5987732349
 20
60.9941959202
 30
0.0
 10
93.5864220589
 20
60.9941959202
 30
0.0
 10
93.5624421513
 20
60.9909137665
 30
0.0
 10
93.5309602512
 20
60.9767975221
 30
0.0
 10
93.5086645912
 20
60.9545900488
 30
0.0
 10
93.5027732349
 20
60.9352995618
 30
0.0
 10
93.5027732349
 20
60.9263136692
 30
0.0
  0
SPLINE
  5
461
100
AcDbEntity
  8
0
100
AcDbSpline
 62
7
  6
CONTINUOUS
 70
0
 71
3
 72
11
 73
7
 74
0
 42
0.0000001
 43
0.0000001
 44
0.0000000001
 40
0.0
 40
0.0
 40
0.0
 40
0.0
 40
0.2876567391
 40
0.555407049
 40
0.7907201247
 40
1.0
 40
1.0
 40
1.0
 40
1.0
 10
93.5987732349
 20
59.2971396453
 30
0.0
 10
93.5864220589
 20
59.2971396453
 30
0.0
 10
93.5624421513
 20
59.2938574917
 30
0.0
 10
93.5309602512
 20
59.2797412472
 30
0.0
 10
93.5086645912
 20
59.257533774
 30
0.0
 10
93.5027732349
 20
59.238243287
 30
0.0
 10
93.5027732349
 20
59.2292573943
 30
0.0
  0
SPLINE
  5
462
100
AcDbEntity
  8
0
100
AcDbSpline
 62
7
  6
CONTINUOUS
 70
0
 71
3
 72
11
 73
7
 74
0
 42
0.0000001
 43
0.0000001
 44
0.0000000001
 40
0.0
 40
0.0
 40
0.0
 40
0.0
 40
0.2876567391
 40
0.555407049
 40
0.7907201247
 40
1.0
 40
1.0
 40
1.0
 40
1.0
 10
94.0667732349
 20
59.1274340178
 30
0.0
 10
94.079124411
 20
59.1274340178
 30
0.0
 10
94.1031043186
 20
59.1307161714
 30
0.0
 10
94.1345862187
 20
59.1448324159
 30
0.0
 10
94.1568818786
 20
59.1670398892
 30
0.0
 10
94.1627732349
 20
59.1863303761
 30
0.0
 10
94.1627732349
 20
59.1953162688
 30
0.0
  0
SPLINE
  5
463
100
AcDbEntity
  8
0
100
AcDbSpline
 62
7
  6
CONTINUOUS
 70
0
 71
3
 72
12
 73
8
 74
0
 42
0.0000001
 43
0.0000001
 44
0.0000000001
 40
0.0
 40
0.0
 40
0.0
 40
0.0
 40
0.2874600855
 40
0.5543011876
 40
0.7890519721
 40
0.8964084757
 40
1.0
 40
1.0
 40
1.0
 40
1.0
 10
100.9474142761
 20
60.1873398971
 30
0.0
 10
101.0590491918
 20
60.1873398971
 30
0.0
 10
101.2756613916
 20
60.216696151
 30
0.0
 10
101.5593196728
 20
60.3442395459
 30
0.0
 10
101.7322458458
 20
60.5172390024
 30
0.0
 10
101.8022597718
 20
60.6775004364
 30
0.0
 10
101.8139326835
 20
60.7598418226
 30
0.0
 10
101.8139326835
 20
60.8000715159
 30
0.0
  0
SPLINE
  5
464
100
AcDbEntity
  8
0
100
AcDbSpline
 62
7
  6
CONTINUOUS
 70
0
 71
3
 72
9
 73
5
 74
0
 42
0.0000001
 43
0.0000001
 44
0.0000000001
 40
0.0
 40
0.0
 40
0.0
 40
0.0
 40
0.2457811574
 40
1.0
 40
1.0
 40
1.0
 40
1.0
 10
112.9089294796
 20
61.8992926001
 30
0.0
 10
112.8937163866
 20
61.9039826099
 30
0.0
 10
112.8310770731
 20
61.9205953812
 30
0.0
 10
112.7659481309
 20
61.9275768713
 30
0.0
 10
112.7170962187
 20
61.9275768713
 30
0.0
  0
SPLINE
  5
465
100
AcDbEntity
  8
0
100
AcDbSpline
 62
7
  6
CONTINUOUS
 70
0
 71
3
 72
11
 73
7
 74
0
 42
0.0000001
 43
0.0000001
 44
0.0000000001
 40
0.0
 40
0.0
 40
0.0
 40
0.0
 40
0.2779817175
 40
0.5346952233
 40
0.772857858
 40
1.0
 40
1.0
 40
1.0
 40
1.0
 10
112.8798446586
 20
58.1158856261
 30
0.0
 10
113.0480885916
 20
58.2069898332
 30
0.0
 10
113.3563389399
 20
58.4138325784
 30
0.0
 10
113.7226466229
 20
58.8069887342
 30
0.0
 10
113.9550025222
 20
59.2539979756
 30
0.0
 10
114.0087991741
 20
59.5763819228
 30
0.0
 10
114.0087991741
 20
59.7327174225
 30
0.0
  0
SPLINE
  5
466
100
AcDbEntity
  8
0
100
AcDbSpline
 62
7
  6
CONTINUOUS
 70
0
 71
3
 72
9
 73
5
 74
0
 42
0.0000001
 43
0.0000001
 44
0.0000000001
 40
0.0
 40
0.0
 40
0.0
 40
0.0
 40
0.2591205677
 40
1.0
 40
1.0
 40
1.0
 40
1.0
 10
112.733925401
 20
58.0809159817
 30
0.0
 10
112.7469571976
 20
58.0809159817
 30
0.0
 10
112.7971600678
 20
58.0837921975
 30
0.0
 10
112.8470794275
 20
58.0981432306
 30
0.0
 10
112.8798446586
 20
58.1158856261
 30
0.0
  0
SPLINE
  5
467
100
AcDbEntity
  8
RUNDUNGEN
100
AcDbSpline
 62
7
  6
CONTINUOUS
 70
0
 71
3
 72
13
 73
9
 74
0
 42
0.0000001
 43
0.0000001
 44
0.0000000001
 40
0.0
 40
0.0
 40
0.0
 40
0.0
 40
0.1034546555
 40
0.2106690395
 40
0.3244963599
 40
0.4464318111
 40
0.7129511617
 40
1.0
 40
1.0
 40
1.0
 40
1.0
 10
82.3525874231
 20
21.8770487849
 30
0.0
 10
82.3525874231
 20
22.0627549901
 30
0.0
 10
82.4064799941
 20
22.4428451267
 30
0.0
 10
82.6423108023
 20
22.982179805
 30
0.0
 10
83.0206080741
 20
23.4747550272
 30
0.0
 10
83.7120570611
 20
24.0619677215
 30
0.0
 10
84.8385695071
 20
24.5713073469
 30
0.0
 10
85.8373206117
 20
24.7054759097
 30
0.0
 10
86.3525874231
 20
24.7054759097
 30
0.0
  0
SPLINE
  5
468
100
AcDbEntity
  8
RUNDUNGEN
100
AcDbSpline
 62
7
  6
CONTINUOUS
 70
0
 71
3
 72
13
 73
9
 74
0
 42
0.0000001
 43
0.0000001
 44
0.0000000001
 40
0.0
 40
0.0
 40
0.0
 40
0.0
 40
0.2870490624
 40
0.5535683755
 40
0.6755038246
 40
0.7893311355
 40
0.8965454157
 40
1.0
 40
1.0
 40
1.0
 40
1.0
 10
120.1525874231
 20
24.7054759097
 30
0.0
 10
120.6678546367
 20
24.7054759097
 30
0.0
 10
121.6666060997
 20
24.5713072191
 30
0.0
 10
122.793118711
 20
24.0619671496
 30
0.0
 10
123.4845674745
 20
23.4747543179
 30
0.0
 10
123.8628644063
 20
22.982179099
 30
0.0
 10
124.0986949661
 20
22.4428446886
 30
0.0
 10
124.1525874231
 20
22.0627548623
 30
0.0
 10
124.1525874231
 20
21.8770487849
 30
0.0
  0
SPLINE
  5
469
100
AcDbEntity
  8
RUNDUNGEN
100
AcDbSpline
 62
7
  6
CONTINUOUS
 70
0
 71
3
 72
13
 73
9
 74
0
 42
0.0000001
 43
0.0000001
 44
0.0000000001
 40
0.0
 40
0.0
 40
0.0
 40
0.0
 40
0.2360077452
 40
0.3661261418
 40
0.5000000756
 40
0.6338740402
 40
0.7639924068
 40
1.0
 40
1.0
 40
1.0
 40
1.0
 10
99.1568272017
 20
30.029685675
 30
0.0
 10
99.6500072182
 20
30.5277250634
 30
0.0
 10
100.6298075545
 20
31.0952057947
 30
0.0
 10
102.0686720517
 20
31.4708475723
 30
0.0
 10
103.2525882105
 20
31.5710300629
 30
0.0
 10
104.4365042604
 20
31.4708473335
 30
0.0
 10
105.8753682508
 20
31.0952053619
 30
0.0
 10
106.8551679457
 20
30.5277247426
 30
0.0
 10
107.3483476446
 20
30.029685675
 30
0.0
  0
SPLINE
  5
46A
100
AcDbEntity
  8
RUNDUNGEN
100
AcDbSpline
 62
7
  6
CONTINUOUS
 70
0
 71
3
 72
9
 73
5
 74
0
 42
0.0000001
 43
0.0000001
 44
0.0000000001
 40
0.0
 40
0.0
 40
0.0
 40
0.0
 40
0.5156509212
 40
1.0
 40
1.0
 40
1.0
 40
1.0
 10
88.6669201794
 20
42.6968028642
 30
0.0
 10
89.1101977118
 20
43.1444480723
 30
0.0
 10
89.884313724
 20
44.1046073592
 30
0.0
 10
90.4027029491
 20
45.2284948522
 30
0.0
 10
90.5734874928
 20
45.795056518
 30
0.0
  0
SPLINE
  5
46B
100
AcDbEntity
  8
RUNDUNGEN
100
AcDbSpline
 62
7
  6
CONTINUOUS
 70
0
 71
3
 72
11
 73
7
 74
0
 42
0.0000001
 43
0.0000001
 44
0.0000000001
 40
0.0
 40
0.0
 40
0.0
 40
0.0
 40
0.2660806488
 40
0.5190943636
 40
0.7622194616
 40
1.0
 40
1.0
 40
1.0
 40
1.0
 10
88.6669201794
 20
48.8951838624
 30
0.0
 10
89.007683212
 20
48.5510632439
 30
0.0
 10
89.6210352344
 20
47.8253712975
 30
0.0
 10
90.3153922658
 20
46.6148821877
 30
0.0
 10
90.7410879732
 20
45.3390973075
 30
0.0
 10
90.8370956632
 20
44.4610088925
 30
0.0
 10
90.8370956479
 20
44.0282260496
 30
0.0
  0
SPLINE
  5
46C
100
AcDbEntity
  8
RUNDUNGEN
100
AcDbSpline
 62
7
  6
CONTINUOUS
 70
0
 71
3
 72
11
 73
7
 74
0
 42
0.0000001
 43
0.0000001
 44
0.0000000001
 40
0.0
 40
0.0
 40
0.0
 40
0.0
 40
0.2524507309
 40
0.5157647478
 40
0.7702968692
 40
1.0
 40
1.0
 40
1.0
 40
1.0
 10
75.2077386228
 20
68.0345943538
 30
0.0
 10
75.4312111532
 20
68.1452404079
 30
0.0
 10
75.9281184519
 20
68.2938405321
 30
0.0
 10
76.6977118308
 20
68.3046070365
 30
0.0
 10
77.4209230686
 20
68.1147480465
 30
0.0
 10
77.833545225
 20
67.8485214148
 30
0.0
 10
77.9931955841
 20
67.6872979985
 30
0.0
  0
SPLINE
  5
46D
100
AcDbEntity
  8
RUNDUNGEN
100
AcDbSpline
 62
7
  6
CONTINUOUS
 70
0
 71
3
 72
10
 73
6
 74
0
 42
0.0000001
 43
0.0000001
 44
0.0000000001
 40
0.0
 40
0.0
 40
0.0
 40
0.0
 40
0.5180905271
 40
0.761708294
 40
1.0
 40
1.0
 40
1.0
 40
1.0
 10
80.1154283986
 20
65.5441545267
 30
0.0
 10
80.2258758958
 20
65.4326187748
 30
0.0
 10
80.3650995009
 20
65.2400504216
 30
0.0
 10
80.4612348252
 20
64.9509129107
 30
0.0
 10
80.4771554846
 20
64.8043812381
 30
0.0
 10
80.477108346
 20
64.7321851598
 30
0.0
  0
SPLINE
  5
46E
100
AcDbEntity
  8
RUNDUNGEN
100
AcDbSpline
 62
7
  6
CONTINUOUS
 70
0
 71
3
 72
12
 73
8
 74
0
 42
0.0000001
 43
0.0000001
 44
0.0000000001
 40
0.0
 40
0.0
 40
0.0
 40
0.0
 40
0.252259356
 40
0.5153839756
 40
0.6451803977
 40
0.7704553584
 40
1.0
 40
1.0
 40
1.0
 40
1.0
 10
118.6546859199
 20
70.0213149377
 30
0.0
 10
119.1016078479
 20
69.8000342831
 30
0.0
 10
120.0950900288
 20
69.5029854805
 30
0.0
 10
121.3863271604
 20
69.4843348262
 30
0.0
 10
122.395318722
 20
69.6819572379
 30
0.0
 10
123.2997454262
 20
70.0020689252
 30
0.0
 10
123.9062938928
 20
70.3934555324
 30
0.0
 10
124.2255998425
 20
70.7159076484
 30
0.0
  0
SPLINE
  5
46F
100
AcDbEntity
  8
RUNDUNGEN
100
AcDbSpline
 62
7
  6
CONTINUOUS
 70
0
 71
3
 72
12
 73
8
 74
0
 42
0.0000001
 43
0.0000001
 44
0.0000000001
 40
0.0
 40
0.0
 40
0.0
 40
0.0
 40
0.2295488423
 40
0.3548243544
 40
0.4846199331
 40
0.7477426437
 40
1.0
 40
1.0
 40
1.0
 40
1.0
 10
87.5221480872
 20
73.3116182895
 30
0.0
 10
87.8414598759
 20
72.989160277
 30
0.0
 10
88.4480182397
 20
72.5977699008
 30
0.0
 10
89.352454178
 20
72.2776613449
 30
0.0
 10
90.3614422548
 20
72.0800443263
 30
0.0
 10
91.6526695889
 20
72.0986991421
 30
0.0
 10
92.6461436306
 20
72.3957466812
 30
0.0
 10
93.0930620098
 20
72.6170255788
 30
0.0
  0
SPLINE
  5
470
100
AcDbEntity
  8
RUNDUNGEN
100
AcDbSpline
 62
7
  6
CONTINUOUS
 70
0
 71
3
 72
11
 73
7
 74
0
 42
0.0000001
 43
0.0000001
 44
0.0000000001
 40
0.0
 40
0.0
 40
0.0
 40
0.0
 40
0.2256927635
 40
0.4632951072
 40
0.7206222905
 40
1.0
 40
1.0
 40
1.0
 40
1.0
 10
80.477108346
 20
64.7321851598
 30
0.0
 10
80.4770341708
 20
64.6185802731
 30
0.0
 10
80.435719046
 20
64.3837413384
 30
0.0
 10
80.2588308629
 20
64.0609357796
 30
0.0
 10
79.9818054817
 20
63.7808736692
 30
0.0
 10
79.7503034889
 20
63.6369373543
 30
0.0
 10
79.6242771827
 20
63.5745390207
 30
0.0
  0
SPLINE
  5
471
100
AcDbEntity
  8
0
100
AcDbSpline
 62
7
  6
CONTINUOUS
 70
0
 71
3
 72
11
 73
7
 74
0
 42
0.0000001
 43
0.0000001
 44
0.0000000001
 40
0.0
 40
0.0
 40
0.0
 40
0.0
 40
0.2092798753
 40
0.444592951
 40
0.7123432609
 40
1.0
 40
1.0
 40
1.0
 40
1.0
 10
93.5027732349
 20
58.7993364714
 30
0.0
 10
93.5027732349
 20
58.7903505787
 30
0.0
 10
93.5086645912
 20
58.7710600917
 30
0.0
 10
93.5309602512
 20
58.7488526184
 30
0.0
 10
93.5624421513
 20
58.734736374
 30
0.0
 10
93.5864220589
 20
58.7314542204
 30
0.0
 10
93.5987732349
 20
58.7314542204
 30
0.0
  0
SPLINE
  5
472
100
AcDbEntity
  8
RUNDUNGEN
100
AcDbSpline
 62
7
  6
CONTINUOUS
 70
0
 71
3
 72
11
 73
7
 74
0
 42
0.0000001
 43
0.0000001
 44
0.0000000001
 40
0.0
 40
0.0
 40
0.0
 40
0.0
 40
0.237780559
 40
0.4809056754
 40
0.7339193747
 40
1.0
 40
1.0
 40
1.0
 40
1.0
 10
90.8370956479
 20
44.0282260496
 30
0.0
 10
90.8370956326
 20
43.5954432259
 30
0.0
 10
90.7410878201
 20
42.7173548656
 30
0.0
 10
90.315392029
 20
41.4415701617
 30
0.0
 10
89.6210350539
 20
40.2310812776
 30
0.0
 10
89.0076831372
 20
39.5053895013
 30
0.0
 10
88.6669201794
 20
39.1612689583
 30
0.0
  0
SPLINE
  5
473
100
AcDbEntity
  8
0
100
AcDbSpline
 62
7
  6
CONTINUOUS
 70
0
 71
3
 72
11
 73
7
 74
0
 42
0.0000001
 43
0.0000001
 44
0.0000000001
 40
0.0
 40
0.0
 40
0.0
 40
0.0
 40
0.2092798753
 40
0.444592951
 40
0.7123432609
 40
1.0
 40
1.0
 40
1.0
 40
1.0
 10
94.1627732349
 20
60.2474911592
 30
0.0
 10
94.1627732349
 20
60.2564770519
 30
0.0
 10
94.1568818786
 20
60.2757675389
 30
0.0
 10
94.1345862187
 20
60.2979750122
 30
0.0
 10
94.1031043186
 20
60.3120912566
 30
0.0
 10
94.079124411
 20
60.3153734102
 30
0.0
 10
94.0667732349
 20
60.3153734102
 30
0.0
  0
SPLINE
  5
474
100
AcDbEntity
  8
0
100
AcDbSpline
 62
7
  6
CONTINUOUS
 70
0
 71
3
 72
11
 73
7
 74
0
 42
0.0000001
 43
0.0000001
 44
0.0000000001
 40
0.0
 40
0.0
 40
0.0
 40
0.0
 40
0.2094668498
 40
0.4446559298
 40
0.7120302568
 40
1.0
 40
1.0
 40
1.0
 40
1.0
 10
94.8227732349
 20
59.3819924591
 30
0.0
 10
94.8227732349
 20
59.4044805189
 30
0.0
 10
94.8081688645
 20
59.4527836763
 30
0.0
 10
94.7522435414
 20
59.50809822
 30
0.0
 10
94.6736855492
 20
59.5436152618
 30
0.0
 10
94.6136892525
 20
59.5516980865
 30
0.0
 10
94.5827732349
 20
59.5516980865
 30
0.0
  0
SPLINE
  5
475
100
AcDbEntity
  8
RUNDUNGEN
100
AcDbSpline
 62
7
  6
CONTINUOUS
 70
0
 71
3
 72
10
 73
6
 74
0
 42
0.0000001
 43
0.0000001
 44
0.0000000001
 40
0.0
 40
0.0
 40
0.0
 40
0.0
 40
0.5180752096
 40
0.7617173681
 40
1.0
 40
1.0
 40
1.0
 40
1.0
 10
76.475979246
 20
26.8502089759
 30
0.0
 10
76.2552846527
 20
26.6273398478
 30
0.0
 10
75.9770251538
 20
26.2426015354
 30
0.0
 10
75.7846836421
 20
25.6649324632
 30
0.0
 10
75.7525874231
 20
25.3721497881
 30
0.0
 10
75.7525874231
 20
25.2278898252
 30
0.0
  0
SPLINE
  5
476
100
AcDbEntity
  8
RUNDUNGEN
100
AcDbSpline
 62
7
  6
CONTINUOUS
 70
0
 71
3
 72
11
 73
7
 74
0
 42
0.0000001
 43
0.0000001
 44
0.0000000001
 40
0.0
 40
0.0
 40
0.0
 40
0.0
 40
0.2793752682
 40
0.5367194959
 40
0.7743217448
 40
1.0
 40
1.0
 40
1.0
 40
1.0
 10
76.9210754365
 20
62.2361257214
 30
0.0
 10
76.8454563949
 20
62.1986851082
 30
0.0
 10
76.7065450052
 20
62.1123153504
 30
0.0
 10
76.5403201797
 20
61.9442628577
 30
0.0
 10
76.4341937352
 20
61.7505613976
 30
0.0
 10
76.4094142315
 20
61.6096532602
 30
0.0
 10
76.4093757228
 20
61.5414911741
 30
0.0
  0
SPLINE
  5
477
100
AcDbEntity
  8
RUNDUNGEN
100
AcDbSpline
 62
7
  6
CONTINUOUS
 70
0
 71
3
 72
11
 73
7
 74
0
 42
0.0000001
 43
0.0000001
 44
0.0000000001
 40
0.0
 40
0.0
 40
0.0
 40
0.0
 40
0.2794013718
 40
0.5367226037
 40
0.7743080703
 40
1.0
 40
1.0
 40
1.0
 40
1.0
 10
69.9227628917
 20
72.7552421653
 30
0.0
 10
69.6705130831
 20
72.6303478621
 30
0.0
 10
69.2071857866
 20
72.3422232452
 30
0.0
 10
68.6529025158
 20
71.7815359224
 30
0.0
 10
68.299250068
 20
71.1352621706
 30
0.0
 10
68.2170267123
 20
70.6651866487
 30
0.0
 10
68.2170705779
 20
70.4378191682
 30
0.0
  0
SPLINE
  5
478
100
AcDbEntity
  8
RUNDUNGEN
100
AcDbSpline
 62
7
  6
CONTINUOUS
 70
0
 71
3
 72
13
 73
9
 74
0
 42
0.0000001
 43
0.0000001
 44
0.0000000001
 40
0.0
 40
0.0
 40
0.0
 40
0.0
 40
0.2294024287
 40
0.3545996847
 40
0.4843111938
 40
0.616248878
 40
0.747903971
 40
1.0
 40
1.0
 40
1.0
 40
1.0
 10
85.4883517866
 20
71.829919964
 30
0.0
 10
84.6900732926
 20
72.6360640079
 30
0.0
 10
83.1735922535
 20
73.6145800748
 30
0.0
 10
80.9126994327
 20
74.4146970149
 30
0.0
 10
79.0278030593
 20
74.7843262566
 30
0.0
 10
77.0787967794
 20
74.8883489747
 30
0.0
 10
74.5332931192
 20
74.6739590746
 30
0.0
 10
72.678359656
 20
74.1195973646
 30
0.0
 10
71.5610669802
 20
73.5664017407
 30
0.0
  0
SPLINE
  5
479
100
AcDbEntity
  8
0
100
AcDbSpline
 62
7
  6
CONTINUOUS
 70
0
 71
3
 72
9
 73
5
 74
0
 42
0.0000001
 43
0.0000001
 44
0.0000000001
 40
0.0
 40
0.0
 40
0.0
 40
0.0
 40
0.2423574743
 40
1.0
 40
1.0
 40
1.0
 40
1.0
 10
110.1355046593
 20
70.7038108236
 30
0.0
 10
109.8029274585
 20
70.8684769456
 30
0.0
 10
108.4017655539
 20
71.4887911529
 30
0.0
 10
106.9020932504
 20
71.8788821066
 30
0.0
 10
105.7549117902
 20
72.0517971372
 30
0.0
  0
SPLINE
  5
47A
100
AcDbEntity
  8
0
100
AcDbSpline
 62
7
  6
CONTINUOUS
 70
0
 71
3
 72
9
 73
5
 74
0
 42
0.0000001
 43
0.0000001
 44
0.0000000001
 40
0.0
 40
0.0
 40
0.0
 40
0.0
 40
0.2572745118
 40
1.0
 40
1.0
 40
1.0
 40
1.0
 10
100.7502630561
 20
72.0517971372
 30
0.0
 10
100.3607456327
 20
71.9930850507
 30
0.0
 10
98.8558325928
 20
71.7106759262
 30
0.0
 10
97.3887934923
 20
71.2084006817
 30
0.0
 10
96.3696701869
 20
70.7038108236
 30
0.0
  0
SPLINE
  5
47B
100
AcDbEntity
  8
RUNDUNGEN
100
AcDbSpline
 62
7
  6
CONTINUOUS
 70
0
 71
3
 72
11
 73
7
 74
0
 42
0.0000001
 43
0.0000001
 44
0.0000000001
 40
0.0
 40
0.0
 40
0.0
 40
0.0
 40
0.2524504675
 40
0.5157648302
 40
0.7702974388
 40
1.0
 40
1.0
 40
1.0
 40
1.0
 10
132.9781429597
 20
74.5397932311
 30
0.0
 10
132.8440595817
 20
74.6061807941
 30
0.0
 10
132.5459152115
 20
74.6953410445
 30
0.0
 10
132.0841588086
 20
74.7018008324
 30
0.0
 10
131.6502319485
 20
74.5878852204
 30
0.0
 10
131.4026587606
 20
74.4281492276
 30
0.0
 10
131.306868783
 20
74.3314154179
 30
0.0
  0
SPLINE
  5
47C
100
AcDbEntity
  8
RUNDUNGEN
100
AcDbSpline
 62
7
  6
CONTINUOUS
 70
0
 71
3
 72
10
 73
6
 74
0
 42
0.0000001
 43
0.0000001
 44
0.0000000001
 40
0.0
 40
0.0
 40
0.0
 40
0.0
 40
0.2382827206
 40
0.4819249463
 40
1.0
 40
1.0
 40
1.0
 40
1.0
 10
130.7525874231
 20
25.2278898252
 30
0.0
 10
130.7525874231
 20
25.372149842
 30
0.0
 10
130.7204911741
 20
25.6649326118
 30
0.0
 10
130.5281496113
 20
26.2426016694
 30
0.0
 10
130.2498901275
 20
26.6273399146
 30
0.0
 10
130.0291956003
 20
26.8502089759
 30
0.0
  0
SPLINE
  5
47D
100
AcDbEntity
  8
0
100
AcDbSpline
 62
7
  6
CONTINUOUS
 70
0
 71
3
 72
19
 73
15
 74
0
 42
0.0000001
 43
0.0000001
 44
0.0000000001
 40
0.0
 40
0.0
 40
0.0
 40
0.0
 40
0.0517234907
 40
0.1053372095
 40
0.1622487312
 40
0.2232163938
 40
0.3564752704
 40
0.5
 40
0.6435247296
 40
0.7767836062
 40
0.8377512688
 40
0.8946627905
 40
0.9482765093
 40
1.0
 40
1.0
 40
1.0
 40
1.0
 10
103.6994142761
 20
59.1358261942
 30
0.0
 10
103.6994142761
 20
59.0300907866
 30
0.0
 10
103.7301214359
 20
58.8136627344
 30
0.0
 10
103.8643729137
 20
58.5065432743
 30
0.0
 10
104.0798274387
 20
58.2260818907
 30
0.0
 10
104.4734751787
 20
57.8917044717
 30
0.0
 10
105.1153514498
 20
57.6016880142
 30
0.0
 10
105.9770684203
 20
57.4856612966
 30
0.0
 10
106.8387853909
 20
57.6016880142
 30
0.0
 10
107.480661662
 20
57.8917044717
 30
0.0
 10
107.8743094019
 20
58.2260818907
 30
0.0
 10
108.089763927
 20
58.5065432743
 30
0.0
 10
108.2240154048
 20
58.8136627344
 30
0.0
 10
108.2547225646
 20
59.0300907866
 30
0.0
 10
108.2547225646
 20
59.1358261942
 30
0.0
  0
SPLINE
  5
47E
100
AcDbEntity
  8
0
100
AcDbSpline
 62
7
  6
CONTINUOUS
 70
0
 71
3
 72
11
 73
7
 74
0
 42
0.0000001
 43
0.0000001
 44
0.0000000001
 40
0.0
 40
0.0
 40
0.0
 40
0.0
 40
0.2880052506
 40
0.5553344723
 40
0.7905070702
 40
1.0
 40
1.0
 40
1.0
 40
1.0
 10
95.9027732349
 20
57.5152305567
 30
0.0
 10
95.9646124609
 20
57.5152305567
 30
0.0
 10
96.0846091962
 20
57.5313838763
 30
0.0
 10
96.2416917102
 20
57.6024599008
 30
0.0
 10
96.3535710546
 20
57.7130448164
 30
0.0
 10
96.3827732349
 20
57.8096604073
 30
0.0
 10
96.3827732349
 20
57.8546418117
 30
0.0
  0
SPLINE
  5
47F
100
AcDbEntity
  8
0
100
AcDbSpline
 62
7
  6
CONTINUOUS
 70
0
 71
3
 72
11
 73
7
 74
0
 42
0.0000001
 43
0.0000001
 44
0.0000000001
 40
0.0
 40
0.0
 40
0.0
 40
0.0
 40
0.2092798753
 40
0.444592951
 40
0.7123432609
 40
1.0
 40
1.0
 40
1.0
 40
1.0
 10
93.5027732349
 20
60.2135500337
 30
0.0
 10
93.5027732349
 20
60.2045641411
 30
0.0
 10
93.5086645912
 20
60.1852736541
 30
0.0
 10
93.5309602512
 20
60.1630661808
 30
0.0
 10
93.5624421513
 20
60.1489499363
 30
0.0
 10
93.5864220589
 20
60.1456677827
 30
0.0
 10
93.5987732349
 20
60.1456677827
 30
0.0
  0
SPLINE
  5
480
100
AcDbEntity
  8
0
100
AcDbSpline
 62
7
  6
CONTINUOUS
 70
0
 71
3
 72
11
 73
7
 74
0
 42
0.0000001
 43
0.0000001
 44
0.0000000001
 40
0.0
 40
0.0
 40
0.0
 40
0.0
 40
0.2879697432
 40
0.5553440702
 40
0.7905331502
 40
1.0
 40
1.0
 40
1.0
 40
1.0
 10
93.3827732349
 20
59.5516980865
 30
0.0
 10
93.3518572174
 20
59.5516980865
 30
0.0
 10
93.2918609206
 20
59.5436152618
 30
0.0
 10
93.2133029285
 20
59.50809822
 30
0.0
 10
93.1573776053
 20
59.4527836763
 30
0.0
 10
93.1427732349
 20
59.4044805189
 30
0.0
 10
93.1427732349
 20
59.3819924591
 30
0.0
  0
SPLINE
  5
481
100
AcDbEntity
  8
0
100
AcDbSpline
 62
7
  6
CONTINUOUS
 70
0
 71
3
 72
11
 73
7
 74
0
 42
0.0000001
 43
0.0000001
 44
0.0000000001
 40
0.0
 40
0.0
 40
0.0
 40
0.0
 40
0.2094668498
 40
0.4446559298
 40
0.7120302568
 40
1.0
 40
1.0
 40
1.0
 40
1.0
 10
94.8227732349
 20
61.0790487339
 30
0.0
 10
94.8227732349
 20
61.1015367937
 30
0.0
 10
94.8081688645
 20
61.1498399511
 30
0.0
 10
94.7522435414
 20
61.2051544948
 30
0.0
 10
94.6736855492
 20
61.2406715366
 30
0.0
 10
94.6136892525
 20
61.2487543614
 30
0.0
 10
94.5827732349
 20
61.2487543614
 30
0.0
  0
SPLINE
  5
482
100
AcDbEntity
  8
0
100
AcDbSpline
 62
7
  6
CONTINUOUS
 70
0
 71
3
 72
11
 73
7
 74
0
 42
0.0000001
 43
0.0000001
 44
0.0000000001
 40
0.0
 40
0.0
 40
0.0
 40
0.0
 40
0.2092798753
 40
0.444592951
 40
0.7123432609
 40
1.0
 40
1.0
 40
1.0
 40
1.0
 10
93.5027732349
 20
60.4963927462
 30
0.0
 10
93.5027732349
 20
60.4874068535
 30
0.0
 10
93.5086645912
 20
60.4681163665
 30
0.0
 10
93.5309602512
 20
60.4459088933
 30
0.0
 10
93.5624421513
 20
60.4317926488
 30
0.0
 10
93.5864220589
 20
60.4285104952
 30
0.0
 10
93.5987732349
 20
60.4285104952
 30
0.0
  0
SPLINE
  5
483
100
AcDbEntity
  8
0
100
AcDbSpline
 62
7
  6
CONTINUOUS
 70
0
 71
3
 72
11
 73
7
 74
0
 42
0.0000001
 43
0.0000001
 44
0.0000000001
 40
0.0
 40
0.0
 40
0.0
 40
0.0
 40
0.2879697432
 40
0.5553440702
 40
0.7905331502
 40
1.0
 40
1.0
 40
1.0
 40
1.0
 10
93.3827732349
 20
61.2487543614
 30
0.0
 10
93.3518572174
 20
61.2487543614
 30
0.0
 10
93.2918609206
 20
61.2406715366
 30
0.0
 10
93.2133029285
 20
61.2051544948
 30
0.0
 10
93.1573776053
 20
61.1498399511
 30
0.0
 10
93.1427732349
 20
61.1015367937
 30
0.0
 10
93.1427732349
 20
61.0790487339
 30
0.0
  0
SPLINE
  5
484
100
AcDbEntity
  8
0
100
AcDbSpline
 62
7
  6
CONTINUOUS
 70
0
 71
3
 72
19
 73
15
 74
0
 42
0.0000001
 43
0.0000001
 44
0.0000000001
 40
0.0
 40
0.0
 40
0.0
 40
0.0
 40
0.051855061
 40
0.1061589371
 40
0.1638754827
 40
0.2253669227
 40
0.3583203672
 40
0.5
 40
0.6416796328
 40
0.7746330773
 40
0.8361245173
 40
0.8938410629
 40
0.948144939
 40
1.0
 40
1.0
 40
1.0
 40
1.0
 10
103.7163078504
 20
59.2231431208
 30
0.0
 10
103.7332365708
 20
59.1253016756
 30
0.0
 10
103.793993091
 20
58.9287490899
 30
0.0
 10
103.9559585159
 20
58.657086948
 30
0.0
 10
104.183396657
 20
58.4118540572
 30
0.0
 10
104.5730089931
 20
58.1228687998
 30
0.0
 10
105.1778903318
 20
57.8739346953
 30
0.0
 10
105.9770684203
 20
57.7741956146
 30
0.0
 10
106.7762465089
 20
57.8739346953
 30
0.0
 10
107.3811278476
 20
58.1228687998
 30
0.0
 10
107.7707401837
 20
58.4118540572
 30
0.0
 10
107.9981783248
 20
58.657086948
 30
0.0
 10
108.1601437497
 20
58.9287490899
 30
0.0
 10
108.2209002699
 20
59.1253016756
 30
0.0
 10
108.2378289903
 20
59.2231431208
 30
0.0
  0
SPLINE
  5
485
100
AcDbEntity
  8
0
100
AcDbSpline
 62
7
  6
CONTINUOUS
 70
0
 71
3
 72
11
 73
7
 74
0
 42
0.0000001
 43
0.0000001
 44
0.0000000001
 40
0.0
 40
0.0
 40
0.0
 40
0.0
 40
0.2876567391
 40
0.555407049
 40
0.7907201247
 40
1.0
 40
1.0
 40
1.0
 40
1.0
 10
93.8987732349
 20
60.3153734102
 30
0.0
 10
93.8864220589
 20
60.3153734102
 30
0.0
 10
93.8624421513
 20
60.3120912566
 30
0.0
 10
93.8309602512
 20
60.2979750122
 30
0.0
 10
93.8086645912
 20
60.2757675389
 30
0.0
 10
93.8027732349
 20
60.2564770519
 30
0.0
 10
93.8027732349
 20
60.2474911592
 30
0.0
  0
SPLINE
  5
486
100
AcDbEntity
  8
0
100
AcDbSpline
 62
7
  6
CONTINUOUS
 70
0
 71
3
 72
11
 73
7
 74
0
 42
0.0000001
 43
0.0000001
 44
0.0000000001
 40
0.0
 40
0.0
 40
0.0
 40
0.0
 40
0.2876567391
 40
0.555407049
 40
0.7907201247
 40
1.0
 40
1.0
 40
1.0
 40
1.0
 10
94.3667732349
 20
60.1456677827
 30
0.0
 10
94.379124411
 20
60.1456677827
 30
0.0
 10
94.4031043186
 20
60.1489499363
 30
0.0
 10
94.4345862187
 20
60.1630661808
 30
0.0
 10
94.4568818786
 20
60.1852736541
 30
0.0
 10
94.4627732349
 20
60.2045641411
 30
0.0
 10
94.4627732349
 20
60.2135500337
 30
0.0
  0
SPLINE
  5
487
100
AcDbEntity
  8
BEZUGSACHSEN
100
AcDbSpline
 62
7
  6
CONTINUOUS
 70
0
 71
3
 72
21
 73
17
 74
0
 42
0.0000001
 43
0.0000001
 44
0.0000000001
 40
0.0
 40
0.0
 40
0.0
 40
0.0
 40
0.0516917069
 40
0.1052581238
 40
0.1621321515
 40
0.2230548859
 40
0.3562183375
 40
0.4274220929
 40
0.5
 40
0.5725779071
 40
0.6437816625
 40
0.7769451141
 40
0.8378678485
 40
0.8947418762
 40
0.9483082931
 40
1.0
 40
1.0
 40
1.0
 40
1.0
 10
98.2525874231
 20
66.2279489737
 30
0.0
 10
98.2525874231
 20
65.9958087347
 30
0.0
 10
98.3199517482
 20
65.5206949244
 30
0.0
 10
98.6147429165
 20
64.8465363704
 30
0.0
 10
99.0876701537
 20
64.2307985304
 30
0.0
 10
99.9516029156
 20
63.4969034279
 30
0.0
 10
101.0610984774
 20
62.9956966035
 30
0.0
 10
102.279818153
 20
62.7371115802
 30
0.0
 10
103.2525874231
 20
62.669869533
 30
0.0
 10
104.2253566933
 20
62.7371115802
 30
0.0
 10
105.4440763689
 20
62.9956966035
 30
0.0
 10
106.5535719306
 20
63.4969034279
 30
0.0
 10
107.4175046926
 20
64.2307985304
 30
0.0
 10
107.8904319297
 20
64.8465363704
 30
0.0
 10
108.185223098
 20
65.5206949244
 30
0.0
 10
108.2525874231
 20
65.9958087347
 30
0.0
 10
108.2525874231
 20
66.2279489737
 30
0.0
  0
SPLINE
  5
488
100
AcDbEntity
  8
0
100
AcDbSpline
 62
7
  6
CONTINUOUS
 70
0
 71
3
 72
11
 73
7
 74
0
 42
0.0000001
 43
0.0000001
 44
0.0000000001
 40
0.0
 40
0.0
 40
0.0
 40
0.0
 40
0.2876567391
 40
0.555407049
 40
0.7907201247
 40
1.0
 40
1.0
 40
1.0
 40
1.0
 10
94.3667732349
 20
58.4486115079
 30
0.0
 10
94.379124411
 20
58.4486115079
 30
0.0
 10
94.4031043186
 20
58.4518936615
 30
0.0
 10
94.4345862187
 20
58.466009906
 30
0.0
 10
94.4568818786
 20
58.4882173792
 30
0.0
 10
94.4627732349
 20
58.5075078662
 30
0.0
 10
94.4627732349
 20
58.5164937589
 30
0.0
  0
SPLINE
  5
489
100
AcDbEntity
  8
0
100
AcDbSpline
 62
7
  6
CONTINUOUS
 70
0
 71
3
 72
11
 73
7
 74
0
 42
0.0000001
 43
0.0000001
 44
0.0000000001
 40
0.0
 40
0.0
 40
0.0
 40
0.0
 40
0.2094929298
 40
0.4446655277
 40
0.7119947494
 40
1.0
 40
1.0
 40
1.0
 40
1.0
 10
91.5827732349
 20
57.8546418117
 30
0.0
 10
91.5827732349
 20
57.8096604073
 30
0.0
 10
91.6119754153
 20
57.7130448164
 30
0.0
 10
91.7238547596
 20
57.6024599008
 30
0.0
 10
91.8809372737
 20
57.5313838763
 30
0.0
 10
92.0009340089
 20
57.5152305567
 30
0.0
 10
92.0627732349
 20
57.5152305567
 30
0.0
  0
SPLINE
  5
48A
100
AcDbEntity
  8
0
100
AcDbSpline
 62
7
  6
CONTINUOUS
 70
0
 71
3
 72
12
 73
8
 74
0
 42
0.0000001
 43
0.0000001
 44
0.0000000001
 40
0.0
 40
0.0
 40
0.0
 40
0.0
 40
0.2861430251
 40
0.547729335
 40
0.7823897905
 40
0.8924618245
 40
1.0
 40
1.0
 40
1.0
 40
1.0
 10
101.4451330913
 20
59.7289009799
 30
0.0
 10
101.5980801898
 20
59.7644343736
 30
0.0
 10
101.8848184516
 20
59.8656882836
 30
0.0
 10
102.243460166
 20
60.1116492072
 30
0.0
 10
102.4476599227
 20
60.3850684778
 30
0.0
 10
102.5285187518
 20
60.6214889415
 30
0.0
 10
102.5419530765
 20
60.7413134642
 30
0.0
 10
102.541944224
 20
60.8003248546
 30
0.0
  0
SPLINE
  5
48B
100
AcDbEntity
  8
0
100
AcDbSpline
 62
7
  6
CONTINUOUS
 70
0
 71
3
 72
9
 73
5
 74
0
 42
0.0000001
 43
0.0000001
 44
0.0000000001
 40
0.0
 40
0.0
 40
0.0
 40
0.0
 40
0.2445376398
 40
1.0
 40
1.0
 40
1.0
 40
1.0
 10
91.5827732349
 20
58.1374845242
 30
0.0
 10
91.5827732349
 20
58.1264119459
 30
0.0
 10
91.585953507
 20
58.0811473262
 30
0.0
 10
91.6020407538
 20
58.0371247384
 30
0.0
 10
91.6193110593
 20
58.0075974601
 30
0.0
  0
SPLINE
  5
48C
100
AcDbEntity
  8
0
100
AcDbSpline
 62
7
  6
CONTINUOUS
 70
0
 71
3
 72
9
 73
5
 74
0
 42
0.0000001
 43
0.0000001
 44
0.0000000001
 40
0.0
 40
0.0
 40
0.0
 40
0.0
 40
0.461013727
 40
1.0
 40
1.0
 40
1.0
 40
1.0
 10
91.6193110593
 20
58.0075974601
 30
0.0
 10
91.6585762488
 20
57.940465227
 30
0.0
 10
91.8012629101
 20
57.8299930592
 30
0.0
 10
91.9718473792
 20
57.7980732692
 30
0.0
 10
92.0627732349
 20
57.7980732692
 30
0.0
  0
SPLINE
  5
48D
100
AcDbEntity
  8
0
100
AcDbSpline
 62
7
  6
CONTINUOUS
 70
0
 71
3
 72
12
 73
8
 74
0
 42
0.0000001
 43
0.0000001
 44
0.0000000001
 40
0.0
 40
0.0
 40
0.0
 40
0.0
 40
0.1035915243
 40
0.2109480279
 40
0.4456988124
 40
0.7125399145
 40
1.0
 40
1.0
 40
1.0
 40
1.0
 10
101.8139326835
 20
60.8000715159
 30
0.0
 10
101.8139326835
 20
60.8403012091
 30
0.0
 10
101.8022597718
 20
60.9226425953
 30
0.0
 10
101.7322458458
 20
61.0829040293
 30
0.0
 10
101.5593196728
 20
61.2559034858
 30
0.0
 10
101.2756613916
 20
61.3834468807
 30
0.0
 10
101.0590491918
 20
61.4128031346
 30
0.0
 10
100.9474142761
 20
61.4128031346
 30
0.0
  0
SPLINE
  5
48E
100
AcDbEntity
  8
RUNDUNGEN
100
AcDbSpline
 62
7
  6
CONTINUOUS
 70
0
 71
3
 72
11
 73
7
 74
0
 42
0.0000001
 43
0.0000001
 44
0.0000000001
 40
0.0
 40
0.0
 40
0.0
 40
0.0
 40
0.2256941656
 40
0.4632959394
 40
0.7206237852
 40
1.0
 40
1.0
 40
1.0
 40
1.0
 10
139.3877362771
 20
70.9250316128
 30
0.0
 10
139.3876917561
 20
70.993194925
 30
0.0
 10
139.3629022755
 20
71.1340984147
 30
0.0
 10
139.2567690888
 20
71.3277819065
 30
0.0
 10
139.0905538799
 20
71.4958184262
 30
0.0
 10
138.9516530097
 20
71.5821799838
 30
0.0
 10
138.8760376786
 20
71.6196187599
 30
0.0
  0
SPLINE
  5
48F
100
AcDbEntity
  8
0
100
AcDbSpline
 62
7
  6
CONTINUOUS
 70
0
 71
3
 72
11
 73
7
 74
0
 42
0.0000001
 43
0.0000001
 44
0.0000000001
 40
0.0
 40
0.0
 40
0.0
 40
0.0
 40
0.227142142
 40
0.4653047767
 40
0.7220182825
 40
1.0
 40
1.0
 40
1.0
 40
1.0
 10
114.0087991741
 20
59.7327174225
 30
0.0
 10
114.0087991741
 20
59.8890529222
 30
0.0
 10
113.9550025222
 20
60.2114368694
 30
0.0
 10
113.7226466229
 20
60.6584461109
 30
0.0
 10
113.3563389399
 20
61.0516022667
 30
0.0
 10
113.0480885916
 20
61.2584450118
 30
0.0
 10
112.8798446586
 20
61.3495492189
 30
0.0
  0
SPLINE
  5
490
100
AcDbEntity
  8
0
100
AcDbSpline
 62
7
  6
CONTINUOUS
 70
0
 71
3
 72
9
 73
5
 74
0
 42
0.0000001
 43
0.0000001
 44
0.0000000001
 40
0.0
 40
0.0
 40
0.0
 40
0.0
 40
0.2536121958
 40
1.0
 40
1.0
 40
1.0
 40
1.0
 10
112.7170962187
 20
57.7980732692
 30
0.0
 10
112.7335223524
 20
57.7980732692
 30
0.0
 10
112.798260619
 20
57.8004199672
 30
0.0
 10
112.8627324022
 20
57.8121155485
 30
0.0
 10
112.9089294796
 20
57.8263575404
 30
0.0
  0
SPLINE
  5
491
100
AcDbEntity
  8
0
100
AcDbSpline
 62
7
  6
CONTINUOUS
 70
0
 71
3
 72
9
 73
5
 74
0
 42
0.0000001
 43
0.0000001
 44
0.0000000001
 40
0.0
 40
0.0
 40
0.0
 40
0.0
 40
0.2536121958
 40
1.0
 40
1.0
 40
1.0
 40
1.0
 10
112.7170962187
 20
57.5152305567
 30
0.0
 10
112.7335223524
 20
57.5152305567
 30
0.0
 10
112.798260619
 20
57.5175772547
 30
0.0
 10
112.8627324022
 20
57.529272836
 30
0.0
 10
112.9089294796
 20
57.543514828
 30
0.0
  0
SPLINE
  5
492
100
AcDbEntity
  8
0
100
AcDbSpline
 62
7
  6
CONTINUOUS
 70
0
 71
3
 72
12
 73
8
 74
0
 42
0.0000001
 43
0.0000001
 44
0.0000000001
 40
0.0
 40
0.0
 40
0.0
 40
0.0
 40
0.2844670851
 40
0.5445747
 40
0.7798379195
 40
0.8910272787
 40
1.0
 40
1.0
 40
1.0
 40
1.0
 10
112.9089294796
 20
57.543514828
 30
0.0
 10
113.1958057138
 20
57.63195525
 30
0.0
 10
113.7297076461
 20
57.8609563648
 30
0.0
 10
114.3883871132
 20
58.3708291216
 30
0.0
 10
114.7565453334
 20
58.9123432801
 30
0.0
 10
114.9018970951
 20
59.3733739607
 30
0.0
 10
114.9260796901
 20
59.6064043076
 30
0.0
 10
114.9260796901
 20
59.721403714
 30
0.0
  0
SPLINE
  5
493
100
AcDbEntity
  8
0
100
AcDbSpline
 62
7
  6
CONTINUOUS
 70
0
 71
3
 72
9
 73
5
 74
0
 42
0.0000001
 43
0.0000001
 44
0.0000000001
 40
0.0
 40
0.0
 40
0.0
 40
0.0
 40
0.239729366
 40
1.0
 40
1.0
 40
1.0
 40
1.0
 10
112.8798446586
 20
61.3495492189
 30
0.0
 10
112.8692395326
 20
61.3552919021
 30
0.0
 10
112.8232940922
 20
61.376037697
 30
0.0
 10
112.7721725903
 20
61.3845188634
 30
0.0
 10
112.733925401
 20
61.3845188634
 30
0.0
  0
SPLINE
  5
494
100
AcDbEntity
  8
0
100
AcDbSpline
 62
7
  6
CONTINUOUS
 70
0
 71
3
 72
11
 73
7
 74
0
 42
0.0000001
 43
0.0000001
 44
0.0000000001
 40
0.0
 40
0.0
 40
0.0
 40
0.0
 40
0.2816347582
 40
0.5420479832
 40
0.7798483853
 40
1.0
 40
1.0
 40
1.0
 40
1.0
 10
112.9089294796
 20
57.8263575404
 30
0.0
 10
113.1680296015
 20
57.906234928
 30
0.0
 10
113.6538587301
 20
58.1086741641
 30
0.0
 10
114.2705961383
 20
58.5496363682
 30
0.0
 10
114.7124032446
 20
59.0942665953
 30
0.0
 10
114.8684071883
 20
59.5180363223
 30
0.0
 10
114.9031339267
 20
59.7271147004
 30
0.0
  0
SPLINE
  5
495
100
AcDbEntity
  8
0
100
AcDbSpline
 62
7
  6
CONTINUOUS
 70
0
 71
3
 72
9
 73
5
 74
0
 42
0.0000001
 43
0.0000001
 44
0.0000000001
 40
0.0
 40
0.0
 40
0.0
 40
0.0
 40
0.2591205677
 40
1.0
 40
1.0
 40
1.0
 40
1.0
 10
112.733925401
 20
61.6673615758
 30
0.0
 10
112.7469571976
 20
61.6673615758
 30
0.0
 10
112.7971600678
 20
61.66448536
 30
0.0
 10
112.8470794275
 20
61.6501343269
 30
0.0
 10
112.8798446586
 20
61.6323919314
 30
0.0
  0
SPLINE
  5
496
100
AcDbEntity
  8
0
100
AcDbSpline
 62
7
  6
CONTINUOUS
 70
0
 71
3
 72
11
 73
7
 74
0
 42
0.0000001
 43
0.0000001
 44
0.0000000001
 40
0.0
 40
0.0
 40
0.0
 40
0.0
 40
0.2779697373
 40
0.5346991835
 40
0.7728568778
 40
1.0
 40
1.0
 40
1.0
 40
1.0
 10
112.8798446586
 20
61.6323919314
 30
0.0
 10
113.0480819436
 20
61.5412913242
 30
0.0
 10
113.3563286018
 20
61.3344398176
 30
0.0
 10
113.7226606197
 20
60.9413023007
 30
0.0
 10
113.955007661
 20
60.494276683
 30
0.0
 10
114.0088135669
 20
60.1718968695
 30
0.0
 10
114.0088135669
 20
60.015560135
 30
0.0
  0
SPLINE
  5
497
100
AcDbEntity
  8
0
100
AcDbSpline
 62
7
  6
CONTINUOUS
 70
0
 71
3
 72
11
 73
7
 74
0
 42
0.0000001
 43
0.0000001
 44
0.0000000001
 40
0.0
 40
0.0
 40
0.0
 40
0.0
 40
0.2782911642
 40
0.539206302
 40
0.7792454761
 40
1.0
 40
1.0
 40
1.0
 40
1.0
 10
101.4451330913
 20
60.0117436924
 30
0.0
 10
101.5667738988
 20
60.0400038604
 30
0.0
 10
101.7982953711
 20
60.1159684191
 30
0.0
 10
102.1043711636
 20
60.2905500999
 30
0.0
 10
102.3432411665
 20
60.51413976
 30
0.0
 10
102.4508246993
 20
60.6952348655
 30
0.0
 10
102.4863060612
 20
60.7877240007
 30
0.0
  0
SPLINE
  5
498
100
AcDbEntity
  8
0
100
AcDbSpline
 62
7
  6
CONTINUOUS
 70
0
 71
3
 72
9
 73
5
 74
0
 42
0.0000001
 43
0.0000001
 44
0.0000000001
 40
0.0
 40
0.0
 40
0.0
 40
0.0
 40
0.2525773098
 40
1.0
 40
1.0
 40
1.0
 40
1.0
 10
102.4863060612
 20
60.7877240007
 30
0.0
 10
102.4909461584
 20
60.7998193248
 30
0.0
 10
102.5082633982
 20
60.8481029613
 30
0.0
 10
102.5212618574
 20
60.8979481782
 30
0.0
 10
102.5282855441
 20
60.9356349569
 30
0.0
  0
SPLINE
  5
499
100
AcDbEntity
  8
0
100
AcDbSpline
 62
7
  6
CONTINUOUS
 70
0
 71
3
 72
11
 73
7
 74
0
 42
0.0000001
 43
0.0000001
 44
0.0000000001
 40
0.0
 40
0.0
 40
0.0
 40
0.0
 40
0.2092798753
 40
0.444592951
 40
0.7123432609
 40
1.0
 40
1.0
 40
1.0
 40
1.0
 10
93.5027732349
 20
58.5164937589
 30
0.0
 10
93.5027732349
 20
58.5075078662
 30
0.0
 10
93.5086645912
 20
58.4882173792
 30
0.0
 10
93.5309602512
 20
58.466009906
 30
0.0
 10
93.5624421513
 20
58.4518936615
 30
0.0
 10
93.5864220589
 20
58.4486115079
 30
0.0
 10
93.5987732349
 20
58.4486115079
 30
0.0
  0
SPLINE
  5
49A
100
AcDbEntity
  8
0
100
AcDbSpline
 62
7
  6
CONTINUOUS
 70
0
 71
3
 72
12
 73
8
 74
0
 42
0.0000001
 43
0.0000001
 44
0.0000000001
 40
0.0
 40
0.0
 40
0.0
 40
0.0
 40
0.2874678609
 40
0.554294436
 40
0.7890536075
 40
0.8964041367
 40
1.0
 40
1.0
 40
1.0
 40
1.0
 10
100.9474142761
 20
61.6956458471
 30
0.0
 10
101.0590513176
 20
61.6956458471
 30
0.0
 10
101.2756660457
 20
61.6663018609
 30
0.0
 10
101.5592968654
 20
61.5387244393
 30
0.0
 10
101.7322531097
 20
61.365751542
 30
0.0
 10
101.8022300111
 20
61.2054783425
 30
0.0
 10
101.8139476415
 20
61.1231452846
 30
0.0
 10
101.8139476415
 20
61.0829142283
 30
0.0
  0
SPLINE
  5
49B
100
AcDbEntity
  8
0
100
AcDbSpline
 62
7
  6
CONTINUOUS
 70
0
 71
3
 72
11
 73
7
 74
0
 42
0.0000001
 43
0.0000001
 44
0.0000000001
 40
0.0
 40
0.0
 40
0.0
 40
0.0
 40
0.2876567391
 40
0.555407049
 40
0.7907201247
 40
1.0
 40
1.0
 40
1.0
 40
1.0
 10
94.3667732349
 20
58.7314542204
 30
0.0
 10
94.379124411
 20
58.7314542204
 30
0.0
 10
94.4031043186
 20
58.734736374
 30
0.0
 10
94.4345862187
 20
58.7488526184
 30
0.0
 10
94.4568818786
 20
58.7710600917
 30
0.0
 10
94.4627732349
 20
58.7903505787
 30
0.0
 10
94.4627732349
 20
58.7993364714
 30
0.0
  0
SPLINE
  5
49C
100
AcDbEntity
  8
0
100
AcDbSpline
 62
7
  6
CONTINUOUS
 70
0
 71
3
 72
11
 73
7
 74
0
 42
0.0000001
 43
0.0000001
 44
0.0000000001
 40
0.0
 40
0.0
 40
0.0
 40
0.0
 40
0.2092798753
 40
0.444592951
 40
0.7123432609
 40
1.0
 40
1.0
 40
1.0
 40
1.0
 10
93.8027732349
 20
60.5303338717
 30
0.0
 10
93.8027732349
 20
60.5393197644
 30
0.0
 10
93.8086645912
 20
60.5586102514
 30
0.0
 10
93.8309602512
 20
60.5808177246
 30
0.0
 10
93.8624421513
 20
60.5949339691
 30
0.0
 10
93.8864220589
 20
60.5982161227
 30
0.0
 10
93.8987732349
 20
60.5982161227
 30
0.0
  0
SPLINE
  5
49D
100
AcDbEntity
  8
0
100
AcDbSpline
 62
7
  6
CONTINUOUS
 70
0
 71
3
 72
11
 73
7
 74
0
 42
0.0000001
 43
0.0000001
 44
0.0000000001
 40
0.0
 40
0.0
 40
0.0
 40
0.0
 40
0.2876567391
 40
0.555407049
 40
0.7907201247
 40
1.0
 40
1.0
 40
1.0
 40
1.0
 10
94.0667732349
 20
60.5982161227
 30
0.0
 10
94.079124411
 20
60.5982161227
 30
0.0
 10
94.1031043186
 20
60.5949339691
 30
0.0
 10
94.1345862187
 20
60.5808177246
 30
0.0
 10
94.1568818786
 20
60.5586102514
 30
0.0
 10
94.1627732349
 20
60.5393197644
 30
0.0
 10
94.1627732349
 20
60.5303338717
 30
0.0
  0
SPLINE
  5
49E
100
AcDbEntity
  8
0
100
AcDbSpline
 62
7
  6
CONTINUOUS
 70
0
 71
3
 72
11
 73
7
 74
0
 42
0.0000001
 43
0.0000001
 44
0.0000000001
 40
0.0
 40
0.0
 40
0.0
 40
0.0
 40
0.2876567391
 40
0.555407049
 40
0.7907201247
 40
1.0
 40
1.0
 40
1.0
 40
1.0
 10
94.3667732349
 20
60.4285104952
 30
0.0
 10
94.379124411
 20
60.4285104952
 30
0.0
 10
94.4031043186
 20
60.4317926488
 30
0.0
 10
94.4345862187
 20
60.4459088933
 30
0.0
 10
94.4568818786
 20
60.4681163665
 30
0.0
 10
94.4627732349
 20
60.4874068535
 30
0.0
 10
94.4627732349
 20
60.4963927462
 30
0.0
  0
SPLINE
  5
49F
100
AcDbEntity
  8
0
100
AcDbSpline
 62
7
  6
CONTINUOUS
 70
0
 71
3
 72
11
 73
7
 74
0
 42
0.0000001
 43
0.0000001
 44
0.0000000001
 40
0.0
 40
0.0
 40
0.0
 40
0.0
 40
0.2876567391
 40
0.555407049
 40
0.7907201247
 40
1.0
 40
1.0
 40
1.0
 40
1.0
 10
94.5827732349
 20
61.5315970739
 30
0.0
 10
94.6136511751
 20
61.5315970739
 30
0.0
 10
94.6736009441
 20
61.5233916898
 30
0.0
 10
94.7523056943
 20
61.4881010787
 30
0.0
 10
94.8080448442
 20
61.4325823955
 30
0.0
 10
94.8227732349
 20
61.3843561781
 30
0.0
 10
94.8227732349
 20
61.3618914464
 30
0.0
  0
SPLINE
  5
4A0
100
AcDbEntity
  8
0
100
AcDbSpline
 62
7
  6
CONTINUOUS
 70
0
 71
3
 72
8
 73
4
 74
0
 42
0.0000001
 43
0.0000001
 44
0.0000000001
 40
0.0
 40
0.0
 40
0.0
 40
0.0
 40
1.0
 40
1.0
 40
1.0
 40
1.0
 10
94.6468688657
 20
59.8282898178
 30
0.0
 10
94.6659332001
 20
59.8245478232
 30
0.0
 10
94.6847739373
 20
59.8191173297
 30
0.0
 10
94.7027732349
 20
59.8118045561
 30
0.0
  0
SPLINE
  5
4A1
100
AcDbEntity
  8
0
100
AcDbSpline
 62
7
  6
CONTINUOUS
 70
0
 71
3
 72
9
 73
5
 74
0
 42
0.0000001
 43
0.0000001
 44
0.0000000001
 40
0.0
 40
0.0
 40
0.0
 40
0.0
 40
0.5424756321
 40
1.0
 40
1.0
 40
1.0
 40
1.0
 10
94.7027732349
 20
59.8118045561
 30
0.0
 10
94.7359987635
 20
59.7983056534
 30
0.0
 10
94.7945907921
 20
59.761558356
 30
0.0
 10
94.8227732349
 20
59.6950820694
 30
0.0
 10
94.8227732349
 20
59.6648351715
 30
0.0
  0
SPLINE
  5
4A2
100
AcDbEntity
  8
0
100
AcDbSpline
 62
7
  6
CONTINUOUS
 70
0
 71
3
 72
9
 73
5
 74
0
 42
0.0000001
 43
0.0000001
 44
0.0000000001
 40
0.0
 40
0.0
 40
0.0
 40
0.0
 40
0.4575243679
 40
1.0
 40
1.0
 40
1.0
 40
1.0
 10
93.1427732349
 20
59.6648351715
 30
0.0
 10
93.1427732349
 20
59.6950820694
 30
0.0
 10
93.1709556777
 20
59.761558356
 30
0.0
 10
93.2295477064
 20
59.7983056534
 30
0.0
 10
93.2627732349
 20
59.8118045561
 30
0.0
  0
SPLINE
  5
4A3
100
AcDbEntity
  8
0
100
AcDbSpline
 62
7
  6
CONTINUOUS
 70
0
 71
3
 72
9
 73
5
 74
0
 42
0.0000001
 43
0.0000001
 44
0.0000000001
 40
0.0
 40
0.0
 40
0.0
 40
0.0
 40
0.2441493338
 40
1.0
 40
1.0
 40
1.0
 40
1.0
 10
93.2627732349
 20
59.8118045561
 30
0.0
 10
93.2720136806
 20
59.8155587741
 30
0.0
 10
93.3106865434
 20
59.8288426029
 30
0.0
 10
93.3518952948
 20
59.834540799
 30
0.0
 10
93.3827732349
 20
59.834540799
 30
0.0
  0
SPLINE
  5
4A4
100
AcDbEntity
  8
0
100
AcDbSpline
 62
7
  6
CONTINUOUS
 70
0
 71
3
 72
11
 73
7
 74
0
 42
0.0000001
 43
0.0000001
 44
0.0000000001
 40
0.0
 40
0.0
 40
0.0
 40
0.0
 40
0.2092798753
 40
0.444592951
 40
0.7123432609
 40
1.0
 40
1.0
 40
1.0
 40
1.0
 10
93.1427732349
 20
61.3618914464
 30
0.0
 10
93.1427732349
 20
61.3843561781
 30
0.0
 10
93.1575016256
 20
61.4325823955
 30
0.0
 10
93.2132407755
 20
61.4881010787
 30
0.0
 10
93.2919455258
 20
61.5233916898
 30
0.0
 10
93.3518952948
 20
61.5315970739
 30
0.0
 10
93.3827732349
 20
61.5315970739
 30
0.0
  0
SPLINE
  5
4A5
100
AcDbEntity
  8
0
100
AcDbSpline
 62
7
  6
CONTINUOUS
 70
0
 71
3
 72
9
 73
5
 74
0
 42
0.0000001
 43
0.0000001
 44
0.0000000001
 40
0.0
 40
0.0
 40
0.0
 40
0.0
 40
0.538986273
 40
1.0
 40
1.0
 40
1.0
 40
1.0
 10
95.9027732349
 20
57.7980732692
 30
0.0
 10
95.9936990906
 20
57.7980732692
 30
0.0
 10
96.1642835598
 20
57.8299930592
 30
0.0
 10
96.306970221
 20
57.940465227
 30
0.0
 10
96.3462354105
 20
58.0075974601
 30
0.0
  0
SPLINE
  5
4A6
100
AcDbEntity
  8
0
100
AcDbSpline
 62
7
  6
CONTINUOUS
 70
0
 71
3
 72
9
 73
5
 74
0
 42
0.0000001
 43
0.0000001
 44
0.0000000001
 40
0.0
 40
0.0
 40
0.0
 40
0.0
 40
0.2592261758
 40
1.0
 40
1.0
 40
1.0
 40
1.0
 10
96.3462354105
 20
58.0075974601
 30
0.0
 10
96.3521601333
 20
58.0177270399
 30
0.0
 10
96.3726588018
 20
58.0581100861
 30
0.0
 10
96.3827732349
 20
58.1039501149
 30
0.0
 10
96.3827732349
 20
58.1374845242
 30
0.0
  0
SPLINE
  5
4A7
100
AcDbEntity
  8
RUNDUNGEN
100
AcDbSpline
 62
7
  6
CONTINUOUS
 70
0
 71
3
 72
11
 73
7
 74
0
 42
0.0000001
 43
0.0000001
 44
0.0000000001
 40
0.0
 40
0.0
 40
0.0
 40
0.0
 40
0.2660806488
 40
0.5190943636
 40
0.7622194616
 40
1.0
 40
1.0
 40
1.0
 40
1.0
 10
117.8382546669
 20
39.1612689583
 30
0.0
 10
117.4974916342
 20
39.5053895768
 30
0.0
 10
116.8841396118
 20
40.2310815232
 30
0.0
 10
116.1897825804
 20
41.441570633
 30
0.0
 10
115.7640868731
 20
42.7173555132
 30
0.0
 10
115.668079183
 20
43.5954439282
 30
0.0
 10
115.6680791984
 20
44.0282267712
 30
0.0
  0
SPLINE
  5
4A8
100
AcDbEntity
  8
RUNDUNGEN
100
AcDbSpline
 62
7
  6
CONTINUOUS
 70
0
 71
3
 72
12
 73
8
 74
0
 42
0.0000001
 43
0.0000001
 44
0.0000000001
 40
0.0
 40
0.0
 40
0.0
 40
0.0
 40
0.252259356
 40
0.5153839756
 40
0.6451803977
 40
0.7704553584
 40
1.0
 40
1.0
 40
1.0
 40
1.0
 10
93.0930620098
 20
69.0814916729
 30
0.0
 10
92.6461400818
 20
68.8602110182
 30
0.0
 10
91.6526579009
 20
68.5631622157
 30
0.0
 10
90.3614207693
 20
68.5445115614
 30
0.0
 10
89.3524292077
 20
68.7421339731
 30
0.0
 10
88.4480025035
 20
69.0622456603
 30
0.0
 10
87.8414540369
 20
69.4536322676
 30
0.0
 10
87.5221480872
 20
69.7760843836
 30
0.0
  0
SPLINE
  5
4A9
100
AcDbEntity
  8
RUNDUNGEN
100
AcDbSpline
 62
7
  6
CONTINUOUS
 70
0
 71
3
 72
12
 73
8
 74
0
 42
0.0000001
 43
0.0000001
 44
0.0000000001
 40
0.0
 40
0.0
 40
0.0
 40
0.0
 40
0.2295488423
 40
0.3548243544
 40
0.4846199331
 40
0.7477426437
 40
1.0
 40
1.0
 40
1.0
 40
1.0
 10
124.2255998425
 20
67.1803737425
 30
0.0
 10
123.9062880538
 20
66.85791573
 30
0.0
 10
123.29972969
 20
66.4665253538
 30
0.0
 10
122.3952937517
 20
66.1464167979
 30
0.0
 10
121.3863056749
 20
65.9487997792
 30
0.0
 10
120.0950783408
 20
65.9674545951
 30
0.0
 10
119.1016042991
 20
66.2645021342
 30
0.0
 10
118.6546859199
 20
66.4857810318
 30
0.0
  0
SPLINE
  5
4AA
100
AcDbEntity
  8
RUNDUNGEN
100
AcDbSpline
 62
7
  6
CONTINUOUS
 70
0
 71
3
 72
10
 73
6
 74
0
 42
0.0000001
 43
0.0000001
 44
0.0000000001
 40
0.0
 40
0.0
 40
0.0
 40
0.0
 40
0.4921466003
 40
0.7448860733
 40
1.0
 40
1.0
 40
1.0
 40
1.0
 10
93.8311913302
 20
138.3045016766
 30
0.0
 10
93.0808614331
 20
138.3045016766
 30
0.0
 10
91.9456212614
 20
138.2615031402
 30
0.0
 10
90.4218666632
 20
138.2125688853
 30
0.0
 10
89.6475516249
 20
138.2027155066
 30
0.0
 10
89.2586032785
 20
138.2027155066
 30
0.0
  0
SPLINE
  5
4AB
100
AcDbEntity
  8
KONSTRUKTIONSELEMENTE
100
AcDbSpline
 62
7
  6
CONTINUOUS
 70
0
 71
3
 72
9
 73
5
 74
0
 42
0.0000001
 43
0.0000001
 44
0.0000000001
 40
0.0
 40
0.0
 40
0.0
 40
0.0
 40
0.479507891
 40
1.0
 40
1.0
 40
1.0
 40
1.0
 10
118.9763089239
 20
101.0545016766
 30
0.0
 10
118.9885162494
 20
101.0545016766
 30
0.0
 10
119.0145009597
 20
101.060693996
 30
0.0
 10
119.033763748
 20
101.0787549523
 30
0.0
 10
119.0419695523
 20
101.0891590814
 30
0.0
  0
SPLINE
  5
4AC
100
AcDbEntity
  8
KONSTRUKTIONSELEMENTE
100
AcDbSpline
 62
7
  6
CONTINUOUS
 70
0
 71
3
 72
21
 73
17
 74
0
 42
0.0000001
 43
0.0000001
 44
0.0000000001
 40
0.0
 40
0.0
 40
0.0
 40
0.0
 40
0.0053166595
 40
0.0124270584
 40
0.0215455055
 40
0.0327520286
 40
0.0615127469
 40
0.0986478275
 40
0.1438603301
 40
0.1967097028
 40
0.2566628089
 40
0.3230985835
 40
0.4726242288
 40
0.6393519206
 40
0.8170971932
 40
1.0
 40
1.0
 40
1.0
 40
1.0
 10
119.0419695523
 20
101.0891590814
 30
0.0
 10
119.0547972974
 20
101.1054233637
 30
0.0
 10
119.076010556
 20
101.1500018095
 30
0.0
 10
119.0953537332
 20
101.2318317084
 30
0.0
 10
119.1070796276
 20
101.3383109583
 30
0.0
 10
119.1125500421
 20
101.5295785673
 30
0.0
 10
119.0953047781
 20
101.8299212948
 30
0.0
 10
119.0455791057
 20
102.2600179153
 30
0.0
 10
118.9639274537
 20
102.7805267081
 30
0.0
 10
118.8502415401
 20
103.3856436098
 30
0.0
 10
118.7042356194
 20
104.0686083035
 30
0.0
 10
118.456251872
 20
105.1146744002
 30
0.0
 10
118.0658820164
 20
106.5541308545
 30
0.0
 10
117.4858047802
 20
108.3899303517
 30
0.0
 10
116.7761042955
 20
110.3190230338
 30
0.0
 10
116.218792312
 20
111.6100429286
 30
0.0
 10
115.914686175
 20
112.2545016766
 30
0.0
  0
SPLINE
  5
4AD
100
AcDbEntity
  8
KONSTRUKTIONSELEMENTE
100
AcDbSpline
 62
7
  6
CONTINUOUS
 70
0
 71
3
 72
9
 73
5
 74
0
 42
0.0000001
 43
0.0000001
 44
0.0000000001
 40
0.0
 40
0.0
 40
0.0
 40
0.0
 40
0.2510778321
 40
1.0
 40
1.0
 40
1.0
 40
1.0
 10
108.2525874231
 20
124.0368531194
 30
0.0
 10
108.5934845891
 20
123.979161061
 30
0.0
 10
109.9469974896
 20
123.725342019
 30
0.0
 10
111.2826424862
 20
123.3743777155
 30
0.0
 10
112.2630770711
 20
123.0545016766
 30
0.0
  0
SPLINE
  5
4AE
100
AcDbEntity
  8
KONSTRUKTIONSELEMENTE
100
AcDbSpline
 62
7
  6
CONTINUOUS
 70
0
 71
3
 72
9
 73
5
 74
0
 42
0.0000001
 43
0.0000001
 44
0.0000000001
 40
0.0
 40
0.0
 40
0.0
 40
0.0
 40
0.248984136
 40
1.0
 40
1.0
 40
1.0
 40
1.0
 10
94.2420977752
 20
123.0545016766
 30
0.0
 10
94.5680545844
 20
123.1608481628
 30
0.0
 10
95.8854572769
 20
123.5623659727
 30
0.0
 10
97.2328917519
 20
123.8642839457
 30
0.0
 10
98.2525874231
 20
124.0368531194
 30
0.0
  0
SPLINE
  5
4AF
100
AcDbEntity
  8
KONSTRUKTIONSELEMENTE
100
AcDbSpline
 62
7
  6
CONTINUOUS
 70
0
 71
3
 72
13
 73
9
 74
0
 42
0.0000001
 43
0.0000001
 44
0.0000000001
 40
0.0
 40
0.0
 40
0.0
 40
0.0
 40
0.1249922982
 40
0.250000124
 40
0.3750360511
 40
0.500088215
 40
0.7499603233
 40
1.0
 40
1.0
 40
1.0
 40
1.0
 10
91.2962053617
 20
118.8949016766
 30
0.0
 10
91.2962053617
 20
119.1159620905
 30
0.0
 10
91.3434319781
 20
119.5594085825
 30
0.0
 10
91.5445706471
 20
120.1952923101
 30
0.0
 10
91.8506489235
 20
120.7869276034
 30
0.0
 10
92.364084831
 20
121.5095263242
 30
0.0
 10
93.1520822413
 20
122.2951194361
 30
0.0
 10
93.8695795327
 20
122.8162011672
 30
0.0
 10
94.2420977752
 20
123.0545016766
 30
0.0
  0
SPLINE
  5
4B0
100
AcDbEntity
  8
KONSTRUKTIONSELEMENTE
100
AcDbSpline
 62
7
  6
CONTINUOUS
 70
0
 71
3
 72
10
 73
6
 74
0
 42
0.0000001
 43
0.0000001
 44
0.0000000001
 40
0.0
 40
0.0
 40
0.0
 40
0.0
 40
0.4997344889
 40
0.7498860004
 40
1.0
 40
1.0
 40
1.0
 40
1.0
 10
90.5904886712
 20
112.2545016766
 30
0.0
 10
90.8007286921
 20
112.7000402704
 30
0.0
 10
91.0683302051
 20
113.3954813416
 30
0.0
 10
91.262453591
 20
114.3641085915
 30
0.0
 10
91.2962053617
 20
114.8579326667
 30
0.0
 10
91.2962053617
 20
115.1045016766
 30
0.0
  0
SPLINE
  5
4B1
100
AcDbEntity
  8
KONSTRUKTIONSELEMENTE
100
AcDbSpline
 62
7
  6
CONTINUOUS
 70
0
 71
3
 72
10
 73
6
 74
0
 42
0.0000001
 43
0.0000001
 44
0.0000000001
 40
0.0
 40
0.0
 40
0.0
 40
0.0
 40
0.2501139996
 40
0.5002655111
 40
1.0
 40
1.0
 40
1.0
 40
1.0
 10
115.2089694846
 20
115.1045016766
 30
0.0
 10
115.2089694846
 20
114.8579326667
 30
0.0
 10
115.2427212552
 20
114.3641085915
 30
0.0
 10
115.4368446412
 20
113.3954813416
 30
0.0
 10
115.7044461542
 20
112.7000402704
 30
0.0
 10
115.914686175
 20
112.2545016766
 30
0.0
  0
SPLINE
  5
4B2
100
AcDbEntity
  8
KONSTRUKTIONSELEMENTE
100
AcDbSpline
 62
7
  6
CONTINUOUS
 70
0
 71
3
 72
13
 73
9
 74
0
 42
0.0000001
 43
0.0000001
 44
0.0000000001
 40
0.0
 40
0.0
 40
0.0
 40
0.0
 40
0.2500391972
 40
0.4999110847
 40
0.6249632831
 40
0.7499993906
 40
0.875007397
 40
1.0
 40
1.0
 40
1.0
 40
1.0
 10
112.2630770711
 20
123.0545016766
 30
0.0
 10
112.6355945989
 20
122.8162016243
 30
0.0
 10
113.3530909229
 20
122.2951207004
 30
0.0
 10
114.141087839
 20
121.5095288085
 30
0.0
 10
114.6545241901
 20
120.7869304116
 30
0.0
 10
114.9606031306
 20
120.1952946844
 30
0.0
 10
115.1617427625
 20
119.5594100086
 30
0.0
 10
115.2089694846
 20
119.1159626295
 30
0.0
 10
115.2089694846
 20
118.8949016766
 30
0.0
  0
SPLINE
  5
4B3
100
AcDbEntity
  8
RUNDUNGEN
100
AcDbSpline
 62
7
  6
CONTINUOUS
 70
0
 71
3
 72
16
 73
12
 74
0
 42
0.0000001
 43
0.0000001
 44
0.0000000001
 40
0.0
 40
0.0
 40
0.0
 40
0.0
 40
0.0242874348
 40
0.0512771385
 40
0.082901453
 40
0.1202969766
 40
0.2141635644
 40
0.3338260053
 40
0.4770520394
 40
0.6397399996
 40
1.0
 40
1.0
 40
1.0
 40
1.0
 10
126.2525874231
 20
122.0898845839
 30
0.0
 10
126.2525874231
 20
122.1213575898
 30
0.0
 10
126.239780013
 20
122.1882255696
 30
0.0
 10
126.1857489893
 20
122.2826632968
 30
0.0
 10
126.0994255664
 20
122.3734334481
 30
0.0
 10
125.9293087523
 20
122.4995949253
 30
0.0
 10
125.6337904606
 20
122.6407830631
 30
0.0
 10
125.1929331017
 20
122.7818200761
 30
0.0
 10
124.6532862046
 20
122.8991568894
 30
0.0
 10
123.7982009264
 20
123.0207937957
 30
0.0
 10
123.1194323256
 20
123.0545016766
 30
0.0
 10
122.6525874231
 20
123.0545016766
 30
0.0
  0
SPLINE
  5
4B4
100
AcDbEntity
  8
RUNDUNGEN
100
AcDbSpline
 62
7
  6
CONTINUOUS
 70
0
 71
3
 72
16
 73
12
 74
0
 42
0.0000001
 43
0.0000001
 44
0.0000000001
 40
0.0
 40
0.0
 40
0.0
 40
0.0
 40
0.0242874348
 40
0.0512771385
 40
0.082901453
 40
0.1202969766
 40
0.2141635644
 40
0.3338260053
 40
0.4770520394
 40
0.6397399996
 40
1.0
 40
1.0
 40
1.0
 40
1.0
 10
126.2525874231
 20
127.2860370066
 30
0.0
 10
126.2525874231
 20
127.3175100125
 30
0.0
 10
126.239780013
 20
127.3843779923
 30
0.0
 10
126.1857489893
 20
127.4788157195
 30
0.0
 10
126.0994255664
 20
127.5695858708
 30
0.0
 10
125.9293087523
 20
127.695747348
 30
0.0
 10
125.6337904606
 20
127.8369354858
 30
0.0
 10
125.1929331017
 20
127.9779724988
 30
0.0
 10
124.6532862046
 20
128.0953093121
 30
0.0
 10
123.7982009264
 20
128.2169462184
 30
0.0
 10
123.1194323256
 20
128.2506540993
 30
0.0
 10
122.6525874231
 20
128.2506540993
 30
0.0
  0
SPLINE
  5
4B5
100
AcDbEntity
  8
RUNDUNGEN
100
AcDbSpline
 62
7
  6
CONTINUOUS
 70
0
 71
3
 72
9
 73
5
 74
0
 42
0.0000001
 43
0.0000001
 44
0.0000000001
 40
0.0
 40
0.0
 40
0.0
 40
0.0
 40
0.4847438183
 40
1.0
 40
1.0
 40
1.0
 40
1.0
 10
122.7057985364
 20
137.7780584673
 30
0.0
 10
122.3339809229
 20
137.9372872143
 30
0.0
 10
121.5198417001
 20
138.1575264082
 30
0.0
 10
120.6828319245
 20
138.2139169108
 30
0.0
 10
120.2529549237
 20
138.2066996298
 30
0.0
  0
SPLINE
  5
4B6
100
AcDbEntity
  8
KONSTRUKTIONSELEMENTE
100
AcDbSpline
 62
7
  6
CONTINUOUS
 70
0
 71
3
 72
25
 73
21
 74
0
 42
0.0000001
 43
0.0000001
 44
0.0000000001
 40
0.0
 40
0.0
 40
0.0
 40
0.0
 40
0.1909707776
 40
0.3759533983
 40
0.4641013487
 40
0.5481534307
 40
0.6272170623
 40
0.7004235274
 40
0.7669433979
 40
0.8260210664
 40
0.8769818435
 40
0.9192661429
 40
0.937021355
 40
0.952466139
 40
0.9655806471
 40
0.9763782016
 40
0.9849111964
 40
0.9913276338
 40
0.9960309752
 40
1.0
 40
1.0
 40
1.0
 40
1.0
 10
90.5904886712
 20
112.2545016766
 30
0.0
 10
90.2709007081
 20
111.5772339942
 30
0.0
 10
89.6883986644
 20
110.2215966613
 30
0.0
 10
89.0663755131
 20
108.5103815235
 30
0.0
 10
88.6366083648
 20
107.1771534143
 30
0.0
 10
88.3557436771
 20
106.2326216805
 30
0.0
 10
88.1110259184
 20
105.338714661
 30
0.0
 10
87.9023728574
 20
104.5064254295
 30
0.0
 10
87.7296559883
 20
103.7461279567
 30
0.0
 10
87.5927115349
 20
103.0673530953
 30
0.0
 10
87.4913878574
 20
102.4786004548
 30
0.0
 10
87.4331496046
 20
102.0470546853
 30
0.0
 10
87.4061550948
 20
101.7522311471
 30
0.0
 10
87.3960178446
 20
101.5708493122
 30
0.0
 10
87.3946763251
 20
101.4164280733
 30
0.0
 10
87.4020143596
 20
101.2893152187
 30
0.0
 10
87.4179994018
 20
101.1892550226
 30
0.0
 10
87.442541979
 20
101.1159017163
 30
0.0
 10
87.4784362629
 20
101.066053089
 30
0.0
 10
87.5133015459
 20
101.0545016766
 30
0.0
 10
87.5288659223
 20
101.0545016766
 30
0.0
  0
SPLINE
  5
4B7
100
AcDbEntity
  8
RUNDUNGEN
100
AcDbSpline
 62
7
  6
CONTINUOUS
 70
0
 71
3
 72
10
 73
6
 74
0
 42
0.0000001
 43
0.0000001
 44
0.0000000001
 40
0.0
 40
0.0
 40
0.0
 40
0.0
 40
0.2551138715
 40
0.5078532373
 40
1.0
 40
1.0
 40
1.0
 40
1.0
 10
117.2465715677
 20
138.2027155066
 30
0.0
 10
116.857622207
 20
138.2027155066
 30
0.0
 10
116.083305228
 20
138.212568852
 30
0.0
 10
114.5595463365
 20
138.2615036056
 30
0.0
 10
113.4243028598
 20
138.3045016766
 30
0.0
 10
112.673970596
 20
138.3045016766
 30
0.0
  0
SPLINE
  5
4B8
100
AcDbEntity
  8
RUNDUNGEN
100
AcDbSpline
 62
7
  6
CONTINUOUS
 70
0
 71
3
 72
16
 73
12
 74
0
 42
0.0000001
 43
0.0000001
 44
0.0000000001
 40
0.0
 40
0.0
 40
0.0
 40
0.0
 40
0.0242874348
 40
0.0512771385
 40
0.082901453
 40
0.1202969766
 40
0.2141635644
 40
0.3338260053
 40
0.4770520394
 40
0.6397399996
 40
1.0
 40
1.0
 40
1.0
 40
1.0
 10
80.2525874231
 20
127.2860370066
 30
0.0
 10
80.2525874231
 20
127.3175100125
 30
0.0
 10
80.2653948333
 20
127.3843779923
 30
0.0
 10
80.319425857
 20
127.4788157195
 30
0.0
 10
80.4057492798
 20
127.5695858708
 30
0.0
 10
80.5758660939
 20
127.695747348
 30
0.0
 10
80.8713843856
 20
127.8369354858
 30
0.0
 10
81.3122417445
 20
127.9779724988
 30
0.0
 10
81.8518886416
 20
128.0953093121
 30
0.0
 10
82.7069739198
 20
128.2169462184
 30
0.0
 10
83.3857425206
 20
128.2506540993
 30
0.0
 10
83.8525874231
 20
128.2506540993
 30
0.0
  0
SPLINE
  5
4B9
100
AcDbEntity
  8
RUNDUNGEN
100
AcDbSpline
 62
7
  6
CONTINUOUS
 70
0
 71
3
 72
9
 73
5
 74
0
 42
0.0000001
 43
0.0000001
 44
0.0000000001
 40
0.0
 40
0.0
 40
0.0
 40
0.0
 40
0.5152567055
 40
1.0
 40
1.0
 40
1.0
 40
1.0
 10
86.2525874231
 20
138.2066934393
 30
0.0
 10
85.8226475238
 20
138.2139329897
 30
0.0
 10
84.9855123782
 20
138.1575664584
 30
0.0
 10
84.1712478552
 20
137.9373103103
 30
0.0
 10
83.7993763099
 20
137.7780584673
 30
0.0
  0
SPLINE
  5
4BA
100
AcDbEntity
  8
RUNDUNGEN
100
AcDbSpline
 62
7
  6
CONTINUOUS
 70
0
 71
3
 72
16
 73
12
 74
0
 42
0.0000001
 43
0.0000001
 44
0.0000000001
 40
0.0
 40
0.0
 40
0.0
 40
0.0
 40
0.3602600004
 40
0.5229479606
 40
0.6661739947
 40
0.7858364356
 40
0.8797030234
 40
0.917098547
 40
0.9487228615
 40
0.9757125652
 40
1.0
 40
1.0
 40
1.0
 40
1.0
 10
83.8525874231
 20
123.0545016766
 30
0.0
 10
83.3857425206
 20
123.0545016766
 30
0.0
 10
82.7069739198
 20
123.0207937957
 30
0.0
 10
81.8518886416
 20
122.8991568894
 30
0.0
 10
81.3122417445
 20
122.7818200761
 30
0.0
 10
80.8713843856
 20
122.6407830631
 30
0.0
 10
80.5758660939
 20
122.4995949253
 30
0.0
 10
80.4057492798
 20
122.3734334481
 30
0.0
 10
80.319425857
 20
122.2826632968
 30
0.0
 10
80.2653948333
 20
122.1882255696
 30
0.0
 10
80.2525874231
 20
122.1213575898
 30
0.0
 10
80.2525874231
 20
122.0898845839
 30
0.0
  0
ELLIPSE
  5
4BB
100
AcDbEntity
  8
0
100
AcDbEllipse
 62
7
  6
CONTINUOUS
 10
337.9897732385
 20
132.3045016766
 30
0.0
 11
-0.9758284841
 21
5.9793501608
 31
0.0
 40
0.5096845585
 41
-1.6537856735
 42
-0.5409540901
  0
ELLIPSE
  5
4BC
100
AcDbEntity
  8
RUNDUNGEN
100
AcDbEllipse
 62
7
  6
CONTINUOUS
 10
350.2555083102
 20
132.3045016766
 30
0.0
 11
0.9758284841
 21
5.9793501608
 31
0.0
 40
0.5096845585
 41
0.5409540901
 42
1.6537856735
  0
ENDSEC
  0
SECTION
  2
OBJECTS
  0
DICTIONARY
  5
C
100
AcDbDictionary
280
0
281
1
  3
ACAD_GROUP
350
D
  3
ACAD_MLINESTYLE
350
17
  3
ACAD_LAYOUT
350
1A
  3
ACAD_PLOTSETTINGS
350
19
  3
ACAD_PLOTSTYLENAME
350
E
  0
DICTIONARY
  5
D
102
{ACAD_REACTORS
330
C
102
}
100
AcDbDictionary
280
0
281
1
  0
ACDBDICTIONARYWDFLT
  5
E
102
{ACAD_REACTORS
330
C
102
}
100
AcDbDictionary
281
1
  3
Normal
350
F
100
AcDbDictionaryWithDefault
340
F
  0
DICTIONARY
  5
17
102
{ACAD_REACTORS
330
C
102
}
100
AcDbDictionary
280
0
281
1
  3
Standard
350
18
  0
DICTIONARY
  5
19
102
{ACAD_REACTORS
330
C
102
}
100
AcDbDictionary
281
1
  0
DICTIONARY
  5
1A
102
{ACAD_REACTORS
330
C
102
}
100
AcDbDictionary
281
1
  3
Model
350
4BD
  3
Layout1
350
4BE
  0
ACDBPLACEHOLDER
  5
F
102
{ACAD_REACTORS
330
E
102
}
  0
MLINESTYLE
  5
18
102
{ACAD_REACTORS
330
17
102
}
100
AcDbMlineStyle
  2
STANDARD
 70
0
  3

 62
256
 51
90.0
 52
90.0
 71
2
 49
0.5
 62
256
  6
BYLAYER
 49
-0.5
 62
256
  6
BYLAYER
  0
LAYOUT
  5
4BD
102
{ACAD_REACTORS
330
1A
102
}
100
AcDbPlotSettings
  1

  2
none_device
  4
ISO_A3_(420.00_x_297.00_MM)
  6

 40
0.0
 41
0.0
 42
0.0
 43
0.0
 44
420.0
 45
297.0
 46
0.0
 47
0.0
 48
0.0
 49
0.0
140
0.0
141
0.0
142
1.0
143
1.0
 70
1024
 72
1
 73
0
 74
0
  7

 75
0
147
1.0
148
0.0
149
0.0
100
AcDbLayout
  1
Model
 70
0
 71
0
 10
0.0
 20
0.0
 11
420.0
 21
297.0
 12
0.0
 22
0.0
 32
0.0
 14
0.0
 24
0.0
 34
0.0
 15
0.0
 25
0.0
 35
0.0
146
0.0
 13
0.0
 23
0.0
 33
0.0
 16
1.0
 26
0.0
 36
0.0
 17
0.0
 27
1.0
 37
0.0
 76
0
330
20A
345
0
346
0
  0
LAYOUT
  5
4BE
102
{ACAD_REACTORS
330
1A
102
}
100
AcDbPlotSettings
  1

  2
none_device
  4
ISO_A3_(420.00_x_297.00_MM)
  6

 40
0.0
 41
0.0
 42
0.0
 43
0.0
 44
420.0
 45
297.0
 46
0.0
 47
0.0
 48
0.0
 49
0.0
140
0.0
141
0.0
142
1.0
143
1.0
 70
0
 72
1
 73
0
 74
0
  7

 75
0
147
1.0
148
0.0
149
0.0
100
AcDbLayout
  1
Layout1
 70
0
 71
1
 10
0.0
 20
0.0
 11
420.0
 21
297.0
 12
0.0
 22
0.0
 32
0.0
 14
0.0
 24
0.0
 34
0.0
 15
0.0
 25
0.0
 35
0.0
146
0.0
 13
0.0
 23
0.0
 33
0.0
 16
1.0
 26
0.0
 36
0.0
 17
0.0
 27
1.0
 37
0.0
 76
0
330
20B
345
0
346
0
  0
ENDSEC
  0
EOF
