999
DXF file: IBK-RG-1-6_7903041_M34546-P-1.dxf
999
Pro/ENGINEER 2010140 by Parametric Technology Corporation
  0
SECTION
  2
HEADER
  9
$ACADVER
  1
AC1015
  9
$DWGCODEPAGE
  3
ANSI_1252
  9
$EXTMAX
 10
420.0
 20
297.0
 30
0.0
  9
$EXTMIN
 10
0.0
 20
0.0
 30
0.0
  9
$LIMMIN
 10
0.0
 20
0.0
  9
$LIMMAX
 10
420.0
 20
297.0
  9
$VIEWCTR
 10
210.0
 20
148.5
  9
$VIEWSIZE
 40
297.0
  9
$CLAYER
  8
0
  9
$LTSCALE
 40
23.1
  9
$CELTYPE
  6
BYLAYER
  9
$DIMSCALE
 40
1.0
  9
$DIMASZ
 40
3.5
  9
$DIMEXO
 40
2.625
  9
$DIMDLI
 40
15.96
  9
$DIMEXE
 40
7.56
  9
$DIMCEN
 40
3.78
  9
$DIMLFAC
 40
1.0
  9
$DIMBLK
  1
_FILLED
  9
$DIMTXT
 40
3.5
  9
$DIMTOL
 70
1
  9
$DIMLIM
 70
0
  9
$DIMTFAC
 40
1.0
  9
$DIMTP
 40
0.005
  9
$DIMTM
 40
0.005
  9
$PDMODE
 70
3
  9
$PDSIZE
 40
0.3125
  9
$HANDSEED
  5
4C8
  9
$TILEMODE
 70
1
  9
$MEASUREMENT
 70
1
  9
$INSUNITS
 70
4
  0
ENDSEC
  0
SECTION
  2
CLASSES
  0
CLASS
  1
ACDBDICTIONARYWDFLT
  2
AcDbDictionaryWithDefault
  3
AutoCAD 2000
 90
0
280
0
281
0
  0
CLASS
  1
ACDBPLACEHOLDER
  2
AcDbPlaceHolder
  3
AutoCAD 2000
 90
0
280
0
281
0
  0
CLASS
  1
LAYOUT
  2
AcDbLayout
  3
AutoCAD 2000
 90
0
280
0
281
0
  0
ENDSEC
  0
SECTION
  2
TABLES
  0
TABLE
  2
VPORT
  5
8
100
AcDbSymbolTable
 70
2
  0
VPORT
  5
1F4
100
AcDbSymbolTableRecord
100
AcDbViewportTableRecord
  2
*ACTIVE
 70
0
 10
0.0
 20
0.0
 11
1.0
 21
1.0
 12
210.0
 22
148.5
 13
0.0
 23
0.0
 14
1.0
 24
1.0
 15
0.0
 25
0.0
 16
0.0
 26
0.0
 36
1.0
 17
0.0
 27
0.0
 37
0.0
 40
297.0
 41
1.4141414141
 42
50.0
 43
0.0
 44
0.0
 50
0.0
 51
0.0
 71
0
 72
100
 73
1
 74
1
 75
0
 76
0
 77
0
 78
0
  0
ENDTAB
  0
TABLE
  2
LTYPE
  5
5
100
AcDbSymbolTable
 70
6
  0
LTYPE
  5
14
100
AcDbSymbolTableRecord
100
AcDbLinetypeTableRecord
  2
BYBLOCK
 70
0
  3

 72
65
 73
0
 40
0.0
  0
LTYPE
  5
15
100
AcDbSymbolTableRecord
100
AcDbLinetypeTableRecord
  2
BYLAYER
 70
0
  3

 72
65
 73
0
 40
0.0
  0
LTYPE
  5
16
100
AcDbSymbolTableRecord
100
AcDbLinetypeTableRecord
  2
CONTINUOUS
 70
64
  3
Solid line
 72
65
 73
0
 40
0.0
  0
LTYPE
  5
1F5
100
AcDbSymbolTableRecord
100
AcDbLinetypeTableRecord
  2
CENTER
 70
64
  3
____ _ ____ _ ____ _ ____ _ ____ _ ____ _ ____
 72
65
 73
4
 40
0.6
 49
0.375
 74
0
 49
-0.075
 74
0
 49
0.075
 74
0
 49
-0.075
 74
0
  0
LTYPE
  5
1F6
100
AcDbSymbolTableRecord
100
AcDbLinetypeTableRecord
  2
HIDDEN
 70
64
  3
- - - - - - - - - - - - - - - - - - - -
 72
65
 73
2
 40
0.2
 49
0.1
 74
0
 49
-0.1
 74
0
  0
LTYPE
  5
1F7
100
AcDbSymbolTableRecord
100
AcDbLinetypeTableRecord
  2
PHANTOM
 70
64
  3
_____ _ _ _____ _ _ _____ _ _ _____
 72
65
 73
6
 40
0.8
 49
0.45
 74
0
 49
-0.05
 74
0
 49
0.1
 74
0
 49
-0.05
 74
0
 49
0.1
 74
0
 49
-0.05
 74
0
  0
LTYPE
  5
1F8
100
AcDbSymbolTableRecord
100
AcDbLinetypeTableRecord
  2
DOT
 70
64
  3
. . . . . . . . . . . . . . . . . . . .
 72
65
 73
2
 40
0.2
 49
0.1
 74
0
 49
-0.1
 74
0
  0
LTYPE
  5
1F9
100
AcDbSymbolTableRecord
100
AcDbLinetypeTableRecord
  2
DASHED
 70
64
  3
- - - - - - - - - - - - - - - - - - - -
 72
65
 73
2
 40
0.2
 49
0.1
 74
0
 49
-0.1
 74
0
  0
ENDTAB
  0
TABLE
  2
LAYER
  5
2
100
AcDbSymbolTable
 70
36
  0
LAYER
  5
10
100
AcDbSymbolTableRecord
100
AcDbLayerTableRecord
  2
0
 70
0
 62
7
  6
CONTINUOUS
370
-3
390
F
  0
LAYER
  5
1FA
100
AcDbSymbolTableRecord
100
AcDbLayerTableRecord
  2
DEFAULT_1
 70
0
 62
7
  6
CENTER
370
-3
390
F
  0
LAYER
  5
1FB
100
AcDbSymbolTableRecord
100
AcDbLayerTableRecord
  2
DEFAULT_2
 70
0
 62
8
  6
HIDDEN
370
-3
390
F
  0
LAYER
  5
1FC
100
AcDbSymbolTableRecord
100
AcDbLayerTableRecord
  2
DEFAULT_3
 70
0
 62
7
  6
PHANTOM
370
-3
390
F
  0
LAYER
  5
1FD
100
AcDbSymbolTableRecord
100
AcDbLayerTableRecord
  2
BEZUGSACHSEN
 70
0
 62
7
  6
CONTINUOUS
370
-3
390
F
  0
LAYER
  5
1FE
100
AcDbSymbolTableRecord
100
AcDbLayerTableRecord
  2
BEZUGSEBENEN
 70
0
 62
7
  6
CONTINUOUS
370
-3
390
F
  0
LAYER
  5
1FF
100
AcDbSymbolTableRecord
100
AcDbLayerTableRecord
  2
BG_STARTBEZUEGE
 70
0
 62
7
  6
CONTINUOUS
370
-3
390
F
  0
LAYER
  5
200
100
AcDbSymbolTableRecord
100
AcDbLayerTableRecord
  2
FASEN
 70
0
 62
7
  6
CONTINUOUS
370
-3
390
F
  0
LAYER
  5
201
100
AcDbSymbolTableRecord
100
AcDbLayerTableRecord
  2
HILFEN
 70
0
 62
7
  6
CONTINUOUS
370
-3
390
F
  0
LAYER
  5
202
100
AcDbSymbolTableRecord
100
AcDbLayerTableRecord
  2
KONSTRUKTIONSELEMENTE
 70
0
 62
7
  6
CONTINUOUS
370
-3
390
F
  0
LAYER
  5
203
100
AcDbSymbolTableRecord
100
AcDbLayerTableRecord
  2
NORM
 70
0
 62
7
  6
CONTINUOUS
370
-3
390
F
  0
LAYER
  5
204
100
AcDbSymbolTableRecord
100
AcDbLayerTableRecord
  2
PLATZIERUNG
 70
0
 62
7
  6
CONTINUOUS
370
-3
390
F
  0
LAYER
  5
205
100
AcDbSymbolTableRecord
100
AcDbLayerTableRecord
  2
RUNDUNGEN
 70
0
 62
7
  6
CONTINUOUS
370
-3
390
F
  0
LAYER
  5
206
100
AcDbSymbolTableRecord
100
AcDbLayerTableRecord
  2
TEIL_STARTBEZUEGE
 70
0
 62
7
  6
CONTINUOUS
370
-3
390
F
  0
LAYER
  5
207
100
AcDbSymbolTableRecord
100
AcDbLayerTableRecord
  2
T_STARTBEZUEGE
 70
0
 62
7
  6
CONTINUOUS
370
-3
390
F
  0
ENDTAB
  0
TABLE
  2
STYLE
  5
3
100
AcDbSymbolTable
 70
1
  0
STYLE
  5
11
100
AcDbSymbolTableRecord
100
AcDbTextStyleTableRecord
  2
STANDARD
 70
0
 40
0.0
 41
0.7
 50
0.0
 71
0
 42
0.2
  3
txt
  4

  0
STYLE
  5
208
100
AcDbSymbolTableRecord
100
AcDbTextStyleTableRecord
  2
TEXTSTYLE_1
 70
0
 40
0.0
 41
0.8
 50
0.0
 71
0
 42
0.2
  3
gdt
  4

  0
ENDTAB
  0
TABLE
  2
VIEW
  5
6
100
AcDbSymbolTable
 70
0
  0
ENDTAB
  0
TABLE
  2
UCS
  5
7
100
AcDbSymbolTable
 70
0
  0
ENDTAB
  0
TABLE
  2
APPID
  5
9
100
AcDbSymbolTable
 70
1
  0
APPID
  5
209
100
AcDbSymbolTableRecord
100
AcDbRegAppTableRecord
  2
ACAD
 70
0
  0
ENDTAB
  0
TABLE
  2
BLOCK_RECORD
  5
1
100
AcDbSymbolTable
 70
0
  0
BLOCK_RECORD
  5
20A
100
AcDbSymbolTableRecord
100
AcDbBlockTableRecord
  2
*Model_Space
  0
BLOCK_RECORD
  5
20B
100
AcDbSymbolTableRecord
100
AcDbBlockTableRecord
  2
*Paper_Space
  0
ENDTAB
  0
TABLE
  2
DIMSTYLE
  5
A
100
AcDbSymbolTable
 70
1
100
AcDbDimStyleTable
 71
0
  0
DIMSTYLE
105
20C
100
AcDbSymbolTableRecord
100
AcDbDimStyleTableRecord
  2
STANDARD
 70
0
  3

  4

 40
1.0
 41
3.5
 42
0.0625
 43
0.38
 44
0.18
 45
0.0
 46
0.0
 47
0.005
 48
0.005
140
3.5
141
0.09
142
0.0
143
25.4
144
1.0
145
0.0
146
1.0
147
0.09
 71
1.0
 72
0.0
 73
0
 74
0
 75
0
 76
0
 77
1
 78
8
170
0
171
2
172
0
173
0
174
0
175
0
176
0
177
0
178
5
270
2
271
3
272
3
273
2
274
2
275
0
280
0
281
0
282
0
283
1
284
8
285
0
286
0
287
3
288
0
340
11
  0
ENDTAB
  0
ENDSEC
  0
SECTION
  2
BLOCKS
  0
BLOCK
  5
20
100
AcDbEntity
  8
0
100
AcDbBlockBegin
  2
*Model_Space
 70
0
 10
0.0
 20
0.0
 30
0.0
  3
*Model_Space
  1

  0
ENDBLK
  5
21
100
AcDbEntity
  8
0
100
AcDbBlockEnd
  0
BLOCK
  5
1C
100
AcDbEntity
  8
0
100
AcDbBlockBegin
  2
*Paper_Space
 70
0
 10
0.0
 20
0.0
 30
0.0
  3
*Paper_Space
  1

  0
ENDBLK
  5
1D
100
AcDbEntity
  8
0
100
AcDbBlockEnd
  0
ENDSEC
  0
SECTION
  2
ENTITIES
  0
MTEXT
  5
20D
100
AcDbEntity
  8
0
100
AcDbMText
 62
5
  6
CONTINUOUS
  7
STANDARD
 71
1
 72
1
 10
304.3044661426
 20
201.4536616523
 30
0.0
 11
0.0
 21
1.0
 31
0.0
 44
0.9
  1
RUD
 40
5.0
 41
13.3333333333
  0
MTEXT
  5
20E
100
AcDbEntity
  8
0
100
AcDbMText
 62
5
  6
CONTINUOUS
  7
STANDARD
 71
1
 72
1
 10
351.6791888869
 20
187.226894735
 30
0.0
 11
0.0
 21
1.0
 31
0.0
 44
0.9
  1
IBK-RG 1-6
 40
5.0
 41
37.7380952381
  0
MTEXT
  5
20F
100
AcDbEntity
  8
0
100
AcDbMText
 62
5
  6
CONTINUOUS
  7
STANDARD
 71
1
 72
1
 10
99.2492358794
 20
181.3239436072
 30
0.0
 11
0.0
 21
1.0
 31
0.0
 44
0.9
  1
RUD IBK-RG 1-6
 40
5.0
 41
54.0476190476
  0
LINE
  5
210
100
AcDbEntity
  8
0
100
AcDbLine
 62
7
  6
CONTINUOUS
 10
0.0
 20
0.0
 11
0.0
 21
297.0
  0
LINE
  5
211
100
AcDbEntity
  8
0
100
AcDbLine
 62
7
  6
CONTINUOUS
 10
0.0
 20
0.0
 11
420.0
 21
0.0
  0
LINE
  5
212
100
AcDbEntity
  8
0
100
AcDbLine
 62
7
  6
CONTINUOUS
 10
0.0
 20
297.0
 11
420.0
 21
297.0
  0
LINE
  5
213
100
AcDbEntity
  8
0
100
AcDbLine
 62
7
  6
CONTINUOUS
 10
420.0
 20
0.0
 11
420.0
 21
297.0
  0
LINE
  5
214
100
AcDbEntity
  8
RUNDUNGEN
100
AcDbLine
 62
7
  6
CONTINUOUS
 10
182.4219963251
 20
37.3422894868
 11
178.8864624191
 21
40.8778233927
  0
LINE
  5
215
100
AcDbEntity
  8
RUNDUNGEN
100
AcDbLine
 62
7
  6
CONTINUOUS
 10
214.6799850551
 20
76.6713460287
 11
218.215518961
 21
73.1358121228
  0
LINE
  5
216
100
AcDbEntity
  8
RUNDUNGEN
100
AcDbLine
 62
7
  6
CONTINUOUS
 10
224.4338423351
 20
79.3541354968
 11
220.8983084292
 21
82.8896694028
  0
LINE
  5
217
100
AcDbEntity
  8
RUNDUNGEN
100
AcDbLine
 62
7
  6
CONTINUOUS
 10
221.0171061874
 20
83.008467161
 11
224.5526400933
 21
79.4729332551
  0
LINE
  5
218
100
AcDbEntity
  8
KONSTRUKTIONSELEMENTE
100
AcDbLine
 62
7
  6
CONTINUOUS
 10
222.302818784
 20
87.1933175605
 11
218.7672848781
 21
90.7288514664
  0
LINE
  5
219
100
AcDbEntity
  8
KONSTRUKTIONSELEMENTE
100
AcDbLine
 62
7
  6
CONTINUOUS
 10
222.6563721746
 20
87.546870951
 11
219.1208382686
 21
91.082404857
  0
LINE
  5
21A
100
AcDbEntity
  8
0
100
AcDbLine
 62
7
  6
CONTINUOUS
 10
331.4487349493
 20
121.804562017
 11
329.2487349493
 21
121.804562017
  0
LINE
  5
21B
100
AcDbEntity
  8
0
100
AcDbLine
 62
7
  6
CONTINUOUS
 10
329.2487349493
 20
121.8139690156
 11
331.4487349493
 21
121.8139690156
  0
LINE
  5
21C
100
AcDbEntity
  8
0
100
AcDbLine
 62
7
  6
CONTINUOUS
 10
325.51517523
 20
126.303212017
 11
335.1822946686
 21
126.303212017
  0
LINE
  5
21D
100
AcDbEntity
  8
0
100
AcDbLine
 62
7
  6
CONTINUOUS
 10
329.0362349493
 20
137.3496346197
 11
331.6612349493
 21
137.3496346197
  0
LINE
  5
21E
100
AcDbEntity
  8
0
100
AcDbLine
 62
7
  6
CONTINUOUS
 10
331.6612349493
 20
145.4438840287
 11
329.0362349493
 21
145.4438840287
  0
LINE
  5
21F
100
AcDbEntity
  8
KONSTRUKTIONSELEMENTE
100
AcDbLine
 62
7
  6
CONTINUOUS
 10
284.316083494
 20
156.2776500824
 11
280.2855748413
 21
152.2471414296
  0
LINE
  5
220
100
AcDbEntity
  8
KONSTRUKTIONSELEMENTE
100
AcDbLine
 62
7
  6
CONTINUOUS
 10
279.9320214507
 20
151.893588039
 11
275.9015127979
 21
147.8630793863
  0
LINE
  5
221
100
AcDbEntity
  8
KONSTRUKTIONSELEMENTE
100
AcDbLine
 62
7
  6
CONTINUOUS
 10
223.1513469214
 20
95.1129135097
 11
219.1208382686
 21
91.082404857
  0
LINE
  5
222
100
AcDbEntity
  8
KONSTRUKTIONSELEMENTE
100
AcDbLine
 62
7
  6
CONTINUOUS
 10
218.7672848781
 20
90.7288514664
 11
214.7367762253
 21
86.6983428136
  0
LINE
  5
223
100
AcDbEntity
  8
KONSTRUKTIONSELEMENTE
100
AcDbLine
 62
7
  6
CONTINUOUS
 10
255.7489695341
 20
125.5185051008
 11
245.1423678163
 21
114.911903383
  0
LINE
  5
224
100
AcDbEntity
  8
KONSTRUKTIONSELEMENTE
100
AcDbLine
 62
7
  6
CONTINUOUS
 10
287.8516174
 20
152.7421161764
 11
283.8211087472
 21
148.7116075237
  0
LINE
  5
225
100
AcDbEntity
  8
KONSTRUKTIONSELEMENTE
100
AcDbLine
 62
7
  6
CONTINUOUS
 10
283.4675553566
 20
148.3580541331
 11
279.4370467039
 21
144.3275454803
  0
LINE
  5
226
100
AcDbEntity
  8
KONSTRUKTIONSELEMENTE
100
AcDbLine
 62
7
  6
CONTINUOUS
 10
226.6868808273
 20
91.5773796038
 11
222.6563721746
 21
87.546870951
  0
LINE
  5
227
100
AcDbEntity
  8
KONSTRUKTIONSELEMENTE
100
AcDbLine
 62
7
  6
CONTINUOUS
 10
222.302818784
 20
87.1933175605
 11
218.2723101312
 21
83.1628089077
  0
LINE
  5
228
100
AcDbEntity
  8
KONSTRUKTIONSELEMENTE
100
AcDbLine
 62
7
  6
CONTINUOUS
 10
258.9309500494
 20
122.3365245854
 11
248.3243483317
 21
111.7299228676
  0
LINE
  5
229
100
AcDbEntity
  8
KONSTRUKTIONSELEMENTE
100
AcDbLine
 62
7
  6
CONTINUOUS
 10
289.3365416405
 20
152.0350093953
 11
318.2784095419
 21
180.9768772967
  0
LINE
  5
22A
100
AcDbEntity
  8
RUNDUNGEN
100
AcDbLine
 62
7
  6
CONTINUOUS
 10
178.8864624191
 20
40.8778233927
 11
221.0170183439
 21
83.0083793175
  0
LINE
  5
22B
100
AcDbEntity
  8
KONSTRUKTIONSELEMENTE
100
AcDbLine
 62
7
  6
CONTINUOUS
 10
229.5860186302
 20
91.2238262132
 11
248.2947036054
 21
109.9325111884
  0
LINE
  5
22C
100
AcDbEntity
  8
KONSTRUKTIONSELEMENTE
100
AcDbLine
 62
7
  6
CONTINUOUS
 10
260.6987170024
 20
122.3365245854
 11
279.4074019776
 21
141.0452095606
  0
LINE
  5
22D
100
AcDbEntity
  8
0
100
AcDbLine
 62
7
  6
CONTINUOUS
 10
328.3184512559
 20
149.9165240324
 11
332.3790186427
 21
149.9165240324
  0
LINE
  5
22E
100
AcDbEntity
  8
KONSTRUKTIONSELEMENTE
100
AcDbLine
 62
7
  6
CONTINUOUS
 10
232.7679991455
 20
88.0418456979
 11
251.4766841207
 21
106.7505306731
  0
LINE
  5
22F
100
AcDbEntity
  8
KONSTRUKTIONSELEMENTE
100
AcDbLine
 62
7
  6
CONTINUOUS
 10
263.8806975178
 20
119.1545440701
 11
282.5893824929
 21
137.8632290453
  0
LINE
  5
230
100
AcDbEntity
  8
RUNDUNGEN
100
AcDbLine
 62
7
  6
CONTINUOUS
 10
182.4219963251
 20
37.3422894868
 11
224.5525400053
 21
79.4728331671
  0
LINE
  5
231
100
AcDbEntity
  8
KONSTRUKTIONSELEMENTE
100
AcDbLine
 62
7
  6
CONTINUOUS
 10
293.6286924548
 20
147.8418788353
 11
322.521050229
 21
176.7342366096
  0
LINE
  5
232
100
AcDbEntity
  8
KONSTRUKTIONSELEMENTE
100
AcDbLine
 62
7
  6
CONTINUOUS
 10
253.2740958
 20
106.7801753993
 11
263.8806975178
 21
117.3867771171
  0
LINE
  5
233
100
AcDbEntity
  8
KONSTRUKTIONSELEMENTE
100
AcDbLine
 62
7
  6
CONTINUOUS
 10
224.70698184
 20
76.7281371989
 11
233.1215525361
 21
85.142707895
  0
LINE
  5
234
100
AcDbEntity
  8
KONSTRUKTIONSELEMENTE
100
AcDbLine
 62
7
  6
CONTINUOUS
 10
285.8717184127
 20
137.8928737715
 11
294.2862891088
 21
146.3074444676
  0
LINE
  5
235
100
AcDbEntity
  8
0
100
AcDbLine
 62
7
  6
CONTINUOUS
 10
328.6388720667
 20
161.304562017
 11
332.0585978319
 21
161.304562017
  0
LINE
  5
236
100
AcDbEntity
  8
KONSTRUKTIONSELEMENTE
100
AcDbLine
 62
7
  6
CONTINUOUS
 10
283.4675553566
 20
148.3580541331
 11
279.9320214507
 21
151.893588039
  0
LINE
  5
237
100
AcDbEntity
  8
KONSTRUKTIONSELEMENTE
100
AcDbLine
 62
7
  6
CONTINUOUS
 10
283.8211087472
 20
148.7116075237
 11
280.2855748413
 21
152.2471414296
  0
LINE
  5
238
100
AcDbEntity
  8
KONSTRUKTIONSELEMENTE
100
AcDbLine
 62
7
  6
CONTINUOUS
 10
256.4560763153
 20
103.598194884
 11
267.0626780331
 21
114.2047966018
  0
LINE
  5
239
100
AcDbEntity
  8
KONSTRUKTIONSELEMENTE
100
AcDbLine
 62
7
  6
CONTINUOUS
 10
228.242515746
 20
73.192603293
 11
236.6570864421
 21
81.6071739891
  0
LINE
  5
23A
100
AcDbEntity
  8
KONSTRUKTIONSELEMENTE
100
AcDbLine
 62
7
  6
CONTINUOUS
 10
289.4072523186
 20
134.3573398656
 11
297.8218230147
 21
142.7719105617
  0
LINE
  5
23B
100
AcDbEntity
  8
0
100
AcDbLine
 62
7
  6
CONTINUOUS
 10
328.6388720667
 20
172.6926000015
 11
332.0585978319
 21
172.6926000015
  0
LINE
  5
23C
100
AcDbEntity
  8
0
100
AcDbLine
 62
7
  6
CONTINUOUS
 10
300.3487349493
 20
188.804562017
 11
300.3487349493
 21
224.804562017
  0
LINE
  5
23D
100
AcDbEntity
  8
0
100
AcDbLine
 62
7
  6
CONTINUOUS
 10
325.965623559
 20
179.2104578045
 11
328.6388720667
 21
184.080637986
  0
LINE
  5
23E
100
AcDbEntity
  8
0
100
AcDbLine
 62
7
  6
CONTINUOUS
 10
328.6388720667
 20
181.0292224047
 11
332.0585978319
 21
181.0292224047
  0
LINE
  5
23F
100
AcDbEntity
  8
0
100
AcDbLine
 62
7
  6
CONTINUOUS
 10
332.0585978319
 20
184.080637986
 11
328.6388720667
 21
184.080637986
  0
LINE
  5
240
100
AcDbEntity
  8
0
100
AcDbLine
 62
7
  6
CONTINUOUS
 10
313.3487349493
 20
188.804562017
 11
313.3487349493
 21
224.804562017
  0
LINE
  5
241
100
AcDbEntity
  8
0
100
AcDbLine
 62
7
  6
CONTINUOUS
 10
320.8487349493
 20
130.204562017
 11
320.8487349493
 21
137.804562017
  0
LINE
  5
242
100
AcDbEntity
  8
0
100
AcDbLine
 62
7
  6
CONTINUOUS
 10
323.3487349493
 20
147.804562017
 11
323.3487349493
 21
142.1346890359
  0
LINE
  5
243
100
AcDbEntity
  8
0
100
AcDbLine
 62
7
  6
CONTINUOUS
 10
325.3487349493
 20
156.7725832134
 11
325.3487349493
 21
150.5847458279
  0
LINE
  5
244
100
AcDbEntity
  8
BEZUGSACHSEN
100
AcDbLine
 62
7
  6
CONTINUOUS
 10
325.3487349493
 20
156.7728005938
 11
325.3487349493
 21
176.804562017
  0
LINE
  5
245
100
AcDbEntity
  8
0
100
AcDbLine
 62
7
  6
CONTINUOUS
 10
320.8487349493
 20
137.804562017
 11
323.3487349493
 21
142.1346890359
  0
LINE
  5
246
100
AcDbEntity
  8
RUNDUNGEN
100
AcDbLine
 62
7
  6
CONTINUOUS
 10
339.8487349493
 20
137.804562017
 11
337.3487349493
 21
142.1346890359
  0
LINE
  5
247
100
AcDbEntity
  8
0
100
AcDbLine
 62
7
  6
CONTINUOUS
 10
329.0362349493
 20
137.3496346197
 11
327.6793609309
 21
145.804562017
  0
LINE
  5
248
100
AcDbEntity
  8
0
100
AcDbLine
 62
7
  6
CONTINUOUS
 10
328.2202436679
 20
154.8684638159
 11
328.3184512559
 21
149.9165240324
  0
LINE
  5
249
100
AcDbEntity
  8
0
100
AcDbLine
 62
7
  6
CONTINUOUS
 10
329.0362349493
 20
145.4438840287
 11
329.0362349493
 21
137.3496346197
  0
LINE
  5
24A
100
AcDbEntity
  8
0
100
AcDbLine
 62
7
  6
CONTINUOUS
 10
331.6612349493
 20
145.4438840287
 11
331.6612349493
 21
137.3496346197
  0
LINE
  5
24B
100
AcDbEntity
  8
RUNDUNGEN
100
AcDbLine
 62
7
  6
CONTINUOUS
 10
335.3487349493
 20
156.7725832134
 11
335.3487349493
 21
150.5847458279
  0
LINE
  5
24C
100
AcDbEntity
  8
BEZUGSACHSEN
100
AcDbLine
 62
7
  6
CONTINUOUS
 10
335.3487349493
 20
156.7728005938
 11
335.3487349493
 21
176.804562017
  0
LINE
  5
24D
100
AcDbEntity
  8
0
100
AcDbLine
 62
7
  6
CONTINUOUS
 10
332.4772262307
 20
154.8684638159
 11
332.3790186427
 21
149.9165240324
  0
LINE
  5
24E
100
AcDbEntity
  8
0
100
AcDbLine
 62
7
  6
CONTINUOUS
 10
331.6612349493
 20
145.4438840287
 11
332.3790186427
 21
149.9165240324
  0
LINE
  5
24F
100
AcDbEntity
  8
RUNDUNGEN
100
AcDbLine
 62
7
  6
CONTINUOUS
 10
331.6612349493
 20
137.3496346197
 11
333.0181089677
 21
145.804562017
  0
LINE
  5
250
100
AcDbEntity
  8
0
100
AcDbLine
 62
7
  6
CONTINUOUS
 10
329.0362349493
 20
145.4438840287
 11
328.3184512559
 21
149.9165240324
  0
LINE
  5
251
100
AcDbEntity
  8
RUNDUNGEN
100
AcDbLine
 62
7
  6
CONTINUOUS
 10
337.3487349493
 20
147.804562017
 11
337.3487349493
 21
142.1346890359
  0
LINE
  5
252
100
AcDbEntity
  8
RUNDUNGEN
100
AcDbLine
 62
7
  6
CONTINUOUS
 10
339.8487349493
 20
130.204562017
 11
339.8487349493
 21
137.804562017
  0
LINE
  5
253
100
AcDbEntity
  8
KONSTRUKTIONSELEMENTE
100
AcDbLine
 62
7
  6
CONTINUOUS
 10
332.0585978319
 20
184.080637986
 11
334.7318463396
 21
179.2104578045
  0
LINE
  5
254
100
AcDbEntity
  8
0
100
AcDbLine
 62
7
  6
CONTINUOUS
 10
347.3487349493
 20
224.804562017
 11
347.3487349493
 21
188.804562017
  0
LINE
  5
255
100
AcDbEntity
  8
0
100
AcDbLine
 62
7
  6
CONTINUOUS
 10
360.3487349493
 20
224.804562017
 11
360.3487349493
 21
188.804562017
  0
LINE
  5
256
100
AcDbEntity
  8
RUNDUNGEN
100
AcDbLine
 62
7
  6
CONTINUOUS
 10
84.170354424
 20
37.3422894868
 11
85.370354424
 21
37.3422894868
  0
LINE
  5
257
100
AcDbEntity
  8
RUNDUNGEN
100
AcDbLine
 62
7
  6
CONTINUOUS
 10
117.770354424
 20
37.3422894868
 11
118.970354424
 21
37.3422894868
  0
LINE
  5
258
100
AcDbEntity
  8
RUNDUNGEN
100
AcDbLine
 62
7
  6
CONTINUOUS
 10
88.670354424
 20
42.4334583113
 11
92.9975747687
 21
42.4334583113
  0
LINE
  5
259
100
AcDbEntity
  8
RUNDUNGEN
100
AcDbLine
 62
7
  6
CONTINUOUS
 10
110.1431340793
 20
42.4334583113
 11
114.470354424
 21
42.4334583113
  0
LINE
  5
25A
100
AcDbEntity
  8
0
100
AcDbLine
 62
7
  6
CONTINUOUS
 10
93.1779937828
 20
67.0407742966
 11
96.0579937828
 21
67.0407742966
  0
LINE
  5
25B
100
AcDbEntity
  8
0
100
AcDbLine
 62
7
  6
CONTINUOUS
 10
97.5854745637
 20
67.0407742966
 11
98.1614745637
 21
67.0407742966
  0
LINE
  5
25C
100
AcDbEntity
  8
0
100
AcDbLine
 62
7
  6
CONTINUOUS
 10
100.9052469139
 20
67.0407742966
 11
101.570354424
 21
67.0407742966
  0
LINE
  5
25D
100
AcDbEntity
  8
0
100
AcDbLine
 62
7
  6
CONTINUOUS
 10
106.5819557801
 20
67.0407742966
 11
108.6687360206
 21
67.0407742966
  0
LINE
  5
25E
100
AcDbEntity
  8
0
100
AcDbLine
 62
7
  6
CONTINUOUS
 10
93.1779937828
 20
67.252906331
 11
96.0579937828
 21
67.252906331
  0
LINE
  5
25F
100
AcDbEntity
  8
0
100
AcDbLine
 62
7
  6
CONTINUOUS
 10
97.5854745637
 20
67.252906331
 11
98.1614745637
 21
67.252906331
  0
LINE
  5
260
100
AcDbEntity
  8
0
100
AcDbLine
 62
7
  6
CONTINUOUS
 10
100.9052469139
 20
67.252906331
 11
101.3971493432
 21
67.252906331
  0
LINE
  5
261
100
AcDbEntity
  8
0
100
AcDbLine
 62
7
  6
CONTINUOUS
 10
106.5819557801
 20
67.252906331
 11
108.6687360206
 21
67.252906331
  0
LINE
  5
262
100
AcDbEntity
  8
0
100
AcDbLine
 62
7
  6
CONTINUOUS
 10
108.6813579074
 20
67.4650383653
 11
107.1579557801
 21
67.4650383653
  0
LINE
  5
263
100
AcDbEntity
  8
0
100
AcDbLine
 62
7
  6
CONTINUOUS
 10
95.0679937828
 20
67.5498911791
 11
94.1679937828
 21
67.5498911791
  0
LINE
  5
264
100
AcDbEntity
  8
0
100
AcDbLine
 62
7
  6
CONTINUOUS
 10
94.3299937828
 20
67.74081001
 11
94.9059937828
 21
67.74081001
  0
LINE
  5
265
100
AcDbEntity
  8
0
100
AcDbLine
 62
7
  6
CONTINUOUS
 10
94.3299937828
 20
67.9529420444
 11
94.9059937828
 21
67.9529420444
  0
LINE
  5
266
100
AcDbEntity
  8
0
100
AcDbLine
 62
7
  6
CONTINUOUS
 10
94.6809937828
 20
68.2499268925
 11
94.5549937828
 21
68.2499268925
  0
LINE
  5
267
100
AcDbEntity
  8
0
100
AcDbLine
 62
7
  6
CONTINUOUS
 10
94.9059937828
 20
68.3772061131
 11
94.7529937828
 21
68.3772061131
  0
LINE
  5
268
100
AcDbEntity
  8
0
100
AcDbLine
 62
7
  6
CONTINUOUS
 10
94.4829937828
 20
68.3772061131
 11
94.3299937828
 21
68.3772061131
  0
LINE
  5
269
100
AcDbEntity
  8
0
100
AcDbLine
 62
7
  6
CONTINUOUS
 10
94.1679937828
 20
68.568124944
 11
94.4829937828
 21
68.568124944
  0
LINE
  5
26A
100
AcDbEntity
  8
0
100
AcDbLine
 62
7
  6
CONTINUOUS
 10
94.7529937828
 20
68.568124944
 11
95.0679937828
 21
68.568124944
  0
LINE
  5
26B
100
AcDbEntity
  8
0
100
AcDbLine
 62
7
  6
CONTINUOUS
 10
98.1614745637
 20
68.637562796
 11
99.6014745637
 21
68.637562796
  0
LINE
  5
26C
100
AcDbEntity
  8
0
100
AcDbLine
 62
7
  6
CONTINUOUS
 10
94.1679937828
 20
68.7802569784
 11
94.4829937828
 21
68.7802569784
  0
LINE
  5
26D
100
AcDbEntity
  8
0
100
AcDbLine
 62
7
  6
CONTINUOUS
 10
94.7529937828
 20
68.7802569784
 11
95.0679937828
 21
68.7802569784
  0
LINE
  5
26E
100
AcDbEntity
  8
0
100
AcDbLine
 62
7
  6
CONTINUOUS
 10
95.0679937828
 20
68.8226833852
 11
94.7529937828
 21
68.8226833852
  0
LINE
  5
26F
100
AcDbEntity
  8
0
100
AcDbLine
 62
7
  6
CONTINUOUS
 10
94.4829937828
 20
68.8226833852
 11
94.1679937828
 21
68.8226833852
  0
LINE
  5
270
100
AcDbEntity
  8
0
100
AcDbLine
 62
7
  6
CONTINUOUS
 10
98.1614745637
 20
68.8496948303
 11
99.6014745637
 21
68.8496948303
  0
LINE
  5
271
100
AcDbEntity
  8
0
100
AcDbLine
 62
7
  6
CONTINUOUS
 10
94.3299937828
 20
69.0136022161
 11
94.4829937828
 21
69.0136022161
  0
LINE
  5
272
100
AcDbEntity
  8
0
100
AcDbLine
 62
7
  6
CONTINUOUS
 10
94.7529937828
 20
69.0136022161
 11
94.9059937828
 21
69.0136022161
  0
LINE
  5
273
100
AcDbEntity
  8
0
100
AcDbLine
 62
7
  6
CONTINUOUS
 10
99.8414745637
 20
69.0448563019
 11
98.1614745637
 21
69.0448563019
  0
LINE
  5
274
100
AcDbEntity
  8
0
100
AcDbLine
 62
7
  6
CONTINUOUS
 10
94.5549937828
 20
69.1408814368
 11
94.6809937828
 21
69.1408814368
  0
LINE
  5
275
100
AcDbEntity
  8
0
100
AcDbLine
 62
7
  6
CONTINUOUS
 10
94.3299937828
 20
69.2257342505
 11
94.4829937828
 21
69.2257342505
  0
LINE
  5
276
100
AcDbEntity
  8
0
100
AcDbLine
 62
7
  6
CONTINUOUS
 10
94.7529937828
 20
69.2257342505
 11
94.9059937828
 21
69.2257342505
  0
LINE
  5
277
100
AcDbEntity
  8
0
100
AcDbLine
 62
7
  6
CONTINUOUS
 10
94.5549937828
 20
69.3530134711
 11
94.6809937828
 21
69.3530134711
  0
LINE
  5
278
100
AcDbEntity
  8
0
100
AcDbLine
 62
7
  6
CONTINUOUS
 10
107.1579557801
 20
69.5863587089
 11
106.5819557801
 21
69.5863587089
  0
LINE
  5
279
100
AcDbEntity
  8
0
100
AcDbLine
 62
7
  6
CONTINUOUS
 10
98.1614745637
 20
69.6075719123
 11
97.5854745637
 21
69.6075719123
  0
LINE
  5
27A
100
AcDbEntity
  8
0
100
AcDbLine
 62
7
  6
CONTINUOUS
 10
94.9059937828
 20
69.6499983192
 11
94.3299937828
 21
69.6499983192
  0
LINE
  5
27B
100
AcDbEntity
  8
0
100
AcDbLine
 62
7
  6
CONTINUOUS
 10
94.1679937828
 20
69.8409171501
 11
95.0679937828
 21
69.8409171501
  0
LINE
  5
27C
100
AcDbEntity
  8
0
100
AcDbLine
 62
7
  6
CONTINUOUS
 10
106.5819557801
 20
69.9427405266
 11
108.6813579074
 21
69.9427405266
  0
LINE
  5
27D
100
AcDbEntity
  8
0
100
AcDbLine
 62
7
  6
CONTINUOUS
 10
97.5854745637
 20
69.9639537301
 11
99.8414745637
 21
69.9639537301
  0
LINE
  5
27E
100
AcDbEntity
  8
0
100
AcDbLine
 62
7
  6
CONTINUOUS
 10
94.1679937828
 20
70.0530491845
 11
95.0679937828
 21
70.0530491845
  0
LINE
  5
27F
100
AcDbEntity
  8
0
100
AcDbLine
 62
7
  6
CONTINUOUS
 10
106.5819557801
 20
70.154872561
 11
108.6813579074
 21
70.154872561
  0
LINE
  5
280
100
AcDbEntity
  8
0
100
AcDbLine
 62
7
  6
CONTINUOUS
 10
97.5854745637
 20
70.1760857644
 11
99.8414745637
 21
70.1760857644
  0
LINE
  5
281
100
AcDbEntity
  8
0
100
AcDbLine
 62
7
  6
CONTINUOUS
 10
108.6687360206
 20
70.3500340326
 11
106.5819557801
 21
70.3500340326
  0
LINE
  5
282
100
AcDbEntity
  8
0
100
AcDbLine
 62
7
  6
CONTINUOUS
 10
105.3219557801
 20
70.3500340326
 11
104.7459557801
 21
70.3500340326
  0
LINE
  5
283
100
AcDbEntity
  8
0
100
AcDbLine
 62
7
  6
CONTINUOUS
 10
102.4814745637
 20
70.3500340326
 11
101.9054745637
 21
70.3500340326
  0
LINE
  5
284
100
AcDbEntity
  8
0
100
AcDbLine
 62
7
  6
CONTINUOUS
 10
99.8414745637
 20
70.3500340326
 11
97.5854745637
 21
70.3500340326
  0
LINE
  5
285
100
AcDbEntity
  8
0
100
AcDbLine
 62
7
  6
CONTINUOUS
 10
96.0579937828
 20
70.3500340326
 11
93.1779937828
 21
70.3500340326
  0
LINE
  5
286
100
AcDbEntity
  8
RUNDUNGEN
100
AcDbLine
 62
7
  6
CONTINUOUS
 10
76.3612592016
 20
74.9711019233
 11
77.9099155797
 21
73.4071864169
  0
LINE
  5
287
100
AcDbEntity
  8
RUNDUNGEN
100
AcDbLine
 62
7
  6
CONTINUOUS
 10
82.3838117833
 20
68.8892082873
 11
90.6311039912
 21
60.5606543538
  0
LINE
  5
288
100
AcDbEntity
  8
RUNDUNGEN
100
AcDbLine
 62
7
  6
CONTINUOUS
 10
104.5193017834
 20
46.5356142028
 11
107.6856779464
 21
43.3380392919
  0
LINE
  5
289
100
AcDbEntity
  8
RUNDUNGEN
100
AcDbLine
 62
7
  6
CONTINUOUS
 10
112.8761826833
 20
73.8752761671
 11
106.7325423512
 21
76.9171245746
  0
LINE
  5
28A
100
AcDbEntity
  8
RUNDUNGEN
100
AcDbLine
 62
7
  6
CONTINUOUS
 10
84.9391581486
 20
72.2261383849
 11
83.2184288396
 21
73.9638222809
  0
LINE
  5
28B
100
AcDbEntity
  8
RUNDUNGEN
100
AcDbLine
 62
7
  6
CONTINUOUS
 10
106.7325423512
 20
80.4526584805
 11
112.8761826833
 21
77.410810073
  0
LINE
  5
28C
100
AcDbEntity
  8
RUNDUNGEN
100
AcDbLine
 62
7
  6
CONTINUOUS
 10
121.4278105569
 20
44.2541401453
 11
112.5096048568
 21
53.2602181756
  0
LINE
  5
28D
100
AcDbEntity
  8
RUNDUNGEN
100
AcDbLine
 62
7
  6
CONTINUOUS
 10
89.772524922
 20
76.2213297446
 11
89.0589659148
 21
76.9419195487
  0
LINE
  5
28E
100
AcDbEntity
  8
RUNDUNGEN
100
AcDbLine
 62
7
  6
CONTINUOUS
 10
121.4278105569
 20
47.7896740513
 11
112.5096048568
 21
56.7957520816
  0
LINE
  5
28F
100
AcDbEntity
  8
RUNDUNGEN
100
AcDbLine
 62
7
  6
CONTINUOUS
 10
89.772524922
 20
79.7568636505
 11
89.0589659148
 21
80.4774534546
  0
LINE
  5
290
100
AcDbEntity
  8
RUNDUNGEN
100
AcDbLine
 62
7
  6
CONTINUOUS
 10
127.6810269112
 20
77.114365607
 11
123.1756906676
 21
79.3450544392
  0
LINE
  5
291
100
AcDbEntity
  8
RUNDUNGEN
100
AcDbLine
 62
7
  6
CONTINUOUS
 10
127.6810269112
 20
80.649899513
 11
123.1756906676
 21
82.8805883452
  0
LINE
  5
292
100
AcDbEntity
  8
0
100
AcDbLine
 62
7
  6
CONTINUOUS
 10
99.6014745637
 20
68.637562796
 11
100.9052469139
 21
67.0407742966
  0
LINE
  5
293
100
AcDbEntity
  8
0
100
AcDbLine
 62
7
  6
CONTINUOUS
 10
99.6014745637
 20
68.8496948303
 11
100.9052469139
 21
67.252906331
  0
LINE
  5
294
100
AcDbEntity
  8
0
100
AcDbLine
 62
7
  6
CONTINUOUS
 10
101.570354424
 20
67.0407742966
 11
100.2147636751
 21
68.701027114
  0
LINE
  5
295
100
AcDbEntity
  8
0
100
AcDbLine
 62
7
  6
CONTINUOUS
 10
90.1823164395
 20
181.0292224047
 11
81.8456940363
 21
172.6926000015
  0
LINE
  5
296
100
AcDbEntity
  8
RUNDUNGEN
100
AcDbLine
 62
7
  6
CONTINUOUS
 10
75.8187153344
 20
76.1878412864
 11
75.8187153344
 21
79.7233751923
  0
LINE
  5
297
100
AcDbEntity
  8
0
100
AcDbLine
 62
7
  6
CONTINUOUS
 10
81.8456940363
 20
172.6926000015
 11
78.794278455
 21
161.304562017
  0
LINE
  5
298
100
AcDbEntity
  8
RUNDUNGEN
100
AcDbLine
 62
7
  6
CONTINUOUS
 10
116.0577433463
 20
121.8139690156
 11
115.820354424
 21
121.804562017
  0
LINE
  5
299
100
AcDbEntity
  8
RUNDUNGEN
100
AcDbLine
 62
7
  6
CONTINUOUS
 10
115.820354424
 20
121.804562017
 11
112.4618005628
 21
121.804562017
  0
LINE
  5
29A
100
AcDbEntity
  8
0
100
AcDbLine
 62
7
  6
CONTINUOUS
 10
112.4618005628
 20
121.804562017
 11
112.363506081
 21
121.804562017
  0
LINE
  5
29B
100
AcDbEntity
  8
0
100
AcDbLine
 62
7
  6
CONTINUOUS
 10
90.777202767
 20
121.804562017
 11
90.6789082852
 21
121.804562017
  0
LINE
  5
29C
100
AcDbEntity
  8
RUNDUNGEN
100
AcDbLine
 62
7
  6
CONTINUOUS
 10
90.6789082852
 20
121.804562017
 11
87.320354424
 21
121.804562017
  0
LINE
  5
29D
100
AcDbEntity
  8
RUNDUNGEN
100
AcDbLine
 62
7
  6
CONTINUOUS
 10
87.320354424
 20
121.804562017
 11
87.0829655017
 21
121.8139690156
  0
LINE
  5
29E
100
AcDbEntity
  8
RUNDUNGEN
100
AcDbLine
 62
7
  6
CONTINUOUS
 10
87.0829655017
 20
121.8139690156
 11
84.320354424
 21
126.303212017
  0
LINE
  5
29F
100
AcDbEntity
  8
RUNDUNGEN
100
AcDbLine
 62
7
  6
CONTINUOUS
 10
81.170354424
 20
39.4636098304
 11
81.170354424
 21
46.5729346883
  0
LINE
  5
2A0
100
AcDbEntity
  8
0
100
AcDbLine
 62
7
  6
CONTINUOUS
 10
81.8456940363
 20
145.4438840287
 11
81.8456940363
 21
149.9165240324
  0
LINE
  5
2A1
100
AcDbEntity
  8
RUNDUNGEN
100
AcDbLine
 62
7
  6
CONTINUOUS
 10
82.2210486231
 20
69.2542300962
 11
82.2210486231
 21
72.7897640021
  0
LINE
  5
2A2
100
AcDbEntity
  8
RUNDUNGEN
100
AcDbLine
 62
7
  6
CONTINUOUS
 10
84.320354424
 20
126.303212017
 11
84.320354424
 21
145.804562017
  0
LINE
  5
2A3
100
AcDbEntity
  8
RUNDUNGEN
100
AcDbLine
 62
7
  6
CONTINUOUS
 10
85.670354424
 20
37.5544215212
 11
85.670354424
 21
40.3121379678
  0
LINE
  5
2A4
100
AcDbEntity
  8
BEZUGSACHSEN
100
AcDbLine
 62
7
  6
CONTINUOUS
 10
97.870354424
 20
127.967062017
 11
105.270354424
 21
127.967062017
  0
LINE
  5
2A5
100
AcDbEntity
  8
BEZUGSACHSEN
100
AcDbLine
 62
7
  6
CONTINUOUS
 10
97.870354424
 20
130.2312636994
 11
105.270354424
 21
130.2312636994
  0
LINE
  5
2A6
100
AcDbEntity
  8
0
100
AcDbLine
 62
7
  6
CONTINUOUS
 10
81.8456940363
 20
145.4438840287
 11
84.320354424
 21
137.3496346197
  0
LINE
  5
2A7
100
AcDbEntity
  8
0
100
AcDbLine
 62
7
  6
CONTINUOUS
 10
78.794278455
 20
161.304562017
 11
81.8456940363
 21
149.9165240324
  0
LINE
  5
2A8
100
AcDbEntity
  8
0
100
AcDbLine
 62
7
  6
CONTINUOUS
 10
88.8465742713
 20
147.0825061533
 11
88.8465742713
 21
144.2218261533
  0
LINE
  5
2A9
100
AcDbEntity
  8
0
100
AcDbLine
 62
7
  6
CONTINUOUS
 10
89.2041592713
 20
144.2218261533
 11
89.2041592713
 21
145.5000023416
  0
LINE
  5
2AA
100
AcDbEntity
  8
0
100
AcDbLine
 62
7
  6
CONTINUOUS
 10
89.2041592713
 20
145.8651954896
 11
89.2041592713
 21
146.77817853
  0
LINE
  5
2AB
100
AcDbEntity
  8
0
100
AcDbLine
 62
7
  6
CONTINUOUS
 10
90.6940967145
 20
146.412985382
 11
90.6940967145
 21
146.2303886375
  0
LINE
  5
2AC
100
AcDbEntity
  8
0
100
AcDbLine
 62
7
  6
CONTINUOUS
 10
91.0516817145
 20
146.1695231129
 11
91.0516817145
 21
146.412985382
  0
LINE
  5
2AD
100
AcDbEntity
  8
0
100
AcDbLine
 62
7
  6
CONTINUOUS
 10
91.5880592145
 20
147.0825061533
 11
91.5880592145
 21
145.1956746331
  0
LINE
  5
2AE
100
AcDbEntity
  8
0
100
AcDbLine
 62
7
  6
CONTINUOUS
 10
91.945644385
 20
145.1956746331
 11
91.945644385
 21
147.0825061533
  0
LINE
  5
2AF
100
AcDbEntity
  8
0
100
AcDbLine
 62
7
  6
CONTINUOUS
 10
92.8179937828
 20
70.0954755914
 11
92.8179937828
 21
67.2953327379
  0
LINE
  5
2B0
100
AcDbEntity
  8
KONSTRUKTIONSELEMENTE
100
AcDbLine
 62
7
  6
CONTINUOUS
 10
92.9392089612
 20
132.395562017
 11
92.9392089612
 21
133.754562017
  0
LINE
  5
2B1
100
AcDbEntity
  8
0
100
AcDbLine
 62
7
  6
CONTINUOUS
 10
93.375984385
 20
147.0825061533
 11
93.375984385
 21
145.1956746331
  0
LINE
  5
2B2
100
AcDbEntity
  8
KONSTRUKTIONSELEMENTE
100
AcDbLine
 62
7
  6
CONTINUOUS
 10
93.570354424
 20
93.6986999474
 11
93.570354424
 21
104.3053016652
  0
LINE
  5
2B3
100
AcDbEntity
  8
0
100
AcDbLine
 62
7
  6
CONTINUOUS
 10
93.733569385
 20
145.1956746331
 11
93.733569385
 21
147.0825061533
  0
LINE
  5
2B4
100
AcDbEntity
  8
0
100
AcDbLine
 62
7
  6
CONTINUOUS
 10
93.9879937828
 20
67.6771703997
 11
93.9879937828
 21
68.6529777577
  0
LINE
  5
2B5
100
AcDbEntity
  8
0
100
AcDbLine
 62
7
  6
CONTINUOUS
 10
93.9879937828
 20
68.9499626058
 11
93.9879937828
 21
69.9257699639
  0
LINE
  5
2B6
100
AcDbEntity
  8
0
100
AcDbLine
 62
7
  6
CONTINUOUS
 10
94.2103492713
 20
147.0825061533
 11
94.2103492713
 21
144.2218261533
  0
LINE
  5
2B7
100
AcDbEntity
  8
0
100
AcDbLine
 62
7
  6
CONTINUOUS
 10
94.2579937828
 20
69.599086631
 11
94.2579937828
 21
69.0645139044
  0
LINE
  5
2B8
100
AcDbEntity
  8
0
100
AcDbLine
 62
7
  6
CONTINUOUS
 10
94.2579937828
 20
68.3262944248
 11
94.2579937828
 21
67.7917216983
  0
LINE
  5
2B9
100
AcDbEntity
  8
0
100
AcDbLine
 62
7
  6
CONTINUOUS
 10
94.4829937828
 20
68.3008385807
 11
94.4829937828
 21
68.3772061131
  0
LINE
  5
2BA
100
AcDbEntity
  8
0
100
AcDbLine
 62
7
  6
CONTINUOUS
 10
94.4829937828
 20
68.568124944
 11
94.4829937828
 21
68.8226833852
  0
LINE
  5
2BB
100
AcDbEntity
  8
0
100
AcDbLine
 62
7
  6
CONTINUOUS
 10
94.4829937828
 20
69.0136022161
 11
94.4829937828
 21
69.3021017829
  0
LINE
  5
2BC
100
AcDbEntity
  8
0
100
AcDbLine
 62
7
  6
CONTINUOUS
 10
94.5679342713
 20
144.5870193438
 11
94.5679342713
 21
146.7173130053
  0
LINE
  5
2BD
100
AcDbEntity
  8
0
100
AcDbLine
 62
7
  6
CONTINUOUS
 10
94.7529937828
 20
68.8226833852
 11
94.7529937828
 21
68.568124944
  0
LINE
  5
2BE
100
AcDbEntity
  8
0
100
AcDbLine
 62
7
  6
CONTINUOUS
 10
94.7529937828
 20
69.3021017829
 11
94.7529937828
 21
69.0136022161
  0
LINE
  5
2BF
100
AcDbEntity
  8
0
100
AcDbLine
 62
7
  6
CONTINUOUS
 10
94.7529937828
 20
68.3772061131
 11
94.7529937828
 21
68.3008385807
  0
LINE
  5
2C0
100
AcDbEntity
  8
0
100
AcDbLine
 62
7
  6
CONTINUOUS
 10
94.9779937828
 20
67.7917216983
 11
94.9779937828
 21
68.3262944248
  0
LINE
  5
2C1
100
AcDbEntity
  8
0
100
AcDbLine
 62
7
  6
CONTINUOUS
 10
94.9779937828
 20
69.0645139044
 11
94.9779937828
 21
69.599086631
  0
LINE
  5
2C2
100
AcDbEntity
  8
0
100
AcDbLine
 62
7
  6
CONTINUOUS
 10
95.070354424
 20
248.2497780929
 11
95.070354424
 21
165.359345941
  0
LINE
  5
2C3
100
AcDbEntity
  8
0
100
AcDbLine
 62
7
  6
CONTINUOUS
 10
95.2479937828
 20
69.9257699639
 11
95.2479937828
 21
68.9499626058
  0
LINE
  5
2C4
100
AcDbEntity
  8
0
100
AcDbLine
 62
7
  6
CONTINUOUS
 10
95.2479937828
 20
68.6529777577
 11
95.2479937828
 21
67.6771703997
  0
LINE
  5
2C5
100
AcDbEntity
  8
0
100
AcDbLine
 62
7
  6
CONTINUOUS
 10
93.6739717713
 20
144.8913470098
 11
93.733569385
 21
145.1956746331
  0
LINE
  5
2C6
100
AcDbEntity
  8
0
100
AcDbLine
 62
7
  6
CONTINUOUS
 10
93.375984385
 20
145.1956746331
 11
93.3163867713
 21
144.9522125344
  0
LINE
  5
2C7
100
AcDbEntity
  8
0
100
AcDbLine
 62
7
  6
CONTINUOUS
 10
90.6940967145
 20
146.2303886375
 11
90.6344992713
 21
146.0477920635
  0
LINE
  5
2C8
100
AcDbEntity
  8
0
100
AcDbLine
 62
7
  6
CONTINUOUS
 10
90.9920842713
 20
145.9869265389
 11
91.0516817145
 21
146.1695231129
  0
LINE
  5
2C9
100
AcDbEntity
  8
0
100
AcDbLine
 62
7
  6
CONTINUOUS
 10
93.554776885
 20
144.6478848685
 11
93.6739717713
 21
144.8913470098
  0
LINE
  5
2CA
100
AcDbEntity
  8
0
100
AcDbLine
 62
7
  6
CONTINUOUS
 10
93.3163867713
 20
144.9522125344
 11
93.197191885
 21
144.7696159604
  0
LINE
  5
2CB
100
AcDbEntity
  8
0
100
AcDbLine
 62
7
  6
CONTINUOUS
 10
90.8132917713
 20
145.7434644402
 11
90.9920842713
 21
145.9869265389
  0
LINE
  5
2CC
100
AcDbEntity
  8
0
100
AcDbLine
 62
7
  6
CONTINUOUS
 10
90.6344992713
 20
146.0477920635
 11
90.5153042145
 21
145.9260610142
  0
LINE
  5
2CD
100
AcDbEntity
  8
BEZUGSACHSEN
100
AcDbLine
 62
7
  6
CONTINUOUS
 10
97.870354424
 20
134.1778603345
 11
105.270354424
 21
134.1778603345
  0
LINE
  5
2CE
100
AcDbEntity
  8
BEZUGSACHSEN
100
AcDbLine
 62
7
  6
CONTINUOUS
 10
97.870354424
 20
136.442062017
 11
105.270354424
 21
136.442062017
  0
LINE
  5
2CF
100
AcDbEntity
  8
RUNDUNGEN
100
AcDbLine
 62
7
  6
CONTINUOUS
 10
87.320354424
 20
137.804562017
 11
97.870354424
 21
137.804562017
  0
LINE
  5
2D0
100
AcDbEntity
  8
RUNDUNGEN
100
AcDbLine
 62
7
  6
CONTINUOUS
 10
105.270354424
 20
137.804562017
 11
115.820354424
 21
137.804562017
  0
LINE
  5
2D1
100
AcDbEntity
  8
0
100
AcDbLine
 62
7
  6
CONTINUOUS
 10
92.303229385
 20
144.6478848685
 11
92.124436885
 21
144.7696159604
  0
LINE
  5
2D2
100
AcDbEntity
  8
0
100
AcDbLine
 62
7
  6
CONTINUOUS
 10
91.766851885
 20
144.6478848685
 11
92.0052416576
 21
144.4044227485
  0
LINE
  5
2D3
100
AcDbEntity
  8
0
100
AcDbLine
 62
7
  6
CONTINUOUS
 10
90.5153042145
 20
146.7173130053
 11
90.6344992713
 21
146.595581956
  0
LINE
  5
2D4
100
AcDbEntity
  8
0
100
AcDbLine
 62
7
  6
CONTINUOUS
 10
90.9920842713
 20
146.595581956
 11
90.8132917713
 21
146.8390440546
  0
LINE
  5
2D5
100
AcDbEntity
  8
0
100
AcDbLine
 62
7
  6
CONTINUOUS
 10
92.124436885
 20
144.7696159604
 11
92.0052416576
 21
144.9522125344
  0
LINE
  5
2D6
100
AcDbEntity
  8
0
100
AcDbLine
 62
7
  6
CONTINUOUS
 10
91.6476568282
 20
144.8913470098
 11
91.766851885
 21
144.6478848685
  0
LINE
  5
2D7
100
AcDbEntity
  8
0
100
AcDbLine
 62
7
  6
CONTINUOUS
 10
91.1112793282
 20
144.2218261533
 11
90.5749018282
 21
145.6217333909
  0
LINE
  5
2D8
100
AcDbEntity
  8
0
100
AcDbLine
 62
7
  6
CONTINUOUS
 10
90.2173167429
 20
145.5000023416
 11
90.6940967145
 21
144.2218261533
  0
LINE
  5
2D9
100
AcDbEntity
  8
0
100
AcDbLine
 62
7
  6
CONTINUOUS
 10
90.6344992713
 20
146.595581956
 11
90.6940967145
 21
146.412985382
  0
LINE
  5
2DA
100
AcDbEntity
  8
0
100
AcDbLine
 62
7
  6
CONTINUOUS
 10
91.0516817145
 20
146.412985382
 11
90.9920842713
 21
146.595581956
  0
LINE
  5
2DB
100
AcDbEntity
  8
0
100
AcDbLine
 62
7
  6
CONTINUOUS
 10
92.0052416576
 20
144.9522125344
 11
91.945644385
 21
145.1956746331
  0
LINE
  5
2DC
100
AcDbEntity
  8
0
100
AcDbLine
 62
7
  6
CONTINUOUS
 10
91.5880592145
 20
145.1956746331
 11
91.6476568282
 21
144.8913470098
  0
LINE
  5
2DD
100
AcDbEntity
  8
0
100
AcDbLine
 62
7
  6
CONTINUOUS
 10
96.236664044
 20
146.1086575882
 11
96.236664044
 21
145.1956746331
  0
LINE
  5
2DE
100
AcDbEntity
  8
0
100
AcDbLine
 62
7
  6
CONTINUOUS
 10
96.4179937828
 20
67.2953327379
 11
96.4179937828
 21
70.0954755914
  0
LINE
  5
2DF
100
AcDbEntity
  8
0
100
AcDbLine
 62
7
  6
CONTINUOUS
 10
96.594249044
 20
145.1956746331
 11
96.594249044
 21
146.1086575882
  0
LINE
  5
2E0
100
AcDbEntity
  8
0
100
AcDbLine
 62
7
  6
CONTINUOUS
 10
97.5854745637
 20
70.3500340326
 11
97.5854745637
 21
69.9639537301
  0
LINE
  5
2E1
100
AcDbEntity
  8
0
100
AcDbLine
 62
7
  6
CONTINUOUS
 10
97.5854745637
 20
69.6075719123
 11
97.5854745637
 21
67.0407742966
  0
LINE
  5
2E2
100
AcDbEntity
  8
0
100
AcDbLine
 62
7
  6
CONTINUOUS
 10
97.870354424
 20
132.395562017
 11
97.870354424
 21
124.3762072412
  0
LINE
  5
2E3
100
AcDbEntity
  8
KONSTRUKTIONSELEMENTE
100
AcDbLine
 62
7
  6
CONTINUOUS
 10
97.870354424
 20
132.395562017
 11
97.870354424
 21
141.104562017
  0
LINE
  5
2E4
100
AcDbEntity
  8
KONSTRUKTIONSELEMENTE
100
AcDbLine
 62
7
  6
CONTINUOUS
 10
98.070354424
 20
93.6986999474
 11
98.070354424
 21
104.3053016652
  0
LINE
  5
2E5
100
AcDbEntity
  8
KONSTRUKTIONSELEMENTE
100
AcDbLine
 62
7
  6
CONTINUOUS
 10
98.070354424
 20
124.8113983196
 11
98.070354424
 21
127.967062017
  0
LINE
  5
2E6
100
AcDbEntity
  8
0
100
AcDbLine
 62
7
  6
CONTINUOUS
 10
98.1614745637
 20
67.0407742966
 11
98.1614745637
 21
68.8496948303
  0
LINE
  5
2E7
100
AcDbEntity
  8
0
100
AcDbLine
 62
7
  6
CONTINUOUS
 10
98.1614745637
 20
69.0448563019
 11
98.1614745637
 21
69.6075719123
  0
LINE
  5
2E8
100
AcDbEntity
  8
KONSTRUKTIONSELEMENTE
100
AcDbLine
 62
7
  6
CONTINUOUS
 10
99.070354424
 20
72.8954730533
 11
99.070354424
 21
95.3497300221
  0
LINE
  5
2E9
100
AcDbEntity
  8
KONSTRUKTIONSELEMENTE
100
AcDbLine
 62
7
  6
CONTINUOUS
 10
99.070354424
 20
136.442062017
 11
99.070354424
 21
143.8309205972
  0
LINE
  5
2EA
100
AcDbEntity
  8
KONSTRUKTIONSELEMENTE
100
AcDbLine
 62
7
  6
CONTINUOUS
 10
99.070354424
 20
151.1116367223
 11
99.070354424
 21
156.5144665947
  0
LINE
  5
2EB
100
AcDbEntity
  8
KONSTRUKTIONSELEMENTE
100
AcDbLine
 62
7
  6
CONTINUOUS
 10
99.320354424
 20
103.5542411806
 11
99.320354424
 21
125.5624588042
  0
LINE
  5
2EC
100
AcDbEntity
  8
0
100
AcDbLine
 62
7
  6
CONTINUOUS
 10
99.6014745637
 20
68.637562796
 11
99.6014745637
 21
68.8496948303
  0
LINE
  5
2ED
100
AcDbEntity
  8
0
100
AcDbLine
 62
7
  6
CONTINUOUS
 10
100.2147636751
 20
68.701027114
 11
100.2147636751
 21
68.9131591484
  0
LINE
  5
2EE
100
AcDbEntity
  8
0
100
AcDbLine
 62
7
  6
CONTINUOUS
 10
100.4913745877
 20
69.7165370503
 11
100.4913745877
 21
69.504405016
  0
LINE
  5
2EF
100
AcDbEntity
  8
0
100
AcDbLine
 62
7
  6
CONTINUOUS
 10
100.9052469139
 20
67.0407742966
 11
100.9052469139
 21
67.252906331
  0
LINE
  5
2F0
100
AcDbEntity
  8
0
100
AcDbLine
 62
7
  6
CONTINUOUS
 10
101.9054745637
 20
70.3500340326
 11
101.9054745637
 21
68.2562210247
  0
LINE
  5
2F1
100
AcDbEntity
  8
0
100
AcDbLine
 62
7
  6
CONTINUOUS
 10
102.4814745637
 20
68.2562210247
 11
102.4814745637
 21
70.3500340326
  0
LINE
  5
2F2
100
AcDbEntity
  8
0
100
AcDbLine
 62
7
  6
CONTINUOUS
 10
96.5346517713
 20
144.8913470098
 11
96.594249044
 21
145.1956746331
  0
LINE
  5
2F3
100
AcDbEntity
  8
0
100
AcDbLine
 62
7
  6
CONTINUOUS
 10
96.236664044
 20
145.1956746331
 11
96.1770667713
 21
144.9522125344
  0
LINE
  5
2F4
100
AcDbEntity
  8
0
100
AcDbLine
 62
7
  6
CONTINUOUS
 10
96.415456544
 20
144.6478848685
 11
96.5346517713
 21
144.8913470098
  0
LINE
  5
2F5
100
AcDbEntity
  8
0
100
AcDbLine
 62
7
  6
CONTINUOUS
 10
96.1770667713
 20
144.9522125344
 11
96.057871544
 21
144.7696159604
  0
LINE
  5
2F6
100
AcDbEntity
  8
0
100
AcDbLine
 62
7
  6
CONTINUOUS
 10
93.3163867713
 20
144.4044227485
 11
93.554776885
 21
144.6478848685
  0
LINE
  5
2F7
100
AcDbEntity
  8
0
100
AcDbLine
 62
7
  6
CONTINUOUS
 10
96.1770667713
 20
144.4044227485
 11
96.415456544
 21
144.6478848685
  0
LINE
  5
2F8
100
AcDbEntity
  8
0
100
AcDbLine
 62
7
  6
CONTINUOUS
 10
93.197191885
 20
144.7696159604
 11
93.018399385
 21
144.6478848685
  0
LINE
  5
2F9
100
AcDbEntity
  8
0
100
AcDbLine
 62
7
  6
CONTINUOUS
 10
96.057871544
 20
144.7696159604
 11
95.879079044
 21
144.6478848685
  0
LINE
  5
2FA
100
AcDbEntity
  8
0
100
AcDbLine
 62
7
  6
CONTINUOUS
 10
90.5749018282
 20
145.6217333909
 11
90.8132917713
 21
145.7434644402
  0
LINE
  5
2FB
100
AcDbEntity
  8
0
100
AcDbLine
 62
7
  6
CONTINUOUS
 10
93.0779966576
 20
144.2826916832
 11
93.3163867713
 21
144.4044227485
  0
LINE
  5
2FC
100
AcDbEntity
  8
0
100
AcDbLine
 62
7
  6
CONTINUOUS
 10
95.9386769987
 20
144.2826916832
 11
96.1770667713
 21
144.4044227485
  0
LINE
  5
2FD
100
AcDbEntity
  8
0
100
AcDbLine
 62
7
  6
CONTINUOUS
 10
90.5153042145
 20
145.9260610142
 11
90.3365117145
 21
145.8651954896
  0
LINE
  5
2FE
100
AcDbEntity
  8
0
100
AcDbLine
 62
7
  6
CONTINUOUS
 10
95.879079044
 20
144.6478848685
 11
95.6406892713
 21
144.5870193438
  0
LINE
  5
2FF
100
AcDbEntity
  8
0
100
AcDbLine
 62
7
  6
CONTINUOUS
 10
93.018399385
 20
144.6478848685
 11
92.7800092713
 21
144.5870193438
  0
LINE
  5
300
100
AcDbEntity
  8
0
100
AcDbLine
 62
7
  6
CONTINUOUS
 10
114.2864950712
 20
144.2218261533
 11
114.546030938
 21
144.2826916832
  0
LINE
  5
301
100
AcDbEntity
  8
0
100
AcDbLine
 62
7
  6
CONTINUOUS
 10
109.56293499
 20
144.2218261533
 11
109.8224711537
 21
144.2826916832
  0
LINE
  5
302
100
AcDbEntity
  8
0
100
AcDbLine
 62
7
  6
CONTINUOUS
 10
114.0269586105
 20
146.0477920635
 11
113.7674221497
 21
145.9869265389
  0
LINE
  5
303
100
AcDbEntity
  8
0
100
AcDbLine
 62
7
  6
CONTINUOUS
 10
114.0269586105
 20
147.0825061533
 11
113.7674221497
 21
147.0216406286
  0
LINE
  5
304
100
AcDbEntity
  8
0
100
AcDbLine
 62
7
  6
CONTINUOUS
 10
109.095769717
 20
147.0825061533
 11
108.8362332562
 21
147.0216406286
  0
LINE
  5
305
100
AcDbEntity
  8
0
100
AcDbLine
 62
7
  6
CONTINUOUS
 10
95.6406892713
 20
144.2218261533
 11
95.9386769987
 21
144.2826916832
  0
LINE
  5
306
100
AcDbEntity
  8
0
100
AcDbLine
 62
7
  6
CONTINUOUS
 10
92.7800092713
 20
144.2218261533
 11
93.0779966576
 21
144.2826916832
  0
LINE
  5
307
100
AcDbEntity
  8
RUNDUNGEN
100
AcDbLine
 62
7
  6
CONTINUOUS
 10
115.820354424
 20
142.1346890359
 11
105.124062111
 21
142.1346890359
  0
LINE
  5
308
100
AcDbEntity
  8
RUNDUNGEN
100
AcDbLine
 62
7
  6
CONTINUOUS
 10
98.016646737
 20
142.1346890359
 11
87.320354424
 21
142.1346890359
  0
LINE
  5
309
100
AcDbEntity
  8
0
100
AcDbLine
 62
7
  6
CONTINUOUS
 10
88.8465742713
 20
144.2218261533
 11
89.2041592713
 21
144.2218261533
  0
LINE
  5
30A
100
AcDbEntity
  8
0
100
AcDbLine
 62
7
  6
CONTINUOUS
 10
90.6940967145
 20
144.2218261533
 11
91.1112793282
 21
144.2218261533
  0
LINE
  5
30B
100
AcDbEntity
  8
0
100
AcDbLine
 62
7
  6
CONTINUOUS
 10
92.5416191576
 20
144.2218261533
 11
92.7800092713
 21
144.2218261533
  0
LINE
  5
30C
100
AcDbEntity
  8
0
100
AcDbLine
 62
7
  6
CONTINUOUS
 10
94.2103492713
 20
144.2218261533
 11
95.6406892713
 21
144.2218261533
  0
LINE
  5
30D
100
AcDbEntity
  8
0
100
AcDbLine
 62
7
  6
CONTINUOUS
 10
105.150818424
 20
144.2218261533
 11
105.4622619393
 21
144.2218261533
  0
LINE
  5
30E
100
AcDbEntity
  8
0
100
AcDbLine
 62
7
  6
CONTINUOUS
 10
105.877519935
 20
144.2218261533
 11
106.1889634503
 21
144.2218261533
  0
LINE
  5
30F
100
AcDbEntity
  8
0
100
AcDbLine
 62
7
  6
CONTINUOUS
 10
107.4866447889
 20
144.2218261533
 11
107.8499956557
 21
144.2218261533
  0
LINE
  5
310
100
AcDbEntity
  8
0
100
AcDbLine
 62
7
  6
CONTINUOUS
 10
109.095769717
 20
144.2218261533
 11
109.56293499
 21
144.2218261533
  0
LINE
  5
311
100
AcDbEntity
  8
0
100
AcDbLine
 62
7
  6
CONTINUOUS
 10
114.0269586105
 20
144.2218261533
 11
114.2864950712
 21
144.2218261533
  0
LINE
  5
312
100
AcDbEntity
  8
0
100
AcDbLine
 62
7
  6
CONTINUOUS
 10
114.3384021258
 20
144.5261538192
 11
113.9750515559
 21
144.5261538192
  0
LINE
  5
313
100
AcDbEntity
  8
0
100
AcDbLine
 62
7
  6
CONTINUOUS
 10
109.56293499
 20
144.5870193438
 11
109.095769717
 21
144.5870193438
  0
LINE
  5
314
100
AcDbEntity
  8
0
100
AcDbLine
 62
7
  6
CONTINUOUS
 10
95.6406892713
 20
144.5870193438
 11
94.5679342713
 21
144.5870193438
  0
LINE
  5
315
100
AcDbEntity
  8
0
100
AcDbLine
 62
7
  6
CONTINUOUS
 10
92.7800092713
 20
144.5870193438
 11
92.5416191576
 21
144.5870193438
  0
LINE
  5
316
100
AcDbEntity
  8
0
100
AcDbLine
 62
7
  6
CONTINUOUS
 10
109.5110276384
 20
145.4391368169
 11
109.9781929114
 21
145.4391368169
  0
LINE
  5
317
100
AcDbEntity
  8
0
100
AcDbLine
 62
7
  6
CONTINUOUS
 10
89.2041592713
 20
145.5000023416
 11
90.2173167429
 21
145.5000023416
  0
LINE
  5
318
100
AcDbEntity
  8
0
100
AcDbLine
 62
7
  6
CONTINUOUS
 10
106.1889634503
 20
145.5000023416
 11
107.0713867189
 21
145.5000023416
  0
LINE
  5
319
100
AcDbEntity
  8
0
100
AcDbLine
 62
7
  6
CONTINUOUS
 10
113.9750515559
 20
145.7434644402
 11
114.3384021258
 21
145.7434644402
  0
LINE
  5
31A
100
AcDbEntity
  8
0
100
AcDbLine
 62
7
  6
CONTINUOUS
 10
110.2896364267
 20
145.8043299649
 11
109.5110276384
 21
145.8043299649
  0
LINE
  5
31B
100
AcDbEntity
  8
0
100
AcDbLine
 62
7
  6
CONTINUOUS
 10
107.1752012735
 20
145.8651954896
 11
106.1889634503
 21
145.8651954896
  0
LINE
  5
31C
100
AcDbEntity
  8
0
100
AcDbLine
 62
7
  6
CONTINUOUS
 10
90.3365117145
 20
145.8651954896
 11
89.2041592713
 21
145.8651954896
  0
LINE
  5
31D
100
AcDbEntity
  8
0
100
AcDbLine
 62
7
  6
CONTINUOUS
 10
114.2864950712
 20
146.0477920635
 11
114.0269586105
 21
146.0477920635
  0
LINE
  5
31E
100
AcDbEntity
  8
0
100
AcDbLine
 62
7
  6
CONTINUOUS
 10
109.9781929114
 20
146.3521196868
 11
110.2896364267
 21
146.3521196868
  0
LINE
  5
31F
100
AcDbEntity
  8
0
100
AcDbLine
 62
7
  6
CONTINUOUS
 10
114.7017526956
 20
146.412985382
 11
114.9612891564
 21
146.412985382
  0
LINE
  5
320
100
AcDbEntity
  8
0
100
AcDbLine
 62
7
  6
CONTINUOUS
 10
94.5679342713
 20
146.7173130053
 11
95.6406892713
 21
146.7173130053
  0
LINE
  5
321
100
AcDbEntity
  8
0
100
AcDbLine
 62
7
  6
CONTINUOUS
 10
109.095769717
 20
146.7173130053
 11
109.56293499
 21
146.7173130053
  0
LINE
  5
322
100
AcDbEntity
  8
0
100
AcDbLine
 62
7
  6
CONTINUOUS
 10
89.2041592713
 20
146.77817853
 11
90.3365117145
 21
146.77817853
  0
LINE
  5
323
100
AcDbEntity
  8
0
100
AcDbLine
 62
7
  6
CONTINUOUS
 10
106.1889634503
 20
146.77817853
 11
107.1752012735
 21
146.77817853
  0
LINE
  5
324
100
AcDbEntity
  8
0
100
AcDbLine
 62
7
  6
CONTINUOUS
 10
113.9750515559
 20
146.77817853
 11
114.2864950712
 21
146.77817853
  0
LINE
  5
325
100
AcDbEntity
  8
0
100
AcDbLine
 62
7
  6
CONTINUOUS
 10
92.2436317713
 20
144.2826916832
 11
92.5416191576
 21
144.2218261533
  0
LINE
  5
326
100
AcDbEntity
  8
0
100
AcDbLine
 62
7
  6
CONTINUOUS
 10
90.5749018282
 20
147.0216406286
 11
90.2769142713
 21
147.0825061533
  0
LINE
  5
327
100
AcDbEntity
  8
0
100
AcDbLine
 62
7
  6
CONTINUOUS
 10
95.9386769987
 20
147.0216406286
 11
95.6406892713
 21
147.0825061533
  0
LINE
  5
328
100
AcDbEntity
  8
0
100
AcDbLine
 62
7
  6
CONTINUOUS
 10
108.8362332562
 20
144.2826916832
 11
109.095769717
 21
144.2218261533
  0
LINE
  5
329
100
AcDbEntity
  8
0
100
AcDbLine
 62
7
  6
CONTINUOUS
 10
113.7674221497
 20
144.2826916832
 11
114.0269586105
 21
144.2218261533
  0
LINE
  5
32A
100
AcDbEntity
  8
0
100
AcDbLine
 62
7
  6
CONTINUOUS
 10
92.5416191576
 20
144.5870193438
 11
92.303229385
 21
144.6478848685
  0
LINE
  5
32B
100
AcDbEntity
  8
0
100
AcDbLine
 62
7
  6
CONTINUOUS
 10
95.6406892713
 20
146.7173130053
 11
95.879079044
 21
146.6564474806
  0
LINE
  5
32C
100
AcDbEntity
  8
0
100
AcDbLine
 62
7
  6
CONTINUOUS
 10
109.095769717
 20
144.5870193438
 11
108.8881406078
 21
144.6478848685
  0
LINE
  5
32D
100
AcDbEntity
  8
0
100
AcDbLine
 62
7
  6
CONTINUOUS
 10
90.3365117145
 20
146.77817853
 11
90.5153042145
 21
146.7173130053
  0
LINE
  5
32E
100
AcDbEntity
  8
0
100
AcDbLine
 62
7
  6
CONTINUOUS
 10
92.0052416576
 20
144.4044227485
 11
92.2436317713
 21
144.2826916832
  0
LINE
  5
32F
100
AcDbEntity
  8
0
100
AcDbLine
 62
7
  6
CONTINUOUS
 10
96.1770667713
 20
146.8999095793
 11
95.9386769987
 21
147.0216406286
  0
LINE
  5
330
100
AcDbEntity
  8
0
100
AcDbLine
 62
7
  6
CONTINUOUS
 10
95.879079044
 20
146.6564474806
 11
96.057871544
 21
146.5347164313
  0
LINE
  5
331
100
AcDbEntity
  8
0
100
AcDbLine
 62
7
  6
CONTINUOUS
 10
90.8132917713
 20
146.8390440546
 11
90.5749018282
 21
147.0216406286
  0
LINE
  5
332
100
AcDbEntity
  8
0
100
AcDbLine
 62
7
  6
CONTINUOUS
 10
96.415456544
 20
146.6564474806
 11
96.1770667713
 21
146.8999095793
  0
LINE
  5
333
100
AcDbEntity
  8
0
100
AcDbLine
 62
7
  6
CONTINUOUS
 10
96.057871544
 20
146.5347164313
 11
96.1770667713
 21
146.3521196868
  0
LINE
  5
334
100
AcDbEntity
  8
0
100
AcDbLine
 62
7
  6
CONTINUOUS
 10
96.5346517713
 20
146.412985382
 11
96.415456544
 21
146.6564474806
  0
LINE
  5
335
100
AcDbEntity
  8
0
100
AcDbLine
 62
7
  6
CONTINUOUS
 10
96.1770667713
 20
146.3521196868
 11
96.236664044
 21
146.1086575882
  0
LINE
  5
336
100
AcDbEntity
  8
0
100
AcDbLine
 62
7
  6
CONTINUOUS
 10
96.594249044
 20
146.1086575882
 11
96.5346517713
 21
146.412985382
  0
LINE
  5
337
100
AcDbEntity
  8
KONSTRUKTIONSELEMENTE
100
AcDbLine
 62
7
  6
CONTINUOUS
 10
103.820354424
 20
103.5542411806
 11
103.820354424
 21
125.5624588042
  0
LINE
  5
338
100
AcDbEntity
  8
KONSTRUKTIONSELEMENTE
100
AcDbLine
 62
7
  6
CONTINUOUS
 10
104.070354424
 20
72.8954730533
 11
104.070354424
 21
95.3497300221
  0
LINE
  5
339
100
AcDbEntity
  8
KONSTRUKTIONSELEMENTE
100
AcDbLine
 62
7
  6
CONTINUOUS
 10
104.070354424
 20
136.442062017
 11
104.070354424
 21
143.8309205972
  0
LINE
  5
33A
100
AcDbEntity
  8
KONSTRUKTIONSELEMENTE
100
AcDbLine
 62
7
  6
CONTINUOUS
 10
104.070354424
 20
151.1116367223
 11
104.070354424
 21
156.5144665947
  0
LINE
  5
33B
100
AcDbEntity
  8
0
100
AcDbLine
 62
7
  6
CONTINUOUS
 10
104.7459557801
 20
70.3500340326
 11
104.7459557801
 21
68.2562210247
  0
LINE
  5
33C
100
AcDbEntity
  8
KONSTRUKTIONSELEMENTE
100
AcDbLine
 62
7
  6
CONTINUOUS
 10
105.070354424
 20
127.967062017
 11
105.070354424
 21
124.8113983196
  0
LINE
  5
33D
100
AcDbEntity
  8
KONSTRUKTIONSELEMENTE
100
AcDbLine
 62
7
  6
CONTINUOUS
 10
105.070354424
 20
104.3053016652
 11
105.070354424
 21
93.6986999474
  0
LINE
  5
33E
100
AcDbEntity
  8
0
100
AcDbLine
 62
7
  6
CONTINUOUS
 10
105.150818424
 20
147.0825061533
 11
105.150818424
 21
144.2218261533
  0
LINE
  5
33F
100
AcDbEntity
  8
0
100
AcDbLine
 62
7
  6
CONTINUOUS
 10
105.270354424
 20
124.3762072412
 11
105.270354424
 21
132.395562017
  0
LINE
  5
340
100
AcDbEntity
  8
KONSTRUKTIONSELEMENTE
100
AcDbLine
 62
7
  6
CONTINUOUS
 10
105.270354424
 20
132.395562017
 11
105.270354424
 21
141.104562017
  0
LINE
  5
341
100
AcDbEntity
  8
0
100
AcDbLine
 62
7
  6
CONTINUOUS
 10
105.3219557801
 20
68.2562210247
 11
105.3219557801
 21
70.3500340326
  0
LINE
  5
342
100
AcDbEntity
  8
0
100
AcDbLine
 62
7
  6
CONTINUOUS
 10
105.4622619393
 20
144.2218261533
 11
105.4622619393
 21
147.0825061533
  0
LINE
  5
343
100
AcDbEntity
  8
0
100
AcDbLine
 62
7
  6
CONTINUOUS
 10
105.877519935
 20
147.0825061533
 11
105.877519935
 21
144.2218261533
  0
LINE
  5
344
100
AcDbEntity
  8
0
100
AcDbLine
 62
7
  6
CONTINUOUS
 10
106.1889634503
 20
144.2218261533
 11
106.1889634503
 21
145.5000023416
  0
LINE
  5
345
100
AcDbEntity
  8
0
100
AcDbLine
 62
7
  6
CONTINUOUS
 10
106.1889634503
 20
145.8651954896
 11
106.1889634503
 21
146.77817853
  0
LINE
  5
346
100
AcDbEntity
  8
0
100
AcDbLine
 62
7
  6
CONTINUOUS
 10
106.5819557801
 20
70.3500340326
 11
106.5819557801
 21
69.9427405266
  0
LINE
  5
347
100
AcDbEntity
  8
0
100
AcDbLine
 62
7
  6
CONTINUOUS
 10
106.5819557801
 20
69.5863587089
 11
106.5819557801
 21
67.0407742966
  0
LINE
  5
348
100
AcDbEntity
  8
0
100
AcDbLine
 62
7
  6
CONTINUOUS
 10
107.1579557801
 20
67.4650383653
 11
107.1579557801
 21
69.5863587089
  0
LINE
  5
349
100
AcDbEntity
  8
0
100
AcDbLine
 62
7
  6
CONTINUOUS
 10
107.4866447889
 20
146.412985382
 11
107.4866447889
 21
146.2303886375
  0
LINE
  5
34A
100
AcDbEntity
  8
0
100
AcDbLine
 62
7
  6
CONTINUOUS
 10
107.7980883042
 20
146.1695231129
 11
107.7980883042
 21
146.412985382
  0
LINE
  5
34B
100
AcDbEntity
  8
0
100
AcDbLine
 62
7
  6
CONTINUOUS
 10
108.070354424
 20
248.2497780929
 11
108.070354424
 21
165.359345941
  0
LINE
  5
34C
100
AcDbEntity
  8
0
100
AcDbLine
 62
7
  6
CONTINUOUS
 10
108.2652535771
 20
146.1086575882
 11
108.2652535771
 21
145.1956746331
  0
LINE
  5
34D
100
AcDbEntity
  8
0
100
AcDbLine
 62
7
  6
CONTINUOUS
 10
108.5766970925
 20
145.1956746331
 11
108.5766970925
 21
146.1086575882
  0
LINE
  5
34E
100
AcDbEntity
  8
0
100
AcDbLine
 62
7
  6
CONTINUOUS
 10
109.5110276384
 20
145.8043299649
 11
109.5110276384
 21
145.4391368169
  0
LINE
  5
34F
100
AcDbEntity
  8
KONSTRUKTIONSELEMENTE
100
AcDbLine
 62
7
  6
CONTINUOUS
 10
109.570354424
 20
104.3053016652
 11
109.570354424
 21
93.6986999474
  0
LINE
  5
350
100
AcDbEntity
  8
0
100
AcDbLine
 62
7
  6
CONTINUOUS
 10
109.6375240318
 20
68.9160214803
 11
109.6375240318
 21
68.703889446
  0
LINE
  5
351
100
AcDbEntity
  8
0
100
AcDbLine
 62
7
  6
CONTINUOUS
 10
109.9781929114
 20
145.4391368169
 11
109.9781929114
 21
144.9522125344
  0
LINE
  5
352
100
AcDbEntity
  8
KONSTRUKTIONSELEMENTE
100
AcDbLine
 62
7
  6
CONTINUOUS
 10
110.2014998868
 20
132.395562017
 11
110.2014998868
 21
133.754562017
  0
LINE
  5
353
100
AcDbEntity
  8
0
100
AcDbLine
 62
7
  6
CONTINUOUS
 10
110.2896364267
 20
144.8913470098
 11
110.2896364267
 21
145.8043299649
  0
LINE
  5
354
100
AcDbEntity
  8
0
100
AcDbLine
 62
7
  6
CONTINUOUS
 10
108.3171609287
 20
146.412985382
 11
108.2652535771
 21
146.1086575882
  0
LINE
  5
355
100
AcDbEntity
  8
0
100
AcDbLine
 62
7
  6
CONTINUOUS
 10
108.5766970925
 20
146.1086575882
 11
108.628604444
 21
146.3521196868
  0
LINE
  5
356
100
AcDbEntity
  8
0
100
AcDbLine
 62
7
  6
CONTINUOUS
 10
110.2377293721
 20
144.6478848685
 11
110.2896364267
 21
144.8913470098
  0
LINE
  5
357
100
AcDbEntity
  8
0
100
AcDbLine
 62
7
  6
CONTINUOUS
 10
107.4866447889
 20
146.2303886375
 11
107.4347375858
 21
146.0477920635
  0
LINE
  5
358
100
AcDbEntity
  8
0
100
AcDbLine
 62
7
  6
CONTINUOUS
 10
107.7461809526
 20
145.9869265389
 11
107.7980883042
 21
146.1695231129
  0
LINE
  5
359
100
AcDbEntity
  8
0
100
AcDbLine
 62
7
  6
CONTINUOUS
 10
109.9781929114
 20
144.9522125344
 11
109.9262855598
 21
144.7696159604
  0
LINE
  5
35A
100
AcDbEntity
  8
0
100
AcDbLine
 62
7
  6
CONTINUOUS
 10
108.4209753348
 20
146.6564474806
 11
108.3171609287
 21
146.412985382
  0
LINE
  5
35B
100
AcDbEntity
  8
0
100
AcDbLine
 62
7
  6
CONTINUOUS
 10
108.628604444
 20
146.3521196868
 11
108.7324188501
 21
146.5347164313
  0
LINE
  5
35C
100
AcDbEntity
  8
0
100
AcDbLine
 62
7
  6
CONTINUOUS
 10
107.5904593435
 20
145.7434644402
 11
107.7461809526
 21
145.9869265389
  0
LINE
  5
35D
100
AcDbEntity
  8
0
100
AcDbLine
 62
7
  6
CONTINUOUS
 10
107.4347375858
 20
146.0477920635
 11
107.3309230312
 21
145.9260610142
  0
LINE
  5
35E
100
AcDbEntity
  8
0
100
AcDbLine
 62
7
  6
CONTINUOUS
 10
108.628604444
 20
146.8999095793
 11
108.4209753348
 21
146.6564474806
  0
LINE
  5
35F
100
AcDbEntity
  8
0
100
AcDbLine
 62
7
  6
CONTINUOUS
 10
110.0301002629
 20
144.4044227485
 11
110.2377293721
 21
144.6478848685
  0
LINE
  5
360
100
AcDbEntity
  8
0
100
AcDbLine
 62
7
  6
CONTINUOUS
 10
108.7324188501
 20
146.5347164313
 11
108.8881406078
 21
146.6564474806
  0
LINE
  5
361
100
AcDbEntity
  8
0
100
AcDbLine
 62
7
  6
CONTINUOUS
 10
109.9262855598
 20
144.7696159604
 11
109.7705638022
 21
144.6478848685
  0
LINE
  5
362
100
AcDbEntity
  8
0
100
AcDbLine
 62
7
  6
CONTINUOUS
 10
113.6636080406
 20
146.595581956
 11
113.8193297983
 21
146.7173130053
  0
LINE
  5
363
100
AcDbEntity
  8
0
100
AcDbLine
 62
7
  6
CONTINUOUS
 10
113.7674221497
 20
145.9869265389
 11
113.4559786344
 21
145.7434644402
  0
LINE
  5
364
100
AcDbEntity
  8
0
100
AcDbLine
 62
7
  6
CONTINUOUS
 10
113.6636080406
 20
145.5608678663
 11
113.8193297983
 21
145.6825989156
  0
LINE
  5
365
100
AcDbEntity
  8
0
100
AcDbLine
 62
7
  6
CONTINUOUS
 10
113.7674221497
 20
147.0216406286
 11
113.5078862829
 21
146.8390440546
  0
LINE
  5
366
100
AcDbEntity
  8
0
100
AcDbLine
 62
7
  6
CONTINUOUS
 10
108.8362332562
 20
147.0216406286
 11
108.628604444
 21
146.8999095793
  0
LINE
  5
367
100
AcDbEntity
  8
0
100
AcDbLine
 62
7
  6
CONTINUOUS
 10
107.3828302342
 20
145.6217333909
 11
107.5904593435
 21
145.7434644402
  0
LINE
  5
368
100
AcDbEntity
  8
0
100
AcDbLine
 62
7
  6
CONTINUOUS
 10
109.8224711537
 20
144.2826916832
 11
110.0301002629
 21
144.4044227485
  0
LINE
  5
369
100
AcDbEntity
  8
0
100
AcDbLine
 62
7
  6
CONTINUOUS
 10
107.3309230312
 20
145.9260610142
 11
107.1752012735
 21
145.8651954896
  0
LINE
  5
36A
100
AcDbEntity
  8
0
100
AcDbLine
 62
7
  6
CONTINUOUS
 10
113.8193297983
 20
146.7173130053
 11
113.9750515559
 21
146.77817853
  0
LINE
  5
36B
100
AcDbEntity
  8
0
100
AcDbLine
 62
7
  6
CONTINUOUS
 10
113.8193297983
 20
145.6825989156
 11
113.9750515559
 21
145.7434644402
  0
LINE
  5
36C
100
AcDbEntity
  8
0
100
AcDbLine
 62
7
  6
CONTINUOUS
 10
114.4941238834
 20
144.5870193438
 11
114.3384021258
 21
144.5261538192
  0
LINE
  5
36D
100
AcDbEntity
  8
0
100
AcDbLine
 62
7
  6
CONTINUOUS
 10
108.8881406078
 20
146.6564474806
 11
109.095769717
 21
146.7173130053
  0
LINE
  5
36E
100
AcDbEntity
  8
0
100
AcDbLine
 62
7
  6
CONTINUOUS
 10
109.7705638022
 20
144.6478848685
 11
109.56293499
 21
144.5870193438
  0
LINE
  5
36F
100
AcDbEntity
  8
0
100
AcDbLine
 62
7
  6
CONTINUOUS
 10
114.2345874227
 20
147.0825061533
 11
114.0269586105
 21
147.0825061533
  0
LINE
  5
370
100
AcDbEntity
  8
0
100
AcDbLine
 62
7
  6
CONTINUOUS
 10
109.56293499
 20
147.0825061533
 11
109.095769717
 21
147.0825061533
  0
LINE
  5
371
100
AcDbEntity
  8
0
100
AcDbLine
 62
7
  6
CONTINUOUS
 10
107.1232940705
 20
147.0825061533
 11
105.877519935
 21
147.0825061533
  0
LINE
  5
372
100
AcDbEntity
  8
0
100
AcDbLine
 62
7
  6
CONTINUOUS
 10
105.4622619393
 20
147.0825061533
 11
105.150818424
 21
147.0825061533
  0
LINE
  5
373
100
AcDbEntity
  8
0
100
AcDbLine
 62
7
  6
CONTINUOUS
 10
95.6406892713
 20
147.0825061533
 11
94.2103492713
 21
147.0825061533
  0
LINE
  5
374
100
AcDbEntity
  8
0
100
AcDbLine
 62
7
  6
CONTINUOUS
 10
93.733569385
 20
147.0825061533
 11
93.375984385
 21
147.0825061533
  0
LINE
  5
375
100
AcDbEntity
  8
0
100
AcDbLine
 62
7
  6
CONTINUOUS
 10
91.945644385
 20
147.0825061533
 11
91.5880592145
 21
147.0825061533
  0
LINE
  5
376
100
AcDbEntity
  8
0
100
AcDbLine
 62
7
  6
CONTINUOUS
 10
90.2769142713
 20
147.0825061533
 11
88.8465742713
 21
147.0825061533
  0
LINE
  5
377
100
AcDbEntity
  8
RUNDUNGEN
100
AcDbLine
 62
7
  6
CONTINUOUS
 10
90.3290229918
 20
150.6329891417
 11
89.320354424
 21
150.6329891417
  0
LINE
  5
378
100
AcDbEntity
  8
RUNDUNGEN
100
AcDbLine
 62
7
  6
CONTINUOUS
 10
112.8116858562
 20
150.6329891417
 11
113.8206840963
 21
150.6329891417
  0
LINE
  5
379
100
AcDbEntity
  8
RUNDUNGEN
100
AcDbLine
 62
7
  6
CONTINUOUS
 10
94.7880244409
 20
150.804562017
 11
108.3526844071
 21
150.804562017
  0
LINE
  5
37A
100
AcDbEntity
  8
0
100
AcDbLine
 62
7
  6
CONTINUOUS
 10
107.3828302342
 20
147.0216406286
 11
107.1232940705
 21
147.0825061533
  0
LINE
  5
37B
100
AcDbEntity
  8
0
100
AcDbLine
 62
7
  6
CONTINUOUS
 10
109.8224711537
 20
147.0216406286
 11
109.56293499
 21
147.0825061533
  0
LINE
  5
37C
100
AcDbEntity
  8
0
100
AcDbLine
 62
7
  6
CONTINUOUS
 10
114.546030938
 20
145.9869265389
 11
114.2864950712
 21
146.0477920635
  0
LINE
  5
37D
100
AcDbEntity
  8
0
100
AcDbLine
 62
7
  6
CONTINUOUS
 10
114.4941238834
 20
147.0216406286
 11
114.2345874227
 21
147.0825061533
  0
LINE
  5
37E
100
AcDbEntity
  8
0
100
AcDbLine
 62
7
  6
CONTINUOUS
 10
109.56293499
 20
146.7173130053
 11
109.7705638022
 21
146.6564474806
  0
LINE
  5
37F
100
AcDbEntity
  8
0
100
AcDbLine
 62
7
  6
CONTINUOUS
 10
107.1752012735
 20
146.77817853
 11
107.3309230312
 21
146.7173130053
  0
LINE
  5
380
100
AcDbEntity
  8
0
100
AcDbLine
 62
7
  6
CONTINUOUS
 10
113.9750515559
 20
144.5261538192
 11
113.8193297983
 21
144.5870193438
  0
LINE
  5
381
100
AcDbEntity
  8
0
100
AcDbLine
 62
7
  6
CONTINUOUS
 10
114.3384021258
 20
145.7434644402
 11
114.4941238834
 21
145.6825989156
  0
LINE
  5
382
100
AcDbEntity
  8
0
100
AcDbLine
 62
7
  6
CONTINUOUS
 10
114.2864950712
 20
146.77817853
 11
114.4422168289
 21
146.7173130053
  0
LINE
  5
383
100
AcDbEntity
  8
0
100
AcDbLine
 62
7
  6
CONTINUOUS
 10
108.628604444
 20
144.4044227485
 11
108.8362332562
 21
144.2826916832
  0
LINE
  5
384
100
AcDbEntity
  8
0
100
AcDbLine
 62
7
  6
CONTINUOUS
 10
110.0301002629
 20
146.8999095793
 11
109.8224711537
 21
147.0216406286
  0
LINE
  5
385
100
AcDbEntity
  8
0
100
AcDbLine
 62
7
  6
CONTINUOUS
 10
113.5078862829
 20
144.4652882732
 11
113.7674221497
 21
144.2826916832
  0
LINE
  5
386
100
AcDbEntity
  8
0
100
AcDbLine
 62
7
  6
CONTINUOUS
 10
114.8055673987
 20
145.8043299649
 11
114.546030938
 21
145.9869265389
  0
LINE
  5
387
100
AcDbEntity
  8
0
100
AcDbLine
 62
7
  6
CONTINUOUS
 10
114.7536603442
 20
146.8390440546
 11
114.4941238834
 21
147.0216406286
  0
LINE
  5
388
100
AcDbEntity
  8
0
100
AcDbLine
 62
7
  6
CONTINUOUS
 10
108.8881406078
 20
144.6478848685
 11
108.7324188501
 21
144.7696159604
  0
LINE
  5
389
100
AcDbEntity
  8
0
100
AcDbLine
 62
7
  6
CONTINUOUS
 10
109.7705638022
 20
146.6564474806
 11
109.9262855598
 21
146.5347164313
  0
LINE
  5
38A
100
AcDbEntity
  8
0
100
AcDbLine
 62
7
  6
CONTINUOUS
 10
113.8193297983
 20
144.5870193438
 11
113.6636080406
 21
144.7087503932
  0
LINE
  5
38B
100
AcDbEntity
  8
0
100
AcDbLine
 62
7
  6
CONTINUOUS
 10
114.4941238834
 20
145.6825989156
 11
114.6498456411
 21
145.5608678663
  0
LINE
  5
38C
100
AcDbEntity
  8
0
100
AcDbLine
 62
7
  6
CONTINUOUS
 10
114.4422168289
 20
146.7173130053
 11
114.5979385865
 21
146.595581956
  0
LINE
  5
38D
100
AcDbEntity
  8
0
100
AcDbLine
 62
7
  6
CONTINUOUS
 10
107.5904593435
 20
146.8390440546
 11
107.3828302342
 21
147.0216406286
  0
LINE
  5
38E
100
AcDbEntity
  8
0
100
AcDbLine
 62
7
  6
CONTINUOUS
 10
108.4209753348
 20
144.6478848685
 11
108.628604444
 21
144.4044227485
  0
LINE
  5
38F
100
AcDbEntity
  8
0
100
AcDbLine
 62
7
  6
CONTINUOUS
 10
107.3309230312
 20
146.7173130053
 11
107.4347375858
 21
146.595581956
  0
LINE
  5
390
100
AcDbEntity
  8
0
100
AcDbLine
 62
7
  6
CONTINUOUS
 10
110.2377293721
 20
146.6564474806
 11
110.0301002629
 21
146.8999095793
  0
LINE
  5
391
100
AcDbEntity
  8
0
100
AcDbLine
 62
7
  6
CONTINUOUS
 10
107.7461809526
 20
146.595581956
 11
107.5904593435
 21
146.8390440546
  0
LINE
  5
392
100
AcDbEntity
  8
0
100
AcDbLine
 62
7
  6
CONTINUOUS
 10
108.7324188501
 20
144.7696159604
 11
108.628604444
 21
144.9522125344
  0
LINE
  5
393
100
AcDbEntity
  8
0
100
AcDbLine
 62
7
  6
CONTINUOUS
 10
108.3171609287
 20
144.8913470098
 11
108.4209753348
 21
144.6478848685
  0
LINE
  5
394
100
AcDbEntity
  8
0
100
AcDbLine
 62
7
  6
CONTINUOUS
 10
107.8499956557
 20
144.2218261533
 11
107.3828302342
 21
145.6217333909
  0
LINE
  5
395
100
AcDbEntity
  8
0
100
AcDbLine
 62
7
  6
CONTINUOUS
 10
107.0713867189
 20
145.5000023416
 11
107.4866447889
 21
144.2218261533
  0
LINE
  5
396
100
AcDbEntity
  8
0
100
AcDbLine
 62
7
  6
CONTINUOUS
 10
107.4347375858
 20
146.595581956
 11
107.4866447889
 21
146.412985382
  0
LINE
  5
397
100
AcDbEntity
  8
0
100
AcDbLine
 62
7
  6
CONTINUOUS
 10
107.7980883042
 20
146.412985382
 11
107.7461809526
 21
146.595581956
  0
LINE
  5
398
100
AcDbEntity
  8
0
100
AcDbLine
 62
7
  6
CONTINUOUS
 10
109.9262855598
 20
146.5347164313
 11
109.9781929114
 21
146.3521196868
  0
LINE
  5
399
100
AcDbEntity
  8
0
100
AcDbLine
 62
7
  6
CONTINUOUS
 10
108.628604444
 20
144.9522125344
 11
108.5766970925
 21
145.1956746331
  0
LINE
  5
39A
100
AcDbEntity
  8
0
100
AcDbLine
 62
7
  6
CONTINUOUS
 10
108.2652535771
 20
145.1956746331
 11
108.3171609287
 21
144.8913470098
  0
LINE
  5
39B
100
AcDbEntity
  8
0
100
AcDbLine
 62
7
  6
CONTINUOUS
 10
110.2896364267
 20
146.3521196868
 11
110.2377293721
 21
146.6564474806
  0
LINE
  5
39C
100
AcDbEntity
  8
0
100
AcDbLine
 62
7
  6
CONTINUOUS
 10
113.1964427676
 20
145.8651954896
 11
113.1964427676
 21
145.4391368169
  0
LINE
  5
39D
100
AcDbEntity
  8
0
100
AcDbLine
 62
7
  6
CONTINUOUS
 10
113.4559786344
 20
145.7434644402
 11
113.4559786344
 21
145.8651954896
  0
LINE
  5
39E
100
AcDbEntity
  8
0
100
AcDbLine
 62
7
  6
CONTINUOUS
 10
113.5078862829
 20
145.0739435837
 11
113.5078862829
 21
145.2565401577
  0
LINE
  5
39F
100
AcDbEntity
  8
0
100
AcDbLine
 62
7
  6
CONTINUOUS
 10
114.8055673987
 20
145.2565401577
 11
114.8055673987
 21
145.0739435837
  0
LINE
  5
3A0
100
AcDbEntity
  8
0
100
AcDbLine
 62
7
  6
CONTINUOUS
 10
115.0651038595
 20
145.0130780591
 11
115.0651038595
 21
145.3174057676
  0
LINE
  5
3A1
100
AcDbEntity
  8
RUNDUNGEN
100
AcDbLine
 62
7
  6
CONTINUOUS
 10
117.470354424
 20
40.3121379678
 11
117.470354424
 21
37.5544215212
  0
LINE
  5
3A2
100
AcDbEntity
  8
0
100
AcDbLine
 62
7
  6
CONTINUOUS
 10
113.2483498222
 20
146.2912541622
 11
113.1964427676
 21
145.8651954896
  0
LINE
  5
3A3
100
AcDbEntity
  8
0
100
AcDbLine
 62
7
  6
CONTINUOUS
 10
113.4559786344
 20
145.8651954896
 11
113.5078862829
 21
146.2303886375
  0
LINE
  5
3A4
100
AcDbEntity
  8
0
100
AcDbLine
 62
7
  6
CONTINUOUS
 10
113.5078862829
 20
146.2303886375
 11
113.5597933375
 21
146.412985382
  0
LINE
  5
3A5
100
AcDbEntity
  8
0
100
AcDbLine
 62
7
  6
CONTINUOUS
 10
113.5078862829
 20
145.2565401577
 11
113.5597933375
 21
145.4391368169
  0
LINE
  5
3A6
100
AcDbEntity
  8
0
100
AcDbLine
 62
7
  6
CONTINUOUS
 10
114.8055673987
 20
145.0739435837
 11
114.7536603442
 21
144.8913470098
  0
LINE
  5
3A7
100
AcDbEntity
  8
0
100
AcDbLine
 62
7
  6
CONTINUOUS
 10
113.3521645253
 20
146.595581956
 11
113.2483498222
 21
146.2912541622
  0
LINE
  5
3A8
100
AcDbEntity
  8
0
100
AcDbLine
 62
7
  6
CONTINUOUS
 10
114.9612891564
 20
144.7087503932
 11
115.0651038595
 21
145.0130780591
  0
LINE
  5
3A9
100
AcDbEntity
  8
0
100
AcDbLine
 62
7
  6
CONTINUOUS
 10
113.5597933375
 20
146.412985382
 11
113.6636080406
 21
146.595581956
  0
LINE
  5
3AA
100
AcDbEntity
  8
0
100
AcDbLine
 62
7
  6
CONTINUOUS
 10
114.7536603442
 20
144.8913470098
 11
114.6498456411
 21
144.7087503932
  0
LINE
  5
3AB
100
AcDbEntity
  8
0
100
AcDbLine
 62
7
  6
CONTINUOUS
 10
113.5078862829
 20
146.8390440546
 11
113.3521645253
 21
146.595581956
  0
LINE
  5
3AC
100
AcDbEntity
  8
0
100
AcDbLine
 62
7
  6
CONTINUOUS
 10
114.8055673987
 20
144.4652882732
 11
114.9612891564
 21
144.7087503932
  0
LINE
  5
3AD
100
AcDbEntity
  8
0
100
AcDbLine
 62
7
  6
CONTINUOUS
 10
113.5597933375
 20
145.4391368169
 11
113.6636080406
 21
145.5608678663
  0
LINE
  5
3AE
100
AcDbEntity
  8
0
100
AcDbLine
 62
7
  6
CONTINUOUS
 10
114.6498456411
 20
144.7087503932
 11
114.4941238834
 21
144.5870193438
  0
LINE
  5
3AF
100
AcDbEntity
  8
0
100
AcDbLine
 62
7
  6
CONTINUOUS
 10
114.546030938
 20
144.2826916832
 11
114.8055673987
 21
144.4652882732
  0
LINE
  5
3B0
100
AcDbEntity
  8
0
100
AcDbLine
 62
7
  6
CONTINUOUS
 10
114.6498456411
 20
145.5608678663
 11
114.7536603442
 21
145.4391368169
  0
LINE
  5
3B1
100
AcDbEntity
  8
0
100
AcDbLine
 62
7
  6
CONTINUOUS
 10
114.9612891564
 20
145.6217333909
 11
114.8055673987
 21
145.8043299649
  0
LINE
  5
3B2
100
AcDbEntity
  8
0
100
AcDbLine
 62
7
  6
CONTINUOUS
 10
113.3521645253
 20
144.7087503932
 11
113.5078862829
 21
144.4652882732
  0
LINE
  5
3B3
100
AcDbEntity
  8
0
100
AcDbLine
 62
7
  6
CONTINUOUS
 10
114.9093821019
 20
146.595581956
 11
114.7536603442
 21
146.8390440546
  0
LINE
  5
3B4
100
AcDbEntity
  8
0
100
AcDbLine
 62
7
  6
CONTINUOUS
 10
113.6636080406
 20
144.7087503932
 11
113.5597933375
 21
144.8913470098
  0
LINE
  5
3B5
100
AcDbEntity
  8
0
100
AcDbLine
 62
7
  6
CONTINUOUS
 10
114.5979385865
 20
146.595581956
 11
114.7017526956
 21
146.412985382
  0
LINE
  5
3B6
100
AcDbEntity
  8
0
100
AcDbLine
 62
7
  6
CONTINUOUS
 10
113.2483498222
 20
145.0130780591
 11
113.3521645253
 21
144.7087503932
  0
LINE
  5
3B7
100
AcDbEntity
  8
0
100
AcDbLine
 62
7
  6
CONTINUOUS
 10
115.0651038595
 20
145.3174057676
 11
114.9612891564
 21
145.6217333909
  0
LINE
  5
3B8
100
AcDbEntity
  8
0
100
AcDbLine
 62
7
  6
CONTINUOUS
 10
113.5597933375
 20
144.8913470098
 11
113.5078862829
 21
145.0739435837
  0
LINE
  5
3B9
100
AcDbEntity
  8
0
100
AcDbLine
 62
7
  6
CONTINUOUS
 10
114.7536603442
 20
145.4391368169
 11
114.8055673987
 21
145.2565401577
  0
LINE
  5
3BA
100
AcDbEntity
  8
0
100
AcDbLine
 62
7
  6
CONTINUOUS
 10
114.9612891564
 20
146.412985382
 11
114.9093821019
 21
146.595581956
  0
LINE
  5
3BB
100
AcDbEntity
  8
0
100
AcDbLine
 62
7
  6
CONTINUOUS
 10
113.1964427676
 20
145.4391368169
 11
113.2483498222
 21
145.0130780591
  0
LINE
  5
3BC
100
AcDbEntity
  8
RUNDUNGEN
100
AcDbLine
 62
7
  6
CONTINUOUS
 10
118.820354424
 20
126.303212017
 11
118.820354424
 21
145.804562017
  0
LINE
  5
3BD
100
AcDbEntity
  8
0
100
AcDbLine
 62
7
  6
CONTINUOUS
 10
121.2950148117
 20
145.4438840287
 11
121.2950148117
 21
149.9165240324
  0
LINE
  5
3BE
100
AcDbEntity
  8
RUNDUNGEN
100
AcDbLine
 62
7
  6
CONTINUOUS
 10
121.970354424
 20
39.4636098304
 11
121.970354424
 21
46.5729346883
  0
LINE
  5
3BF
100
AcDbEntity
  8
0
100
AcDbLine
 62
7
  6
CONTINUOUS
 10
121.2950148117
 20
149.9165240324
 11
124.346430393
 21
161.304562017
  0
LINE
  5
3C0
100
AcDbEntity
  8
0
100
AcDbLine
 62
7
  6
CONTINUOUS
 10
121.2950148117
 20
145.4438840287
 11
118.820354424
 21
137.3496346197
  0
LINE
  5
3C1
100
AcDbEntity
  8
RUNDUNGEN
100
AcDbLine
 62
7
  6
CONTINUOUS
 10
128.1074504748
 20
76.5351376417
 11
128.1074504748
 21
80.0706715476
  0
LINE
  5
3C2
100
AcDbEntity
  8
RUNDUNGEN
100
AcDbLine
 62
7
  6
CONTINUOUS
 10
118.820354424
 20
126.303212017
 11
116.0577433463
 21
121.8139690156
  0
LINE
  5
3C3
100
AcDbEntity
  8
0
100
AcDbLine
 62
7
  6
CONTINUOUS
 10
124.346430393
 20
161.304562017
 11
121.2950148117
 21
172.6926000015
  0
LINE
  5
3C4
100
AcDbEntity
  8
0
100
AcDbLine
 62
7
  6
CONTINUOUS
 10
95.070354424
 20
182.3389682352
 11
90.1823164395
 21
181.0292224047
  0
LINE
  5
3C5
100
AcDbEntity
  8
0
100
AcDbLine
 62
7
  6
CONTINUOUS
 10
112.9583924085
 20
181.0292224047
 11
108.070354424
 21
182.3389682352
  0
LINE
  5
3C6
100
AcDbEntity
  8
0
100
AcDbLine
 62
7
  6
CONTINUOUS
 10
121.2950148117
 20
172.6926000015
 11
112.9583924085
 21
181.0292224047
  0
LINE
  5
3C7
100
AcDbEntity
  8
RUNDUNGEN
100
AcDbLine
 62
7
  6
CONTINUOUS
 10
77.9171380697
 20
81.866638876
 11
77.0979860254
 21
81.4610590883
  0
LINE
  5
3C8
100
AcDbEntity
  8
RUNDUNGEN
100
AcDbLine
 62
7
  6
CONTINUOUS
 10
77.9171380697
 20
78.3311049701
 11
77.0979860254
 21
77.9255251824
  0
LINE
  5
3C9
100
AcDbEntity
  8
RUNDUNGEN
100
AcDbLine
 62
7
  6
CONTINUOUS
 10
90.6311039912
 20
56.7957520816
 11
81.7128982911
 21
47.7896740513
  0
LINE
  5
3CA
100
AcDbEntity
  8
RUNDUNGEN
100
AcDbLine
 62
7
  6
CONTINUOUS
 10
90.6311039912
 20
53.2602181756
 11
81.7128982911
 21
44.2541401453
  0
LINE
  5
3CB
100
AcDbEntity
  8
RUNDUNGEN
100
AcDbLine
 62
7
  6
CONTINUOUS
 10
117.0543681252
 20
77.931754606
 11
121.7829621869
 21
82.7069401675
  0
LINE
  5
3CC
100
AcDbEntity
  8
RUNDUNGEN
100
AcDbLine
 62
7
  6
CONTINUOUS
 10
81.1293361186
 20
74.2242945474
 11
79.1633712123
 21
73.250903057
  0
LINE
  5
3CD
100
AcDbEntity
  8
RUNDUNGEN
100
AcDbLine
 62
7
  6
CONTINUOUS
 10
96.4081664968
 20
80.4526584805
 11
93.950710364
 21
79.2359191175
  0
LINE
  5
3CE
100
AcDbEntity
  8
RUNDUNGEN
100
AcDbLine
 62
7
  6
CONTINUOUS
 10
82.6048298304
 20
73.3110691709
 11
83.4502912512
 21
73.7296752965
  0
LINE
  5
3CF
100
AcDbEntity
  8
RUNDUNGEN
100
AcDbLine
 62
7
  6
CONTINUOUS
 10
96.4081664968
 20
76.9171245746
 11
93.950710364
 21
75.7003852116
  0
LINE
  5
3D0
100
AcDbEntity
  8
RUNDUNGEN
100
AcDbLine
 62
7
  6
CONTINUOUS
 10
82.6048298304
 20
69.775535265
 11
84.5707947367
 21
70.7489267554
  0
LINE
  5
3D1
100
AcDbEntity
  8
RUNDUNGEN
100
AcDbLine
 62
7
  6
CONTINUOUS
 10
117.0543681252
 20
74.3962207001
 11
121.7829621869
 21
79.1714062616
  0
LINE
  5
3D2
100
AcDbEntity
  8
RUNDUNGEN
100
AcDbLine
 62
7
  6
CONTINUOUS
 10
95.4550309016
 20
43.3380392919
 11
98.6214070646
 21
46.5356142028
  0
LINE
  5
3D3
100
AcDbEntity
  8
RUNDUNGEN
100
AcDbLine
 62
7
  6
CONTINUOUS
 10
112.5096048568
 20
60.5606543538
 11
127.9266025191
 21
76.129557854
  0
ARC
  5
3D4
100
AcDbEntity
  8
KONSTRUKTIONSELEMENTE
100
AcDbCircle
 62
7
  6
CONTINUOUS
 10
221.4896459856
 20
79.9454730533
 40
9.55
100
AcDbArc
 50
135.0
 51
209.8048644765
  0
ARC
  5
3D5
100
AcDbEntity
  8
KONSTRUKTIONSELEMENTE
100
AcDbCircle
 62
7
  6
CONTINUOUS
 10
221.4896459856
 20
79.9454730533
 40
9.55
100
AcDbArc
 50
240.1951355235
 51
315.0
  0
ARC
  5
3D6
100
AcDbEntity
  8
KONSTRUKTIONSELEMENTE
100
AcDbCircle
 62
7
  6
CONTINUOUS
 10
229.9042166817
 20
88.3600437494
 40
9.55
100
AcDbArc
 50
315.0
 51
31.3702929546
  0
ARC
  5
3D7
100
AcDbEntity
  8
KONSTRUKTIONSELEMENTE
100
AcDbCircle
 62
7
  6
CONTINUOUS
 10
229.9042166817
 20
88.3600437494
 40
9.55
100
AcDbArc
 50
58.6297070454
 51
135.0
  0
ARC
  5
3D8
100
AcDbEntity
  8
KONSTRUKTIONSELEMENTE
100
AcDbCircle
 62
7
  6
CONTINUOUS
 10
221.4896459856
 20
79.9454730533
 40
4.55
100
AcDbArc
 50
135.0
 51
191.6416672297
  0
ARC
  5
3D9
100
AcDbEntity
  8
KONSTRUKTIONSELEMENTE
100
AcDbCircle
 62
7
  6
CONTINUOUS
 10
221.4896459856
 20
79.9454730533
 40
4.55
100
AcDbArc
 50
258.3583327703
 51
315.0
  0
ARC
  5
3DA
100
AcDbEntity
  8
KONSTRUKTIONSELEMENTE
100
AcDbCircle
 62
7
  6
CONTINUOUS
 10
229.9042166817
 20
88.3600437494
 40
4.55
100
AcDbArc
 50
315.0
 51
15.3477978529
  0
ARC
  5
3DB
100
AcDbEntity
  8
KONSTRUKTIONSELEMENTE
100
AcDbCircle
 62
7
  6
CONTINUOUS
 10
229.9042166817
 20
88.3600437494
 40
4.55
100
AcDbArc
 50
74.6522021471
 51
135.0
  0
ARC
  5
3DC
100
AcDbEntity
  8
KONSTRUKTIONSELEMENTE
100
AcDbCircle
 62
7
  6
CONTINUOUS
 10
231.1770088879
 20
89.6328359555
 40
2.25
100
AcDbArc
 50
135.0
 51
315.0
  0
ARC
  5
3DD
100
AcDbEntity
  8
KONSTRUKTIONSELEMENTE
100
AcDbCircle
 62
7
  6
CONTINUOUS
 10
250.7992220658
 20
109.2550491335
 40
8.0
100
AcDbArc
 50
135.0
 51
208.6357041722
  0
ARC
  5
3DE
100
AcDbEntity
  8
KONSTRUKTIONSELEMENTE
100
AcDbCircle
 62
7
  6
CONTINUOUS
 10
250.7992220658
 20
109.2550491335
 40
8.0
100
AcDbArc
 50
241.3642958278
 51
315.0
  0
ARC
  5
3DF
100
AcDbEntity
  8
KONSTRUKTIONSELEMENTE
100
AcDbCircle
 62
7
  6
CONTINUOUS
 10
261.4058237836
 20
119.8616508513
 40
8.0
100
AcDbArc
 50
315.0
 51
28.6357041722
  0
ARC
  5
3E0
100
AcDbEntity
  8
KONSTRUKTIONSELEMENTE
100
AcDbCircle
 62
7
  6
CONTINUOUS
 10
261.4058237836
 20
119.8616508513
 40
8.0
100
AcDbArc
 50
61.3642958278
 51
135.0
  0
ARC
  5
3E1
100
AcDbEntity
  8
KONSTRUKTIONSELEMENTE
100
AcDbCircle
 62
7
  6
CONTINUOUS
 10
250.7992220658
 20
109.2550491335
 40
3.5
100
AcDbArc
 50
135.0
 51
184.8461224921
  0
ARC
  5
3E2
100
AcDbEntity
  8
KONSTRUKTIONSELEMENTE
100
AcDbCircle
 62
7
  6
CONTINUOUS
 10
250.7992220658
 20
109.2550491335
 40
3.5
100
AcDbArc
 50
265.1538775079
 51
315.0
  0
ARC
  5
3E3
100
AcDbEntity
  8
KONSTRUKTIONSELEMENTE
100
AcDbCircle
 62
7
  6
CONTINUOUS
 10
261.4058237836
 20
119.8616508513
 40
3.5
100
AcDbArc
 50
315.0
 51
4.8461224921
  0
ARC
  5
3E4
100
AcDbEntity
  8
KONSTRUKTIONSELEMENTE
100
AcDbCircle
 62
7
  6
CONTINUOUS
 10
261.4058237836
 20
119.8616508513
 40
3.5
100
AcDbArc
 50
85.1538775079
 51
135.0
  0
ARC
  5
3E5
100
AcDbEntity
  8
KONSTRUKTIONSELEMENTE
100
AcDbCircle
 62
7
  6
CONTINUOUS
 10
262.2897072601
 20
120.7455343278
 40
2.25
100
AcDbArc
 50
135.0
 51
315.0
  0
ARC
  5
3E6
100
AcDbEntity
  8
KONSTRUKTIONSELEMENTE
100
AcDbCircle
 62
7
  6
CONTINUOUS
 10
249.9153385893
 20
108.371165657
 40
2.25
100
AcDbArc
 50
315.0
 51
135.0
  0
ARC
  5
3E7
100
AcDbEntity
  8
KONSTRUKTIONSELEMENTE
100
AcDbCircle
 62
7
  6
CONTINUOUS
 10
281.0280369615
 20
139.4838640292
 40
2.25
100
AcDbArc
 50
315.0
 51
135.0
  0
ARC
  5
3E8
100
AcDbEntity
  8
KONSTRUKTIONSELEMENTE
100
AcDbCircle
 62
7
  6
CONTINUOUS
 10
282.6543825583
 20
141.1102096259
 40
9.55
100
AcDbArc
 50
135.0
 51
211.3702929546
  0
ARC
  5
3E9
100
AcDbEntity
  8
KONSTRUKTIONSELEMENTE
100
AcDbCircle
 62
7
  6
CONTINUOUS
 10
282.6543825583
 20
141.1102096259
 40
9.55
100
AcDbArc
 50
238.6297070454
 51
315.0
  0
ARC
  5
3EA
100
AcDbEntity
  8
KONSTRUKTIONSELEMENTE
100
AcDbCircle
 62
7
  6
CONTINUOUS
 10
291.0689532544
 20
149.524780322
 40
9.55
100
AcDbArc
 50
315.0
 51
26.6609039942
  0
ARC
  5
3EB
100
AcDbEntity
  8
KONSTRUKTIONSELEMENTE
100
AcDbCircle
 62
7
  6
CONTINUOUS
 10
291.0689532544
 20
149.524780322
 40
9.55
100
AcDbArc
 50
63.3390960058
 51
135.0
  0
ARC
  5
3EC
100
AcDbEntity
  8
KONSTRUKTIONSELEMENTE
100
AcDbCircle
 62
7
  6
CONTINUOUS
 10
282.6543825583
 20
141.1102096259
 40
4.55
100
AcDbArc
 50
135.0
 51
195.3477978529
  0
ARC
  5
3ED
100
AcDbEntity
  8
KONSTRUKTIONSELEMENTE
100
AcDbCircle
 62
7
  6
CONTINUOUS
 10
282.6543825583
 20
141.1102096259
 40
4.55
100
AcDbArc
 50
254.6522021471
 51
315.0
  0
ARC
  5
3EE
100
AcDbEntity
  8
KONSTRUKTIONSELEMENTE
100
AcDbCircle
 62
7
  6
CONTINUOUS
 10
291.0689532544
 20
149.524780322
 40
4.55
100
AcDbArc
 50
315.0
 51
3.7275989874
  0
ARC
  5
3EF
100
AcDbEntity
  8
KONSTRUKTIONSELEMENTE
100
AcDbCircle
 62
7
  6
CONTINUOUS
 10
291.0689532544
 20
149.524780322
 40
4.55
100
AcDbArc
 50
86.2724010126
 51
135.0
  0
ARC
  5
3F0
100
AcDbEntity
  8
KONSTRUKTIONSELEMENTE
100
AcDbCircle
 62
7
  6
CONTINUOUS
 10
291.457861984
 20
149.9136890517
 40
3.0
100
AcDbArc
 50
135.0
 51
315.0
  0
ARC
  5
3F1
100
AcDbEntity
  8
0
100
AcDbCircle
 62
7
  6
CONTINUOUS
 10
329.2487349493
 20
130.204562017
 40
8.4
100
AcDbArc
 50
180.0
 51
270.0
  0
ARC
  5
3F2
100
AcDbEntity
  8
RUNDUNGEN
100
AcDbCircle
 62
7
  6
CONTINUOUS
 10
331.4487349493
 20
130.204562017
 40
8.4
100
AcDbArc
 50
270.0
 51
360.0
  0
CIRCLE
  5
3F3
100
AcDbEntity
  8
BEZUGSACHSEN
100
AcDbCircle
 62
7
  6
CONTINUOUS
 10
330.3487349493
 20
132.204562017
 40
4.26795
  0
ARC
  5
3F4
100
AcDbEntity
  8
0
100
AcDbCircle
 62
7
  6
CONTINUOUS
 10
326.3487349493
 20
147.804562017
 40
3.0
100
AcDbArc
 50
109.4712206345
 51
179.9999856999
  0
ARC
  5
3F5
100
AcDbEntity
  8
RUNDUNGEN
100
AcDbCircle
 62
7
  6
CONTINUOUS
 10
334.3487349493
 20
147.804562017
 40
3.0
100
AcDbArc
 50
0.0000143001
 51
70.5287793655
  0
ARC
  5
3F6
100
AcDbEntity
  8
0
100
AcDbCircle
 62
7
  6
CONTINUOUS
 10
330.3487349493
 20
188.804562017
 40
30.0
100
AcDbArc
 50
279.5979011806
 51
360.0
  0
ARC
  5
3F7
100
AcDbEntity
  8
0
100
AcDbCircle
 62
7
  6
CONTINUOUS
 10
330.3487349493
 20
188.804562017
 40
30.0
100
AcDbArc
 50
230.7431370326
 51
260.4020988194
  0
ARC
  5
3F8
100
AcDbEntity
  8
0
100
AcDbCircle
 62
7
  6
CONTINUOUS
 10
330.3487349493
 20
188.804562017
 40
30.0
100
AcDbArc
 50
180.0
 51
219.2568629674
  0
ARC
  5
3F9
100
AcDbEntity
  8
0
100
AcDbCircle
 62
7
  6
CONTINUOUS
 10
330.3487349493
 20
224.804562017
 40
30.0
100
AcDbArc
 50
0.0
 51
180.0
  0
ARC
  5
3FA
100
AcDbEntity
  8
0
100
AcDbCircle
 62
7
  6
CONTINUOUS
 10
330.3487349493
 20
188.804562017
 40
17.0
100
AcDbArc
 50
287.1128011601
 51
360.0
  0
ARC
  5
3FB
100
AcDbEntity
  8
0
100
AcDbCircle
 62
7
  6
CONTINUOUS
 10
330.3487349493
 20
188.804562017
 40
17.0
100
AcDbArc
 50
235.1707765494
 51
252.8871988399
  0
ARC
  5
3FC
100
AcDbEntity
  8
0
100
AcDbCircle
 62
7
  6
CONTINUOUS
 10
330.3487349493
 20
188.804562017
 40
17.0
100
AcDbArc
 50
180.0
 51
214.8292234506
  0
ARC
  5
3FD
100
AcDbEntity
  8
0
100
AcDbCircle
 62
7
  6
CONTINUOUS
 10
330.3487349493
 20
224.804562017
 40
17.0
100
AcDbArc
 50
0.0
 51
180.0
  0
ARC
  5
3FE
100
AcDbEntity
  8
BEZUGSACHSEN
100
AcDbCircle
 62
7
  6
CONTINUOUS
 10
330.3487349493
 20
176.804562017
 40
5.0
100
AcDbArc
 50
0.0
 51
28.7624430017
  0
ARC
  5
3FF
100
AcDbEntity
  8
BEZUGSACHSEN
100
AcDbCircle
 62
7
  6
CONTINUOUS
 10
330.3487349493
 20
176.804562017
 40
5.0
100
AcDbArc
 50
151.2375569983
 51
180.0
  0
ARC
  5
400
100
AcDbEntity
  8
KONSTRUKTIONSELEMENTE
100
AcDbCircle
 62
7
  6
CONTINUOUS
 10
320.4492400127
 20
178.9050670803
 40
3.0
100
AcDbArc
 50
315.0
 51
135.0
  0
ARC
  5
401
100
AcDbEntity
  8
KONSTRUKTIONSELEMENTE
100
AcDbCircle
 62
7
  6
CONTINUOUS
 10
101.3452062787
 20
132.4296945841
 40
9.2781558331
100
AcDbArc
 50
104.2144987627
 51
111.6730141175
  0
ARC
  5
402
100
AcDbEntity
  8
KONSTRUKTIONSELEMENTE
100
AcDbCircle
 62
7
  6
CONTINUOUS
 10
101.2248518583
 20
132.7429681714
 40
8.9425813982
100
AcDbArc
 50
111.8381223953
 51
112.0409123259
  0
ARC
  5
403
100
AcDbEntity
  8
RUNDUNGEN
100
AcDbCircle
 62
7
  6
CONTINUOUS
 10
89.320354424
 20
145.804562017
 40
5.0
100
AcDbArc
 50
135.1299088003
 51
180.0
  0
ARC
  5
404
100
AcDbEntity
  8
RUNDUNGEN
100
AcDbCircle
 62
7
  6
CONTINUOUS
 10
89.320354424
 20
145.804562017
 40
4.8284271247
100
AcDbArc
 50
90.0
 51
98.1061684603
  0
ARC
  5
405
100
AcDbEntity
  8
BEZUGSACHSEN
100
AcDbCircle
 62
7
  6
CONTINUOUS
 10
101.0689848469
 20
78.4001767621
 40
4.0565540465
100
AcDbArc
 50
239.8204512708
 51
240.4446380906
  0
ARC
  5
406
100
AcDbEntity
  8
RUNDUNGEN
100
AcDbCircle
 62
7
  6
CONTINUOUS
 10
87.320354424
 20
124.804562017
 40
3.0
100
AcDbArc
 50
265.4614607767
 51
270.0
  0
CIRCLE
  5
407
100
AcDbEntity
  8
BEZUGSACHSEN
100
AcDbCircle
 62
7
  6
CONTINUOUS
 10
90.570354424
 20
132.204562017
 40
1.5
  0
ARC
  5
408
100
AcDbEntity
  8
0
100
AcDbCircle
 62
7
  6
CONTINUOUS
 10
95.0678596451
 20
68.5300811517
 40
0.2501758626
100
AcDbArc
 50
78.8903114984
 51
89.9692795104
  0
ARC
  5
409
100
AcDbEntity
  8
KONSTRUKTIONSELEMENTE
100
AcDbCircle
 62
7
  6
CONTINUOUS
 10
101.570354424
 20
103.102042017
 40
21.59352
100
AcDbArc
 50
59.9775906644
 51
80.1338135404
  0
ARC
  5
40A
100
AcDbEntity
  8
KONSTRUKTIONSELEMENTE
100
AcDbCircle
 62
7
  6
CONTINUOUS
 10
101.570354424
 20
103.102042017
 40
21.59352
100
AcDbArc
 50
99.8661864596
 51
120.0224093356
  0
ARC
  5
40B
100
AcDbEntity
  8
KONSTRUKTIONSELEMENTE
100
AcDbCircle
 62
7
  6
CONTINUOUS
 10
101.7619668774
 20
132.3264224337
 40
9.3864866154
100
AcDbArc
 50
68.194728592
 51
75.7361395262
  0
ARC
  5
40C
100
AcDbEntity
  8
KONSTRUKTIONSELEMENTE
100
AcDbCircle
 62
7
  6
CONTINUOUS
 10
101.9182039063
 20
132.7493063042
 40
8.9358327207
100
AcDbArc
 50
67.9362825258
 51
68.1176377364
  0
ARC
  5
40D
100
AcDbEntity
  8
RUNDUNGEN
100
AcDbCircle
 62
7
  6
CONTINUOUS
 10
113.820354424
 20
145.804562017
 40
5.0
100
AcDbArc
 50
0.0
 51
44.8700911997
  0
ARC
  5
40E
100
AcDbEntity
  8
RUNDUNGEN
100
AcDbCircle
 62
7
  6
CONTINUOUS
 10
113.820354424
 20
145.804562017
 40
4.8284271247
100
AcDbArc
 50
81.8938367256
 51
89.996087995
  0
ARC
  5
40F
100
AcDbEntity
  8
BEZUGSACHSEN
100
AcDbCircle
 62
7
  6
CONTINUOUS
 10
102.0717240008
 20
78.4001767625
 40
4.0565540471
100
AcDbArc
 50
299.5553619094
 51
300.1795487291
  0
ARC
  5
410
100
AcDbEntity
  8
KONSTRUKTIONSELEMENTE
100
AcDbCircle
 62
7
  6
CONTINUOUS
 10
101.570354424
 20
141.104562017
 40
3.7
100
AcDbArc
 50
0.0
 51
180.0
  0
ARC
  5
411
100
AcDbEntity
  8
RUNDUNGEN
100
AcDbCircle
 62
7
  6
CONTINUOUS
 10
115.820354424
 20
124.804562017
 40
3.0
100
AcDbArc
 50
270.0
 51
274.5385392233
  0
ARC
  5
412
100
AcDbEntity
  8
KONSTRUKTIONSELEMENTE
100
AcDbCircle
 62
7
  6
CONTINUOUS
 10
101.570354424
 20
72.8954730533
 40
2.5
100
AcDbArc
 50
180.0
 51
360.0
  0
ARC
  5
413
100
AcDbEntity
  8
KONSTRUKTIONSELEMENTE
100
AcDbCircle
 62
7
  6
CONTINUOUS
 10
101.570354424
 20
95.4100437494
 40
2.5
100
AcDbArc
 50
0.0
 51
180.0
  0
ARC
  5
414
100
AcDbEntity
  8
KONSTRUKTIONSELEMENTE
100
AcDbCircle
 62
7
  6
CONTINUOUS
 10
101.570354424
 20
156.574780322
 40
2.5
100
AcDbArc
 50
0.0
 51
67.7415658431
  0
ARC
  5
415
100
AcDbEntity
  8
KONSTRUKTIONSELEMENTE
100
AcDbCircle
 62
7
  6
CONTINUOUS
 10
101.570354424
 20
156.574780322
 40
2.5
100
AcDbArc
 50
112.2584341569
 51
180.0
  0
ARC
  5
416
100
AcDbEntity
  8
KONSTRUKTIONSELEMENTE
100
AcDbCircle
 62
7
  6
CONTINUOUS
 10
101.570354424
 20
103.5050491335
 40
2.25
100
AcDbArc
 50
180.0
 51
360.0
  0
ARC
  5
417
100
AcDbEntity
  8
KONSTRUKTIONSELEMENTE
100
AcDbCircle
 62
7
  6
CONTINUOUS
 10
101.570354424
 20
125.6116508513
 40
2.25
100
AcDbArc
 50
0.0
 51
180.0
  0
ARC
  5
418
100
AcDbEntity
  8
0
100
AcDbCircle
 62
7
  6
CONTINUOUS
 10
109.0480240983
 20
68.909139495
 40
1.2775271224
100
AcDbArc
 50
350.5636876715
 51
355.3957076165
  0
ARC
  5
419
100
AcDbEntity
  8
BEZUGSACHSEN
100
AcDbCircle
 62
7
  6
CONTINUOUS
 10
101.570354424
 20
161.304562017
 40
10.5
100
AcDbArc
 50
128.2550249251
 51
51.7449750749
  0
ARC
  5
41A
100
AcDbEntity
  8
0
100
AcDbCircle
 62
7
  6
CONTINUOUS
 10
101.570354424
 20
248.304562017
 40
6.5
100
AcDbArc
 50
0.0
 51
180.0
  0
ARC
  5
41B
100
AcDbEntity
  8
0
100
AcDbCircle
 62
7
  6
CONTINUOUS
 10
101.570354424
 20
165.304562017
 40
6.5
100
AcDbArc
 50
180.0
 51
360.0
  0
SPLINE
  5
41C
100
AcDbEntity
  8
0
100
AcDbSpline
 62
7
  6
CONTINUOUS
 70
0
 71
3
 72
13
 73
9
 74
0
 42
0.0000001
 43
0.0000001
 44
0.0000000001
 40
0.0
 40
0.0
 40
0.0
 40
0.0
 40
0.2578502816
 40
0.3800272365
 40
0.5000000009
 40
0.6199727654
 40
0.7421497198
 40
1.0
 40
1.0
 40
1.0
 40
1.0
 10
332.0585978319
 20
184.080637986
 30
0.0
 10
332.190842956
 20
183.8397110461
 30
0.0
 10
332.3536934656
 20
183.4636549355
 30
0.0
 10
332.4659407083
 20
182.9412477983
 30
0.0
 10
332.4938252581
 20
182.5549301923
 30
0.0
 10
332.465940704
 20
182.1686125875
 30
0.0
 10
332.3536934688
 20
181.6462054506
 30
0.0
 10
332.1908429552
 20
181.2701493432
 30
0.0
 10
332.0585978319
 20
181.0292224047
 30
0.0
  0
SPLINE
  5
41D
100
AcDbEntity
  8
0
100
AcDbSpline
 62
7
  6
CONTINUOUS
 70
0
 71
3
 72
13
 73
9
 74
0
 42
0.0000001
 43
0.0000001
 44
0.0000000001
 40
0.0
 40
0.0
 40
0.0
 40
0.0
 40
0.2578502816
 40
0.3800272365
 40
0.5000000009
 40
0.6199727654
 40
0.7421497198
 40
1.0
 40
1.0
 40
1.0
 40
1.0
 10
328.6388720667
 20
184.080637986
 30
0.0
 10
328.5066269426
 20
183.8397110461
 30
0.0
 10
328.343776433
 20
183.4636549355
 30
0.0
 10
328.2315291903
 20
182.9412477983
 30
0.0
 10
328.2036446405
 20
182.5549301923
 30
0.0
 10
328.2315291946
 20
182.1686125875
 30
0.0
 10
328.3437764298
 20
181.6462054506
 30
0.0
 10
328.5066269433
 20
181.2701493432
 30
0.0
 10
328.6388720667
 20
181.0292224047
 30
0.0
  0
SPLINE
  5
41E
100
AcDbEntity
  8
0
100
AcDbSpline
 62
7
  6
CONTINUOUS
 70
0
 71
3
 72
9
 73
5
 74
0
 42
0.0000001
 43
0.0000001
 44
0.0000000001
 40
0.0
 40
0.0
 40
0.0
 40
0.0
 40
0.500095873
 40
1.0
 40
1.0
 40
1.0
 40
1.0
 10
332.0585978319
 20
161.304562017
 30
0.0
 10
332.2151825531
 20
160.2399223902
 30
0.0
 10
332.4477741777
 20
158.0981690314
 30
0.0
 10
332.498555088
 20
155.9439328209
 30
0.0
 10
332.4772262307
 20
154.8684638159
 30
0.0
  0
SPLINE
  5
41F
100
AcDbEntity
  8
0
100
AcDbSpline
 62
7
  6
CONTINUOUS
 70
0
 71
3
 72
11
 73
7
 74
0
 42
0.0000001
 43
0.0000001
 44
0.0000000001
 40
0.0
 40
0.0
 40
0.0
 40
0.0
 40
0.2500485047
 40
0.5000000009
 40
0.7499514969
 40
1.0
 40
1.0
 40
1.0
 40
1.0
 10
332.0585978319
 20
172.6926000015
 30
0.0
 10
332.1971954715
 20
171.7502568516
 30
0.0
 10
332.411327555
 20
169.8558753903
 30
0.0
 10
332.5212095914
 20
166.9985809998
 30
0.0
 10
332.4113275561
 20
164.141286615
 30
0.0
 10
332.1971954707
 20
162.2469051609
 30
0.0
 10
332.0585978319
 20
161.304562017
 30
0.0
  0
SPLINE
  5
420
100
AcDbEntity
  8
0
100
AcDbSpline
 62
7
  6
CONTINUOUS
 70
0
 71
3
 72
11
 73
7
 74
0
 42
0.0000001
 43
0.0000001
 44
0.0000000001
 40
0.0
 40
0.0
 40
0.0
 40
0.0
 40
0.2506353974
 40
0.5000000009
 40
0.7493646041
 40
1.0
 40
1.0
 40
1.0
 40
1.0
 10
332.0585978319
 20
181.0292224047
 30
0.0
 10
332.1966744259
 20
180.341972745
 30
0.0
 10
332.4109125329
 20
178.9575547633
 30
0.0
 10
332.5213305842
 20
176.8609111962
 30
0.0
 10
332.410912534
 20
174.7642676332
 30
0.0
 10
332.1966744251
 20
173.3798496568
 30
0.0
 10
332.0585978319
 20
172.6926000015
 30
0.0
  0
LINE
  5
421
100
AcDbEntity
  8
0
100
AcDbLine
 62
7
  6
CONTINUOUS
 10
326.3487349493
 20
141.3308414586
 11
323.3487349493
 21
142.1346890359
  0
SPLINE
  5
422
100
AcDbEntity
  8
0
100
AcDbSpline
 62
7
  6
CONTINUOUS
 70
0
 71
3
 72
9
 73
5
 74
0
 42
0.0000001
 43
0.0000001
 44
0.0000000001
 40
0.0
 40
0.0
 40
0.0
 40
0.0
 40
0.2637741096
 40
1.0
 40
1.0
 40
1.0
 40
1.0
 10
326.3487349493
 20
149.3320705977
 30
0.0
 10
326.3185308414
 20
149.3762916752
 30
0.0
 10
326.2009353181
 20
149.5417621243
 30
0.0
 10
326.0703471504
 20
149.6983563126
 30
0.0
 10
325.965623559
 20
149.8050058147
 30
0.0
  0
SPLINE
  5
423
100
AcDbEntity
  8
0
100
AcDbSpline
 62
7
  6
CONTINUOUS
 70
0
 71
3
 72
13
 73
9
 74
0
 42
0.0000001
 43
0.0000001
 44
0.0000000001
 40
0.0
 40
0.0
 40
0.0
 40
0.0
 40
0.0519586623
 40
0.1227005438
 40
0.2143857084
 40
0.3279011679
 40
0.6211317425
 40
1.0
 40
1.0
 40
1.0
 40
1.0
 10
325.3487349493
 20
150.5847458279
 30
0.0
 10
325.3487349598
 20
150.567340159
 30
0.0
 10
325.3585956622
 20
150.5265326566
 30
0.0
 10
325.3900313313
 20
150.4618478835
 30
0.0
 10
325.440598445
 20
150.3842109212
 30
0.0
 10
325.5425869708
 20
150.2519162898
 30
0.0
 10
325.7195155705
 20
150.0566944329
 30
0.0
 10
325.8767008325
 20
149.8955638675
 30
0.0
 10
325.965623559
 20
149.8050058147
 30
0.0
  0
LINE
  5
424
100
AcDbEntity
  8
0
100
AcDbLine
 62
7
  6
CONTINUOUS
 10
323.8487349493
 20
137.0007144397
 11
320.8487349493
 21
137.804562017
  0
SPLINE
  5
425
100
AcDbEntity
  8
0
100
AcDbSpline
 62
7
  6
CONTINUOUS
 70
0
 71
3
 72
9
 73
5
 74
0
 42
0.0000001
 43
0.0000001
 44
0.0000000001
 40
0.0
 40
0.0
 40
0.0
 40
0.0
 40
0.500095873
 40
1.0
 40
1.0
 40
1.0
 40
1.0
 10
328.6388720667
 20
161.304562017
 30
0.0
 10
328.4822873455
 20
160.2399223902
 30
0.0
 10
328.2496957208
 20
158.0981690314
 30
0.0
 10
328.1989148106
 20
155.9439328209
 30
0.0
 10
328.2202436679
 20
154.8684638159
 30
0.0
  0
SPLINE
  5
426
100
AcDbEntity
  8
0
100
AcDbSpline
 62
7
  6
CONTINUOUS
 70
0
 71
3
 72
11
 73
7
 74
0
 42
0.0000001
 43
0.0000001
 44
0.0000000001
 40
0.0
 40
0.0
 40
0.0
 40
0.0
 40
0.2500485047
 40
0.5000000009
 40
0.7499514969
 40
1.0
 40
1.0
 40
1.0
 40
1.0
 10
328.6388720667
 20
172.6926000015
 30
0.0
 10
328.500274427
 20
171.7502568516
 30
0.0
 10
328.2861423436
 20
169.8558753903
 30
0.0
 10
328.1762603072
 20
166.9985809998
 30
0.0
 10
328.2861423424
 20
164.141286615
 30
0.0
 10
328.5002744279
 20
162.2469051609
 30
0.0
 10
328.6388720667
 20
161.304562017
 30
0.0
  0
SPLINE
  5
427
100
AcDbEntity
  8
0
100
AcDbSpline
 62
7
  6
CONTINUOUS
 70
0
 71
3
 72
11
 73
7
 74
0
 42
0.0000001
 43
0.0000001
 44
0.0000000001
 40
0.0
 40
0.0
 40
0.0
 40
0.0
 40
0.2506353974
 40
0.5000000009
 40
0.7493646041
 40
1.0
 40
1.0
 40
1.0
 40
1.0
 10
328.6388720667
 20
181.0292224047
 30
0.0
 10
328.5007954726
 20
180.341972745
 30
0.0
 10
328.2865573656
 20
178.9575547633
 30
0.0
 10
328.1761393144
 20
176.8609111962
 30
0.0
 10
328.2865573645
 20
174.7642676332
 30
0.0
 10
328.5007954735
 20
173.3798496568
 30
0.0
 10
328.6388720667
 20
172.6926000015
 30
0.0
  0
LINE
  5
428
100
AcDbEntity
  8
RUNDUNGEN
100
AcDbLine
 62
7
  6
CONTINUOUS
 10
334.3487349493
 20
141.3308414586
 11
337.3487349493
 21
142.1346890359
  0
SPLINE
  5
429
100
AcDbEntity
  8
RUNDUNGEN
100
AcDbSpline
 62
7
  6
CONTINUOUS
 70
0
 71
3
 72
13
 73
9
 74
0
 42
0.0000001
 43
0.0000001
 44
0.0000000001
 40
0.0
 40
0.0
 40
0.0
 40
0.0
 40
0.0519586623
 40
0.1227005438
 40
0.2143857084
 40
0.3279011679
 40
0.6211317425
 40
1.0
 40
1.0
 40
1.0
 40
1.0
 10
335.3487349493
 20
150.5847458279
 30
0.0
 10
335.3487349388
 20
150.567340159
 30
0.0
 10
335.3388742364
 20
150.5265326566
 30
0.0
 10
335.3074385673
 20
150.4618478835
 30
0.0
 10
335.2568714536
 20
150.3842109212
 30
0.0
 10
335.1548829278
 20
150.2519162898
 30
0.0
 10
334.9779543281
 20
150.0566944329
 30
0.0
 10
334.8207690661
 20
149.8955638675
 30
0.0
 10
334.7318463396
 20
149.8050058147
 30
0.0
  0
SPLINE
  5
42A
100
AcDbEntity
  8
RUNDUNGEN
100
AcDbSpline
 62
7
  6
CONTINUOUS
 70
0
 71
3
 72
9
 73
5
 74
0
 42
0.0000001
 43
0.0000001
 44
0.0000000001
 40
0.0
 40
0.0
 40
0.0
 40
0.0
 40
0.2637741096
 40
1.0
 40
1.0
 40
1.0
 40
1.0
 10
334.3487349493
 20
149.3320705977
 30
0.0
 10
334.3789390572
 20
149.3762916752
 30
0.0
 10
334.4965345804
 20
149.5417621243
 30
0.0
 10
334.6271227481
 20
149.6983563126
 30
0.0
 10
334.7318463396
 20
149.8050058147
 30
0.0
  0
LINE
  5
42B
100
AcDbEntity
  8
RUNDUNGEN
100
AcDbLine
 62
7
  6
CONTINUOUS
 10
336.8487349493
 20
137.0007144397
 11
339.8487349493
 21
137.804562017
  0
SPLINE
  5
42C
100
AcDbEntity
  8
0
100
AcDbSpline
 62
7
  6
CONTINUOUS
 70
0
 71
3
 72
24
 73
20
 74
0
 42
0.0000001
 43
0.0000001
 44
0.0000000001
 40
0.0
 40
0.0
 40
0.0
 40
0.0
 40
0.1325367287
 40
0.2638739511
 40
0.3927528325
 40
0.455920943
 40
0.5179481019
 40
0.5786546273
 40
0.6379015311
 40
0.6956649624
 40
0.7522607548
 40
0.7805927531
 40
0.8092812622
 40
0.8387558883
 40
0.8693761345
 40
0.9011686732
 40
0.9337888009
 40
0.9668267246
 40
1.0
 40
1.0
 40
1.0
 40
1.0
 10
329.2487349493
 20
121.8139690156
 30
0.0
 10
328.8492209475
 20
121.8139690156
 30
0.0
 10
328.0524045647
 20
121.8735720777
 30
0.0
 10
326.8949421945
 20
122.1432212823
 30
0.0
 10
325.9907114133
 20
122.5237954787
 30
0.0
 10
325.3368347123
 20
122.9250597245
 30
0.0
 10
324.8945291268
 20
123.2714318977
 30
0.0
 10
324.5094202581
 20
123.6646404882
 30
0.0
 10
324.1975774205
 20
124.1036245999
 30
0.0
 10
323.9815109657
 20
124.5845202481
 30
0.0
 10
323.9108229881
 20
125.0166358613
 30
0.0
 10
323.9483932525
 20
125.3591806642
 30
0.0
 10
324.0321150102
 20
125.6085791796
 30
0.0
 10
324.1780400044
 20
125.8364176296
 30
0.0
 10
324.3844309986
 20
126.0256514576
 30
0.0
 10
324.6379143067
 20
126.1641657041
 30
0.0
 10
324.9199887679
 20
126.2514025048
 30
0.0
 10
325.2154258845
 20
126.2955322707
 30
0.0
 10
325.4151788884
 20
126.303212017
 30
0.0
 10
325.51517523
 20
126.303212017
 30
0.0
  0
SPLINE
  5
42D
100
AcDbEntity
  8
RUNDUNGEN
100
AcDbSpline
 62
7
  6
CONTINUOUS
 70
0
 71
3
 72
24
 73
20
 74
0
 42
0.0000001
 43
0.0000001
 44
0.0000000001
 40
0.0
 40
0.0
 40
0.0
 40
0.0
 40
0.1325367287
 40
0.2638739511
 40
0.3927528325
 40
0.455920943
 40
0.5179481019
 40
0.5786546273
 40
0.6379015311
 40
0.6956649624
 40
0.7522607548
 40
0.7805927531
 40
0.8092812622
 40
0.8387558883
 40
0.8693761345
 40
0.9011686732
 40
0.9337888009
 40
0.9668267246
 40
1.0
 40
1.0
 40
1.0
 40
1.0
 10
331.4487349493
 20
121.8139690156
 30
0.0
 10
331.848248951
 20
121.8139690156
 30
0.0
 10
332.6450653339
 20
121.8735720777
 30
0.0
 10
333.8025277041
 20
122.1432212823
 30
0.0
 10
334.7067584853
 20
122.5237954787
 30
0.0
 10
335.3606351862
 20
122.9250597245
 30
0.0
 10
335.8029407717
 20
123.2714318977
 30
0.0
 10
336.1880496405
 20
123.6646404882
 30
0.0
 10
336.4998924781
 20
124.1036245999
 30
0.0
 10
336.7159589328
 20
124.5845202481
 30
0.0
 10
336.7866469105
 20
125.0166358613
 30
0.0
 10
336.7490766461
 20
125.3591806642
 30
0.0
 10
336.6653548884
 20
125.6085791796
 30
0.0
 10
336.5194298942
 20
125.8364176296
 30
0.0
 10
336.3130389
 20
126.0256514576
 30
0.0
 10
336.0595555919
 20
126.1641657041
 30
0.0
 10
335.7774811307
 20
126.2514025048
 30
0.0
 10
335.4820440141
 20
126.2955322707
 30
0.0
 10
335.2822910102
 20
126.303212017
 30
0.0
 10
335.1822946686
 20
126.303212017
 30
0.0
  0
SPLINE
  5
42E
100
AcDbEntity
  8
KONSTRUKTIONSELEMENTE
100
AcDbSpline
 62
7
  6
CONTINUOUS
 70
0
 71
3
 72
14
 73
10
 74
0
 42
0.0000001
 43
0.0000001
 44
0.0000000001
 40
0.0
 40
0.0
 40
0.0
 40
0.0
 40
0.1193894076
 40
0.2390957115
 40
0.3600148606
 40
0.4826457182
 40
0.6077304619
 40
0.7357412445
 40
1.0
 40
1.0
 40
1.0
 40
1.0
 10
93.570354424
 20
104.3053016652
 30
0.0
 10
93.570354424
 20
104.6639412764
 30
0.0
 10
93.6464448754
 20
105.3844454122
 30
0.0
 10
93.9820438728
 20
106.4199524502
 30
0.0
 10
94.5179435812
 20
107.3782301328
 30
0.0
 10
95.2301845249
 20
108.2335428851
 30
0.0
 10
96.091155894
 20
108.9711336197
 30
0.0
 10
97.4154326906
 20
109.7927608336
 30
0.0
 10
98.5420782509
 20
110.1955116408
 30
0.0
 10
99.3162421035
 20
110.3710677858
 30
0.0
  0
SPLINE
  5
42F
100
AcDbEntity
  8
KONSTRUKTIONSELEMENTE
100
AcDbSpline
 62
7
  6
CONTINUOUS
 70
0
 71
3
 72
14
 73
10
 74
0
 42
0.0000001
 43
0.0000001
 44
0.0000000001
 40
0.0
 40
0.0
 40
0.0
 40
0.0
 40
0.2642708626
 40
0.3922805637
 40
0.5173547468
 40
0.6399817364
 40
0.7608849187
 40
0.8806119843
 40
1.0
 40
1.0
 40
1.0
 40
1.0
 10
103.8225252028
 20
110.3714989981
 30
0.0
 10
104.5969225293
 20
110.1960188939
 30
0.0
 10
105.7239332802
 20
109.7934115038
 30
0.0
 10
107.0486397547
 20
108.971818142
 30
0.0
 10
107.9098694565
 20
108.2342132799
 30
0.0
 10
108.622302789
 20
107.3788700031
 30
0.0
 10
109.1585347506
 20
106.4204901429
 30
0.0
 10
109.4941718726
 20
105.3847254645
 30
0.0
 10
109.570354424
 20
104.6640159355
 30
0.0
 10
109.570354424
 20
104.3053016652
 30
0.0
  0
SPLINE
  5
430
100
AcDbEntity
  8
KONSTRUKTIONSELEMENTE
100
AcDbSpline
 62
7
  6
CONTINUOUS
 70
0
 71
3
 72
14
 73
10
 74
0
 42
0.0000001
 43
0.0000001
 44
0.0000000001
 40
0.0
 40
0.0
 40
0.0
 40
0.0
 40
0.0551359094
 40
0.1223699656
 40
0.2074507274
 40
0.3149057254
 40
0.4478676734
 40
0.6082995934
 40
1.0
 40
1.0
 40
1.0
 40
1.0
 10
98.070354424
 20
104.3053016652
 30
0.0
 10
98.070354424
 20
104.3403766629
 30
0.0
 10
98.0764454877
 20
104.4183967321
 30
0.0
 10
98.1105948933
 20
104.5465890591
 30
0.0
 10
98.1793281871
 20
104.6975950848
 30
0.0
 10
98.2922215617
 20
104.8720486071
 30
0.0
 10
98.4608536413
 20
105.0644645193
 30
0.0
 10
98.7884667503
 20
105.3532370821
 30
0.0
 10
99.0936035624
 20
105.5350658295
 30
0.0
 10
99.3183625357
 20
105.6426539605
 30
0.0
  0
SPLINE
  5
431
100
AcDbEntity
  8
KONSTRUKTIONSELEMENTE
100
AcDbSpline
 62
7
  6
CONTINUOUS
 70
0
 71
3
 72
14
 73
10
 74
0
 42
0.0000001
 43
0.0000001
 44
0.0000000001
 40
0.0
 40
0.0
 40
0.0
 40
0.0
 40
0.3917172299
 40
0.5521555057
 40
0.6851138818
 40
0.7925516428
 40
0.877642207
 40
0.9448879032
 40
1.0
 40
1.0
 40
1.0
 40
1.0
 10
103.8221036595
 20
105.6427658885
 30
0.0
 10
104.0469115655
 20
105.5351759879
 30
0.0
 10
104.3521130261
 20
105.3533266014
 30
0.0
 10
104.6797856741
 20
105.0645146497
 30
0.0
 10
104.8484647041
 20
104.8721062583
 30
0.0
 10
104.9613783259
 20
104.6976370173
 30
0.0
 10
105.0300926188
 20
104.5465942084
 30
0.0
 10
105.0642478827
 20
104.4183884431
 30
0.0
 10
105.070354424
 20
104.340366326
 30
0.0
 10
105.070354424
 20
104.3053016652
 30
0.0
  0
SPLINE
  5
432
100
AcDbEntity
  8
KONSTRUKTIONSELEMENTE
100
AcDbSpline
 62
7
  6
CONTINUOUS
 70
0
 71
3
 72
12
 73
8
 74
0
 42
0.0000001
 43
0.0000001
 44
0.0000000001
 40
0.0
 40
0.0
 40
0.0
 40
0.0
 40
0.1282453638
 40
0.2146169864
 40
0.321985829
 40
0.6101725692
 40
1.0
 40
1.0
 40
1.0
 40
1.0
 10
105.070354424
 20
93.6986999474
 30
0.0
 10
105.070354424
 20
93.6294369375
 30
0.0
 10
105.0506914383
 20
93.5128930879
 30
0.0
 10
104.9840015446
 20
93.351869564
 30
0.0
 10
104.8528366538
 20
93.12605839
 30
0.0
 10
104.5615421934
 20
92.8110839466
 30
0.0
 10
104.25924479
 20
92.5997167046
 30
0.0
 10
104.076708489
 20
92.4948021081
 30
0.0
  0
SPLINE
  5
433
100
AcDbEntity
  8
KONSTRUKTIONSELEMENTE
100
AcDbSpline
 62
7
  6
CONTINUOUS
 70
0
 71
3
 72
12
 73
8
 74
0
 42
0.0000001
 43
0.0000001
 44
0.0000000001
 40
0.0
 40
0.0
 40
0.0
 40
0.0
 40
0.3898396094
 40
0.6780156338
 40
0.7853729626
 40
0.8717632718
 40
1.0
 40
1.0
 40
1.0
 40
1.0
 10
99.0639088229
 20
92.4948545792
 30
0.0
 10
98.8813815795
 20
92.5997699888
 30
0.0
 10
98.5791338158
 20
92.8111593265
 30
0.0
 10
98.2878288396
 20
93.126077244
 30
0.0
 10
98.1566906813
 20
93.351885706
 30
0.0
 10
98.0900448742
 20
93.5129114404
 30
0.0
 10
98.070354424
 20
93.629446215
 30
0.0
 10
98.070354424
 20
93.6986999474
 30
0.0
  0
SPLINE
  5
434
100
AcDbEntity
  8
KONSTRUKTIONSELEMENTE
100
AcDbSpline
 62
7
  6
CONTINUOUS
 70
0
 71
3
 72
14
 73
10
 74
0
 42
0.0000001
 43
0.0000001
 44
0.0000000001
 40
0.0
 40
0.0
 40
0.0
 40
0.0
 40
0.1196424727
 40
0.2395631224
 40
0.3606430533
 40
0.4833332762
 40
0.6083558391
 40
0.7361852119
 40
1.0
 40
1.0
 40
1.0
 40
1.0
 10
109.570354424
 20
93.6986999474
 30
0.0
 10
109.570354424
 20
93.3494862453
 30
0.0
 10
109.498255724
 20
92.6481476086
 30
0.0
 10
109.1799481266
 20
91.6379185074
 30
0.0
 10
108.6706473878
 20
90.6993806552
 30
0.0
 10
107.9922393774
 20
89.8567990581
 30
0.0
 10
107.1701732826
 20
89.124556566
 30
0.0
 10
105.9026757429
 20
88.2998829202
 30
0.0
 10
104.8200032816
 20
87.8828850957
 30
0.0
 10
104.0737787599
 20
87.6929166051
 30
0.0
  0
SPLINE
  5
435
100
AcDbEntity
  8
KONSTRUKTIONSELEMENTE
100
AcDbSpline
 62
7
  6
CONTINUOUS
 70
0
 71
3
 72
14
 73
10
 74
0
 42
0.0000001
 43
0.0000001
 44
0.0000000001
 40
0.0
 40
0.0
 40
0.0
 40
0.0
 40
0.2638203492
 40
0.3916464215
 40
0.5166578653
 40
0.6393440549
 40
0.7604112963
 40
0.8803567455
 40
1.0
 40
1.0
 40
1.0
 40
1.0
 10
99.0660266215
 20
87.6931637947
 30
0.0
 10
98.3198867992
 20
87.883198396
 30
0.0
 10
97.237353384
 20
88.3002241249
 30
0.0
 10
95.9700819371
 20
89.124905942
 30
0.0
 10
95.1482087595
 20
89.8571064282
 30
0.0
 10
94.4699642151
 20
90.6995574909
 30
0.0
 10
93.960656533
 20
91.637994786
 30
0.0
 10
93.6424974301
 20
92.6481936439
 30
0.0
 10
93.570354424
 20
93.3495211499
 30
0.0
 10
93.570354424
 20
93.6986999474
 30
0.0
  0
LINE
  5
436
100
AcDbEntity
  8
KONSTRUKTIONSELEMENTE
100
AcDbLine
 62
7
  6
CONTINUOUS
 10
97.8983409607
 20
141.0438167612
 11
97.9186988815
 21
141.0519461879
  0
SPLINE
  5
437
100
AcDbEntity
  8
KONSTRUKTIONSELEMENTE
100
AcDbSpline
 62
7
  6
CONTINUOUS
 70
0
 71
3
 72
9
 73
5
 74
0
 42
0.0000001
 43
0.0000001
 44
0.0000000001
 40
0.0
 40
0.0
 40
0.0
 40
0.0
 40
0.2401783802
 40
1.0
 40
1.0
 40
1.0
 40
1.0
 10
98.7855305743
 20
136.4427780044
 30
0.0
 10
98.8070438551
 20
136.4582763427
 30
0.0
 10
98.897462931
 20
136.5216242911
 30
0.0
 10
98.9912762081
 20
136.5800989309
 30
0.0
 10
99.064000359
 20
136.6218978766
 30
0.0
  0
SPLINE
  5
438
100
AcDbEntity
  8
KONSTRUKTIONSELEMENTE
100
AcDbSpline
 62
7
  6
CONTINUOUS
 70
0
 71
3
 72
9
 73
5
 74
0
 42
0.0000001
 43
0.0000001
 44
0.0000000001
 40
0.0
 40
0.0
 40
0.0
 40
0.0
 40
0.2597110025
 40
1.0
 40
1.0
 40
1.0
 40
1.0
 10
104.0768000251
 20
136.6218454055
 30
0.0
 10
104.1016482273
 20
136.6075628291
 30
0.0
 10
104.1966571291
 20
136.5514187872
 30
0.0
 10
104.2888794945
 20
136.4905349266
 30
0.0
 10
104.3551637546
 20
136.4427808331
 30
0.0
  0
SPLINE
  5
439
100
AcDbEntity
  8
KONSTRUKTIONSELEMENTE
100
AcDbSpline
 62
7
  6
CONTINUOUS
 70
0
 71
3
 72
14
 73
10
 74
0
 42
0.0000001
 43
0.0000001
 44
0.0000000001
 40
0.0
 40
0.0
 40
0.0
 40
0.0
 40
0.0551359094
 40
0.1223699656
 40
0.2074507274
 40
0.3149057254
 40
0.4478676734
 40
0.6082995934
 40
1.0
 40
1.0
 40
1.0
 40
1.0
 10
105.070354424
 20
124.8113983196
 30
0.0
 10
105.070354424
 20
124.7763233218
 30
0.0
 10
105.0642633603
 20
124.6983032526
 30
0.0
 10
105.0301139547
 20
124.5701109256
 30
0.0
 10
104.9613806609
 20
124.4191048999
 30
0.0
 10
104.8484872863
 20
124.2446513776
 30
0.0
 10
104.6798552067
 20
124.0522354654
 30
0.0
 10
104.3522420977
 20
123.7634629026
 30
0.0
 10
104.0471052856
 20
123.5816341553
 30
0.0
 10
103.8223463123
 20
123.4740460243
 30
0.0
  0
SPLINE
  5
43A
100
AcDbEntity
  8
KONSTRUKTIONSELEMENTE
100
AcDbSpline
 62
7
  6
CONTINUOUS
 70
0
 71
3
 72
14
 73
10
 74
0
 42
0.0000001
 43
0.0000001
 44
0.0000000001
 40
0.0
 40
0.0
 40
0.0
 40
0.0
 40
0.3917172299
 40
0.5521555057
 40
0.6851138818
 40
0.7925516428
 40
0.877642207
 40
0.9448879032
 40
1.0
 40
1.0
 40
1.0
 40
1.0
 10
99.3186051885
 20
123.4739340962
 30
0.0
 10
99.0937972825
 20
123.5815239968
 30
0.0
 10
98.7885958219
 20
123.7633733834
 30
0.0
 10
98.4609231739
 20
124.052185335
 30
0.0
 10
98.2922441439
 20
124.2445937264
 30
0.0
 10
98.1793305221
 20
124.4190629675
 30
0.0
 10
98.1106162292
 20
124.5701057763
 30
0.0
 10
98.0764609653
 20
124.6983115417
 30
0.0
 10
98.070354424
 20
124.7763336587
 30
0.0
 10
98.070354424
 20
124.8113983196
 30
0.0
  0
SPLINE
  5
43B
100
AcDbEntity
  8
KONSTRUKTIONSELEMENTE
100
AcDbSpline
 62
7
  6
CONTINUOUS
 70
0
 71
3
 72
11
 73
7
 74
0
 42
0.0000001
 43
0.0000001
 44
0.0000000001
 40
0.0
 40
0.0
 40
0.0
 40
0.0
 40
0.2385338003
 40
0.4831075981
 40
0.7368032203
 40
1.0
 40
1.0
 40
1.0
 40
1.0
 10
109.329152133
 20
123.2524243833
 30
0.0
 10
109.1517615599
 20
122.6895107382
 30
0.0
 10
108.5974131863
 20
121.6035685919
 30
0.0
 10
107.3104086896
 20
120.281296379
 30
0.0
 10
105.6832818193
 20
119.2975431552
 30
0.0
 10
104.4595678335
 20
118.8896532592
 30
0.0
 10
103.8244667445
 20
118.7456321989
 30
0.0
  0
SPLINE
  5
43C
100
AcDbEntity
  8
KONSTRUKTIONSELEMENTE
100
AcDbSpline
 62
7
  6
CONTINUOUS
 70
0
 71
3
 72
11
 73
7
 74
0
 42
0.0000001
 43
0.0000001
 44
0.0000000001
 40
0.0
 40
0.0
 40
0.0
 40
0.0
 40
0.2632172474
 40
0.5169134065
 40
0.7614766644
 40
1.0
 40
1.0
 40
1.0
 40
1.0
 10
99.3181836452
 20
118.7452009866
 30
0.0
 10
98.6828350227
 20
118.8891723547
 30
0.0
 10
97.4586480699
 20
119.2969316098
 30
0.0
 10
95.8309030423
 20
120.2807634901
 30
0.0
 10
94.5435019978
 20
121.6032800985
 30
0.0
 10
93.9889226623
 20
122.6894432114
 30
0.0
 10
93.8115307219
 20
123.2525000877
 30
0.0
  0
SPLINE
  5
43D
100
AcDbEntity
  8
0
100
AcDbSpline
 62
7
  6
CONTINUOUS
 70
0
 71
3
 72
12
 73
8
 74
0
 42
0.0000001
 43
0.0000001
 44
0.0000000001
 40
0.0
 40
0.0
 40
0.0
 40
0.0
 40
0.1089727213
 40
0.2201620805
 40
0.4554253
 40
0.7155329149
 40
1.0
 40
1.0
 40
1.0
 40
1.0
 10
110.3254736242
 20
68.6954041646
 30
0.0
 10
110.3254736242
 20
68.7816537195
 30
0.0
 10
110.307336678
 20
68.9564264796
 30
0.0
 10
110.1983228567
 20
69.3021994901
 30
0.0
 10
109.9222041915
 20
69.7083351089
 30
0.0
 10
109.4281945912
 20
70.0907396765
 30
0.0
 10
109.027768142
 20
70.2624905126
 30
0.0
 10
108.8126109663
 20
70.3288208292
 30
0.0
  0
SPLINE
  5
43E
100
AcDbEntity
  8
0
100
AcDbSpline
 62
7
  6
CONTINUOUS
 70
0
 71
3
 72
19
 73
15
 74
0
 42
0.0000001
 43
0.0000001
 44
0.0000000001
 40
0.0
 40
0.0
 40
0.0
 40
0.0
 40
0.0517123707
 40
0.1053415175
 40
0.1622467977
 40
0.2232148443
 40
0.3564757697
 40
0.5
 40
0.6435242303
 40
0.7767851557
 40
0.8377532023
 40
0.8946584825
 40
0.9482876293
 40
1.0
 40
1.0
 40
1.0
 40
1.0
 10
102.4814745637
 20
68.2562210247
 30
0.0
 10
102.4814745637
 20
68.2036705927
 30
0.0
 10
102.4967651669
 20
68.0960844873
 30
0.0
 10
102.5634650249
 20
67.9434001011
 30
0.0
 10
102.6705911669
 20
67.8039834902
 30
0.0
 10
102.8662546615
 20
67.6377454938
 30
0.0
 10
103.185355144
 20
67.4936071525
 30
0.0
 10
103.6137151719
 20
67.4359008941
 30
0.0
 10
104.0420751998
 20
67.4936071525
 30
0.0
 10
104.3611756823
 20
67.6377454938
 30
0.0
 10
104.5568391769
 20
67.8039834902
 30
0.0
 10
104.6639653189
 20
67.9434001011
 30
0.0
 10
104.7306651769
 20
68.0960844873
 30
0.0
 10
104.7459557801
 20
68.2036705927
 30
0.0
 10
104.7459557801
 20
68.2562210247
 30
0.0
  0
SPLINE
  5
43F
100
AcDbEntity
  8
0
100
AcDbSpline
 62
7
  6
CONTINUOUS
 70
0
 71
3
 72
13
 73
9
 74
0
 42
0.0000001
 43
0.0000001
 44
0.0000000001
 40
0.0
 40
0.0
 40
0.0
 40
0.0
 40
0.1034557072
 40
0.2106700021
 40
0.3244995741
 40
0.4464358475
 40
0.7129373538
 40
1.0
 40
1.0
 40
1.0
 40
1.0
 10
101.0373720247
 20
69.50459502
 30
0.0
 10
101.0373636966
 20
69.560110388
 30
0.0
 10
101.021193794
 20
69.6737281718
 30
0.0
 10
100.9506606983
 20
69.8349372785
 30
0.0
 10
100.8375554291
 20
69.9821762004
 30
0.0
 10
100.6308400962
 20
70.1576872436
 30
0.0
 10
100.2940784615
 20
70.3099277452
 30
0.0
 10
99.9955152545
 20
70.3500340326
 30
0.0
 10
99.8414745637
 20
70.3500340326
 30
0.0
  0
SPLINE
  5
440
100
AcDbEntity
  8
0
100
AcDbSpline
 62
7
  6
CONTINUOUS
 70
0
 71
3
 72
11
 73
7
 74
0
 42
0.0000001
 43
0.0000001
 44
0.0000000001
 40
0.0
 40
0.0
 40
0.0
 40
0.0
 40
0.2092798753
 40
0.444592951
 40
0.7123432609
 40
1.0
 40
1.0
 40
1.0
 40
1.0
 10
94.4829937828
 20
68.3008385807
 30
0.0
 10
94.4829937828
 20
68.2940991612
 30
0.0
 10
94.4874123
 20
68.279631296
 30
0.0
 10
94.504134045
 20
68.262975691
 30
0.0
 10
94.5277454701
 20
68.2523885077
 30
0.0
 10
94.5457304008
 20
68.2499268925
 30
0.0
 10
94.5549937828
 20
68.2499268925
 30
0.0
  0
SPLINE
  5
441
100
AcDbEntity
  8
0
100
AcDbSpline
 62
7
  6
CONTINUOUS
 70
0
 71
3
 72
11
 73
7
 74
0
 42
0.0000001
 43
0.0000001
 44
0.0000000001
 40
0.0
 40
0.0
 40
0.0
 40
0.0
 40
0.2092798753
 40
0.444592951
 40
0.7123432609
 40
1.0
 40
1.0
 40
1.0
 40
1.0
 10
94.9779937828
 20
68.3262944248
 30
0.0
 10
94.9779937828
 20
68.3330338443
 30
0.0
 10
94.9735752656
 20
68.3475017096
 30
0.0
 10
94.9568535207
 20
68.3641573145
 30
0.0
 10
94.9332420956
 20
68.3747444979
 30
0.0
 10
94.9152571649
 20
68.3772061131
 30
0.0
 10
94.9059937828
 20
68.3772061131
 30
0.0
  0
SPLINE
  5
442
100
AcDbEntity
  8
0
100
AcDbSpline
 62
7
  6
CONTINUOUS
 70
0
 71
3
 72
11
 73
7
 74
0
 42
0.0000001
 43
0.0000001
 44
0.0000000001
 40
0.0
 40
0.0
 40
0.0
 40
0.0
 40
0.2092798753
 40
0.444592951
 40
0.7123432609
 40
1.0
 40
1.0
 40
1.0
 40
1.0
 10
94.9779937828
 20
69.599086631
 30
0.0
 10
94.9779937828
 20
69.6058260505
 30
0.0
 10
94.9735752656
 20
69.6202939157
 30
0.0
 10
94.9568535207
 20
69.6369495207
 30
0.0
 10
94.9332420956
 20
69.647536704
 30
0.0
 10
94.9152571649
 20
69.6499983192
 30
0.0
 10
94.9059937828
 20
69.6499983192
 30
0.0
  0
SPLINE
  5
443
100
AcDbEntity
  8
0
100
AcDbSpline
 62
7
  6
CONTINUOUS
 70
0
 71
3
 72
11
 73
7
 74
0
 42
0.0000001
 43
0.0000001
 44
0.0000000001
 40
0.0
 40
0.0
 40
0.0
 40
0.0
 40
0.2094668498
 40
0.4446559298
 40
0.7120302568
 40
1.0
 40
1.0
 40
1.0
 40
1.0
 10
93.9879937828
 20
68.9499626058
 30
0.0
 10
93.9879937828
 20
68.933096561
 30
0.0
 10
93.9989470606
 20
68.8968691929
 30
0.0
 10
94.040891053
 20
68.8553832851
 30
0.0
 10
94.0998095471
 20
68.8287455038
 30
0.0
 10
94.1448067697
 20
68.8226833852
 30
0.0
 10
94.1679937828
 20
68.8226833852
 30
0.0
  0
SPLINE
  5
444
100
AcDbEntity
  8
0
100
AcDbSpline
 62
7
  6
CONTINUOUS
 70
0
 71
3
 72
11
 73
7
 74
0
 42
0.0000001
 43
0.0000001
 44
0.0000000001
 40
0.0
 40
0.0
 40
0.0
 40
0.0
 40
0.2094668498
 40
0.4446559298
 40
0.7120302568
 40
1.0
 40
1.0
 40
1.0
 40
1.0
 10
93.9879937828
 20
67.6771703997
 30
0.0
 10
93.9879937828
 20
67.6603043549
 30
0.0
 10
93.9989470606
 20
67.6240769868
 30
0.0
 10
94.040891053
 20
67.582591079
 30
0.0
 10
94.0998095471
 20
67.5559532977
 30
0.0
 10
94.1448067697
 20
67.5498911791
 30
0.0
 10
94.1679937828
 20
67.5498911791
 30
0.0
  0
SPLINE
  5
445
100
AcDbEntity
  8
0
100
AcDbSpline
 62
7
  6
CONTINUOUS
 70
0
 71
3
 72
9
 73
5
 74
0
 42
0.0000001
 43
0.0000001
 44
0.0000000001
 40
0.0
 40
0.0
 40
0.0
 40
0.0
 40
0.4873302954
 40
1.0
 40
1.0
 40
1.0
 40
1.0
 10
96.4179937828
 20
70.0954755914
 30
0.0
 10
96.4179937828
 20
70.1155488804
 30
0.0
 10
96.4108609702
 20
70.1569925719
 30
0.0
 10
96.3911026715
 20
70.1939108812
 30
0.0
 10
96.3787567529
 20
70.2110429312
 30
0.0
  0
SPLINE
  5
446
100
AcDbEntity
  8
0
100
AcDbSpline
 62
7
  6
CONTINUOUS
 70
0
 71
3
 72
9
 73
5
 74
0
 42
0.0000001
 43
0.0000001
 44
0.0000000001
 40
0.0
 40
0.0
 40
0.0
 40
0.0
 40
0.4654299385
 40
1.0
 40
1.0
 40
1.0
 40
1.0
 10
96.3787567529
 20
70.2110429312
 30
0.0
 10
96.3462096493
 20
70.2562075416
 30
0.0
 10
96.24268062
 20
70.328521205
 30
0.0
 10
96.1219336949
 20
70.3500340326
 30
0.0
 10
96.0579937828
 20
70.3500340326
 30
0.0
  0
SPLINE
  5
447
100
AcDbEntity
  8
RUNDUNGEN
100
AcDbSpline
 62
7
  6
CONTINUOUS
 70
0
 71
3
 72
11
 73
7
 74
0
 42
0.0000001
 43
0.0000001
 44
0.0000000001
 40
0.0
 40
0.0
 40
0.0
 40
0.0
 40
0.2256934588
 40
0.4632957354
 40
0.7206235605
 40
1.0
 40
1.0
 40
1.0
 40
1.0
 10
82.2210558206
 20
72.790118573
 30
0.0
 10
82.2210880382
 20
72.8412416601
 30
0.0
 10
82.2396782715
 20
72.946921275
 30
0.0
 10
82.3192776126
 20
73.0921871042
 30
0.0
 10
82.4439402431
 20
73.2182173293
 30
0.0
 10
82.5481174408
 20
73.2829896476
 30
0.0
 10
82.6048298304
 20
73.3110691709
 30
0.0
  0
SPLINE
  5
448
100
AcDbEntity
  8
RUNDUNGEN
100
AcDbSpline
 62
7
  6
CONTINUOUS
 70
0
 71
3
 72
9
 73
5
 74
0
 42
0.0000001
 43
0.0000001
 44
0.0000000001
 40
0.0
 40
0.0
 40
0.0
 40
0.0
 40
0.4805181646
 40
1.0
 40
1.0
 40
1.0
 40
1.0
 10
82.2210550451
 20
69.2545593545
 30
0.0
 10
82.2210181354
 20
69.1892274637
 30
0.0
 10
82.2520640012
 20
69.0519839099
 30
0.0
 10
82.3341146534
 20
68.9393950899
 30
0.0
 10
82.3838117833
 20
68.8892082873
 30
0.0
  0
SPLINE
  5
449
100
AcDbEntity
  8
RUNDUNGEN
100
AcDbSpline
 62
7
  6
CONTINUOUS
 70
0
 71
3
 72
11
 73
7
 74
0
 42
0.0000001
 43
0.0000001
 44
0.0000000001
 40
0.0
 40
0.0
 40
0.0
 40
0.0
 40
0.2256919297
 40
0.4632773963
 40
0.7205986282
 40
1.0
 40
1.0
 40
1.0
 40
1.0
 10
75.8187167901
 20
79.7229918404
 30
0.0
 10
75.8186838909
 20
79.8935174509
 30
0.0
 10
75.8803514077
 20
80.2460740922
 30
0.0
 10
76.1455907435
 20
80.7307794061
 30
0.0
 10
76.5613031966
 20
81.1512948982
 30
0.0
 10
76.9087986689
 20
81.3673883609
 30
0.0
 10
77.0979860254
 20
81.4610590883
 30
0.0
  0
SPLINE
  5
44A
100
AcDbEntity
  8
RUNDUNGEN
100
AcDbSpline
 62
7
  6
CONTINUOUS
 70
0
 71
3
 72
10
 73
6
 74
0
 42
0.0000001
 43
0.0000001
 44
0.0000000001
 40
0.0
 40
0.0
 40
0.0
 40
0.0
 40
0.2382860828
 40
0.4819052527
 40
1.0
 40
1.0
 40
1.0
 40
1.0
 10
75.8187167901
 20
76.1874579345
 30
0.0
 10
75.8187376583
 20
76.0792917629
 30
0.0
 10
75.8428819488
 20
75.8597849221
 30
0.0
 10
75.9871223964
 20
75.4266696574
 30
0.0
 10
76.1957784699
 20
75.1382131598
 30
0.0
 10
76.3612592016
 20
74.9711019233
 30
0.0
  0
SPLINE
  5
44B
100
AcDbEntity
  8
RUNDUNGEN
100
AcDbSpline
 62
7
  6
CONTINUOUS
 70
0
 71
3
 72
11
 73
7
 74
0
 42
0.0000001
 43
0.0000001
 44
0.0000000001
 40
0.0
 40
0.0
 40
0.0
 40
0.0
 40
0.237780559
 40
0.4809056754
 40
0.7339193747
 40
1.0
 40
1.0
 40
1.0
 40
1.0
 10
110.8819732554
 20
56.9104365353
 30
0.0
 10
110.8819732669
 20
57.2350236531
 30
0.0
 10
110.9539791262
 20
57.8935899233
 30
0.0
 10
111.2732509696
 20
58.8504284512
 30
0.0
 10
111.7940187009
 20
59.7582951143
 30
0.0
 10
112.2540326384
 20
60.3025639465
 30
0.0
 10
112.5096048568
 20
60.5606543538
 30
0.0
  0
SPLINE
  5
44C
100
AcDbEntity
  8
RUNDUNGEN
100
AcDbSpline
 62
7
  6
CONTINUOUS
 70
0
 71
3
 72
9
 73
5
 74
0
 42
0.0000001
 43
0.0000001
 44
0.0000000001
 40
0.0
 40
0.0
 40
0.0
 40
0.0
 40
0.4865850801
 40
1.0
 40
1.0
 40
1.0
 40
1.0
 10
111.2366190507
 20
58.6771101884
 30
0.0
 10
111.376811034
 20
58.334465601
 30
0.0
 10
111.7439166946
 20
57.6608790747
 30
0.0
 10
112.2347464039
 20
57.0733187534
 30
0.0
 10
112.5096048568
 20
56.7957520816
 30
0.0
  0
SPLINE
  5
44D
100
AcDbEntity
  8
RUNDUNGEN
100
AcDbSpline
 62
7
  6
CONTINUOUS
 70
0
 71
3
 72
10
 73
6
 74
0
 42
0.0000001
 43
0.0000001
 44
0.0000000001
 40
0.0
 40
0.0
 40
0.0
 40
0.0
 40
0.2382826319
 40
0.4819247904
 40
1.0
 40
1.0
 40
1.0
 40
1.0
 10
81.170354424
 20
46.5729346883
 30
0.0
 10
81.170354424
 20
46.6811296605
 30
0.0
 10
81.1944265882
 20
46.9007166668
 30
0.0
 10
81.338682722
 20
47.3339684709
 30
0.0
 10
81.5473773462
 20
47.6225222053
 30
0.0
 10
81.7128982911
 20
47.7896740513
 30
0.0
  0
SPLINE
  5
44E
100
AcDbEntity
  8
BEZUGSACHSEN
100
AcDbSpline
 62
7
  6
CONTINUOUS
 70
0
 71
3
 72
9
 73
5
 74
0
 42
0.0000001
 43
0.0000001
 44
0.0000000001
 40
0.0
 40
0.0
 40
0.0
 40
0.0
 40
0.243640565
 40
1.0
 40
1.0
 40
1.0
 40
1.0
 10
98.4497454408
 20
75.30865912
 30
0.0
 10
98.49323087
 20
75.2703104933
 30
0.0
 10
98.6758611856
 20
75.1176455107
 30
0.0
 10
98.8741153868
 20
74.9839563983
 30
0.0
 10
99.0297088075
 20
74.8934711902
 30
0.0
  0
SPLINE
  5
44F
100
AcDbEntity
  8
BEZUGSACHSEN
100
AcDbSpline
 62
7
  6
CONTINUOUS
 70
0
 71
3
 72
9
 73
5
 74
0
 42
0.0000001
 43
0.0000001
 44
0.0000000001
 40
0.0
 40
0.0
 40
0.0
 40
0.0
 40
0.2565853179
 40
1.0
 40
1.0
 40
1.0
 40
1.0
 10
104.1110000405
 20
74.8934711902
 30
0.0
 10
104.1637814102
 20
74.9241661463
 30
0.0
 10
104.3667330794
 20
75.048426569
 30
0.0
 10
104.5582816694
 20
75.1916506756
 30
0.0
 10
104.6909634072
 20
75.30865912
 30
0.0
  0
SPLINE
  5
450
100
AcDbEntity
  8
BEZUGSACHSEN
100
AcDbSpline
 62
7
  6
CONTINUOUS
 70
0
 71
3
 72
11
 73
7
 74
0
 42
0.0000001
 43
0.0000001
 44
0.0000000001
 40
0.0
 40
0.0
 40
0.0
 40
0.0
 40
0.2279232111
 40
0.4663851525
 40
0.7228056147
 40
1.0
 40
1.0
 40
1.0
 40
1.0
 10
105.570354424
 20
73.5425505176
 30
0.0
 10
105.570354424
 20
73.7543619918
 30
0.0
 10
105.4994395674
 20
74.1905439194
 30
0.0
 10
105.1923555314
 20
74.7979322855
 30
0.0
 10
104.7068048719
 20
75.3357987441
 30
0.0
 10
104.2967568112
 20
75.6221044462
 30
0.0
 10
104.0726773306
 20
75.7491713307
 30
0.0
  0
SPLINE
  5
451
100
AcDbEntity
  8
BEZUGSACHSEN
100
AcDbSpline
 62
7
  6
CONTINUOUS
 70
0
 71
3
 72
11
 73
7
 74
0
 42
0.0000001
 43
0.0000001
 44
0.0000000001
 40
0.0
 40
0.0
 40
0.0
 40
0.0
 40
0.2771943853
 40
0.5336148475
 40
0.7720767889
 40
1.0
 40
1.0
 40
1.0
 40
1.0
 10
99.0680315174
 20
75.7491713307
 30
0.0
 10
98.8439520368
 20
75.6221044462
 30
0.0
 10
98.4339039761
 20
75.3357987441
 30
0.0
 10
97.9483533166
 20
74.7979322855
 30
0.0
 10
97.6412692806
 20
74.1905439194
 30
0.0
 10
97.570354424
 20
73.7543619918
 30
0.0
 10
97.570354424
 20
73.5425505176
 30
0.0
  0
SPLINE
  5
452
100
AcDbEntity
  8
RUNDUNGEN
100
AcDbSpline
 62
7
  6
CONTINUOUS
 70
0
 71
3
 72
10
 73
6
 74
0
 42
0.0000001
 43
0.0000001
 44
0.0000000001
 40
0.0
 40
0.0
 40
0.0
 40
0.0
 40
0.5180750537
 40
0.7617172794
 40
1.0
 40
1.0
 40
1.0
 40
1.0
 10
121.4278105569
 20
47.7896740513
 30
0.0
 10
121.5933314523
 20
47.6225222553
 30
0.0
 10
121.8020260651
 20
47.3339685714
 30
0.0
 10
121.9462822373
 20
46.9007167783
 30
0.0
 10
121.970354424
 20
46.6811297009
 30
0.0
 10
121.970354424
 20
46.5729346883
 30
0.0
  0
SPLINE
  5
453
100
AcDbEntity
  8
RUNDUNGEN
100
AcDbSpline
 62
7
  6
CONTINUOUS
 70
0
 71
3
 72
11
 73
7
 74
0
 42
0.0000001
 43
0.0000001
 44
0.0000000001
 40
0.0
 40
0.0
 40
0.0
 40
0.0
 40
0.2793753354
 40
0.5367191876
 40
0.7743210397
 40
1.0
 40
1.0
 40
1.0
 40
1.0
 10
127.6810269112
 20
80.649899513
 30
0.0
 10
127.7440414366
 20
80.6186996667
 30
0.0
 10
127.8597984672
 20
80.5467267254
 30
0.0
 10
127.9983171253
 20
80.406687385
 30
0.0
 10
128.0867567534
 20
80.2452747781
 30
0.0
 10
128.1074092675
 20
80.1278545206
 30
0.0
 10
128.1074432508
 20
80.0710538296
 30
0.0
  0
SPLINE
  5
454
100
AcDbEntity
  8
RUNDUNGEN
100
AcDbSpline
 62
7
  6
CONTINUOUS
 70
0
 71
3
 72
11
 73
7
 74
0
 42
0.0000001
 43
0.0000001
 44
0.0000000001
 40
0.0
 40
0.0
 40
0.0
 40
0.0
 40
0.2297149365
 40
0.4842569271
 40
0.747560856
 40
1.0
 40
1.0
 40
1.0
 40
1.0
 10
121.7829621869
 20
82.7069401675
 30
0.0
 10
121.8627914638
 20
82.7875560135
 30
0.0
 10
122.0691141169
 20
82.9206725315
 30
0.0
 10
122.4307268789
 20
83.015597872
 30
0.0
 10
122.8155173554
 20
83.0102076217
 30
0.0
 10
123.0639595382
 20
82.9359088294
 30
0.0
 10
123.1756906676
 20
82.8805883452
 30
0.0
  0
SPLINE
  5
455
100
AcDbEntity
  8
0
100
AcDbSpline
 62
7
  6
CONTINUOUS
 70
0
 71
3
 72
9
 73
5
 74
0
 42
0.0000001
 43
0.0000001
 44
0.0000000001
 40
0.0
 40
0.0
 40
0.0
 40
0.0
 40
0.2432212797
 40
1.0
 40
1.0
 40
1.0
 40
1.0
 10
106.7325423512
 20
80.4526584805
 30
0.0
 10
106.528156656
 20
80.5538542322
 30
0.0
 10
105.6732896771
 20
80.9402202568
 30
0.0
 10
104.7672623572
 20
81.2105218911
 30
0.0
 10
104.0720430996
 20
81.3527730278
 30
0.0
  0
SPLINE
  5
456
100
AcDbEntity
  8
0
100
AcDbSpline
 62
7
  6
CONTINUOUS
 70
0
 71
3
 72
9
 73
5
 74
0
 42
0.0000001
 43
0.0000001
 44
0.0000000001
 40
0.0
 40
0.0
 40
0.0
 40
0.0
 40
0.2565045474
 40
1.0
 40
1.0
 40
1.0
 40
1.0
 10
99.0686657484
 20
81.3527730278
 30
0.0
 10
98.8330387565
 20
81.3045606012
 30
0.0
 10
97.9204362725
 20
81.089106726
 30
0.0
 10
97.0329137166
 20
80.7619842602
 30
0.0
 10
96.4081664968
 20
80.4526584805
 30
0.0
  0
SPLINE
  5
457
100
AcDbEntity
  8
RUNDUNGEN
100
AcDbSpline
 62
7
  6
CONTINUOUS
 70
0
 71
3
 72
13
 73
9
 74
0
 42
0.0000001
 43
0.0000001
 44
0.0000000001
 40
0.0
 40
0.0
 40
0.0
 40
0.0
 40
0.2520973387
 40
0.3837531395
 40
0.5156914498
 40
0.6454036081
 40
0.7706002201
 40
1.0
 40
1.0
 40
1.0
 40
1.0
 10
77.9171380697
 20
81.866638876
 30
0.0
 10
78.810976883
 20
82.3091976886
 30
0.0
 10
80.2949322073
 20
82.752688175
 30
0.0
 10
82.3313459732
 20
82.9241970553
 30
0.0
 10
83.890558797
 20
82.8409749984
 30
0.0
 10
85.3984774304
 20
82.5452660181
 30
0.0
 10
87.2071800826
 20
81.9051704773
 30
0.0
 10
88.4203504725
 20
81.1223612644
 30
0.0
 10
89.0589659148
 20
80.4774534546
 30
0.0
  0
SPLINE
  5
458
100
AcDbEntity
  8
0
100
AcDbSpline
 62
7
  6
CONTINUOUS
 70
0
 71
3
 72
11
 73
7
 74
0
 42
0.0000001
 43
0.0000001
 44
0.0000000001
 40
0.0
 40
0.0
 40
0.0
 40
0.0
 40
0.2880052506
 40
0.5553344723
 40
0.7905070702
 40
1.0
 40
1.0
 40
1.0
 40
1.0
 10
93.1779937828
 20
70.3500340326
 30
0.0
 10
93.1316143633
 20
70.3500340326
 30
0.0
 10
93.0416168119
 20
70.3379190429
 30
0.0
 10
92.9238049264
 20
70.2846120245
 30
0.0
 10
92.8398954181
 20
70.2016733378
 30
0.0
 10
92.8179937828
 20
70.1292116446
 30
0.0
 10
92.8179937828
 20
70.0954755914
 30
0.0
  0
SPLINE
  5
459
100
AcDbEntity
  8
0
100
AcDbSpline
 62
7
  6
CONTINUOUS
 70
0
 71
3
 72
11
 73
7
 74
0
 42
0.0000001
 43
0.0000001
 44
0.0000000001
 40
0.0
 40
0.0
 40
0.0
 40
0.0
 40
0.2879697432
 40
0.5553440702
 40
0.7905331502
 40
1.0
 40
1.0
 40
1.0
 40
1.0
 10
95.0679937828
 20
68.8226833852
 30
0.0
 10
95.091180796
 20
68.8226833852
 30
0.0
 10
95.1361780186
 20
68.8287455038
 30
0.0
 10
95.1950965127
 20
68.8553832851
 30
0.0
 10
95.237040505
 20
68.8968691929
 30
0.0
 10
95.2479937828
 20
68.933096561
 30
0.0
 10
95.2479937828
 20
68.9499626058
 30
0.0
  0
SPLINE
  5
45A
100
AcDbEntity
  8
0
100
AcDbSpline
 62
7
  6
CONTINUOUS
 70
0
 71
3
 72
11
 73
7
 74
0
 42
0.0000001
 43
0.0000001
 44
0.0000000001
 40
0.0
 40
0.0
 40
0.0
 40
0.0
 40
0.2879697432
 40
0.5553440702
 40
0.7905331502
 40
1.0
 40
1.0
 40
1.0
 40
1.0
 10
95.0679937828
 20
67.5498911791
 30
0.0
 10
95.091180796
 20
67.5498911791
 30
0.0
 10
95.1361780186
 20
67.5559532977
 30
0.0
 10
95.1950965127
 20
67.582591079
 30
0.0
 10
95.237040505
 20
67.6240769868
 30
0.0
 10
95.2479937828
 20
67.6603043549
 30
0.0
 10
95.2479937828
 20
67.6771703997
 30
0.0
  0
SPLINE
  5
45B
100
AcDbEntity
  8
0
100
AcDbSpline
 62
7
  6
CONTINUOUS
 70
0
 71
3
 72
11
 73
7
 74
0
 42
0.0000001
 43
0.0000001
 44
0.0000000001
 40
0.0
 40
0.0
 40
0.0
 40
0.0
 40
0.2876567391
 40
0.555407049
 40
0.7907201247
 40
1.0
 40
1.0
 40
1.0
 40
1.0
 10
94.3299937828
 20
69.6499983192
 30
0.0
 10
94.3207304008
 20
69.6499983192
 30
0.0
 10
94.3027454701
 20
69.647536704
 30
0.0
 10
94.279134045
 20
69.6369495207
 30
0.0
 10
94.2624123
 20
69.6202939157
 30
0.0
 10
94.2579937828
 20
69.6058260505
 30
0.0
 10
94.2579937828
 20
69.599086631
 30
0.0
  0
SPLINE
  5
45C
100
AcDbEntity
  8
0
100
AcDbSpline
 62
7
  6
CONTINUOUS
 70
0
 71
3
 72
11
 73
7
 74
0
 42
0.0000001
 43
0.0000001
 44
0.0000000001
 40
0.0
 40
0.0
 40
0.0
 40
0.0
 40
0.2876567391
 40
0.555407049
 40
0.7907201247
 40
1.0
 40
1.0
 40
1.0
 40
1.0
 10
94.3299937828
 20
68.3772061131
 30
0.0
 10
94.3207304008
 20
68.3772061131
 30
0.0
 10
94.3027454701
 20
68.3747444979
 30
0.0
 10
94.279134045
 20
68.3641573145
 30
0.0
 10
94.2624123
 20
68.3475017096
 30
0.0
 10
94.2579937828
 20
68.3330338443
 30
0.0
 10
94.2579937828
 20
68.3262944248
 30
0.0
  0
SPLINE
  5
45D
100
AcDbEntity
  8
0
100
AcDbSpline
 62
7
  6
CONTINUOUS
 70
0
 71
3
 72
11
 73
7
 74
0
 42
0.0000001
 43
0.0000001
 44
0.0000000001
 40
0.0
 40
0.0
 40
0.0
 40
0.0
 40
0.2876567391
 40
0.555407049
 40
0.7907201247
 40
1.0
 40
1.0
 40
1.0
 40
1.0
 10
94.6809937828
 20
68.2499268925
 30
0.0
 10
94.6902571649
 20
68.2499268925
 30
0.0
 10
94.7082420956
 20
68.2523885077
 30
0.0
 10
94.7318535207
 20
68.262975691
 30
0.0
 10
94.7485752656
 20
68.279631296
 30
0.0
 10
94.7529937828
 20
68.2940991612
 30
0.0
 10
94.7529937828
 20
68.3008385807
 30
0.0
  0
SPLINE
  5
45E
100
AcDbEntity
  8
0
100
AcDbSpline
 62
7
  6
CONTINUOUS
 70
0
 71
3
 72
12
 73
8
 74
0
 42
0.0000001
 43
0.0000001
 44
0.0000000001
 40
0.0
 40
0.0
 40
0.0
 40
0.0
 40
0.2874600855
 40
0.5543011876
 40
0.7890519721
 40
0.8964084757
 40
1.0
 40
1.0
 40
1.0
 40
1.0
 10
99.8414745637
 20
69.0448563019
 30
0.0
 10
99.9252007505
 20
69.0448563019
 30
0.0
 10
100.0876599004
 20
69.0668734923
 30
0.0
 10
100.3004036113
 20
69.1625310386
 30
0.0
 10
100.430098241
 20
69.2922806309
 30
0.0
 10
100.4826086855
 20
69.4124767064
 30
0.0
 10
100.4913633693
 20
69.474232746
 30
0.0
 10
100.4913633693
 20
69.504405016
 30
0.0
  0
SPLINE
  5
45F
100
AcDbEntity
  8
0
100
AcDbSpline
 62
7
  6
CONTINUOUS
 70
0
 71
3
 72
9
 73
5
 74
0
 42
0.0000001
 43
0.0000001
 44
0.0000000001
 40
0.0
 40
0.0
 40
0.0
 40
0.0
 40
0.2457811574
 40
1.0
 40
1.0
 40
1.0
 40
1.0
 10
108.8126109663
 20
70.3288208292
 30
0.0
 10
108.8012011466
 20
70.3323383365
 30
0.0
 10
108.7542216615
 20
70.344797915
 30
0.0
 10
108.7053749548
 20
70.3500340326
 30
0.0
 10
108.6687360206
 20
70.3500340326
 30
0.0
  0
SPLINE
  5
460
100
AcDbEntity
  8
0
100
AcDbSpline
 62
7
  6
CONTINUOUS
 70
0
 71
3
 72
11
 73
7
 74
0
 42
0.0000001
 43
0.0000001
 44
0.0000000001
 40
0.0
 40
0.0
 40
0.0
 40
0.0
 40
0.2779817175
 40
0.5346952233
 40
0.772857858
 40
1.0
 40
1.0
 40
1.0
 40
1.0
 10
108.7907973506
 20
67.4912655987
 30
0.0
 10
108.9169803003
 20
67.559593754
 30
0.0
 10
109.1481680615
 20
67.7147258129
 30
0.0
 10
109.4228988238
 20
68.0095929297
 30
0.0
 10
109.5971657483
 20
68.3448498608
 30
0.0
 10
109.6375132372
 20
68.5866378212
 30
0.0
 10
109.6375132372
 20
68.703889446
 30
0.0
  0
SPLINE
  5
461
100
AcDbEntity
  8
0
100
AcDbSpline
 62
7
  6
CONTINUOUS
 70
0
 71
3
 72
9
 73
5
 74
0
 42
0.0000001
 43
0.0000001
 44
0.0000000001
 40
0.0
 40
0.0
 40
0.0
 40
0.0
 40
0.2591205677
 40
1.0
 40
1.0
 40
1.0
 40
1.0
 10
108.6813579074
 20
67.4650383653
 30
0.0
 10
108.6911317549
 20
67.4650383653
 30
0.0
 10
108.7287839075
 20
67.4671955273
 30
0.0
 10
108.7662234273
 20
67.4779588021
 30
0.0
 10
108.7907973506
 20
67.4912655987
 30
0.0
  0
SPLINE
  5
462
100
AcDbEntity
  8
RUNDUNGEN
100
AcDbSpline
 62
7
  6
CONTINUOUS
 70
0
 71
3
 72
11
 73
7
 74
0
 42
0.0000001
 43
0.0000001
 44
0.0000000001
 40
0.0
 40
0.0
 40
0.0
 40
0.0
 40
0.2880068215
 40
0.5553366529
 40
0.7905059061
 40
1.0
 40
1.0
 40
1.0
 40
1.0
 10
85.370354424
 20
37.3422894868
 30
0.0
 10
85.4090041562
 20
37.3422894868
 30
0.0
 10
85.4840023158
 20
37.352385696
 30
0.0
 10
85.5821790507
 20
37.3968077202
 30
0.0
 10
85.6521029303
 20
37.4659236153
 30
0.0
 10
85.670354424
 20
37.5263079835
 30
0.0
 10
85.670354424
 20
37.5544215212
 30
0.0
  0
SPLINE
  5
463
100
AcDbEntity
  8
RUNDUNGEN
100
AcDbSpline
 62
7
  6
CONTINUOUS
 70
0
 71
3
 72
13
 73
9
 74
0
 42
0.0000001
 43
0.0000001
 44
0.0000000001
 40
0.0
 40
0.0
 40
0.0
 40
0.0
 40
0.1034546555
 40
0.2106690395
 40
0.3244963599
 40
0.4464318111
 40
0.7129511617
 40
1.0
 40
1.0
 40
1.0
 40
1.0
 10
81.170354424
 20
39.4636098304
 30
0.0
 10
81.170354424
 20
39.3243301765
 30
0.0
 10
81.2107738522
 20
39.039262574
 30
0.0
 10
81.3876469584
 20
38.6347615653
 30
0.0
 10
81.6713699122
 20
38.2653301486
 30
0.0
 10
82.1899566525
 20
37.8249206279
 30
0.0
 10
83.034840987
 20
37.4429159089
 30
0.0
 10
83.7839043154
 20
37.3422894868
 30
0.0
 10
84.170354424
 20
37.3422894868
 30
0.0
  0
SPLINE
  5
464
100
AcDbEntity
  8
RUNDUNGEN
100
AcDbSpline
 62
7
  6
CONTINUOUS
 70
0
 71
3
 72
11
 73
7
 74
0
 42
0.0000001
 43
0.0000001
 44
0.0000000001
 40
0.0
 40
0.0
 40
0.0
 40
0.0
 40
0.2297023479
 40
0.4842340123
 40
0.7475494683
 40
1.0
 40
1.0
 40
1.0
 40
1.0
 10
77.9099155797
 20
73.4071864169
 30
0.0
 10
77.9817579956
 20
73.3346361277
 30
0.0
 10
78.1674374299
 20
73.2148344161
 30
0.0
 10
78.4928824239
 20
73.1293974177
 30
0.0
 10
78.8391998697
 20
73.1342420783
 30
0.0
 10
79.0628086542
 20
73.2011123726
 30
0.0
 10
79.1633712123
 20
73.250903057
 30
0.0
  0
SPLINE
  5
465
100
AcDbEntity
  8
RUNDUNGEN
100
AcDbSpline
 62
7
  6
CONTINUOUS
 70
0
 71
3
 72
9
 73
5
 74
0
 42
0.0000001
 43
0.0000001
 44
0.0000000001
 40
0.0
 40
0.0
 40
0.0
 40
0.0
 40
0.5194815986
 40
1.0
 40
1.0
 40
1.0
 40
1.0
 10
127.9266025191
 20
76.129557854
 30
0.0
 10
127.9818264332
 20
76.1853258971
 30
0.0
 10
128.073000863
 20
76.3104374596
 30
0.0
 10
128.1074901237
 20
76.4629473574
 30
0.0
 10
128.107442421
 20
76.5355448284
 30
0.0
  0
SPLINE
  5
466
100
AcDbEntity
  8
RUNDUNGEN
100
AcDbSpline
 62
7
  6
CONTINUOUS
 70
0
 71
3
 72
13
 73
9
 74
0
 42
0.0000001
 43
0.0000001
 44
0.0000000001
 40
0.0
 40
0.0
 40
0.0
 40
0.0
 40
0.2870490624
 40
0.5535683755
 40
0.6755038246
 40
0.7893311355
 40
0.8965454157
 40
1.0
 40
1.0
 40
1.0
 40
1.0
 10
118.970354424
 20
37.3422894868
 30
0.0
 10
119.3568048341
 20
37.3422894868
 30
0.0
 10
120.1058684314
 20
37.4429160047
 30
0.0
 10
120.9507528899
 20
37.8249210568
 30
0.0
 10
121.4693394625
 20
38.2653306807
 30
0.0
 10
121.7530621614
 20
38.6347620948
 30
0.0
 10
121.9299350812
 20
39.0392629026
 30
0.0
 10
121.970354424
 20
39.3243302723
 30
0.0
 10
121.970354424
 20
39.4636098304
 30
0.0
  0
SPLINE
  5
467
100
AcDbEntity
  8
RUNDUNGEN
100
AcDbSpline
 62
7
  6
CONTINUOUS
 70
0
 71
3
 72
11
 73
7
 74
0
 42
0.0000001
 43
0.0000001
 44
0.0000000001
 40
0.0
 40
0.0
 40
0.0
 40
0.0
 40
0.2094942263
 40
0.444667264
 40
0.7119932261
 40
1.0
 40
1.0
 40
1.0
 40
1.0
 10
117.470354424
 20
37.5544215212
 30
0.0
 10
117.470354424
 20
37.5263079681
 30
0.0
 10
117.4886062683
 20
37.4659231362
 30
0.0
 10
117.5585303334
 20
37.3968073781
 30
0.0
 10
117.6567070473
 20
37.352385489
 30
0.0
 10
117.7317047014
 20
37.3422894868
 30
0.0
 10
117.770354424
 20
37.3422894868
 30
0.0
  0
SPLINE
  5
468
100
AcDbEntity
  8
RUNDUNGEN
100
AcDbSpline
 62
7
  6
CONTINUOUS
 70
0
 71
3
 72
10
 73
6
 74
0
 42
0.0000001
 43
0.0000001
 44
0.0000000001
 40
0.0
 40
0.0
 40
0.0
 40
0.0
 40
0.47201694
 40
0.7322443513
 40
1.0
 40
1.0
 40
1.0
 40
1.0
 10
107.6856779464
 20
43.3380392919
 30
0.0
 10
107.9815868746
 20
43.0392147316
 30
0.0
 10
108.5695748519
 20
42.6987391734
 30
0.0
 10
109.4325704969
 20
42.4733334034
 30
0.0
 10
109.9045762518
 20
42.4334583113
 30
0.0
 10
110.1431340793
 20
42.4334583113
 30
0.0
  0
SPLINE
  5
469
100
AcDbEntity
  8
RUNDUNGEN
100
AcDbSpline
 62
7
  6
CONTINUOUS
 70
0
 71
3
 72
10
 73
6
 74
0
 42
0.0000001
 43
0.0000001
 44
0.0000000001
 40
0.0
 40
0.0
 40
0.0
 40
0.0
 40
0.2677558652
 40
0.5279833681
 40
1.0
 40
1.0
 40
1.0
 40
1.0
 10
92.9975747687
 20
42.4334583113
 30
0.0
 10
93.2361327903
 20
42.4334583113
 30
0.0
 10
93.7081388254
 20
42.4733334532
 30
0.0
 10
94.5711344398
 20
42.6987393902
 30
0.0
 10
95.159122165
 20
43.0392149251
 30
0.0
 10
95.4550309016
 20
43.3380392919
 30
0.0
  0
SPLINE
  5
46A
100
AcDbEntity
  8
RUNDUNGEN
100
AcDbSpline
 62
7
  6
CONTINUOUS
 70
0
 71
3
 72
13
 73
9
 74
0
 42
0.0000001
 43
0.0000001
 44
0.0000000001
 40
0.0
 40
0.0
 40
0.0
 40
0.0
 40
0.1034546555
 40
0.2106690395
 40
0.3244963599
 40
0.4464318111
 40
0.7129511617
 40
1.0
 40
1.0
 40
1.0
 40
1.0
 10
85.670354424
 20
40.3121379678
 30
0.0
 10
85.670354424
 20
40.4514176216
 30
0.0
 10
85.7107738522
 20
40.7364852241
 30
0.0
 10
85.8876469584
 20
41.1409862328
 30
0.0
 10
86.1713699122
 20
41.5104176495
 30
0.0
 10
86.6899566525
 20
41.9508271702
 30
0.0
 10
87.534840987
 20
42.3328318893
 30
0.0
 10
88.2839043154
 20
42.4334583113
 30
0.0
 10
88.670354424
 20
42.4334583113
 30
0.0
  0
SPLINE
  5
46B
100
AcDbEntity
  8
RUNDUNGEN
100
AcDbSpline
 62
7
  6
CONTINUOUS
 70
0
 71
3
 72
13
 73
9
 74
0
 42
0.0000001
 43
0.0000001
 44
0.0000000001
 40
0.0
 40
0.0
 40
0.0
 40
0.0
 40
0.2870490624
 40
0.5535683755
 40
0.6755038246
 40
0.7893311355
 40
0.8965454157
 40
1.0
 40
1.0
 40
1.0
 40
1.0
 10
114.470354424
 20
42.4334583113
 30
0.0
 10
114.8568048341
 20
42.4334583113
 30
0.0
 10
115.6058684314
 20
42.3328317934
 30
0.0
 10
116.4507528899
 20
41.9508267413
 30
0.0
 10
116.9693394625
 20
41.5104171175
 30
0.0
 10
117.2530621614
 20
41.1409857033
 30
0.0
 10
117.4299350812
 20
40.7364848955
 30
0.0
 10
117.470354424
 20
40.4514175258
 30
0.0
 10
117.470354424
 20
40.3121379678
 30
0.0
  0
SPLINE
  5
46C
100
AcDbEntity
  8
RUNDUNGEN
100
AcDbSpline
 62
7
  6
CONTINUOUS
 70
0
 71
3
 72
13
 73
9
 74
0
 42
0.0000001
 43
0.0000001
 44
0.0000000001
 40
0.0
 40
0.0
 40
0.0
 40
0.0
 40
0.2360077172
 40
0.3661261163
 40
0.500000078
 40
0.6338740716
 40
0.7639924399
 40
1.0
 40
1.0
 40
1.0
 40
1.0
 10
98.6214070646
 20
46.5356142028
 30
0.0
 10
98.9764966348
 20
46.8942025204
 30
0.0
 10
99.6819528094
 20
47.3027886386
 30
0.0
 10
100.7179352455
 20
47.5732507577
 30
0.0
 10
101.5703550093
 20
47.6453821715
 30
0.0
 10
102.4227746922
 20
47.57325058
 30
0.0
 10
103.4587567521
 20
47.3027883171
 30
0.0
 10
104.1642124495
 20
46.8942022817
 30
0.0
 10
104.5193017834
 20
46.5356142028
 30
0.0
  0
SPLINE
  5
46D
100
AcDbEntity
  8
RUNDUNGEN
100
AcDbSpline
 62
7
  6
CONTINUOUS
 70
0
 71
3
 72
9
 73
5
 74
0
 42
0.0000001
 43
0.0000001
 44
0.0000000001
 40
0.0
 40
0.0
 40
0.0
 40
0.0
 40
0.5134149467
 40
1.0
 40
1.0
 40
1.0
 40
1.0
 10
90.6311039912
 20
56.7957520816
 30
0.0
 10
90.9059633923
 20
57.0733197109
 30
0.0
 10
91.396794627
 20
57.6608821948
 30
0.0
 10
91.7639008227
 20
58.3344714576
 30
0.0
 10
91.9040927436
 20
58.6771174075
 30
0.0
  0
SPLINE
  5
46E
100
AcDbEntity
  8
RUNDUNGEN
100
AcDbSpline
 62
7
  6
CONTINUOUS
 70
0
 71
3
 72
11
 73
7
 74
0
 42
0.0000001
 43
0.0000001
 44
0.0000000001
 40
0.0
 40
0.0
 40
0.0
 40
0.0
 40
0.2660806488
 40
0.5190943636
 40
0.7622194616
 40
1.0
 40
1.0
 40
1.0
 40
1.0
 10
90.6311039912
 20
60.5606543538
 30
0.0
 10
90.8866762657
 20
60.3025638898
 30
0.0
 10
91.3466902825
 20
59.7582949301
 30
0.0
 10
91.867458056
 20
58.8504280977
 30
0.0
 10
92.1867298365
 20
57.8935894376
 30
0.0
 10
92.2587356041
 20
57.2350231263
 30
0.0
 10
92.2587355926
 20
56.9104359941
 30
0.0
  0
SPLINE
  5
46F
100
AcDbEntity
  8
RUNDUNGEN
100
AcDbSpline
 62
7
  6
CONTINUOUS
 70
0
 71
3
 72
11
 73
7
 74
0
 42
0.0000001
 43
0.0000001
 44
0.0000000001
 40
0.0
 40
0.0
 40
0.0
 40
0.0
 40
0.2524507309
 40
0.5157647478
 40
0.7702968692
 40
1.0
 40
1.0
 40
1.0
 40
1.0
 10
81.1293361186
 20
74.2242945474
 30
0.0
 10
81.2969405164
 20
74.307279088
 30
0.0
 10
81.6696209904
 20
74.4187291812
 30
0.0
 10
82.2468160246
 20
74.4268040595
 30
0.0
 10
82.789224453
 20
74.284409817
 30
0.0
 10
83.0986910703
 20
74.0847398432
 30
0.0
 10
83.2184288396
 20
73.9638222809
 30
0.0
  0
SPLINE
  5
470
100
AcDbEntity
  8
RUNDUNGEN
100
AcDbSpline
 62
7
  6
CONTINUOUS
 70
0
 71
3
 72
10
 73
6
 74
0
 42
0.0000001
 43
0.0000001
 44
0.0000000001
 40
0.0
 40
0.0
 40
0.0
 40
0.0
 40
0.5180905271
 40
0.761708294
 40
1.0
 40
1.0
 40
1.0
 40
1.0
 10
84.9391581486
 20
72.2261383849
 30
0.0
 10
85.0219937716
 20
72.142486571
 30
0.0
 10
85.1264114754
 20
71.9980603061
 30
0.0
 10
85.1985129686
 20
71.7812071729
 30
0.0
 10
85.2104534631
 20
71.6713084185
 30
0.0
 10
85.2104181092
 20
71.6171613598
 30
0.0
  0
SPLINE
  5
471
100
AcDbEntity
  8
RUNDUNGEN
100
AcDbSpline
 62
7
  6
CONTINUOUS
 70
0
 71
3
 72
12
 73
8
 74
0
 42
0.0000001
 43
0.0000001
 44
0.0000000001
 40
0.0
 40
0.0
 40
0.0
 40
0.0
 40
0.252259356
 40
0.5153839756
 40
0.6451803977
 40
0.7704553584
 40
1.0
 40
1.0
 40
1.0
 40
1.0
 10
112.8761826833
 20
77.410810073
 30
0.0
 10
113.2113741293
 20
77.244849582
 30
0.0
 10
113.9564857649
 20
77.0220629801
 30
0.0
 10
114.9249136137
 20
77.0080749894
 30
0.0
 10
115.6816572849
 20
77.1562917982
 30
0.0
 10
116.359977313
 20
77.3963755636
 30
0.0
 10
116.8148886629
 20
77.689915519
 30
0.0
 10
117.0543681252
 20
77.931754606
 30
0.0
  0
SPLINE
  5
472
100
AcDbEntity
  8
RUNDUNGEN
100
AcDbSpline
 62
7
  6
CONTINUOUS
 70
0
 71
3
 72
12
 73
8
 74
0
 42
0.0000001
 43
0.0000001
 44
0.0000000001
 40
0.0
 40
0.0
 40
0.0
 40
0.0
 40
0.2295488423
 40
0.3548243544
 40
0.4846199331
 40
0.7477426437
 40
1.0
 40
1.0
 40
1.0
 40
1.0
 10
89.772524922
 20
79.7568636505
 30
0.0
 10
90.0120087636
 20
79.5150201412
 30
0.0
 10
90.4669275364
 20
79.221477359
 30
0.0
 10
91.1452544901
 20
78.9813959421
 30
0.0
 10
91.9019955477
 20
78.8331831781
 30
0.0
 10
92.8704160483
 20
78.84717429
 30
0.0
 10
93.6155215796
 20
79.0699599443
 30
0.0
 10
93.950710364
 20
79.2359191175
 30
0.0
  0
SPLINE
  5
473
100
AcDbEntity
  8
0
100
AcDbSpline
 62
7
  6
CONTINUOUS
 70
0
 71
3
 72
11
 73
7
 74
0
 42
0.0000001
 43
0.0000001
 44
0.0000000001
 40
0.0
 40
0.0
 40
0.0
 40
0.0
 40
0.2092798753
 40
0.444592951
 40
0.7123432609
 40
1.0
 40
1.0
 40
1.0
 40
1.0
 10
94.2579937828
 20
68.0038537326
 30
0.0
 10
94.2579937828
 20
67.9971143131
 30
0.0
 10
94.2624123
 20
67.9826464479
 30
0.0
 10
94.279134045
 20
67.9659908429
 30
0.0
 10
94.3027454701
 20
67.9554036596
 30
0.0
 10
94.3207304008
 20
67.9529420444
 30
0.0
 10
94.3299937828
 20
67.9529420444
 30
0.0
  0
SPLINE
  5
474
100
AcDbEntity
  8
0
100
AcDbSpline
 62
7
  6
CONTINUOUS
 70
0
 71
3
 72
19
 73
15
 74
0
 42
0.0000001
 43
0.0000001
 44
0.0000000001
 40
0.0
 40
0.0
 40
0.0
 40
0.0
 40
0.051855061
 40
0.1061589371
 40
0.1638754827
 40
0.2253669227
 40
0.3583203672
 40
0.5
 40
0.6416796328
 40
0.7746330773
 40
0.8361245173
 40
0.8938410629
 40
0.948144939
 40
1.0
 40
1.0
 40
1.0
 40
1.0
 10
101.9181447444
 20
68.3217087197
 30
0.0
 10
101.9308412847
 20
68.2483276358
 30
0.0
 10
101.9764086749
 20
68.1009131965
 30
0.0
 10
102.0978827436
 20
67.8971665901
 30
0.0
 10
102.2684613494
 20
67.713241922
 30
0.0
 10
102.5606706015
 20
67.496502979
 30
0.0
 10
103.0143316055
 20
67.3098024006
 30
0.0
 10
103.6137151719
 20
67.23499809
 30
0.0
 10
104.2130987383
 20
67.3098024006
 30
0.0
 10
104.6667597423
 20
67.496502979
 30
0.0
 10
104.9589689944
 20
67.713241922
 30
0.0
 10
105.1295476002
 20
67.8971665901
 30
0.0
 10
105.2510216689
 20
68.1009131965
 30
0.0
 10
105.2965890591
 20
68.2483276358
 30
0.0
 10
105.3092855994
 20
68.3217087197
 30
0.0
  0
SPLINE
  5
475
100
AcDbEntity
  8
RUNDUNGEN
100
AcDbSpline
 62
7
  6
CONTINUOUS
 70
0
 71
3
 72
11
 73
7
 74
0
 42
0.0000001
 43
0.0000001
 44
0.0000000001
 40
0.0
 40
0.0
 40
0.0
 40
0.0
 40
0.2256927635
 40
0.4632951072
 40
0.7206222905
 40
1.0
 40
1.0
 40
1.0
 40
1.0
 10
85.2104181092
 20
71.6171613598
 30
0.0
 10
85.2103624778
 20
71.5319576947
 30
0.0
 10
85.1793761342
 20
71.3558284937
 30
0.0
 10
85.0467099969
 20
71.1137243246
 30
0.0
 10
84.838940961
 20
70.9036777418
 30
0.0
 10
84.6653144664
 20
70.7957255056
 30
0.0
 10
84.5707947367
 20
70.7489267554
 30
0.0
  0
SPLINE
  5
476
100
AcDbEntity
  8
0
100
AcDbSpline
 62
7
  6
CONTINUOUS
 70
0
 71
3
 72
11
 73
7
 74
0
 42
0.0000001
 43
0.0000001
 44
0.0000000001
 40
0.0
 40
0.0
 40
0.0
 40
0.0
 40
0.2092798753
 40
0.444592951
 40
0.7123432609
 40
1.0
 40
1.0
 40
1.0
 40
1.0
 10
94.7529937828
 20
69.0899697485
 30
0.0
 10
94.7529937828
 20
69.096709168
 30
0.0
 10
94.7485752656
 20
69.1111770333
 30
0.0
 10
94.7318535207
 20
69.1278326382
 30
0.0
 10
94.7082420956
 20
69.1384198216
 30
0.0
 10
94.6902571649
 20
69.1408814368
 30
0.0
 10
94.6809937828
 20
69.1408814368
 30
0.0
  0
SPLINE
  5
477
100
AcDbEntity
  8
0
100
AcDbSpline
 62
7
  6
CONTINUOUS
 70
0
 71
3
 72
12
 73
8
 74
0
 42
0.0000001
 43
0.0000001
 44
0.0000000001
 40
0.0
 40
0.0
 40
0.0
 40
0.0
 40
0.1035915243
 40
0.2109480279
 40
0.4456988124
 40
0.7125399145
 40
1.0
 40
1.0
 40
1.0
 40
1.0
 10
100.4913633693
 20
69.504405016
 30
0.0
 10
100.4913633693
 20
69.534577286
 30
0.0
 10
100.4826086855
 20
69.5963333256
 30
0.0
 10
100.430098241
 20
69.7165294011
 30
0.0
 10
100.3004036113
 20
69.8462789934
 30
0.0
 10
100.0876599004
 20
69.9419365396
 30
0.0
 10
99.9252007505
 20
69.9639537301
 30
0.0
 10
99.8414745637
 20
69.9639537301
 30
0.0
  0
SPLINE
  5
478
100
AcDbEntity
  8
0
100
AcDbSpline
 62
7
  6
CONTINUOUS
 70
0
 71
3
 72
11
 73
7
 74
0
 42
0.0000001
 43
0.0000001
 44
0.0000000001
 40
0.0
 40
0.0
 40
0.0
 40
0.0
 40
0.2092798753
 40
0.444592951
 40
0.7123432609
 40
1.0
 40
1.0
 40
1.0
 40
1.0
 10
94.2579937828
 20
69.0645139044
 30
0.0
 10
94.2579937828
 20
69.0577744849
 30
0.0
 10
94.2624123
 20
69.0433066196
 30
0.0
 10
94.279134045
 20
69.0266510147
 30
0.0
 10
94.3027454701
 20
69.0160638314
 30
0.0
 10
94.3207304008
 20
69.0136022161
 30
0.0
 10
94.3299937828
 20
69.0136022161
 30
0.0
  0
SPLINE
  5
479
100
AcDbEntity
  8
0
100
AcDbSpline
 62
7
  6
CONTINUOUS
 70
0
 71
3
 72
11
 73
7
 74
0
 42
0.0000001
 43
0.0000001
 44
0.0000000001
 40
0.0
 40
0.0
 40
0.0
 40
0.0
 40
0.2094929298
 40
0.4446655277
 40
0.7119947494
 40
1.0
 40
1.0
 40
1.0
 40
1.0
 10
92.8179937828
 20
67.2953327379
 30
0.0
 10
92.8179937828
 20
67.2615966846
 30
0.0
 10
92.8398954181
 20
67.1891349914
 30
0.0
 10
92.9238049264
 20
67.1061963047
 30
0.0
 10
93.0416168119
 20
67.0528892863
 30
0.0
 10
93.1316143633
 20
67.0407742966
 30
0.0
 10
93.1779937828
 20
67.0407742966
 30
0.0
  0
SPLINE
  5
47A
100
AcDbEntity
  8
0
100
AcDbSpline
 62
7
  6
CONTINUOUS
 70
0
 71
3
 72
11
 73
7
 74
0
 42
0.0000001
 43
0.0000001
 44
0.0000000001
 40
0.0
 40
0.0
 40
0.0
 40
0.0
 40
0.2880052506
 40
0.5553344723
 40
0.7905070702
 40
1.0
 40
1.0
 40
1.0
 40
1.0
 10
96.0579937828
 20
67.0407742966
 30
0.0
 10
96.1043732024
 20
67.0407742966
 30
0.0
 10
96.1943707538
 20
67.0528892863
 30
0.0
 10
96.3121826393
 20
67.1061963047
 30
0.0
 10
96.3960921476
 20
67.1891349914
 30
0.0
 10
96.4179937828
 20
67.2615966846
 30
0.0
 10
96.4179937828
 20
67.2953327379
 30
0.0
  0
SPLINE
  5
47B
100
AcDbEntity
  8
0
100
AcDbSpline
 62
7
  6
CONTINUOUS
 70
0
 71
3
 72
11
 73
7
 74
0
 42
0.0000001
 43
0.0000001
 44
0.0000000001
 40
0.0
 40
0.0
 40
0.0
 40
0.0
 40
0.2094668498
 40
0.4446559298
 40
0.7120302568
 40
1.0
 40
1.0
 40
1.0
 40
1.0
 10
95.2479937828
 20
68.4408457234
 30
0.0
 10
95.2479937828
 20
68.4577117682
 30
0.0
 10
95.237040505
 20
68.4939391363
 30
0.0
 10
95.1950965127
 20
68.5354250441
 30
0.0
 10
95.1361780186
 20
68.5620628254
 30
0.0
 10
95.091180796
 20
68.568124944
 30
0.0
 10
95.0679937828
 20
68.568124944
 30
0.0
  0
SPLINE
  5
47C
100
AcDbEntity
  8
0
100
AcDbSpline
 62
7
  6
CONTINUOUS
 70
0
 71
3
 72
9
 73
5
 74
0
 42
0.0000001
 43
0.0000001
 44
0.0000000001
 40
0.0
 40
0.0
 40
0.0
 40
0.0
 40
0.2445376398
 40
1.0
 40
1.0
 40
1.0
 40
1.0
 10
92.8179937828
 20
67.5074647722
 30
0.0
 10
92.8179937828
 20
67.4991603386
 30
0.0
 10
92.8203789869
 20
67.4652118738
 30
0.0
 10
92.832444422
 20
67.4321949329
 30
0.0
 10
92.8453971511
 20
67.4100494742
 30
0.0
  0
SPLINE
  5
47D
100
AcDbEntity
  8
0
100
AcDbSpline
 62
7
  6
CONTINUOUS
 70
0
 71
3
 72
9
 73
5
 74
0
 42
0.0000001
 43
0.0000001
 44
0.0000000001
 40
0.0
 40
0.0
 40
0.0
 40
0.0
 40
0.461013727
 40
1.0
 40
1.0
 40
1.0
 40
1.0
 10
92.8453971511
 20
67.4100494742
 30
0.0
 10
92.8748460433
 20
67.3597002993
 30
0.0
 10
92.9818610392
 20
67.2768461735
 30
0.0
 10
93.1097993911
 20
67.252906331
 30
0.0
 10
93.1779937828
 20
67.252906331
 30
0.0
  0
SPLINE
  5
47E
100
AcDbEntity
  8
0
100
AcDbSpline
 62
7
  6
CONTINUOUS
 70
0
 71
3
 72
11
 73
7
 74
0
 42
0.0000001
 43
0.0000001
 44
0.0000000001
 40
0.0
 40
0.0
 40
0.0
 40
0.0
 40
0.2879697432
 40
0.5553440702
 40
0.7905331502
 40
1.0
 40
1.0
 40
1.0
 40
1.0
 10
94.1679937828
 20
68.568124944
 30
0.0
 10
94.1448067697
 20
68.568124944
 30
0.0
 10
94.0998095471
 20
68.5620628254
 30
0.0
 10
94.040891053
 20
68.5354250441
 30
0.0
 10
93.9989470606
 20
68.4939391363
 30
0.0
 10
93.9879937828
 20
68.4577117682
 30
0.0
 10
93.9879937828
 20
68.4408457234
 30
0.0
  0
SPLINE
  5
47F
100
AcDbEntity
  8
0
100
AcDbSpline
 62
7
  6
CONTINUOUS
 70
0
 71
3
 72
11
 73
7
 74
0
 42
0.0000001
 43
0.0000001
 44
0.0000000001
 40
0.0
 40
0.0
 40
0.0
 40
0.0
 40
0.2879697432
 40
0.5553440702
 40
0.7905331502
 40
1.0
 40
1.0
 40
1.0
 40
1.0
 10
94.1679937828
 20
69.8409171501
 30
0.0
 10
94.1448067697
 20
69.8409171501
 30
0.0
 10
94.0998095471
 20
69.8348550316
 30
0.0
 10
94.040891053
 20
69.8082172502
 30
0.0
 10
93.9989470606
 20
69.7667313425
 30
0.0
 10
93.9879937828
 20
69.7305039744
 30
0.0
 10
93.9879937828
 20
69.7136379295
 30
0.0
  0
SPLINE
  5
480
100
AcDbEntity
  8
0
100
AcDbSpline
 62
7
  6
CONTINUOUS
 70
0
 71
3
 72
11
 73
7
 74
0
 42
0.0000001
 43
0.0000001
 44
0.0000000001
 40
0.0
 40
0.0
 40
0.0
 40
0.0
 40
0.2876567391
 40
0.555407049
 40
0.7907201247
 40
1.0
 40
1.0
 40
1.0
 40
1.0
 10
94.5549937828
 20
69.1408814368
 30
0.0
 10
94.5457304008
 20
69.1408814368
 30
0.0
 10
94.5277454701
 20
69.1384198216
 30
0.0
 10
94.504134045
 20
69.1278326382
 30
0.0
 10
94.4874123
 20
69.1111770333
 30
0.0
 10
94.4829937828
 20
69.096709168
 30
0.0
 10
94.4829937828
 20
69.0899697485
 30
0.0
  0
SPLINE
  5
481
100
AcDbEntity
  8
0
100
AcDbSpline
 62
7
  6
CONTINUOUS
 70
0
 71
3
 72
11
 73
7
 74
0
 42
0.0000001
 43
0.0000001
 44
0.0000000001
 40
0.0
 40
0.0
 40
0.0
 40
0.0
 40
0.2876567391
 40
0.555407049
 40
0.7907201247
 40
1.0
 40
1.0
 40
1.0
 40
1.0
 10
94.9059937828
 20
69.0136022161
 30
0.0
 10
94.9152571649
 20
69.0136022161
 30
0.0
 10
94.9332420956
 20
69.0160638314
 30
0.0
 10
94.9568535207
 20
69.0266510147
 30
0.0
 10
94.9735752656
 20
69.0433066196
 30
0.0
 10
94.9779937828
 20
69.0577744849
 30
0.0
 10
94.9779937828
 20
69.0645139044
 30
0.0
  0
SPLINE
  5
482
100
AcDbEntity
  8
0
100
AcDbSpline
 62
7
  6
CONTINUOUS
 70
0
 71
3
 72
11
 73
7
 74
0
 42
0.0000001
 43
0.0000001
 44
0.0000000001
 40
0.0
 40
0.0
 40
0.0
 40
0.0
 40
0.2876567391
 40
0.555407049
 40
0.7907201247
 40
1.0
 40
1.0
 40
1.0
 40
1.0
 10
94.9059937828
 20
67.74081001
 30
0.0
 10
94.9152571649
 20
67.74081001
 30
0.0
 10
94.9332420956
 20
67.7432716252
 30
0.0
 10
94.9568535207
 20
67.7538588086
 30
0.0
 10
94.9735752656
 20
67.7705144135
 30
0.0
 10
94.9779937828
 20
67.7849822787
 30
0.0
 10
94.9779937828
 20
67.7917216983
 30
0.0
  0
SPLINE
  5
483
100
AcDbEntity
  8
RUNDUNGEN
100
AcDbSpline
 62
7
  6
CONTINUOUS
 70
0
 71
3
 72
11
 73
7
 74
0
 42
0.0000001
 43
0.0000001
 44
0.0000000001
 40
0.0
 40
0.0
 40
0.0
 40
0.0
 40
0.237780559
 40
0.4809056754
 40
0.7339193747
 40
1.0
 40
1.0
 40
1.0
 40
1.0
 10
92.2587355926
 20
56.9104359941
 30
0.0
 10
92.2587355811
 20
56.5858488763
 30
0.0
 10
92.1867297217
 20
55.9272826061
 30
0.0
 10
91.8674578784
 20
54.9704440782
 30
0.0
 10
91.346690147
 20
54.0625774151
 30
0.0
 10
90.8866762096
 20
53.5183085829
 30
0.0
 10
90.6311039912
 20
53.2602181756
 30
0.0
  0
SPLINE
  5
484
100
AcDbEntity
  8
RUNDUNGEN
100
AcDbSpline
 62
7
  6
CONTINUOUS
 70
0
 71
3
 72
10
 73
6
 74
0
 42
0.0000001
 43
0.0000001
 44
0.0000000001
 40
0.0
 40
0.0
 40
0.0
 40
0.0
 40
0.2382827206
 40
0.4819249463
 40
1.0
 40
1.0
 40
1.0
 40
1.0
 10
121.970354424
 20
43.0374007823
 30
0.0
 10
121.970354424
 20
43.145595795
 30
0.0
 10
121.9462822373
 20
43.3651828723
 30
0.0
 10
121.8020260651
 20
43.7984346655
 30
0.0
 10
121.5933314523
 20
44.0869883494
 30
0.0
 10
121.4278105569
 20
44.2541401453
 30
0.0
  0
SPLINE
  5
485
100
AcDbEntity
  8
RUNDUNGEN
100
AcDbSpline
 62
7
  6
CONTINUOUS
 70
0
 71
3
 72
11
 73
7
 74
0
 42
0.0000001
 43
0.0000001
 44
0.0000000001
 40
0.0
 40
0.0
 40
0.0
 40
0.0
 40
0.2256939479
 40
0.4632958812
 40
0.7206236633
 40
1.0
 40
1.0
 40
1.0
 40
1.0
 10
128.107442421
 20
76.5355448284
 30
0.0
 10
128.107405097
 20
76.5923473968
 30
0.0
 10
128.086746917
 20
76.7097665919
 30
0.0
 10
127.9983025021
 20
76.8711688954
 30
0.0
 10
127.859790039
 20
77.0111989202
 30
0.0
 10
127.7440395629
 20
77.0831666885
 30
0.0
 10
127.6810269112
 20
77.114365607
 30
0.0
  0
SPLINE
  5
486
100
AcDbEntity
  8
0
100
AcDbSpline
 62
7
  6
CONTINUOUS
 70
0
 71
3
 72
12
 73
8
 74
0
 42
0.0000001
 43
0.0000001
 44
0.0000000001
 40
0.0
 40
0.0
 40
0.0
 40
0.0
 40
0.2861430251
 40
0.547729335
 40
0.7823897905
 40
0.8924618245
 40
1.0
 40
1.0
 40
1.0
 40
1.0
 10
100.2147636751
 20
68.701027114
 30
0.0
 10
100.329473999
 20
68.7276771593
 30
0.0
 10
100.5445276953
 20
68.8036175918
 30
0.0
 10
100.8135089812
 20
68.9880882845
 30
0.0
 10
100.9666587987
 20
69.1931527374
 30
0.0
 10
101.0273029205
 20
69.3704680852
 30
0.0
 10
101.037378664
 20
69.4603364773
 30
0.0
 10
101.0373720247
 20
69.50459502
 30
0.0
  0
SPLINE
  5
487
100
AcDbEntity
  8
0
100
AcDbSpline
 62
7
  6
CONTINUOUS
 70
0
 71
3
 72
11
 73
7
 74
0
 42
0.0000001
 43
0.0000001
 44
0.0000000001
 40
0.0
 40
0.0
 40
0.0
 40
0.0
 40
0.2092798753
 40
0.444592951
 40
0.7123432609
 40
1.0
 40
1.0
 40
1.0
 40
1.0
 10
94.2579937828
 20
69.2766459387
 30
0.0
 10
94.2579937828
 20
69.2699065192
 30
0.0
 10
94.2624123
 20
69.255438654
 30
0.0
 10
94.279134045
 20
69.2387830491
 30
0.0
 10
94.3027454701
 20
69.2281958657
 30
0.0
 10
94.3207304008
 20
69.2257342505
 30
0.0
 10
94.3299937828
 20
69.2257342505
 30
0.0
  0
SPLINE
  5
488
100
AcDbEntity
  8
0
100
AcDbSpline
 62
7
  6
CONTINUOUS
 70
0
 71
3
 72
9
 73
5
 74
0
 42
0.0000001
 43
0.0000001
 44
0.0000000001
 40
0.0
 40
0.0
 40
0.0
 40
0.0
 40
0.2536121958
 40
1.0
 40
1.0
 40
1.0
 40
1.0
 10
108.6687360206
 20
67.0407742966
 30
0.0
 10
108.681055621
 20
67.0407742966
 30
0.0
 10
108.7296093209
 20
67.0425343201
 30
0.0
 10
108.7779631583
 20
67.0513060061
 30
0.0
 10
108.8126109663
 20
67.0619875001
 30
0.0
  0
SPLINE
  5
489
100
AcDbEntity
  8
0
100
AcDbSpline
 62
7
  6
CONTINUOUS
 70
0
 71
3
 72
12
 73
8
 74
0
 42
0.0000001
 43
0.0000001
 44
0.0000000001
 40
0.0
 40
0.0
 40
0.0
 40
0.0
 40
0.2844670851
 40
0.5445747
 40
0.7798379195
 40
0.8910272787
 40
1.0
 40
1.0
 40
1.0
 40
1.0
 10
108.8126109663
 20
67.0619875001
 30
0.0
 10
109.027768142
 20
67.1283178166
 30
0.0
 10
109.4281945912
 20
67.3000686527
 30
0.0
 10
109.9222041915
 20
67.6824732203
 30
0.0
 10
110.1983228567
 20
68.0886088391
 30
0.0
 10
110.307336678
 20
68.4343818496
 30
0.0
 10
110.3254736242
 20
68.6091546098
 30
0.0
 10
110.3254736242
 20
68.6954041646
 30
0.0
  0
SPLINE
  5
48A
100
AcDbEntity
  8
0
100
AcDbSpline
 62
7
  6
CONTINUOUS
 70
0
 71
3
 72
9
 73
5
 74
0
 42
0.0000001
 43
0.0000001
 44
0.0000000001
 40
0.0
 40
0.0
 40
0.0
 40
0.0
 40
0.239729366
 40
1.0
 40
1.0
 40
1.0
 40
1.0
 10
108.7907973506
 20
69.9165132933
 30
0.0
 10
108.7828435061
 20
69.9208203057
 30
0.0
 10
108.7483844258
 20
69.9363796519
 30
0.0
 10
108.7100432994
 20
69.9427405266
 30
0.0
 10
108.6813579074
 20
69.9427405266
 30
0.0
  0
SPLINE
  5
48B
100
AcDbEntity
  8
0
100
AcDbSpline
 62
7
  6
CONTINUOUS
 70
0
 71
3
 72
11
 73
7
 74
0
 42
0.0000001
 43
0.0000001
 44
0.0000000001
 40
0.0
 40
0.0
 40
0.0
 40
0.0
 40
0.2094668498
 40
0.4446559298
 40
0.7120302568
 40
1.0
 40
1.0
 40
1.0
 40
1.0
 10
95.2479937828
 20
69.7136379295
 30
0.0
 10
95.2479937828
 20
69.7305039744
 30
0.0
 10
95.237040505
 20
69.7667313425
 30
0.0
 10
95.1950965127
 20
69.8082172502
 30
0.0
 10
95.1361780186
 20
69.8348550316
 30
0.0
 10
95.091180796
 20
69.8409171501
 30
0.0
 10
95.0679937828
 20
69.8409171501
 30
0.0
  0
SPLINE
  5
48C
100
AcDbEntity
  8
RUNDUNGEN
100
AcDbSpline
 62
7
  6
CONTINUOUS
 70
0
 71
3
 72
10
 73
6
 74
0
 42
0.0000001
 43
0.0000001
 44
0.0000000001
 40
0.0
 40
0.0
 40
0.0
 40
0.0
 40
0.5180752096
 40
0.7617173681
 40
1.0
 40
1.0
 40
1.0
 40
1.0
 10
81.7128982911
 20
44.2541401453
 30
0.0
 10
81.5473773462
 20
44.0869882993
 30
0.0
 10
81.338682722
 20
43.798434565
 30
0.0
 10
81.1944265882
 20
43.3651827608
 30
0.0
 10
81.170354424
 20
43.1455957545
 30
0.0
 10
81.170354424
 20
43.0374007823
 30
0.0
  0
SPLINE
  5
48D
100
AcDbEntity
  8
RUNDUNGEN
100
AcDbSpline
 62
7
  6
CONTINUOUS
 70
0
 71
3
 72
11
 73
7
 74
0
 42
0.0000001
 43
0.0000001
 44
0.0000000001
 40
0.0
 40
0.0
 40
0.0
 40
0.0
 40
0.2793752682
 40
0.5367194959
 40
0.7743217448
 40
1.0
 40
1.0
 40
1.0
 40
1.0
 10
82.6048298304
 20
69.775535265
 30
0.0
 10
82.5481155492
 20
69.7474548051
 30
0.0
 10
82.4439320069
 20
69.6826774868
 30
0.0
 10
82.3192633878
 20
69.5566381173
 30
0.0
 10
82.2396685544
 20
69.4113620222
 30
0.0
 10
82.2210839266
 20
69.3056809192
 30
0.0
 10
82.2210550451
 20
69.2545593545
 30
0.0
  0
SPLINE
  5
48E
100
AcDbEntity
  8
RUNDUNGEN
100
AcDbSpline
 62
7
  6
CONTINUOUS
 70
0
 71
3
 72
11
 73
7
 74
0
 42
0.0000001
 43
0.0000001
 44
0.0000000001
 40
0.0
 40
0.0
 40
0.0
 40
0.0
 40
0.2794013718
 40
0.5367226037
 40
0.7743080703
 40
1.0
 40
1.0
 40
1.0
 40
1.0
 10
77.0979860254
 20
77.9255251824
 30
0.0
 10
76.9087986689
 20
77.831854455
 30
0.0
 10
76.5613031966
 20
77.6157609922
 30
0.0
 10
76.1455907435
 20
77.1952455002
 30
0.0
 10
75.8803514077
 20
76.7105401863
 30
0.0
 10
75.8186838909
 20
76.3579835449
 30
0.0
 10
75.8187167901
 20
76.1874579345
 30
0.0
  0
SPLINE
  5
48F
100
AcDbEntity
  8
RUNDUNGEN
100
AcDbSpline
 62
7
  6
CONTINUOUS
 70
0
 71
3
 72
13
 73
9
 74
0
 42
0.0000001
 43
0.0000001
 44
0.0000000001
 40
0.0
 40
0.0
 40
0.0
 40
0.0
 40
0.2294024404
 40
0.354599695
 40
0.4843111925
 40
0.6162488643
 40
0.7479039558
 40
1.0
 40
1.0
 40
1.0
 40
1.0
 10
89.0589659148
 20
76.9419195487
 30
0.0
 10
88.4203430871
 20
77.5868348166
 30
0.0
 10
87.2071582082
 20
78.3696476797
 30
0.0
 10
85.3984439496
 20
79.0097412068
 30
0.0
 10
83.8905269503
 20
79.3054445744
 30
0.0
 10
82.3313220293
 20
79.3886627543
 30
0.0
 10
80.2949190952
 20
79.2171508628
 30
0.0
 10
78.8109722637
 20
78.7736614956
 30
0.0
 10
77.9171380697
 20
78.3311049701
 30
0.0
  0
SPLINE
  5
490
100
AcDbEntity
  8
0
100
AcDbSpline
 62
7
  6
CONTINUOUS
 70
0
 71
3
 72
9
 73
5
 74
0
 42
0.0000001
 43
0.0000001
 44
0.0000000001
 40
0.0
 40
0.0
 40
0.0
 40
0.0
 40
0.2432212797
 40
1.0
 40
1.0
 40
1.0
 40
1.0
 10
106.7325423512
 20
76.9171245746
 30
0.0
 10
106.528156656
 20
77.0183203263
 30
0.0
 10
105.6732896771
 20
77.4046863509
 30
0.0
 10
104.7672623572
 20
77.6749879851
 30
0.0
 10
104.0720430996
 20
77.8172391219
 30
0.0
  0
SPLINE
  5
491
100
AcDbEntity
  8
0
100
AcDbSpline
 62
7
  6
CONTINUOUS
 70
0
 71
3
 72
9
 73
5
 74
0
 42
0.0000001
 43
0.0000001
 44
0.0000000001
 40
0.0
 40
0.0
 40
0.0
 40
0.0
 40
0.2565045474
 40
1.0
 40
1.0
 40
1.0
 40
1.0
 10
99.0686657484
 20
77.8172391219
 30
0.0
 10
98.8330387565
 20
77.7690266953
 30
0.0
 10
97.9204362725
 20
77.5535728201
 30
0.0
 10
97.0329137166
 20
77.2264503542
 30
0.0
 10
96.4081664968
 20
76.9171245746
 30
0.0
  0
SPLINE
  5
492
100
AcDbEntity
  8
RUNDUNGEN
100
AcDbSpline
 62
7
  6
CONTINUOUS
 70
0
 71
3
 72
11
 73
7
 74
0
 42
0.0000001
 43
0.0000001
 44
0.0000000001
 40
0.0
 40
0.0
 40
0.0
 40
0.0
 40
0.2524504596
 40
0.5157648056
 40
0.770297345
 40
1.0
 40
1.0
 40
1.0
 40
1.0
 10
123.1756906676
 20
79.3450544392
 30
0.0
 10
123.0639545228
 20
79.4003774067
 30
0.0
 10
122.8155008856
 20
79.4746775802
 30
0.0
 10
122.4307039354
 20
79.4800607871
 30
0.0
 10
122.0690982084
 20
79.3851311315
 30
0.0
 10
121.8627872008
 20
79.2520178025
 30
0.0
 10
121.7829621869
 20
79.1714062616
 30
0.0
  0
SPLINE
  5
493
100
AcDbEntity
  8
BEZUGSACHSEN
100
AcDbSpline
 62
7
  6
CONTINUOUS
 70
0
 71
3
 72
14
 73
10
 74
0
 42
0.0000001
 43
0.0000001
 44
0.0000000001
 40
0.0
 40
0.0
 40
0.0
 40
0.0
 40
0.1085558033
 40
0.2194059371
 40
0.3344342617
 40
0.4550845381
 40
0.5821195999
 40
0.7157009648
 40
1.0
 40
1.0
 40
1.0
 40
1.0
 10
97.570354424
 20
73.5425505176
 30
0.0
 10
97.570354424
 20
73.4039187503
 30
0.0
 10
97.5998905855
 20
73.1228965909
 30
0.0
 10
97.7308342609
 20
72.7135437519
 30
0.0
 10
97.9450349544
 20
72.323390431
 30
0.0
 10
98.2368365275
 20
71.9609216666
 30
0.0
 10
98.5996663217
 20
71.6333649364
 30
0.0
 10
99.1786936968
 20
71.2443048492
 30
0.0
 10
99.6777365327
 20
71.0365124205
 30
0.0
 10
100.0258756646
 20
70.9334795434
 30
0.0
  0
SPLINE
  5
494
100
AcDbEntity
  8
BEZUGSACHSEN
100
AcDbSpline
 62
7
  6
CONTINUOUS
 70
0
 71
3
 72
14
 73
10
 74
0
 42
0.0000001
 43
0.0000001
 44
0.0000000001
 40
0.0
 40
0.0
 40
0.0
 40
0.0
 40
0.2842990352
 40
0.4178804001
 40
0.5449154619
 40
0.6655657383
 40
0.7805940629
 40
0.8914441967
 40
1.0
 40
1.0
 40
1.0
 40
1.0
 10
103.1148331834
 20
70.9334795434
 30
0.0
 10
103.4629723153
 20
71.0365124205
 30
0.0
 10
103.9620151512
 20
71.2443048492
 30
0.0
 10
104.5410425263
 20
71.6333649364
 30
0.0
 10
104.9038723205
 20
71.9609216666
 30
0.0
 10
105.1956738936
 20
72.323390431
 30
0.0
 10
105.4098745871
 20
72.7135437519
 30
0.0
 10
105.5408182625
 20
73.1228965909
 30
0.0
 10
105.570354424
 20
73.4039187503
 30
0.0
 10
105.570354424
 20
73.5425505176
 30
0.0
  0
SPLINE
  5
495
100
AcDbEntity
  8
0
100
AcDbSpline
 62
7
  6
CONTINUOUS
 70
0
 71
3
 72
11
 73
7
 74
0
 42
0.0000001
 43
0.0000001
 44
0.0000000001
 40
0.0
 40
0.0
 40
0.0
 40
0.0
 40
0.227142142
 40
0.4653047767
 40
0.7220182825
 40
1.0
 40
1.0
 40
1.0
 40
1.0
 10
109.6375132372
 20
68.703889446
 30
0.0
 10
109.6375132372
 20
68.8211410708
 30
0.0
 10
109.5971657483
 20
69.0629290312
 30
0.0
 10
109.4228988238
 20
69.3981859623
 30
0.0
 10
109.1481680615
 20
69.6930530791
 30
0.0
 10
108.9169803003
 20
69.848185138
 30
0.0
 10
108.7907973506
 20
69.9165132933
 30
0.0
  0
SPLINE
  5
496
100
AcDbEntity
  8
0
100
AcDbSpline
 62
7
  6
CONTINUOUS
 70
0
 71
3
 72
19
 73
15
 74
0
 42
0.0000001
 43
0.0000001
 44
0.0000000001
 40
0.0
 40
0.0
 40
0.0
 40
0.0
 40
0.0517234907
 40
0.1053372095
 40
0.1622487312
 40
0.2232163938
 40
0.3564752704
 40
0.5
 40
0.6435247296
 40
0.7767836062
 40
0.8377512688
 40
0.8946627905
 40
0.9482765093
 40
1.0
 40
1.0
 40
1.0
 40
1.0
 10
101.9054745637
 20
68.2562210247
 30
0.0
 10
101.9054745637
 20
68.1769194691
 30
0.0
 10
101.9285049335
 20
68.0145984299
 30
0.0
 10
102.0291935419
 20
67.7842588348
 30
0.0
 10
102.1907844357
 20
67.5739127971
 30
0.0
 10
102.4860202407
 20
67.3231297329
 30
0.0
 10
102.967427444
 20
67.1056173897
 30
0.0
 10
103.6137151719
 20
67.0185973515
 30
0.0
 10
104.2600028998
 20
67.1056173897
 30
0.0
 10
104.7414101032
 20
67.3231297329
 30
0.0
 10
105.0366459081
 20
67.5739127971
 30
0.0
 10
105.1982368019
 20
67.7842588348
 30
0.0
 10
105.2989254103
 20
68.0145984299
 30
0.0
 10
105.3219557801
 20
68.1769194691
 30
0.0
 10
105.3219557801
 20
68.2562210247
 30
0.0
  0
SPLINE
  5
497
100
AcDbEntity
  8
0
100
AcDbSpline
 62
7
  6
CONTINUOUS
 70
0
 71
3
 72
11
 73
7
 74
0
 42
0.0000001
 43
0.0000001
 44
0.0000000001
 40
0.0
 40
0.0
 40
0.0
 40
0.0
 40
0.2092798753
 40
0.444592951
 40
0.7123432609
 40
1.0
 40
1.0
 40
1.0
 40
1.0
 10
94.2579937828
 20
67.7917216983
 30
0.0
 10
94.2579937828
 20
67.7849822787
 30
0.0
 10
94.2624123
 20
67.7705144135
 30
0.0
 10
94.279134045
 20
67.7538588086
 30
0.0
 10
94.3027454701
 20
67.7432716252
 30
0.0
 10
94.3207304008
 20
67.74081001
 30
0.0
 10
94.3299937828
 20
67.74081001
 30
0.0
  0
SPLINE
  5
498
100
AcDbEntity
  8
0
100
AcDbSpline
 62
7
  6
CONTINUOUS
 70
0
 71
3
 72
9
 73
5
 74
0
 42
0.0000001
 43
0.0000001
 44
0.0000000001
 40
0.0
 40
0.0
 40
0.0
 40
0.0
 40
0.2536121958
 40
1.0
 40
1.0
 40
1.0
 40
1.0
 10
108.6687360206
 20
67.252906331
 30
0.0
 10
108.681055621
 20
67.252906331
 30
0.0
 10
108.7296093209
 20
67.2546663545
 30
0.0
 10
108.7779631583
 20
67.2634380404
 30
0.0
 10
108.8126109663
 20
67.2741195344
 30
0.0
  0
SPLINE
  5
499
100
AcDbEntity
  8
0
100
AcDbSpline
 62
7
  6
CONTINUOUS
 70
0
 71
3
 72
11
 73
7
 74
0
 42
0.0000001
 43
0.0000001
 44
0.0000000001
 40
0.0
 40
0.0
 40
0.0
 40
0.0
 40
0.2816347582
 40
0.5420479832
 40
0.7798483853
 40
1.0
 40
1.0
 40
1.0
 40
1.0
 10
108.8126109663
 20
67.2741195344
 30
0.0
 10
109.0069360578
 20
67.3340275751
 30
0.0
 10
109.3713079042
 20
67.4858570022
 30
0.0
 10
109.8338609604
 20
67.8165786553
 30
0.0
 10
110.1652162901
 20
68.2250513255
 30
0.0
 10
110.2822192479
 20
68.5428786208
 30
0.0
 10
110.3082643017
 20
68.6996874044
 30
0.0
  0
SPLINE
  5
49A
100
AcDbEntity
  8
0
100
AcDbSpline
 62
7
  6
CONTINUOUS
 70
0
 71
3
 72
9
 73
5
 74
0
 42
0.0000001
 43
0.0000001
 44
0.0000000001
 40
0.0
 40
0.0
 40
0.0
 40
0.0
 40
0.2591205677
 40
1.0
 40
1.0
 40
1.0
 40
1.0
 10
108.6813579074
 20
70.154872561
 30
0.0
 10
108.6911317549
 20
70.154872561
 30
0.0
 10
108.7287839075
 20
70.1527153991
 30
0.0
 10
108.7662234273
 20
70.1419521243
 30
0.0
 10
108.7907973506
 20
70.1286453276
 30
0.0
  0
SPLINE
  5
49B
100
AcDbEntity
  8
0
100
AcDbSpline
 62
7
  6
CONTINUOUS
 70
0
 71
3
 72
11
 73
7
 74
0
 42
0.0000001
 43
0.0000001
 44
0.0000000001
 40
0.0
 40
0.0
 40
0.0
 40
0.0
 40
0.2779697373
 40
0.5346991835
 40
0.7728568778
 40
1.0
 40
1.0
 40
1.0
 40
1.0
 10
108.7907973506
 20
70.1286453276
 30
0.0
 10
108.9169753143
 20
70.0603198723
 30
0.0
 10
109.148160308
 20
69.9051812423
 30
0.0
 10
109.4229093214
 20
69.6103281046
 30
0.0
 10
109.5971696024
 20
69.2750588913
 30
0.0
 10
109.6375240318
 20
69.0332740312
 30
0.0
 10
109.6375240318
 20
68.9160214803
 30
0.0
  0
SPLINE
  5
49C
100
AcDbEntity
  8
0
100
AcDbSpline
 62
7
  6
CONTINUOUS
 70
0
 71
3
 72
11
 73
7
 74
0
 42
0.0000001
 43
0.0000001
 44
0.0000000001
 40
0.0
 40
0.0
 40
0.0
 40
0.0
 40
0.2782911642
 40
0.539206302
 40
0.7792454761
 40
1.0
 40
1.0
 40
1.0
 40
1.0
 10
100.2147636751
 20
68.9131591484
 30
0.0
 10
100.3059942807
 20
68.9343542744
 30
0.0
 10
100.479635385
 20
68.9913276934
 30
0.0
 10
100.7091922294
 20
69.122263954
 30
0.0
 10
100.8883447316
 20
69.2899561991
 30
0.0
 10
100.9690323811
 20
69.4257775282
 30
0.0
 10
100.9956434026
 20
69.4951443796
 30
0.0
  0
SPLINE
  5
49D
100
AcDbEntity
  8
0
100
AcDbSpline
 62
7
  6
CONTINUOUS
 70
0
 71
3
 72
9
 73
5
 74
0
 42
0.0000001
 43
0.0000001
 44
0.0000000001
 40
0.0
 40
0.0
 40
0.0
 40
0.0
 40
0.2525773098
 40
1.0
 40
1.0
 40
1.0
 40
1.0
 10
100.9956434026
 20
69.4951443796
 30
0.0
 10
100.9991234754
 20
69.5042158727
 30
0.0
 10
101.0121114053
 20
69.5404286001
 30
0.0
 10
101.0218602497
 20
69.5778125127
 30
0.0
 10
101.0271280147
 20
69.6060775968
 30
0.0
  0
SPLINE
  5
49E
100
AcDbEntity
  8
0
100
AcDbSpline
 62
7
  6
CONTINUOUS
 70
0
 71
3
 72
12
 73
8
 74
0
 42
0.0000001
 43
0.0000001
 44
0.0000000001
 40
0.0
 40
0.0
 40
0.0
 40
0.0
 40
0.2874678609
 40
0.554294436
 40
0.7890536075
 40
0.8964041367
 40
1.0
 40
1.0
 40
1.0
 40
1.0
 10
99.8414745637
 20
70.1760857644
 30
0.0
 10
99.9252023449
 20
70.1760857644
 30
0.0
 10
100.0876633909
 20
70.1540777748
 30
0.0
 10
100.3003865057
 20
70.0583947086
 30
0.0
 10
100.4301036889
 20
69.9286650356
 30
0.0
 10
100.482586365
 20
69.808460136
 30
0.0
 10
100.4913745877
 20
69.7467103425
 30
0.0
 10
100.4913745877
 20
69.7165370503
 30
0.0
  0
SPLINE
  5
49F
100
AcDbEntity
  8
0
100
AcDbSpline
 62
7
  6
CONTINUOUS
 70
0
 71
3
 72
11
 73
7
 74
0
 42
0.0000001
 43
0.0000001
 44
0.0000000001
 40
0.0
 40
0.0
 40
0.0
 40
0.0
 40
0.2876567391
 40
0.555407049
 40
0.7907201247
 40
1.0
 40
1.0
 40
1.0
 40
1.0
 10
94.9059937828
 20
67.9529420444
 30
0.0
 10
94.9152571649
 20
67.9529420444
 30
0.0
 10
94.9332420956
 20
67.9554036596
 30
0.0
 10
94.9568535207
 20
67.9659908429
 30
0.0
 10
94.9735752656
 20
67.9826464479
 30
0.0
 10
94.9779937828
 20
67.9971143131
 30
0.0
 10
94.9779937828
 20
68.0038537326
 30
0.0
  0
SPLINE
  5
4A0
100
AcDbEntity
  8
0
100
AcDbSpline
 62
7
  6
CONTINUOUS
 70
0
 71
3
 72
11
 73
7
 74
0
 42
0.0000001
 43
0.0000001
 44
0.0000000001
 40
0.0
 40
0.0
 40
0.0
 40
0.0
 40
0.2092798753
 40
0.444592951
 40
0.7123432609
 40
1.0
 40
1.0
 40
1.0
 40
1.0
 10
94.4829937828
 20
69.3021017829
 30
0.0
 10
94.4829937828
 20
69.3088412024
 30
0.0
 10
94.4874123
 20
69.3233090676
 30
0.0
 10
94.504134045
 20
69.3399646726
 30
0.0
 10
94.5277454701
 20
69.3505518559
 30
0.0
 10
94.5457304008
 20
69.3530134711
 30
0.0
 10
94.5549937828
 20
69.3530134711
 30
0.0
  0
SPLINE
  5
4A1
100
AcDbEntity
  8
0
100
AcDbSpline
 62
7
  6
CONTINUOUS
 70
0
 71
3
 72
11
 73
7
 74
0
 42
0.0000001
 43
0.0000001
 44
0.0000000001
 40
0.0
 40
0.0
 40
0.0
 40
0.0
 40
0.2876567391
 40
0.555407049
 40
0.7907201247
 40
1.0
 40
1.0
 40
1.0
 40
1.0
 10
94.6809937828
 20
69.3530134711
 30
0.0
 10
94.6902571649
 20
69.3530134711
 30
0.0
 10
94.7082420956
 20
69.3505518559
 30
0.0
 10
94.7318535207
 20
69.3399646726
 30
0.0
 10
94.7485752656
 20
69.3233090676
 30
0.0
 10
94.7529937828
 20
69.3088412024
 30
0.0
 10
94.7529937828
 20
69.3021017829
 30
0.0
  0
SPLINE
  5
4A2
100
AcDbEntity
  8
0
100
AcDbSpline
 62
7
  6
CONTINUOUS
 70
0
 71
3
 72
11
 73
7
 74
0
 42
0.0000001
 43
0.0000001
 44
0.0000000001
 40
0.0
 40
0.0
 40
0.0
 40
0.0
 40
0.2876567391
 40
0.555407049
 40
0.7907201247
 40
1.0
 40
1.0
 40
1.0
 40
1.0
 10
94.9059937828
 20
69.2257342505
 30
0.0
 10
94.9152571649
 20
69.2257342505
 30
0.0
 10
94.9332420956
 20
69.2281958657
 30
0.0
 10
94.9568535207
 20
69.2387830491
 30
0.0
 10
94.9735752656
 20
69.255438654
 30
0.0
 10
94.9779937828
 20
69.2699065192
 30
0.0
 10
94.9779937828
 20
69.2766459387
 30
0.0
  0
SPLINE
  5
4A3
100
AcDbEntity
  8
0
100
AcDbSpline
 62
7
  6
CONTINUOUS
 70
0
 71
3
 72
11
 73
7
 74
0
 42
0.0000001
 43
0.0000001
 44
0.0000000001
 40
0.0
 40
0.0
 40
0.0
 40
0.0
 40
0.2876567391
 40
0.555407049
 40
0.7907201247
 40
1.0
 40
1.0
 40
1.0
 40
1.0
 10
95.0679937828
 20
70.0530491845
 30
0.0
 10
95.0911522379
 20
70.0530491845
 30
0.0
 10
95.1361145647
 20
70.0468951465
 30
0.0
 10
95.1951431274
 20
70.0204271881
 30
0.0
 10
95.2369474898
 20
69.9787881757
 30
0.0
 10
95.2479937828
 20
69.9426185126
 30
0.0
 10
95.2479937828
 20
69.9257699639
 30
0.0
  0
SPLINE
  5
4A4
100
AcDbEntity
  8
RUNDUNGEN
100
AcDbSpline
 62
7
  6
CONTINUOUS
 70
0
 71
3
 72
11
 73
7
 74
0
 42
0.0000001
 43
0.0000001
 44
0.0000000001
 40
0.0
 40
0.0
 40
0.0
 40
0.0
 40
0.2660806488
 40
0.5190943636
 40
0.7622194616
 40
1.0
 40
1.0
 40
1.0
 40
1.0
 10
112.5096048568
 20
53.2602181756
 30
0.0
 10
112.2540325823
 20
53.5183086396
 30
0.0
 10
111.7940185655
 20
54.0625775993
 30
0.0
 10
111.273250792
 20
54.9704444317
 30
0.0
 10
110.9539790114
 20
55.9272830918
 30
0.0
 10
110.8819732439
 20
56.5858494031
 30
0.0
 10
110.8819732554
 20
56.9104365353
 30
0.0
  0
SPLINE
  5
4A5
100
AcDbEntity
  8
0
100
AcDbSpline
 62
7
  6
CONTINUOUS
 70
0
 71
3
 72
8
 73
4
 74
0
 42
0.0000001
 43
0.0000001
 44
0.0000000001
 40
0.0
 40
0.0
 40
0.0
 40
0.0
 40
1.0
 40
1.0
 40
1.0
 40
1.0
 10
95.1160655059
 20
68.7755687425
 30
0.0
 10
95.1303637567
 20
68.7727622465
 30
0.0
 10
95.1444943096
 20
68.7686893764
 30
0.0
 10
95.1579937828
 20
68.7632047962
 30
0.0
  0
SPLINE
  5
4A6
100
AcDbEntity
  8
0
100
AcDbSpline
 62
7
  6
CONTINUOUS
 70
0
 71
3
 72
9
 73
5
 74
0
 42
0.0000001
 43
0.0000001
 44
0.0000000001
 40
0.0
 40
0.0
 40
0.0
 40
0.0
 40
0.5424756321
 40
1.0
 40
1.0
 40
1.0
 40
1.0
 10
95.1579937828
 20
68.7632047962
 30
0.0
 10
95.1829129293
 20
68.7530806191
 30
0.0
 10
95.2268569507
 20
68.7255201461
 30
0.0
 10
95.2479937828
 20
68.6756629312
 30
0.0
 10
95.2479937828
 20
68.6529777577
 30
0.0
  0
SPLINE
  5
4A7
100
AcDbEntity
  8
RUNDUNGEN
100
AcDbSpline
 62
7
  6
CONTINUOUS
 70
0
 71
3
 72
12
 73
8
 74
0
 42
0.0000001
 43
0.0000001
 44
0.0000000001
 40
0.0
 40
0.0
 40
0.0
 40
0.0
 40
0.2295488423
 40
0.3548243544
 40
0.4846199331
 40
0.7477426437
 40
1.0
 40
1.0
 40
1.0
 40
1.0
 10
117.0543681252
 20
74.3962207001
 30
0.0
 10
116.8148842837
 20
74.1543771907
 30
0.0
 10
116.3599655109
 20
73.8608344086
 30
0.0
 10
115.6816385572
 20
73.6207529916
 30
0.0
 10
114.9248974996
 20
73.4725402277
 30
0.0
 10
113.9564769989
 20
73.4865313396
 30
0.0
 10
113.2113714677
 20
73.7093169939
 30
0.0
 10
112.8761826833
 20
73.8752761671
 30
0.0
  0
SPLINE
  5
4A8
100
AcDbEntity
  8
RUNDUNGEN
100
AcDbSpline
 62
7
  6
CONTINUOUS
 70
0
 71
3
 72
12
 73
8
 74
0
 42
0.0000001
 43
0.0000001
 44
0.0000000001
 40
0.0
 40
0.0
 40
0.0
 40
0.0
 40
0.252259356
 40
0.5153839756
 40
0.6451803977
 40
0.7704553584
 40
1.0
 40
1.0
 40
1.0
 40
1.0
 10
93.950710364
 20
75.7003852116
 30
0.0
 10
93.615518918
 20
75.5344247206
 30
0.0
 10
92.8704072824
 20
75.3116381187
 30
0.0
 10
91.9019794336
 20
75.297650128
 30
0.0
 10
91.1452357624
 20
75.4458669368
 30
0.0
 10
90.4669157343
 20
75.6859507022
 30
0.0
 10
90.0120043843
 20
75.9794906576
 30
0.0
 10
89.772524922
 20
76.2213297446
 30
0.0
  0
SPLINE
  5
4A9
100
AcDbEntity
  8
0
100
AcDbSpline
 62
7
  6
CONTINUOUS
 70
0
 71
3
 72
9
 73
5
 74
0
 42
0.0000001
 43
0.0000001
 44
0.0000000001
 40
0.0
 40
0.0
 40
0.0
 40
0.0
 40
0.4575243679
 40
1.0
 40
1.0
 40
1.0
 40
1.0
 10
93.9879937828
 20
68.6529777577
 30
0.0
 10
93.9879937828
 20
68.6756629312
 30
0.0
 10
94.009130615
 20
68.7255201461
 30
0.0
 10
94.0530746364
 20
68.7530806191
 30
0.0
 10
94.0779937828
 20
68.7632047962
 30
0.0
  0
SPLINE
  5
4AA
100
AcDbEntity
  8
0
100
AcDbSpline
 62
7
  6
CONTINUOUS
 70
0
 71
3
 72
9
 73
5
 74
0
 42
0.0000001
 43
0.0000001
 44
0.0000000001
 40
0.0
 40
0.0
 40
0.0
 40
0.0
 40
0.2441493338
 40
1.0
 40
1.0
 40
1.0
 40
1.0
 10
94.0779937828
 20
68.7632047962
 30
0.0
 10
94.0849241171
 20
68.7660204597
 30
0.0
 10
94.1139287642
 20
68.7759833313
 30
0.0
 10
94.1448353277
 20
68.7802569784
 30
0.0
 10
94.1679937828
 20
68.7802569784
 30
0.0
  0
SPLINE
  5
4AB
100
AcDbEntity
  8
0
100
AcDbSpline
 62
7
  6
CONTINUOUS
 70
0
 71
3
 72
11
 73
7
 74
0
 42
0.0000001
 43
0.0000001
 44
0.0000000001
 40
0.0
 40
0.0
 40
0.0
 40
0.0
 40
0.2092798753
 40
0.444592951
 40
0.7123432609
 40
1.0
 40
1.0
 40
1.0
 40
1.0
 10
93.9879937828
 20
69.9257699639
 30
0.0
 10
93.9879937828
 20
69.9426185126
 30
0.0
 10
93.9990400759
 20
69.9787881757
 30
0.0
 10
94.0408444383
 20
70.0204271881
 30
0.0
 10
94.099873001
 20
70.0468951465
 30
0.0
 10
94.1448353277
 20
70.0530491845
 30
0.0
 10
94.1679937828
 20
70.0530491845
 30
0.0
  0
SPLINE
  5
4AC
100
AcDbEntity
  8
0
100
AcDbSpline
 62
7
  6
CONTINUOUS
 70
0
 71
3
 72
9
 73
5
 74
0
 42
0.0000001
 43
0.0000001
 44
0.0000000001
 40
0.0
 40
0.0
 40
0.0
 40
0.0
 40
0.538986273
 40
1.0
 40
1.0
 40
1.0
 40
1.0
 10
96.0579937828
 20
67.252906331
 30
0.0
 10
96.1261881746
 20
67.252906331
 30
0.0
 10
96.2541265265
 20
67.2768461735
 30
0.0
 10
96.3611415224
 20
67.3597002993
 30
0.0
 10
96.3905904145
 20
67.4100494742
 30
0.0
  0
SPLINE
  5
4AD
100
AcDbEntity
  8
0
100
AcDbSpline
 62
7
  6
CONTINUOUS
 70
0
 71
3
 72
9
 73
5
 74
0
 42
0.0000001
 43
0.0000001
 44
0.0000000001
 40
0.0
 40
0.0
 40
0.0
 40
0.0
 40
0.2592261758
 40
1.0
 40
1.0
 40
1.0
 40
1.0
 10
96.3905904145
 20
67.4100494742
 30
0.0
 10
96.3950339566
 20
67.4176466591
 30
0.0
 10
96.410407958
 20
67.4479339437
 30
0.0
 10
96.4179937828
 20
67.4823139652
 30
0.0
 10
96.4179937828
 20
67.5074647722
 30
0.0
  0
SPLINE
  5
4AE
100
AcDbEntity
  8
KONSTRUKTIONSELEMENTE
100
AcDbSpline
 62
7
  6
CONTINUOUS
 70
0
 71
3
 72
9
 73
5
 74
0
 42
0.0000001
 43
0.0000001
 44
0.0000000001
 40
0.0
 40
0.0
 40
0.0
 40
0.0
 40
0.4962403058
 40
1.0
 40
1.0
 40
1.0
 40
1.0
 10
125.070354424
 20
164.409378066
 30
0.0
 10
125.070354424
 20
163.3232603639
 30
0.0
 10
124.7972264663
 20
161.1264132536
 30
0.0
 10
124.0072629188
 20
159.0616824884
 30
0.0
 10
123.5028173495
 20
158.0812708211
 30
0.0
  0
SPLINE
  5
4AF
100
AcDbEntity
  8
KONSTRUKTIONSELEMENTE
100
AcDbSpline
 62
7
  6
CONTINUOUS
 70
0
 71
3
 72
9
 73
5
 74
0
 42
0.0000001
 43
0.0000001
 44
0.0000000001
 40
0.0
 40
0.0
 40
0.0
 40
0.0
 40
0.5037576341
 40
1.0
 40
1.0
 40
1.0
 40
1.0
 10
79.639249845
 20
158.0786363991
 30
0.0
 10
79.1343873642
 20
159.0593844516
 30
0.0
 10
78.3437287746
 20
161.1249286054
 30
0.0
 10
78.070354424
 20
163.3227688424
 30
0.0
 10
78.070354424
 20
164.409378066
 30
0.0
  0
SPLINE
  5
4B0
100
AcDbEntity
  8
KONSTRUKTIONSELEMENTE
100
AcDbSpline
 62
7
  6
CONTINUOUS
 70
0
 71
3
 72
14
 73
10
 74
0
 42
0.0000001
 43
0.0000001
 44
0.0000000001
 40
0.0
 40
0.0
 40
0.0
 40
0.0
 40
0.1179254495
 40
0.2365624332
 40
0.3567213476
 40
0.4790595437
 40
0.6042057678
 40
0.7326468793
 40
1.0
 40
1.0
 40
1.0
 40
1.0
 10
78.070354424
 20
164.409378066
 30
0.0
 10
78.070354424
 20
165.1156132555
 30
0.0
 10
78.1843694989
 20
166.5349224522
 30
0.0
 10
78.6919865335
 20
168.6185957394
 30
0.0
 10
79.5212626724
 20
170.6249357157
 30
0.0
 10
80.6522345605
 20
172.5223948657
 30
0.0
 10
82.0608631788
 20
174.2872764161
 30
0.0
 10
84.3027537642
 20
176.4656151936
 30
0.0
 10
86.288555293
 20
177.8053729748
 30
0.0
 10
87.6971872127
 20
178.5665424748
 30
0.0
  0
SPLINE
  5
4B1
100
AcDbEntity
  8
KONSTRUKTIONSELEMENTE
100
AcDbSpline
 62
7
  6
CONTINUOUS
 70
0
 71
3
 72
14
 73
10
 74
0
 42
0.0000001
 43
0.0000001
 44
0.0000000001
 40
0.0
 40
0.0
 40
0.0
 40
0.0
 40
0.2673469477
 40
0.3957852908
 40
0.5209304584
 40
0.643268835
 40
0.7634285041
 40
0.8820705535
 40
1.0
 40
1.0
 40
1.0
 40
1.0
 10
115.4470563382
 20
178.5646384867
 30
0.0
 10
116.8552146654
 20
177.8034207656
 30
0.0
 10
118.8403110086
 20
176.4636802892
 30
0.0
 10
121.081371013
 20
174.2855751748
 30
0.0
 10
122.4894640254
 20
172.5209390757
 30
0.0
 10
123.6199885946
 20
170.6237912346
 30
0.0
 10
124.4489691814
 20
168.6178161595
 30
0.0
 10
124.95637436
 20
166.5345247039
 30
0.0
 10
125.070354424
 20
165.1154798314
 30
0.0
 10
125.070354424
 20
164.409378066
 30
0.0
  0
SPLINE
  5
4B2
100
AcDbEntity
  8
KONSTRUKTIONSELEMENTE
100
AcDbSpline
 62
7
  6
CONTINUOUS
 70
0
 71
3
 72
9
 73
5
 74
0
 42
0.0000001
 43
0.0000001
 44
0.0000000001
 40
0.0
 40
0.0
 40
0.0
 40
0.0
 40
0.2448925609
 40
1.0
 40
1.0
 40
1.0
 40
1.0
 10
109.2026948136
 20
154.0908991143
 30
0.0
 10
108.7956193151
 20
153.9586401074
 30
0.0
 10
107.1180733252
 20
153.4663893986
 30
0.0
 10
105.3863040343
 20
153.1624411689
 30
0.0
 10
104.0727214244
 20
153.0347608227
 30
0.0
  0
SPLINE
  5
4B3
100
AcDbEntity
  8
KONSTRUKTIONSELEMENTE
100
AcDbSpline
 62
7
  6
CONTINUOUS
 70
0
 71
3
 72
9
 73
5
 74
0
 42
0.0000001
 43
0.0000001
 44
0.0000000001
 40
0.0
 40
0.0
 40
0.0
 40
0.0
 40
0.2546729281
 40
1.0
 40
1.0
 40
1.0
 40
1.0
 10
99.0683275971
 20
153.0347210482
 30
0.0
 10
98.6245847132
 20
153.0778481719
 30
0.0
 10
96.8870525113
 20
153.2927646457
 30
0.0
 10
95.1709462909
 20
153.6898262665
 30
0.0
 10
93.9301650606
 20
154.0934481557
 30
0.0
  0
SPLINE
  5
4B4
100
AcDbEntity
  8
KONSTRUKTIONSELEMENTE
100
AcDbSpline
 62
7
  6
CONTINUOUS
 70
0
 71
3
 72
17
 73
13
 74
0
 42
0.0000001
 43
0.0000001
 44
0.0000000001
 40
0.0
 40
0.0
 40
0.0
 40
0.0
 40
0.0624824542
 40
0.124970712
 40
0.1874721605
 40
0.2499799163
 40
0.3748831941
 40
0.4998689354
 40
0.6248874345
 40
0.7499192178
 40
0.8749572444
 40
1.0
 40
1.0
 40
1.0
 40
1.0
 10
92.9392089612
 20
133.754562017
 30
0.0
 10
92.9392089612
 20
133.8951670883
 30
0.0
 10
92.9687057154
 20
134.1771890373
 30
0.0
 10
93.0944808723
 20
134.5822285076
 30
0.0
 10
93.2861326657
 20
134.9600064474
 30
0.0
 10
93.6079740717
 20
135.4228393828
 30
0.0
 10
94.1024284223
 20
135.9289528052
 30
0.0
 10
94.7776832633
 20
136.4380398249
 30
0.0
 10
95.5058381783
 20
136.8676173102
 30
0.0
 10
96.2697760393
 20
137.2288420981
 30
0.0
 10
97.0594083631
 20
137.5292717165
 30
0.0
 10
97.5985365714
 20
137.6923363484
 30
0.0
 10
97.870354424
 20
137.7650876724
 30
0.0
  0
SPLINE
  5
4B5
100
AcDbEntity
  8
KONSTRUKTIONSELEMENTE
100
AcDbSpline
 62
7
  6
CONTINUOUS
 70
0
 71
3
 72
10
 73
6
 74
0
 42
0.0000001
 43
0.0000001
 44
0.0000000001
 40
0.0
 40
0.0
 40
0.0
 40
0.0
 40
0.4997318856
 40
0.7498850186
 40
1.0
 40
1.0
 40
1.0
 40
1.0
 10
92.3884788416
 20
130.204562017
 30
0.0
 10
92.5520857205
 20
130.5465818266
 30
0.0
 10
92.7608710943
 20
131.0807547139
 30
0.0
 10
92.9127642784
 20
131.8257459643
 30
0.0
 10
92.9392089612
 20
132.2058046446
 30
0.0
 10
92.9392089612
 20
132.395562017
 30
0.0
  0
SPLINE
  5
4B6
100
AcDbEntity
  8
KONSTRUKTIONSELEMENTE
100
AcDbSpline
 62
7
  6
CONTINUOUS
 70
0
 71
3
 72
10
 73
6
 74
0
 42
0.0000001
 43
0.0000001
 44
0.0000000001
 40
0.0
 40
0.0
 40
0.0
 40
0.0
 40
0.2501149814
 40
0.5002681144
 40
1.0
 40
1.0
 40
1.0
 40
1.0
 10
110.2014998868
 20
132.395562017
 30
0.0
 10
110.2014998868
 20
132.2058046446
 30
0.0
 10
110.2279445696
 20
131.8257459643
 30
0.0
 10
110.3798377537
 20
131.0807547139
 30
0.0
 10
110.5886231275
 20
130.5465818266
 30
0.0
 10
110.7522300064
 20
130.204562017
 30
0.0
  0
SPLINE
  5
4B7
100
AcDbEntity
  8
KONSTRUKTIONSELEMENTE
100
AcDbSpline
 62
7
  6
CONTINUOUS
 70
0
 71
3
 72
17
 73
13
 74
0
 42
0.0000001
 43
0.0000001
 44
0.0000000001
 40
0.0
 40
0.0
 40
0.0
 40
0.0
 40
0.1250242168
 40
0.2500431567
 40
0.375054379
 40
0.5000503235
 40
0.6250176108
 40
0.7499166089
 40
0.8124342488
 40
0.874951449
 40
0.9374761906
 40
1.0
 40
1.0
 40
1.0
 40
1.0
 10
105.270354424
 20
137.7650876724
 30
0.0
 10
105.542131947
 20
137.6923471425
 30
0.0
 10
106.0811793738
 20
137.5293083372
 30
0.0
 10
106.8706920398
 20
137.2289350123
 30
0.0
 10
107.6345205263
 20
136.8678071913
 30
0.0
 10
108.362571741
 20
136.438328459
 30
0.0
 10
109.0377943796
 20
135.9293728934
 30
0.0
 10
109.5323034924
 20
135.4233556044
 30
0.0
 10
109.8542517042
 20
134.9605400081
 30
0.0
 10
110.0460570809
 20
134.5826821978
 30
0.0
 10
110.1719523329
 20
134.1774567543
 30
0.0
 10
110.2014998868
 20
133.8952601349
 30
0.0
 10
110.2014998868
 20
133.754562017
 30
0.0
  0
SPLINE
  5
4B8
100
AcDbEntity
  8
RUNDUNGEN
100
AcDbSpline
 62
7
  6
CONTINUOUS
 70
0
 71
3
 72
9
 73
5
 74
0
 42
0.0000001
 43
0.0000001
 44
0.0000000001
 40
0.0
 40
0.0
 40
0.0
 40
0.0
 40
0.2519459173
 40
1.0
 40
1.0
 40
1.0
 40
1.0
 10
85.7768133684
 20
149.3320705977
 30
0.0
 10
85.8214460251
 20
149.3769061189
 30
0.0
 10
86.0032418046
 20
149.5501637169
 30
0.0
 10
86.203793119
 20
149.7038633888
 30
0.0
 10
86.3620739606
 20
149.8050058147
 30
0.0
  0
SPLINE
  5
4B9
100
AcDbEntity
  8
RUNDUNGEN
100
AcDbSpline
 62
7
  6
CONTINUOUS
 70
0
 71
3
 72
9
 73
5
 74
0
 42
0.0000001
 43
0.0000001
 44
0.0000000001
 40
0.0
 40
0.0
 40
0.0
 40
0.0
 40
0.2485467635
 40
1.0
 40
1.0
 40
1.0
 40
1.0
 10
116.7786348874
 20
149.8050058147
 30
0.0
 10
116.8312260217
 20
149.7713997582
 30
0.0
 10
117.0389763171
 20
149.6302403762
 30
0.0
 10
117.2307714531
 20
149.4657997
 30
0.0
 10
117.3638954796
 20
149.3320705977
 30
0.0
  0
SPLINE
  5
4BA
100
AcDbEntity
  8
RUNDUNGEN
100
AcDbSpline
 62
7
  6
CONTINUOUS
 70
0
 71
3
 72
17
 73
13
 74
0
 42
0.0000001
 43
0.0000001
 44
0.0000000001
 40
0.0
 40
0.0
 40
0.0
 40
0.0
 40
0.0242802621
 40
0.0512676552
 40
0.0828903927
 40
0.1202775594
 40
0.1639986701
 40
0.2142369127
 40
0.3338828698
 40
0.4770935617
 40
0.6397631148
 40
1.0
 40
1.0
 40
1.0
 40
1.0
 10
84.320354424
 20
141.3308414586
 30
0.0
 10
84.320354424
 20
141.357064029
 30
0.0
 10
84.3310371395
 20
141.4127793842
 30
0.0
 10
84.3760425936
 20
141.4914870383
 30
0.0
 10
84.4479942108
 20
141.5671079398
 30
0.0
 10
84.5460404049
 20
141.6399779964
 30
0.0
 10
84.6697252259
 20
141.7099846753
 30
0.0
 10
84.8804697974
 20
141.8044388901
 30
0.0
 10
85.2035433453
 20
141.9073803081
 30
0.0
 10
85.6529975323
 20
142.0052491959
 30
0.0
 10
86.3656860445
 20
142.1065858276
 30
0.0
 10
86.9313002598
 20
142.1346890359
 30
0.0
 10
87.320354424
 20
142.1346890359
 30
0.0
  0
SPLINE
  5
4BB
100
AcDbEntity
  8
KONSTRUKTIONSELEMENTE
100
AcDbSpline
 62
7
  6
CONTINUOUS
 70
0
 71
3
 72
24
 73
20
 74
0
 42
0.0000001
 43
0.0000001
 44
0.0000000001
 40
0.0
 40
0.0
 40
0.0
 40
0.0
 40
0.1895472297
 40
0.3730731398
 40
0.46043327
 40
0.5436274366
 40
0.6217482281
 40
0.6939232281
 40
0.7593447659
 40
0.8172957912
 40
0.8671917714
 40
0.9086299276
 40
0.9414792261
 40
0.9547861621
 40
0.9661654962
 40
0.9758622321
 40
0.9842866076
 40
0.9920714713
 40
1.0
 40
1.0
 40
1.0
 40
1.0
 10
92.3884788416
 20
130.204562017
 30
0.0
 10
92.1466875576
 20
129.6990978857
 30
0.0
 10
91.7133741117
 20
128.6834825639
 30
0.0
 10
91.2690202443
 20
127.395949338
 30
0.0
 10
90.9748422374
 20
126.391301239
 30
0.0
 10
90.7897940888
 20
125.6797468267
 30
0.0
 10
90.6364204177
 20
125.0066741076
 30
0.0
 10
90.5145285444
 20
124.3806362571
 30
0.0
 10
90.423904091
 20
123.8095856805
 30
0.0
 10
90.3643303376
 20
123.300711112
 30
0.0
 10
90.3354449337
 20
122.8600488411
 30
0.0
 10
90.3370890808
 20
122.4927004162
 30
0.0
 10
90.3646447174
 20
122.2342052573
 30
0.0
 10
90.4064317974
 20
122.0690165169
 30
0.0
 10
90.4435717142
 20
121.9740266935
 30
0.0
 10
90.4890538869
 20
121.8989379176
 30
0.0
 10
90.5439068778
 20
121.8440728656
 30
0.0
 10
90.6085633102
 20
121.8110061138
 30
0.0
 10
90.6554708407
 20
121.804562017
 30
0.0
 10
90.6789082852
 20
121.804562017
 30
0.0
  0
SPLINE
  5
4BC
100
AcDbEntity
  8
RUNDUNGEN
100
AcDbSpline
 62
7
  6
CONTINUOUS
 70
0
 71
3
 72
11
 73
7
 74
0
 42
0.0000001
 43
0.0000001
 44
0.0000000001
 40
0.0
 40
0.0
 40
0.0
 40
0.0
 40
0.2573683187
 40
0.5111859331
 40
0.7587974319
 40
1.0
 40
1.0
 40
1.0
 40
1.0
 10
90.3290229918
 20
150.6329891417
 30
0.0
 10
90.7118876641
 20
150.6329891417
 30
0.0
 10
91.4724086894
 20
150.6497909964
 30
0.0
 10
92.5994654695
 20
150.7136340091
 30
0.0
 10
93.7020727404
 20
150.7817103054
 30
0.0
 10
94.4292146842
 20
150.804562017
 30
0.0
 10
94.7880309622
 20
150.804562017
 30
0.0
  0
SPLINE
  5
4BD
100
AcDbEntity
  8
KONSTRUKTIONSELEMENTE
100
AcDbSpline
 62
7
  6
CONTINUOUS
 70
0
 71
3
 72
24
 73
20
 74
0
 42
0.0000001
 43
0.0000001
 44
0.0000000001
 40
0.0
 40
0.0
 40
0.0
 40
0.0
 40
0.0079285287
 40
0.0157133924
 40
0.0241377679
 40
0.0338345038
 40
0.0452138379
 40
0.0585207739
 40
0.0913700724
 40
0.1328082286
 40
0.1827042088
 40
0.2406552341
 40
0.3060767719
 40
0.3782517719
 40
0.4563725634
 40
0.53956673
 40
0.6269268602
 40
0.8104527703
 40
1.0
 40
1.0
 40
1.0
 40
1.0
 10
112.4618005628
 20
121.804562017
 30
0.0
 10
112.4852380073
 20
121.804562017
 30
0.0
 10
112.5321455378
 20
121.8110061138
 30
0.0
 10
112.5968019702
 20
121.8440728656
 30
0.0
 10
112.6516549611
 20
121.8989379176
 30
0.0
 10
112.6971371338
 20
121.9740266935
 30
0.0
 10
112.7342770506
 20
122.0690165169
 30
0.0
 10
112.7760641306
 20
122.2342052573
 30
0.0
 10
112.8036197672
 20
122.4927004162
 30
0.0
 10
112.8052639143
 20
122.8600488411
 30
0.0
 10
112.7763785104
 20
123.300711112
 30
0.0
 10
112.716804757
 20
123.8095856805
 30
0.0
 10
112.6261803036
 20
124.3806362571
 30
0.0
 10
112.5042884303
 20
125.0066741076
 30
0.0
 10
112.3509147592
 20
125.6797468267
 30
0.0
 10
112.1658666106
 20
126.391301239
 30
0.0
 10
111.8716886037
 20
127.395949338
 30
0.0
 10
111.4273347363
 20
128.6834825639
 30
0.0
 10
110.9940212904
 20
129.6990978857
 30
0.0
 10
110.7522300064
 20
130.204562017
 30
0.0
  0
SPLINE
  5
4BE
100
AcDbEntity
  8
RUNDUNGEN
100
AcDbSpline
 62
7
  6
CONTINUOUS
 70
0
 71
3
 72
17
 73
13
 74
0
 42
0.0000001
 43
0.0000001
 44
0.0000000001
 40
0.0
 40
0.0
 40
0.0
 40
0.0
 40
0.0242802621
 40
0.0512676552
 40
0.0828903927
 40
0.1202775594
 40
0.1639986701
 40
0.2142369127
 40
0.3338828698
 40
0.4770935617
 40
0.6397631148
 40
1.0
 40
1.0
 40
1.0
 40
1.0
 10
118.820354424
 20
137.0007144397
 30
0.0
 10
118.820354424
 20
137.0269370101
 30
0.0
 10
118.8096717085
 20
137.0826523653
 30
0.0
 10
118.7646662544
 20
137.1613600193
 30
0.0
 10
118.6927146372
 20
137.2369809208
 30
0.0
 10
118.5946684431
 20
137.3098509775
 30
0.0
 10
118.4709836221
 20
137.3798576564
 30
0.0
 10
118.2602390506
 20
137.4743118712
 30
0.0
 10
117.9371655027
 20
137.5772532892
 30
0.0
 10
117.4877113157
 20
137.6751221769
 30
0.0
 10
116.7750228034
 20
137.7764588087
 30
0.0
 10
116.2094085882
 20
137.804562017
 30
0.0
 10
115.820354424
 20
137.804562017
 30
0.0
  0
SPLINE
  5
4BF
100
AcDbEntity
  8
RUNDUNGEN
100
AcDbSpline
 62
7
  6
CONTINUOUS
 70
0
 71
3
 72
17
 73
13
 74
0
 42
0.0000001
 43
0.0000001
 44
0.0000000001
 40
0.0
 40
0.0
 40
0.0
 40
0.0
 40
0.0242802621
 40
0.0512676552
 40
0.0828903927
 40
0.1202775594
 40
0.1639986701
 40
0.2142369127
 40
0.3338828698
 40
0.4770935617
 40
0.6397631148
 40
1.0
 40
1.0
 40
1.0
 40
1.0
 10
118.820354424
 20
141.3308414586
 30
0.0
 10
118.820354424
 20
141.357064029
 30
0.0
 10
118.8096717085
 20
141.4127793842
 30
0.0
 10
118.7646662544
 20
141.4914870383
 30
0.0
 10
118.6927146372
 20
141.5671079398
 30
0.0
 10
118.5946684431
 20
141.6399779964
 30
0.0
 10
118.4709836221
 20
141.7099846753
 30
0.0
 10
118.2602390506
 20
141.8044388901
 30
0.0
 10
117.9371655027
 20
141.9073803081
 30
0.0
 10
117.4877113157
 20
142.0052491959
 30
0.0
 10
116.7750228034
 20
142.1065858276
 30
0.0
 10
116.2094085882
 20
142.1346890359
 30
0.0
 10
115.820354424
 20
142.1346890359
 30
0.0
  0
SPLINE
  5
4C0
100
AcDbEntity
  8
RUNDUNGEN
100
AcDbSpline
 62
7
  6
CONTINUOUS
 70
0
 71
3
 72
17
 73
13
 74
0
 42
0.0000001
 43
0.0000001
 44
0.0000000001
 40
0.0
 40
0.0
 40
0.0
 40
0.0
 40
0.0242802621
 40
0.0512676552
 40
0.0828903927
 40
0.1202775594
 40
0.1639986701
 40
0.2142369127
 40
0.3338828698
 40
0.4770935617
 40
0.6397631148
 40
1.0
 40
1.0
 40
1.0
 40
1.0
 10
84.320354424
 20
137.0007144397
 30
0.0
 10
84.320354424
 20
137.0269370101
 30
0.0
 10
84.3310371395
 20
137.0826523653
 30
0.0
 10
84.3760425936
 20
137.1613600193
 30
0.0
 10
84.4479942108
 20
137.2369809208
 30
0.0
 10
84.5460404049
 20
137.3098509775
 30
0.0
 10
84.6697252259
 20
137.3798576564
 30
0.0
 10
84.8804697974
 20
137.4743118712
 30
0.0
 10
85.2035433453
 20
137.5772532892
 30
0.0
 10
85.6529975323
 20
137.6751221769
 30
0.0
 10
86.3656860445
 20
137.7764588087
 30
0.0
 10
86.9313002598
 20
137.804562017
 30
0.0
 10
87.320354424
 20
137.804562017
 30
0.0
  0
SPLINE
  5
4C1
100
AcDbEntity
  8
RUNDUNGEN
100
AcDbSpline
 62
7
  6
CONTINUOUS
 70
0
 71
3
 72
10
 73
6
 74
0
 42
0.0000001
 43
0.0000001
 44
0.0000000001
 40
0.0
 40
0.0
 40
0.0
 40
0.0
 40
0.2601847318
 40
0.5162467885
 40
1.0
 40
1.0
 40
1.0
 40
1.0
 10
114.5011999598
 20
150.5847458895
 30
0.0
 10
114.7091030762
 20
150.555134077
 30
0.0
 10
115.1194915763
 20
150.4785178056
 30
0.0
 10
115.8966912687
 20
150.2606247965
 30
0.0
 10
116.4496226142
 20
150.0152466696
 30
0.0
 10
116.7786348874
 20
149.8050058147
 30
0.0
  0
SPLINE
  5
4C2
100
AcDbEntity
  8
RUNDUNGEN
100
AcDbSpline
 62
7
  6
CONTINUOUS
 70
0
 71
3
 72
10
 73
6
 74
0
 42
0.0000001
 43
0.0000001
 44
0.0000000001
 40
0.0
 40
0.0
 40
0.0
 40
0.0
 40
0.2601847325
 40
0.5162467884
 40
1.0
 40
1.0
 40
1.0
 40
1.0
 10
88.6395084555
 20
150.5847458279
 30
0.0
 10
88.4316053777
 20
150.5551340081
 30
0.0
 10
88.0212169559
 20
150.4785177291
 30
0.0
 10
87.244017412
 20
150.2606247275
 30
0.0
 10
86.6910861747
 20
150.0152466319
 30
0.0
 10
86.3620739606
 20
149.8050058147
 30
0.0
  0
SPLINE
  5
4C3
100
AcDbEntity
  8
RUNDUNGEN
100
AcDbSpline
 62
7
  6
CONTINUOUS
 70
0
 71
3
 72
11
 73
7
 74
0
 42
0.0000001
 43
0.0000001
 44
0.0000000001
 40
0.0
 40
0.0
 40
0.0
 40
0.0
 40
0.2573681869
 40
0.5111855059
 40
0.758797108
 40
1.0
 40
1.0
 40
1.0
 40
1.0
 10
112.8116858562
 20
150.6329891417
 30
0.0
 10
112.4288189709
 20
150.6329891417
 30
0.0
 10
111.6682937896
 20
150.6497910903
 30
0.0
 10
110.5412304381
 20
150.7136350973
 30
0.0
 10
109.4386159817
 20
150.7817111931
 30
0.0
 10
108.7114688072
 20
150.804562017
 30
0.0
 10
108.3526497896
 20
150.804562017
 30
0.0
  0
ELLIPSE
  5
4C4
100
AcDbEntity
  8
0
100
AcDbEllipse
 62
7
  6
CONTINUOUS
 10
325.0547760423
 20
145.804562017
 30
0.0
 11
-1.0868367001
 21
4.9695299996
 31
0.0
 40
0.5071182934
 41
-1.6812517444
 42
-0.8981209173
  0
ELLIPSE
  5
4C5
100
AcDbEntity
  8
RUNDUNGEN
100
AcDbEllipse
 62
7
  6
CONTINUOUS
 10
335.6426938563
 20
145.804562017
 30
0.0
 11
1.0868367001
 21
4.9695299996
 31
0.0
 40
0.5071182934
 41
0.8981209173
 42
1.6812517444
  0
ENDSEC
  0
SECTION
  2
OBJECTS
  0
DICTIONARY
  5
C
100
AcDbDictionary
280
0
281
1
  3
ACAD_GROUP
350
D
  3
ACAD_MLINESTYLE
350
17
  3
ACAD_LAYOUT
350
1A
  3
ACAD_PLOTSETTINGS
350
19
  3
ACAD_PLOTSTYLENAME
350
E
  0
DICTIONARY
  5
D
102
{ACAD_REACTORS
330
C
102
}
100
AcDbDictionary
280
0
281
1
  0
ACDBDICTIONARYWDFLT
  5
E
102
{ACAD_REACTORS
330
C
102
}
100
AcDbDictionary
281
1
  3
Normal
350
F
100
AcDbDictionaryWithDefault
340
F
  0
DICTIONARY
  5
17
102
{ACAD_REACTORS
330
C
102
}
100
AcDbDictionary
280
0
281
1
  3
Standard
350
18
  0
DICTIONARY
  5
19
102
{ACAD_REACTORS
330
C
102
}
100
AcDbDictionary
281
1
  0
DICTIONARY
  5
1A
102
{ACAD_REACTORS
330
C
102
}
100
AcDbDictionary
281
1
  3
Model
350
4C6
  3
Layout1
350
4C7
  0
ACDBPLACEHOLDER
  5
F
102
{ACAD_REACTORS
330
E
102
}
  0
MLINESTYLE
  5
18
102
{ACAD_REACTORS
330
17
102
}
100
AcDbMlineStyle
  2
STANDARD
 70
0
  3

 62
256
 51
90.0
 52
90.0
 71
2
 49
0.5
 62
256
  6
BYLAYER
 49
-0.5
 62
256
  6
BYLAYER
  0
LAYOUT
  5
4C6
102
{ACAD_REACTORS
330
1A
102
}
100
AcDbPlotSettings
  1

  2
none_device
  4
ISO_A3_(420.00_x_297.00_MM)
  6

 40
0.0
 41
0.0
 42
0.0
 43
0.0
 44
420.0
 45
297.0
 46
0.0
 47
0.0
 48
0.0
 49
0.0
140
0.0
141
0.0
142
1.0
143
1.0
 70
1024
 72
1
 73
0
 74
0
  7

 75
0
147
1.0
148
0.0
149
0.0
100
AcDbLayout
  1
Model
 70
0
 71
0
 10
0.0
 20
0.0
 11
420.0
 21
297.0
 12
0.0
 22
0.0
 32
0.0
 14
0.0
 24
0.0
 34
0.0
 15
0.0
 25
0.0
 35
0.0
146
0.0
 13
0.0
 23
0.0
 33
0.0
 16
1.0
 26
0.0
 36
0.0
 17
0.0
 27
1.0
 37
0.0
 76
0
330
20A
345
0
346
0
  0
LAYOUT
  5
4C7
102
{ACAD_REACTORS
330
1A
102
}
100
AcDbPlotSettings
  1

  2
none_device
  4
ISO_A3_(420.00_x_297.00_MM)
  6

 40
0.0
 41
0.0
 42
0.0
 43
0.0
 44
420.0
 45
297.0
 46
0.0
 47
0.0
 48
0.0
 49
0.0
140
0.0
141
0.0
142
1.0
143
1.0
 70
0
 72
1
 73
0
 74
0
  7

 75
0
147
1.0
148
0.0
149
0.0
100
AcDbLayout
  1
Layout1
 70
0
 71
1
 10
0.0
 20
0.0
 11
420.0
 21
297.0
 12
0.0
 22
0.0
 32
0.0
 14
0.0
 24
0.0
 34
0.0
 15
0.0
 25
0.0
 35
0.0
146
0.0
 13
0.0
 23
0.0
 33
0.0
 16
1.0
 26
0.0
 36
0.0
 17
0.0
 27
1.0
 37
0.0
 76
0
330
20B
345
0
346
0
  0
ENDSEC
  0
EOF
