999
DXF file: IBK-RG-1-16_7903045_M34546-P-5.dxf
999
Pro/ENGINEER 2010140 by Parametric Technology Corporation
  0
SECTION
  2
HEADER
  9
$ACADVER
  1
AC1015
  9
$DWGCODEPAGE
  3
ANSI_1252
  9
$EXTMAX
 10
594.0
 20
420.0
 30
0.0
  9
$EXTMIN
 10
0.0
 20
0.0
 30
0.0
  9
$LIMMIN
 10
0.0
 20
0.0
  9
$LIMMAX
 10
594.0
 20
420.0
  9
$VIEWCTR
 10
297.0
 20
210.0
  9
$VIEWSIZE
 40
420.0
  9
$CLAYER
  8
0
  9
$LTSCALE
 40
32.67
  9
$CELTYPE
  6
BYLAYER
  9
$DIMSCALE
 40
1.0
  9
$DIMASZ
 40
3.5
  9
$DIMEXO
 40
3.7125
  9
$DIMDLI
 40
22.572
  9
$DIMEXE
 40
10.692
  9
$DIMCEN
 40
5.346
  9
$DIMLFAC
 40
1.0
  9
$DIMBLK
  1
_FILLED
  9
$DIMTXT
 40
3.5
  9
$DIMTOL
 70
1
  9
$DIMLIM
 70
0
  9
$DIMTFAC
 40
1.0
  9
$DIMTP
 40
0.005
  9
$DIMTM
 40
0.005
  9
$PDMODE
 70
3
  9
$PDSIZE
 40
0.3125
  9
$HANDSEED
  5
4B8
  9
$TILEMODE
 70
1
  9
$MEASUREMENT
 70
1
  9
$INSUNITS
 70
4
  0
ENDSEC
  0
SECTION
  2
CLASSES
  0
CLASS
  1
ACDBDICTIONARYWDFLT
  2
AcDbDictionaryWithDefault
  3
AutoCAD 2000
 90
0
280
0
281
0
  0
CLASS
  1
ACDBPLACEHOLDER
  2
AcDbPlaceHolder
  3
AutoCAD 2000
 90
0
280
0
281
0
  0
CLASS
  1
LAYOUT
  2
AcDbLayout
  3
AutoCAD 2000
 90
0
280
0
281
0
  0
ENDSEC
  0
SECTION
  2
TABLES
  0
TABLE
  2
VPORT
  5
8
100
AcDbSymbolTable
 70
2
  0
VPORT
  5
1F4
100
AcDbSymbolTableRecord
100
AcDbViewportTableRecord
  2
*ACTIVE
 70
0
 10
0.0
 20
0.0
 11
1.0
 21
1.0
 12
297.0
 22
210.0
 13
0.0
 23
0.0
 14
1.0
 24
1.0
 15
0.0
 25
0.0
 16
0.0
 26
0.0
 36
1.0
 17
0.0
 27
0.0
 37
0.0
 40
420.0
 41
1.4142857143
 42
50.0
 43
0.0
 44
0.0
 50
0.0
 51
0.0
 71
0
 72
100
 73
1
 74
1
 75
0
 76
0
 77
0
 78
0
  0
ENDTAB
  0
TABLE
  2
LTYPE
  5
5
100
AcDbSymbolTable
 70
6
  0
LTYPE
  5
14
100
AcDbSymbolTableRecord
100
AcDbLinetypeTableRecord
  2
BYBLOCK
 70
0
  3

 72
65
 73
0
 40
0.0
  0
LTYPE
  5
15
100
AcDbSymbolTableRecord
100
AcDbLinetypeTableRecord
  2
BYLAYER
 70
0
  3

 72
65
 73
0
 40
0.0
  0
LTYPE
  5
16
100
AcDbSymbolTableRecord
100
AcDbLinetypeTableRecord
  2
CONTINUOUS
 70
64
  3
Solid line
 72
65
 73
0
 40
0.0
  0
LTYPE
  5
1F5
100
AcDbSymbolTableRecord
100
AcDbLinetypeTableRecord
  2
CENTER
 70
64
  3
____ _ ____ _ ____ _ ____ _ ____ _ ____ _ ____
 72
65
 73
4
 40
0.6
 49
0.375
 74
0
 49
-0.075
 74
0
 49
0.075
 74
0
 49
-0.075
 74
0
  0
LTYPE
  5
1F6
100
AcDbSymbolTableRecord
100
AcDbLinetypeTableRecord
  2
HIDDEN
 70
64
  3
- - - - - - - - - - - - - - - - - - - -
 72
65
 73
2
 40
0.2
 49
0.1
 74
0
 49
-0.1
 74
0
  0
LTYPE
  5
1F7
100
AcDbSymbolTableRecord
100
AcDbLinetypeTableRecord
  2
PHANTOM
 70
64
  3
_____ _ _ _____ _ _ _____ _ _ _____
 72
65
 73
6
 40
0.8
 49
0.45
 74
0
 49
-0.05
 74
0
 49
0.1
 74
0
 49
-0.05
 74
0
 49
0.1
 74
0
 49
-0.05
 74
0
  0
LTYPE
  5
1F8
100
AcDbSymbolTableRecord
100
AcDbLinetypeTableRecord
  2
DOT
 70
64
  3
. . . . . . . . . . . . . . . . . . . .
 72
65
 73
2
 40
0.2
 49
0.1
 74
0
 49
-0.1
 74
0
  0
LTYPE
  5
1F9
100
AcDbSymbolTableRecord
100
AcDbLinetypeTableRecord
  2
DASHED
 70
64
  3
- - - - - - - - - - - - - - - - - - - -
 72
65
 73
2
 40
0.2
 49
0.1
 74
0
 49
-0.1
 74
0
  0
ENDTAB
  0
TABLE
  2
LAYER
  5
2
100
AcDbSymbolTable
 70
36
  0
LAYER
  5
10
100
AcDbSymbolTableRecord
100
AcDbLayerTableRecord
  2
0
 70
0
 62
7
  6
CONTINUOUS
370
-3
390
F
  0
LAYER
  5
1FA
100
AcDbSymbolTableRecord
100
AcDbLayerTableRecord
  2
DEFAULT_1
 70
0
 62
7
  6
CENTER
370
-3
390
F
  0
LAYER
  5
1FB
100
AcDbSymbolTableRecord
100
AcDbLayerTableRecord
  2
DEFAULT_2
 70
0
 62
8
  6
HIDDEN
370
-3
390
F
  0
LAYER
  5
1FC
100
AcDbSymbolTableRecord
100
AcDbLayerTableRecord
  2
DEFAULT_3
 70
0
 62
7
  6
PHANTOM
370
-3
390
F
  0
LAYER
  5
1FD
100
AcDbSymbolTableRecord
100
AcDbLayerTableRecord
  2
BEZUGSACHSEN
 70
0
 62
7
  6
CONTINUOUS
370
-3
390
F
  0
LAYER
  5
1FE
100
AcDbSymbolTableRecord
100
AcDbLayerTableRecord
  2
BEZUGSEBENEN
 70
0
 62
7
  6
CONTINUOUS
370
-3
390
F
  0
LAYER
  5
1FF
100
AcDbSymbolTableRecord
100
AcDbLayerTableRecord
  2
BG_STARTBEZUEGE
 70
0
 62
7
  6
CONTINUOUS
370
-3
390
F
  0
LAYER
  5
200
100
AcDbSymbolTableRecord
100
AcDbLayerTableRecord
  2
FASEN
 70
0
 62
7
  6
CONTINUOUS
370
-3
390
F
  0
LAYER
  5
201
100
AcDbSymbolTableRecord
100
AcDbLayerTableRecord
  2
HILFEN
 70
0
 62
7
  6
CONTINUOUS
370
-3
390
F
  0
LAYER
  5
202
100
AcDbSymbolTableRecord
100
AcDbLayerTableRecord
  2
KONSTRUKTIONSELEMENTE
 70
0
 62
7
  6
CONTINUOUS
370
-3
390
F
  0
LAYER
  5
203
100
AcDbSymbolTableRecord
100
AcDbLayerTableRecord
  2
NORM
 70
0
 62
7
  6
CONTINUOUS
370
-3
390
F
  0
LAYER
  5
204
100
AcDbSymbolTableRecord
100
AcDbLayerTableRecord
  2
PLATZIERUNG
 70
0
 62
7
  6
CONTINUOUS
370
-3
390
F
  0
LAYER
  5
205
100
AcDbSymbolTableRecord
100
AcDbLayerTableRecord
  2
RUNDUNGEN
 70
0
 62
7
  6
CONTINUOUS
370
-3
390
F
  0
LAYER
  5
206
100
AcDbSymbolTableRecord
100
AcDbLayerTableRecord
  2
TEIL_STARTBEZUEGE
 70
0
 62
7
  6
CONTINUOUS
370
-3
390
F
  0
LAYER
  5
207
100
AcDbSymbolTableRecord
100
AcDbLayerTableRecord
  2
T_STARTBEZUEGE
 70
0
 62
7
  6
CONTINUOUS
370
-3
390
F
  0
ENDTAB
  0
TABLE
  2
STYLE
  5
3
100
AcDbSymbolTable
 70
1
  0
STYLE
  5
11
100
AcDbSymbolTableRecord
100
AcDbTextStyleTableRecord
  2
STANDARD
 70
0
 40
0.0
 41
0.7
 50
0.0
 71
0
 42
0.2
  3
txt
  4

  0
STYLE
  5
208
100
AcDbSymbolTableRecord
100
AcDbTextStyleTableRecord
  2
TEXTSTYLE_1
 70
0
 40
0.0
 41
0.8
 50
0.0
 71
0
 42
0.2
  3
gdt
  4

  0
ENDTAB
  0
TABLE
  2
VIEW
  5
6
100
AcDbSymbolTable
 70
0
  0
ENDTAB
  0
TABLE
  2
UCS
  5
7
100
AcDbSymbolTable
 70
0
  0
ENDTAB
  0
TABLE
  2
APPID
  5
9
100
AcDbSymbolTable
 70
1
  0
APPID
  5
209
100
AcDbSymbolTableRecord
100
AcDbRegAppTableRecord
  2
ACAD
 70
0
  0
ENDTAB
  0
TABLE
  2
BLOCK_RECORD
  5
1
100
AcDbSymbolTable
 70
0
  0
BLOCK_RECORD
  5
20A
100
AcDbSymbolTableRecord
100
AcDbBlockTableRecord
  2
*Model_Space
  0
BLOCK_RECORD
  5
20B
100
AcDbSymbolTableRecord
100
AcDbBlockTableRecord
  2
*Paper_Space
  0
ENDTAB
  0
TABLE
  2
DIMSTYLE
  5
A
100
AcDbSymbolTable
 70
1
100
AcDbDimStyleTable
 71
0
  0
DIMSTYLE
105
20C
100
AcDbSymbolTableRecord
100
AcDbDimStyleTableRecord
  2
STANDARD
 70
0
  3

  4

 40
1.0
 41
3.5
 42
0.0625
 43
0.38
 44
0.18
 45
0.0
 46
0.0
 47
0.005
 48
0.005
140
3.5
141
0.09
142
0.0
143
25.4
144
1.0
145
0.0
146
1.0
147
0.09
 71
1.0
 72
0.0
 73
0
 74
0
 75
0
 76
0
 77
1
 78
8
170
0
171
2
172
0
173
0
174
0
175
0
176
0
177
0
178
5
270
2
271
3
272
3
273
2
274
2
275
0
280
0
281
0
282
0
283
1
284
8
285
0
286
0
287
3
288
0
340
11
  0
ENDTAB
  0
ENDSEC
  0
SECTION
  2
BLOCKS
  0
BLOCK
  5
20
100
AcDbEntity
  8
0
100
AcDbBlockBegin
  2
*Model_Space
 70
0
 10
0.0
 20
0.0
 30
0.0
  3
*Model_Space
  1

  0
ENDBLK
  5
21
100
AcDbEntity
  8
0
100
AcDbBlockEnd
  0
BLOCK
  5
1C
100
AcDbEntity
  8
0
100
AcDbBlockBegin
  2
*Paper_Space
 70
0
 10
0.0
 20
0.0
 30
0.0
  3
*Paper_Space
  1

  0
ENDBLK
  5
1D
100
AcDbEntity
  8
0
100
AcDbBlockEnd
  0
ENDSEC
  0
SECTION
  2
ENTITIES
  0
MTEXT
  5
20D
100
AcDbEntity
  8
0
100
AcDbMText
 62
5
  6
CONTINUOUS
  7
STANDARD
 71
1
 72
1
 10
436.0414205156
 20
283.8273697637
 30
0.0
 11
0.0
 21
1.0
 31
0.0
 44
0.9
  1
RUD
 40
9.0
 41
24.0
  0
MTEXT
  5
20E
100
AcDbEntity
  8
0
100
AcDbMText
 62
5
  6
CONTINUOUS
  7
STANDARD
 71
1
 72
1
 10
543.7079081633
 20
257.9874127282
 30
0.0
 11
0.0
 21
1.0
 31
0.0
 44
0.9
  1
IBK-RG 1-16
 40
9.0
 41
73.0714285714
  0
MTEXT
  5
20F
100
AcDbEntity
  8
0
100
AcDbMText
 62
5
  6
CONTINUOUS
  7
STANDARD
 71
1
 72
1
 10
131.8835929108
 20
243.990769334
 30
0.0
 11
0.0
 21
1.0
 31
0.0
 44
0.9
  1
RUD IBK-RG 1-16
 40
9.0
 41
102.4285714286
  0
LINE
  5
210
100
AcDbEntity
  8
0
100
AcDbLine
 62
7
  6
CONTINUOUS
 10
0.0
 20
0.0
 11
0.0
 21
420.0
  0
LINE
  5
211
100
AcDbEntity
  8
0
100
AcDbLine
 62
7
  6
CONTINUOUS
 10
0.0
 20
0.0
 11
594.0
 21
0.0
  0
LINE
  5
212
100
AcDbEntity
  8
0
100
AcDbLine
 62
7
  6
CONTINUOUS
 10
0.0
 20
420.0
 11
594.0
 21
420.0
  0
LINE
  5
213
100
AcDbEntity
  8
0
100
AcDbLine
 62
7
  6
CONTINUOUS
 10
594.0
 20
0.0
 11
594.0
 21
420.0
  0
LINE
  5
214
100
AcDbEntity
  8
RUNDUNGEN
100
AcDbLine
 62
7
  6
CONTINUOUS
 10
257.3737515625
 20
7.6788380979
 11
253.8382176566
 21
11.2143720038
  0
LINE
  5
215
100
AcDbEntity
  8
0
100
AcDbLine
 62
7
  6
CONTINUOUS
 10
493.5122766506
 20
91.4495717436
 11
495.7038766506
 21
91.4495717436
  0
LINE
  5
216
100
AcDbEntity
  8
0
100
AcDbLine
 62
7
  6
CONTINUOUS
 10
482.8382608254
 20
103.4509470919
 11
506.3778924758
 21
103.4509470919
  0
LINE
  5
217
100
AcDbEntity
  8
RUNDUNGEN
100
AcDbLine
 62
7
  6
CONTINUOUS
 10
349.4742895602
 20
106.8504439075
 11
353.0098234661
 21
103.3149100015
  0
LINE
  5
218
100
AcDbEntity
  8
KONSTRUKTIONSELEMENTE
100
AcDbLine
 62
7
  6
CONTINUOUS
 10
361.4598697532
 20
121.7351619033
 11
357.9243358472
 21
125.2706958092
  0
LINE
  5
219
100
AcDbEntity
  8
KONSTRUKTIONSELEMENTE
100
AcDbLine
 62
7
  6
CONTINUOUS
 10
361.8134231438
 20
122.0887152939
 11
358.2778892378
 21
125.6242491998
  0
LINE
  5
21A
100
AcDbEntity
  8
RUNDUNGEN
100
AcDbLine
 62
7
  6
CONTINUOUS
 10
369.3211922554
 20
119.6262787908
 11
365.7856583495
 21
123.1618126967
  0
LINE
  5
21B
100
AcDbEntity
  8
0
100
AcDbLine
 62
7
  6
CONTINUOUS
 10
490.6073266506
 20
132.6642437675
 11
498.6088266506
 21
132.6642437675
  0
LINE
  5
21C
100
AcDbEntity
  8
0
100
AcDbLine
 62
7
  6
CONTINUOUS
 10
498.6088266506
 20
144.2695677416
 11
490.6073266506
 21
144.2695677416
  0
LINE
  5
21D
100
AcDbEntity
  8
0
100
AcDbLine
 62
7
  6
CONTINUOUS
 10
489.1717236906
 20
160.255059266
 11
500.0444296107
 21
160.255059266
  0
LINE
  5
21E
100
AcDbEntity
  8
0
100
AcDbLine
 62
7
  6
CONTINUOUS
 10
490.3426628293
 20
187.9486970919
 11
498.8734904719
 21
187.9486970919
  0
LINE
  5
21F
100
AcDbEntity
  8
KONSTRUKTIONSELEMENTE
100
AcDbLine
 62
7
  6
CONTINUOUS
 10
422.6246063258
 20
182.8998984759
 11
419.0890724199
 21
186.4354323819
  0
LINE
  5
220
100
AcDbEntity
  8
KONSTRUKTIONSELEMENTE
100
AcDbLine
 62
7
  6
CONTINUOUS
 10
422.9781597164
 20
183.2534518665
 11
419.4426258105
 21
186.7889857725
  0
LINE
  5
221
100
AcDbEntity
  8
0
100
AcDbLine
 62
7
  6
CONTINUOUS
 10
425.1080766506
 20
248.4486970919
 11
425.1080766506
 21
343.4486970919
  0
LINE
  5
222
100
AcDbEntity
  8
0
100
AcDbLine
 62
7
  6
CONTINUOUS
 10
490.3426628293
 20
215.6423349179
 11
498.8734904719
 21
215.6423349179
  0
LINE
  5
223
100
AcDbEntity
  8
KONSTRUKTIONSELEMENTE
100
AcDbLine
 62
7
  6
CONTINUOUS
 10
423.4731344632
 20
190.8194944252
 11
419.4426258105
 21
186.7889857725
  0
LINE
  5
224
100
AcDbEntity
  8
KONSTRUKTIONSELEMENTE
100
AcDbLine
 62
7
  6
CONTINUOUS
 10
419.0890724199
 20
186.4354323819
 11
415.0585637671
 21
182.4049237291
  0
LINE
  5
225
100
AcDbEntity
  8
KONSTRUKTIONSELEMENTE
100
AcDbLine
 62
7
  6
CONTINUOUS
 10
362.3083978906
 20
129.6547578526
 11
358.2778892378
 21
125.6242491998
  0
LINE
  5
226
100
AcDbEntity
  8
KONSTRUKTIONSELEMENTE
100
AcDbLine
 62
7
  6
CONTINUOUS
 10
357.9243358472
 20
125.2706958092
 11
353.8938271945
 21
121.2401871565
  0
LINE
  5
227
100
AcDbEntity
  8
KONSTRUKTIONSELEMENTE
100
AcDbLine
 62
7
  6
CONTINUOUS
 10
394.9060205033
 20
160.0603494436
 11
384.2994187855
 21
149.4537477258
  0
LINE
  5
228
100
AcDbEntity
  8
KONSTRUKTIONSELEMENTE
100
AcDbLine
 62
7
  6
CONTINUOUS
 10
427.0086683692
 20
187.2839605193
 11
422.9781597164
 21
183.2534518665
  0
LINE
  5
229
100
AcDbEntity
  8
KONSTRUKTIONSELEMENTE
100
AcDbLine
 62
7
  6
CONTINUOUS
 10
422.6246063258
 20
182.8998984759
 11
418.5940976731
 21
178.8693898232
  0
LINE
  5
22A
100
AcDbEntity
  8
KONSTRUKTIONSELEMENTE
100
AcDbLine
 62
7
  6
CONTINUOUS
 10
365.8439317965
 20
126.1192239467
 11
361.8134231438
 21
122.0887152939
  0
LINE
  5
22B
100
AcDbEntity
  8
KONSTRUKTIONSELEMENTE
100
AcDbLine
 62
7
  6
CONTINUOUS
 10
361.4598697532
 20
121.7351619033
 11
357.4293611004
 21
117.7046532505
  0
LINE
  5
22C
100
AcDbEntity
  8
KONSTRUKTIONSELEMENTE
100
AcDbLine
 62
7
  6
CONTINUOUS
 10
427.0793790473
 20
186.5768537381
 11
468.0437679118
 21
227.5412426026
  0
LINE
  5
22D
100
AcDbEntity
  8
KONSTRUKTIONSELEMENTE
100
AcDbLine
 62
7
  6
CONTINUOUS
 10
398.0880010186
 20
156.8783689283
 11
387.4813993008
 21
146.2717672105
  0
LINE
  5
22E
100
AcDbEntity
  8
RUNDUNGEN
100
AcDbLine
 62
7
  6
CONTINUOUS
 10
253.8382176566
 20
11.2143720038
 11
365.7858583471
 21
123.1620126943
  0
LINE
  5
22F
100
AcDbEntity
  8
KONSTRUKTIONSELEMENTE
100
AcDbLine
 62
7
  6
CONTINUOUS
 10
368.7430695994
 20
125.7656705561
 11
387.4517545746
 21
144.4743555312
  0
LINE
  5
230
100
AcDbEntity
  8
KONSTRUKTIONSELEMENTE
100
AcDbLine
 62
7
  6
CONTINUOUS
 10
399.8557679716
 20
156.8783689283
 11
418.5644529468
 21
175.5870539035
  0
LINE
  5
231
100
AcDbEntity
  8
KONSTRUKTIONSELEMENTE
100
AcDbLine
 62
7
  6
CONTINUOUS
 10
371.9250501147
 20
122.5836900407
 11
390.6337350899
 21
141.2923750159
  0
LINE
  5
232
100
AcDbEntity
  8
KONSTRUKTIONSELEMENTE
100
AcDbLine
 62
7
  6
CONTINUOUS
 10
403.037748487
 20
153.6963884129
 11
421.7464334621
 21
172.4050733881
  0
LINE
  5
233
100
AcDbEntity
  8
RUNDUNGEN
100
AcDbLine
 62
7
  6
CONTINUOUS
 10
257.3737515625
 20
7.6788380979
 11
369.3213778627
 21
119.6264643981
  0
LINE
  5
234
100
AcDbEntity
  8
0
100
AcDbLine
 62
7
  6
CONTINUOUS
 10
490.3426628293
 20
235.9154848529
 11
498.8734904719
 21
235.9154848529
  0
LINE
  5
235
100
AcDbEntity
  8
0
100
AcDbLine
 62
7
  6
CONTINUOUS
 10
498.8734904719
 20
243.3359727439
 11
490.3426628293
 21
243.3359727439
  0
LINE
  5
236
100
AcDbEntity
  8
0
100
AcDbLine
 62
7
  6
CONTINUOUS
 10
457.1080766506
 20
248.4486970919
 11
457.1080766506
 21
343.4486970919
  0
LINE
  5
237
100
AcDbEntity
  8
KONSTRUKTIONSELEMENTE
100
AcDbLine
 62
7
  6
CONTINUOUS
 10
392.4311467692
 20
141.3220197422
 11
403.037748487
 21
151.92862146
  0
LINE
  5
238
100
AcDbEntity
  8
KONSTRUKTIONSELEMENTE
100
AcDbLine
 62
7
  6
CONTINUOUS
 10
432.7840377411
 20
180.9678039329
 11
473.7006221613
 21
221.8843883531
  0
LINE
  5
239
100
AcDbEntity
  8
KONSTRUKTIONSELEMENTE
100
AcDbLine
 62
7
  6
CONTINUOUS
 10
363.8640328092
 20
111.2699815417
 11
372.2786035053
 21
119.6845522379
  0
LINE
  5
23A
100
AcDbEntity
  8
KONSTRUKTIONSELEMENTE
100
AcDbLine
 62
7
  6
CONTINUOUS
 10
425.0287693819
 20
172.4347181144
 11
433.443340078
 21
180.8492888105
  0
LINE
  5
23B
100
AcDbEntity
  8
KONSTRUKTIONSELEMENTE
100
AcDbLine
 62
7
  6
CONTINUOUS
 10
395.6131272845
 20
138.1400392268
 11
406.2197290023
 21
148.7466409446
  0
LINE
  5
23C
100
AcDbEntity
  8
KONSTRUKTIONSELEMENTE
100
AcDbLine
 62
7
  6
CONTINUOUS
 10
367.3995667151
 20
107.7344476358
 11
375.8141374113
 21
116.1490183319
  0
LINE
  5
23D
100
AcDbEntity
  8
KONSTRUKTIONSELEMENTE
100
AcDbLine
 62
7
  6
CONTINUOUS
 10
428.5643032878
 20
168.8991842084
 11
436.9788739839
 21
177.3137549046
  0
LINE
  5
23E
100
AcDbEntity
  8
RUNDUNGEN
100
AcDbLine
 62
7
  6
CONTINUOUS
 10
518.1080766506
 20
135.4486970919
 11
512.6080766506
 21
143.303511129
  0
LINE
  5
23F
100
AcDbEntity
  8
0
100
AcDbLine
 62
7
  6
CONTINUOUS
 10
471.1080766506
 20
113.8528970919
 11
471.1080766506
 21
135.4486970919
  0
LINE
  5
240
100
AcDbEntity
  8
0
100
AcDbLine
 62
7
  6
CONTINUOUS
 10
476.6080766506
 20
157.4486970919
 11
476.6080766506
 21
143.303511129
  0
LINE
  5
241
100
AcDbEntity
  8
0
100
AcDbLine
 62
7
  6
CONTINUOUS
 10
483.5918408801
 20
227.7071158891
 11
490.3426628293
 21
243.3359727439
  0
LINE
  5
242
100
AcDbEntity
  8
0
100
AcDbLine
 62
7
  6
CONTINUOUS
 10
490.6073266506
 20
132.6642437675
 11
488.6060352229
 21
154.9486970919
  0
LINE
  5
243
100
AcDbEntity
  8
0
100
AcDbLine
 62
7
  6
CONTINUOUS
 10
490.6073266506
 20
144.2695677416
 11
489.1717236906
 21
160.255059266
  0
LINE
  5
244
100
AcDbEntity
  8
0
100
AcDbLine
 62
7
  6
CONTINUOUS
 10
482.6080766506
 20
180.6714862037
 11
482.6080766506
 21
164.7971663203
  0
LINE
  5
245
100
AcDbEntity
  8
BEZUGSACHSEN
100
AcDbLine
 62
7
  6
CONTINUOUS
 10
482.6080766506
 20
180.6717879133
 11
482.6080766506
 21
222.9486970919
  0
LINE
  5
246
100
AcDbEntity
  8
0
100
AcDbLine
 62
7
  6
CONTINUOUS
 10
490.6073266506
 20
144.2695677416
 11
490.6073266506
 21
132.6642437675
  0
LINE
  5
247
100
AcDbEntity
  8
0
100
AcDbLine
 62
7
  6
CONTINUOUS
 10
489.559175386
 20
176.8101566506
 11
489.1717236906
 21
160.255059266
  0
LINE
  5
248
100
AcDbEntity
  8
0
100
AcDbLine
 62
7
  6
CONTINUOUS
 10
499.6569779152
 20
176.8101566506
 11
500.0444296107
 21
160.255059266
  0
LINE
  5
249
100
AcDbEntity
  8
0
100
AcDbLine
 62
7
  6
CONTINUOUS
 10
498.6088266506
 20
144.2695677416
 11
498.6088266506
 21
132.6642437675
  0
LINE
  5
24A
100
AcDbEntity
  8
RUNDUNGEN
100
AcDbLine
 62
7
  6
CONTINUOUS
 10
506.6080766506
 20
180.6714862037
 11
506.6080766506
 21
164.7971663203
  0
LINE
  5
24B
100
AcDbEntity
  8
BEZUGSACHSEN
100
AcDbLine
 62
7
  6
CONTINUOUS
 10
506.6080766506
 20
180.6717879133
 11
506.6080766506
 21
222.9486970919
  0
LINE
  5
24C
100
AcDbEntity
  8
RUNDUNGEN
100
AcDbLine
 62
7
  6
CONTINUOUS
 10
512.6080766506
 20
157.4486970919
 11
512.6080766506
 21
143.303511129
  0
LINE
  5
24D
100
AcDbEntity
  8
0
100
AcDbLine
 62
7
  6
CONTINUOUS
 10
498.6088266506
 20
144.2695677416
 11
500.0444296107
 21
160.255059266
  0
LINE
  5
24E
100
AcDbEntity
  8
RUNDUNGEN
100
AcDbLine
 62
7
  6
CONTINUOUS
 10
498.6088266506
 20
132.6642437675
 11
500.6101180783
 21
154.9486970919
  0
LINE
  5
24F
100
AcDbEntity
  8
0
100
AcDbLine
 62
7
  6
CONTINUOUS
 10
471.1080766506
 20
135.4486970919
 11
476.6080766506
 21
143.303511129
  0
LINE
  5
250
100
AcDbEntity
  8
KONSTRUKTIONSELEMENTE
100
AcDbLine
 62
7
  6
CONTINUOUS
 10
498.8734904719
 20
243.3359727439
 11
505.6243124211
 21
227.7071158891
  0
LINE
  5
251
100
AcDbEntity
  8
RUNDUNGEN
100
AcDbLine
 62
7
  6
CONTINUOUS
 10
518.1080766506
 20
113.8528970919
 11
518.1080766506
 21
135.4486970919
  0
LINE
  5
252
100
AcDbEntity
  8
0
100
AcDbLine
 62
7
  6
CONTINUOUS
 10
532.1080766506
 20
343.4486970919
 11
532.1080766506
 21
248.4486970919
  0
LINE
  5
253
100
AcDbEntity
  8
0
100
AcDbLine
 62
7
  6
CONTINUOUS
 10
564.1080766506
 20
343.4486970919
 11
564.1080766506
 21
248.4486970919
  0
LINE
  5
254
100
AcDbEntity
  8
RUNDUNGEN
100
AcDbLine
 62
7
  6
CONTINUOUS
 10
90.075128701
 20
7.6788380979
 11
93.625128701
 21
7.6788380979
  0
LINE
  5
255
100
AcDbEntity
  8
RUNDUNGEN
100
AcDbLine
 62
7
  6
CONTINUOUS
 10
179.525128701
 20
7.6788380979
 11
183.075128701
 21
7.6788380979
  0
LINE
  5
256
100
AcDbEntity
  8
RUNDUNGEN
100
AcDbLine
 62
7
  6
CONTINUOUS
 10
102.425128701
 20
21.1138669405
 11
113.4743414459
 21
21.1138669405
  0
LINE
  5
257
100
AcDbEntity
  8
RUNDUNGEN
100
AcDbLine
 62
7
  6
CONTINUOUS
 10
159.6759159561
 20
21.1138669405
 11
170.725128701
 21
21.1138669405
  0
LINE
  5
258
100
AcDbEntity
  8
RUNDUNGEN
100
AcDbLine
 62
7
  6
CONTINUOUS
 10
174.6896669482
 20
91.4495717436
 11
174.575128701
 21
91.4486970919
  0
LINE
  5
259
100
AcDbEntity
  8
0
100
AcDbLine
 62
7
  6
CONTINUOUS
 10
114.1955003246
 20
86.7333762346
 11
121.8755003246
 21
86.7333762346
  0
LINE
  5
25A
100
AcDbEntity
  8
0
100
AcDbLine
 62
7
  6
CONTINUOUS
 10
125.948782407
 20
86.7333762346
 11
127.484782407
 21
86.7333762346
  0
LINE
  5
25B
100
AcDbEntity
  8
0
100
AcDbLine
 62
7
  6
CONTINUOUS
 10
134.801508674
 20
86.7333762346
 11
136.575128701
 21
86.7333762346
  0
LINE
  5
25C
100
AcDbEntity
  8
0
100
AcDbLine
 62
7
  6
CONTINUOUS
 10
149.9393989839
 20
86.7333762346
 11
155.504146292
 21
86.7333762346
  0
LINE
  5
25D
100
AcDbEntity
  8
0
100
AcDbLine
 62
7
  6
CONTINUOUS
 10
114.1955003246
 20
87.2990616595
 11
121.8755003246
 21
87.2990616595
  0
LINE
  5
25E
100
AcDbEntity
  8
0
100
AcDbLine
 62
7
  6
CONTINUOUS
 10
125.948782407
 20
87.2990616595
 11
127.484782407
 21
87.2990616595
  0
LINE
  5
25F
100
AcDbEntity
  8
0
100
AcDbLine
 62
7
  6
CONTINUOUS
 10
134.801508674
 20
87.2990616595
 11
136.1132484856
 21
87.2990616595
  0
LINE
  5
260
100
AcDbEntity
  8
0
100
AcDbLine
 62
7
  6
CONTINUOUS
 10
149.9393989839
 20
87.2990616595
 11
155.504146292
 21
87.2990616595
  0
LINE
  5
261
100
AcDbEntity
  8
0
100
AcDbLine
 62
7
  6
CONTINUOUS
 10
155.5378046567
 20
87.8647470845
 11
151.4753989839
 21
87.8647470845
  0
LINE
  5
262
100
AcDbEntity
  8
0
100
AcDbLine
 62
7
  6
CONTINUOUS
 10
119.2355003246
 20
88.0910212544
 11
116.8355003246
 21
88.0910212544
  0
LINE
  5
263
100
AcDbEntity
  8
0
100
AcDbLine
 62
7
  6
CONTINUOUS
 10
117.2675003246
 20
88.6001381369
 11
118.8035003246
 21
88.6001381369
  0
LINE
  5
264
100
AcDbEntity
  8
0
100
AcDbLine
 62
7
  6
CONTINUOUS
 10
117.2675003246
 20
89.1658235619
 11
118.8035003246
 21
89.1658235619
  0
LINE
  5
265
100
AcDbEntity
  8
0
100
AcDbLine
 62
7
  6
CONTINUOUS
 10
118.2035003246
 20
89.9577831568
 11
117.8675003246
 21
89.9577831568
  0
LINE
  5
266
100
AcDbEntity
  8
0
100
AcDbLine
 62
7
  6
CONTINUOUS
 10
118.8035003246
 20
90.2971944118
 11
118.3955003246
 21
90.2971944118
  0
LINE
  5
267
100
AcDbEntity
  8
0
100
AcDbLine
 62
7
  6
CONTINUOUS
 10
117.6755003246
 20
90.2971944118
 11
117.2675003246
 21
90.2971944118
  0
LINE
  5
268
100
AcDbEntity
  8
0
100
AcDbLine
 62
7
  6
CONTINUOUS
 10
116.8355003246
 20
90.8063112942
 11
117.6755003246
 21
90.8063112942
  0
LINE
  5
269
100
AcDbEntity
  8
0
100
AcDbLine
 62
7
  6
CONTINUOUS
 10
118.3955003246
 20
90.8063112942
 11
119.2355003246
 21
90.8063112942
  0
LINE
  5
26A
100
AcDbEntity
  8
0
100
AcDbLine
 62
7
  6
CONTINUOUS
 10
127.484782407
 20
90.9914788994
 11
131.324782407
 21
90.9914788994
  0
LINE
  5
26B
100
AcDbEntity
  8
0
100
AcDbLine
 62
7
  6
CONTINUOUS
 10
116.8355003246
 20
91.3719967192
 11
117.6755003246
 21
91.3719967192
  0
LINE
  5
26C
100
AcDbEntity
  8
0
100
AcDbLine
 62
7
  6
CONTINUOUS
 10
118.3955003246
 20
91.3719967192
 11
119.2355003246
 21
91.3719967192
  0
LINE
  5
26D
100
AcDbEntity
  8
RUNDUNGEN
100
AcDbLine
 62
7
  6
CONTINUOUS
 10
174.575128701
 20
91.4486970919
 11
167.4609255264
 21
91.4486970919
  0
LINE
  5
26E
100
AcDbEntity
  8
0
100
AcDbLine
 62
7
  6
CONTINUOUS
 10
167.4609255264
 20
91.4486970919
 11
167.4253101564
 21
91.4486970919
  0
LINE
  5
26F
100
AcDbEntity
  8
0
100
AcDbLine
 62
7
  6
CONTINUOUS
 10
105.7249472455
 20
91.4486970919
 11
105.6893318756
 21
91.4486970919
  0
LINE
  5
270
100
AcDbEntity
  8
RUNDUNGEN
100
AcDbLine
 62
7
  6
CONTINUOUS
 10
105.6893318756
 20
91.4486970919
 11
98.575128701
 21
91.4486970919
  0
LINE
  5
271
100
AcDbEntity
  8
0
100
AcDbLine
 62
7
  6
CONTINUOUS
 10
119.2355003246
 20
91.4851338041
 11
118.3955003246
 21
91.4851338041
  0
LINE
  5
272
100
AcDbEntity
  8
0
100
AcDbLine
 62
7
  6
CONTINUOUS
 10
117.6755003246
 20
91.4851338041
 11
116.8355003246
 21
91.4851338041
  0
LINE
  5
273
100
AcDbEntity
  8
0
100
AcDbLine
 62
7
  6
CONTINUOUS
 10
127.484782407
 20
91.5571643244
 11
131.324782407
 21
91.5571643244
  0
LINE
  5
274
100
AcDbEntity
  8
0
100
AcDbLine
 62
7
  6
CONTINUOUS
 10
117.2675003246
 20
91.9942506866
 11
117.6755003246
 21
91.9942506866
  0
LINE
  5
275
100
AcDbEntity
  8
0
100
AcDbLine
 62
7
  6
CONTINUOUS
 10
118.3955003246
 20
91.9942506866
 11
118.8035003246
 21
91.9942506866
  0
LINE
  5
276
100
AcDbEntity
  8
0
100
AcDbLine
 62
7
  6
CONTINUOUS
 10
131.964782407
 20
92.0775949153
 11
127.484782407
 21
92.0775949153
  0
LINE
  5
277
100
AcDbEntity
  8
0
100
AcDbLine
 62
7
  6
CONTINUOUS
 10
117.8675003246
 20
92.3336619416
 11
118.2035003246
 21
92.3336619416
  0
LINE
  5
278
100
AcDbEntity
  8
0
100
AcDbLine
 62
7
  6
CONTINUOUS
 10
117.2675003246
 20
92.5599361115
 11
117.6755003246
 21
92.5599361115
  0
LINE
  5
279
100
AcDbEntity
  8
0
100
AcDbLine
 62
7
  6
CONTINUOUS
 10
118.3955003246
 20
92.5599361115
 11
118.8035003246
 21
92.5599361115
  0
LINE
  5
27A
100
AcDbEntity
  8
0
100
AcDbLine
 62
7
  6
CONTINUOUS
 10
117.8675003246
 20
92.8993473665
 11
118.2035003246
 21
92.8993473665
  0
LINE
  5
27B
100
AcDbEntity
  8
0
100
AcDbLine
 62
7
  6
CONTINUOUS
 10
151.4753989839
 20
93.521601334
 11
149.9393989839
 21
93.521601334
  0
LINE
  5
27C
100
AcDbEntity
  8
0
100
AcDbLine
 62
7
  6
CONTINUOUS
 10
127.484782407
 20
93.5781698765
 11
125.948782407
 21
93.5781698765
  0
LINE
  5
27D
100
AcDbEntity
  8
0
100
AcDbLine
 62
7
  6
CONTINUOUS
 10
118.8035003246
 20
93.6913069614
 11
117.2675003246
 21
93.6913069614
  0
LINE
  5
27E
100
AcDbEntity
  8
0
100
AcDbLine
 62
7
  6
CONTINUOUS
 10
116.8355003246
 20
94.2004238439
 11
119.2355003246
 21
94.2004238439
  0
LINE
  5
27F
100
AcDbEntity
  8
0
100
AcDbLine
 62
7
  6
CONTINUOUS
 10
149.9393989839
 20
94.4719528479
 11
155.5378046567
 21
94.4719528479
  0
LINE
  5
280
100
AcDbEntity
  8
0
100
AcDbLine
 62
7
  6
CONTINUOUS
 10
125.948782407
 20
94.5285213904
 11
131.964782407
 21
94.5285213904
  0
LINE
  5
281
100
AcDbEntity
  8
0
100
AcDbLine
 62
7
  6
CONTINUOUS
 10
116.8355003246
 20
94.7661092689
 11
119.2355003246
 21
94.7661092689
  0
LINE
  5
282
100
AcDbEntity
  8
0
100
AcDbLine
 62
7
  6
CONTINUOUS
 10
149.9393989839
 20
95.0376382728
 11
155.5378046567
 21
95.0376382728
  0
LINE
  5
283
100
AcDbEntity
  8
0
100
AcDbLine
 62
7
  6
CONTINUOUS
 10
125.948782407
 20
95.0942068153
 11
131.964782407
 21
95.0942068153
  0
LINE
  5
284
100
AcDbEntity
  8
0
100
AcDbLine
 62
7
  6
CONTINUOUS
 10
155.504146292
 20
95.5580688638
 11
149.9393989839
 21
95.5580688638
  0
LINE
  5
285
100
AcDbEntity
  8
0
100
AcDbLine
 62
7
  6
CONTINUOUS
 10
146.5793989839
 20
95.5580688638
 11
145.0433989839
 21
95.5580688638
  0
LINE
  5
286
100
AcDbEntity
  8
0
100
AcDbLine
 62
7
  6
CONTINUOUS
 10
139.004782407
 20
95.5580688638
 11
137.468782407
 21
95.5580688638
  0
LINE
  5
287
100
AcDbEntity
  8
0
100
AcDbLine
 62
7
  6
CONTINUOUS
 10
131.964782407
 20
95.5580688638
 11
125.948782407
 21
95.5580688638
  0
LINE
  5
288
100
AcDbEntity
  8
0
100
AcDbLine
 62
7
  6
CONTINUOUS
 10
121.8755003246
 20
95.5580688638
 11
114.1955003246
 21
95.5580688638
  0
LINE
  5
289
100
AcDbEntity
  8
RUNDUNGEN
100
AcDbLine
 62
7
  6
CONTINUOUS
 10
98.575128701
 20
91.4486970919
 11
98.4605904538
 21
91.4495717436
  0
LINE
  5
28A
100
AcDbEntity
  8
RUNDUNGEN
100
AcDbLine
 62
7
  6
CONTINUOUS
 10
69.3508747745
 20
108.1233232427
 11
73.365909829
 21
104.0687274853
  0
LINE
  5
28B
100
AcDbEntity
  8
RUNDUNGEN
100
AcDbLine
 62
7
  6
CONTINUOUS
 10
85.1815844178
 20
92.1366313993
 11
107.002171669
 21
70.1010428448
  0
LINE
  5
28C
100
AcDbEntity
  8
RUNDUNGEN
100
AcDbLine
 62
7
  6
CONTINUOUS
 10
144.7666491439
 20
31.9644666824
 11
153.1226996018
 21
23.5260828886
  0
LINE
  5
28D
100
AcDbEntity
  8
BEZUGSACHSEN
100
AcDbLine
 62
7
  6
CONTINUOUS
 10
127.325128701
 20
106.5528970919
 11
145.825128701
 21
106.5528970919
  0
LINE
  5
28E
100
AcDbEntity
  8
RUNDUNGEN
100
AcDbLine
 62
7
  6
CONTINUOUS
 10
92.1023141573
 20
101.1741504138
 11
87.743133241
 21
105.5762829504
  0
LINE
  5
28F
100
AcDbEntity
  8
BEZUGSACHSEN
100
AcDbLine
 62
7
  6
CONTINUOUS
 10
127.325128701
 20
112.5907682452
 11
145.825128701
 21
112.5907682452
  0
LINE
  5
290
100
AcDbEntity
  8
BEZUGSACHSEN
100
AcDbLine
 62
7
  6
CONTINUOUS
 10
127.325128701
 20
123.1150259387
 11
145.825128701
 21
123.1150259387
  0
LINE
  5
291
100
AcDbEntity
  8
RUNDUNGEN
100
AcDbLine
 62
7
  6
CONTINUOUS
 10
189.6283450553
 20
26.110439854
 11
166.148085733
 21
49.8220534612
  0
LINE
  5
292
100
AcDbEntity
  8
RUNDUNGEN
100
AcDbLine
 62
7
  6
CONTINUOUS
 10
189.6283450553
 20
29.64597376
 11
166.148085733
 21
53.3575873671
  0
LINE
  5
293
100
AcDbEntity
  8
RUNDUNGEN
100
AcDbLine
 62
7
  6
CONTINUOUS
 10
98.4605904538
 20
91.4495717436
 11
91.075128701
 21
103.4509470919
  0
LINE
  5
294
100
AcDbEntity
  8
RUNDUNGEN
100
AcDbLine
 62
7
  6
CONTINUOUS
 10
67.9040911289
 20
111.3679615441
 11
67.9040911289
 21
114.90349545
  0
LINE
  5
295
100
AcDbEntity
  8
BEZUGSACHSEN
100
AcDbLine
 62
7
  6
CONTINUOUS
 10
127.325128701
 20
129.1528970919
 11
145.825128701
 21
129.1528970919
  0
LINE
  5
296
100
AcDbEntity
  8
RUNDUNGEN
100
AcDbLine
 62
7
  6
CONTINUOUS
 10
98.575128701
 20
135.4486970919
 11
127.325128701
 21
135.4486970919
  0
LINE
  5
297
100
AcDbEntity
  8
RUNDUNGEN
100
AcDbLine
 62
7
  6
CONTINUOUS
 10
145.825128701
 20
135.4486970919
 11
174.575128701
 21
135.4486970919
  0
LINE
  5
298
100
AcDbEntity
  8
0
100
AcDbLine
 62
7
  6
CONTINUOUS
 10
131.324782407
 20
90.9914788994
 11
134.801508674
 21
86.7333762346
  0
LINE
  5
299
100
AcDbEntity
  8
0
100
AcDbLine
 62
7
  6
CONTINUOUS
 10
131.324782407
 20
91.5571643244
 11
134.801508674
 21
87.2990616595
  0
LINE
  5
29A
100
AcDbEntity
  8
0
100
AcDbLine
 62
7
  6
CONTINUOUS
 10
136.575128701
 20
86.7333762346
 11
132.9602200373
 21
91.1607170809
  0
LINE
  5
29B
100
AcDbEntity
  8
RUNDUNGEN
100
AcDbLine
 62
7
  6
CONTINUOUS
 10
82.075128701
 20
13.3356923474
 11
82.075128701
 21
26.4013354586
  0
LINE
  5
29C
100
AcDbEntity
  8
0
100
AcDbLine
 62
7
  6
CONTINUOUS
 10
121.390993476
 20
148.5228852806
 11
120.7549774159
 21
148.3604980659
  0
LINE
  5
29D
100
AcDbEntity
  8
0
100
AcDbLine
 62
7
  6
CONTINUOUS
 10
160.9459927771
 20
148.5228852806
 11
160.2800022035
 21
148.3604980659
  0
LINE
  5
29E
100
AcDbEntity
  8
0
100
AcDbLine
 62
7
  6
CONTINUOUS
 10
158.1155304576
 20
153.8816641613
 11
158.7815219839
 21
154.0440513759
  0
LINE
  5
29F
100
AcDbEntity
  8
0
100
AcDbLine
 62
7
  6
CONTINUOUS
 10
120.7549774159
 20
147.3861746641
 11
121.5499988558
 21
147.548561893
  0
LINE
  5
2A0
100
AcDbEntity
  8
0
100
AcDbLine
 62
7
  6
CONTINUOUS
 10
113.1227774159
 20
147.3861746641
 11
113.9177979459
 21
147.548561893
  0
LINE
  5
2A1
100
AcDbEntity
  8
0
100
AcDbLine
 62
7
  6
CONTINUOUS
 10
170.7693627878
 20
147.3861746641
 11
171.6018524339
 21
147.548561893
  0
LINE
  5
2A2
100
AcDbEntity
  8
0
100
AcDbLine
 62
7
  6
CONTINUOUS
 10
160.2800022035
 20
147.3861746641
 11
161.1124908968
 21
147.548561893
  0
LINE
  5
2A3
100
AcDbEntity
  8
0
100
AcDbLine
 62
7
  6
CONTINUOUS
 10
169.9368750472
 20
152.2577915595
 11
169.1043854012
 21
152.0954043448
  0
LINE
  5
2A4
100
AcDbEntity
  8
0
100
AcDbLine
 62
7
  6
CONTINUOUS
 10
169.9368750472
 20
155.0183746641
 11
169.1043854012
 21
154.8559874494
  0
LINE
  5
2A5
100
AcDbEntity
  8
0
100
AcDbLine
 62
7
  6
CONTINUOUS
 10
158.7815219839
 20
155.0183746641
 11
157.9490323379
 21
154.8559874494
  0
LINE
  5
2A6
100
AcDbEntity
  8
RUNDUNGEN
100
AcDbLine
 62
7
  6
CONTINUOUS
 10
174.575128701
 20
143.303511129
 11
145.5824733635
 21
143.303511129
  0
LINE
  5
2A7
100
AcDbEntity
  8
RUNDUNGEN
100
AcDbLine
 62
7
  6
CONTINUOUS
 10
127.5677840385
 20
143.303511129
 11
98.575128701
 21
143.303511129
  0
LINE
  5
2A8
100
AcDbEntity
  8
0
100
AcDbLine
 62
7
  6
CONTINUOUS
 10
102.6285024159
 20
147.3861746641
 11
103.5825274159
 21
147.3861746641
  0
LINE
  5
2A9
100
AcDbEntity
  8
0
100
AcDbLine
 62
7
  6
CONTINUOUS
 10
107.5576314309
 20
147.3861746641
 11
108.6706609009
 21
147.3861746641
  0
LINE
  5
2AA
100
AcDbEntity
  8
0
100
AcDbLine
 62
7
  6
CONTINUOUS
 10
112.4867604459
 20
147.3861746641
 11
113.1227774159
 21
147.3861746641
  0
LINE
  5
2AB
100
AcDbEntity
  8
0
100
AcDbLine
 62
7
  6
CONTINUOUS
 10
116.9388774159
 20
147.3861746641
 11
120.7549774159
 21
147.3861746641
  0
LINE
  5
2AC
100
AcDbEntity
  8
0
100
AcDbLine
 62
7
  6
CONTINUOUS
 10
146.127688701
 20
147.3861746641
 11
147.126675514
 21
147.3861746641
  0
LINE
  5
2AD
100
AcDbEntity
  8
0
100
AcDbLine
 62
7
  6
CONTINUOUS
 10
148.458657852
 20
147.3861746641
 11
149.4576446651
 21
147.3861746641
  0
LINE
  5
2AE
100
AcDbEntity
  8
0
100
AcDbLine
 62
7
  6
CONTINUOUS
 10
153.6200897989
 20
147.3861746641
 11
154.7855747317
 21
147.3861746641
  0
LINE
  5
2AF
100
AcDbEntity
  8
0
100
AcDbLine
 62
7
  6
CONTINUOUS
 10
158.7815219839
 20
147.3861746641
 11
160.2800022035
 21
147.3861746641
  0
LINE
  5
2B0
100
AcDbEntity
  8
0
100
AcDbLine
 62
7
  6
CONTINUOUS
 10
164.941940982
 20
147.3861746641
 11
165.940927795
 21
147.3861746641
  0
LINE
  5
2B1
100
AcDbEntity
  8
0
100
AcDbLine
 62
7
  6
CONTINUOUS
 10
169.9368750472
 20
147.3861746641
 11
170.7693627878
 21
147.3861746641
  0
LINE
  5
2B2
100
AcDbEntity
  8
0
100
AcDbLine
 62
7
  6
CONTINUOUS
 10
170.9358618603
 20
148.1981108512
 11
169.7703759748
 21
148.1981108512
  0
LINE
  5
2B3
100
AcDbEntity
  8
0
100
AcDbLine
 62
7
  6
CONTINUOUS
 10
160.2800022035
 20
148.3604980659
 11
158.7815219839
 21
148.3604980659
  0
LINE
  5
2B4
100
AcDbEntity
  8
0
100
AcDbLine
 62
7
  6
CONTINUOUS
 10
120.7549774159
 20
148.3604980659
 11
117.8929024159
 21
148.3604980659
  0
LINE
  5
2B5
100
AcDbEntity
  8
0
100
AcDbLine
 62
7
  6
CONTINUOUS
 10
113.1227774159
 20
148.3604980659
 11
112.4867604459
 21
148.3604980659
  0
LINE
  5
2B6
100
AcDbEntity
  8
0
100
AcDbLine
 62
7
  6
CONTINUOUS
 10
160.1135040837
 20
150.6339194127
 11
161.6119843033
 21
150.6339194127
  0
LINE
  5
2B7
100
AcDbEntity
  8
0
100
AcDbLine
 62
7
  6
CONTINUOUS
 10
103.5825274159
 20
150.7963066273
 11
106.2855981734
 21
150.7963066273
  0
LINE
  5
2B8
100
AcDbEntity
  8
0
100
AcDbLine
 62
7
  6
CONTINUOUS
 10
149.4576446651
 20
150.7963066273
 11
152.2881072227
 21
150.7963066273
  0
LINE
  5
2B9
100
AcDbEntity
  8
0
100
AcDbLine
 62
7
  6
CONTINUOUS
 10
169.7703759748
 20
151.4458554861
 11
170.9358618603
 21
151.4458554861
  0
LINE
  5
2BA
100
AcDbEntity
  8
0
100
AcDbLine
 62
7
  6
CONTINUOUS
 10
162.6109711164
 20
151.6082427008
 11
160.1135040837
 21
151.6082427008
  0
LINE
  5
2BB
100
AcDbEntity
  8
0
100
AcDbLine
 62
7
  6
CONTINUOUS
 10
152.6211029858
 20
151.7706299155
 11
149.4576446651
 21
151.7706299155
  0
LINE
  5
2BC
100
AcDbEntity
  8
0
100
AcDbLine
 62
7
  6
CONTINUOUS
 10
106.6036064309
 20
151.7706299155
 11
103.5825274159
 21
151.7706299155
  0
LINE
  5
2BD
100
AcDbEntity
  8
0
100
AcDbLine
 62
7
  6
CONTINUOUS
 10
170.7693627878
 20
152.2577915595
 11
169.9368750472
 21
152.2577915595
  0
LINE
  5
2BE
100
AcDbEntity
  8
0
100
AcDbLine
 62
7
  6
CONTINUOUS
 10
161.6119843033
 20
153.0697276329
 11
162.6109711164
 21
153.0697276329
  0
LINE
  5
2BF
100
AcDbEntity
  8
0
100
AcDbLine
 62
7
  6
CONTINUOUS
 10
172.1013458404
 20
153.2321153025
 11
172.9338354864
 21
153.2321153025
  0
LINE
  5
2C0
100
AcDbEntity
  8
0
100
AcDbLine
 62
7
  6
CONTINUOUS
 10
117.8929024159
 20
154.0440513759
 11
120.7549774159
 21
154.0440513759
  0
LINE
  5
2C1
100
AcDbEntity
  8
0
100
AcDbLine
 62
7
  6
CONTINUOUS
 10
158.7815219839
 20
154.0440513759
 11
160.2800022035
 21
154.0440513759
  0
LINE
  5
2C2
100
AcDbEntity
  8
0
100
AcDbLine
 62
7
  6
CONTINUOUS
 10
103.5825274159
 20
154.2064385906
 11
106.6036064309
 21
154.2064385906
  0
LINE
  5
2C3
100
AcDbEntity
  8
0
100
AcDbLine
 62
7
  6
CONTINUOUS
 10
149.4576446651
 20
154.2064385906
 11
152.6211029858
 21
154.2064385906
  0
LINE
  5
2C4
100
AcDbEntity
  8
0
100
AcDbLine
 62
7
  6
CONTINUOUS
 10
169.7703759748
 20
154.2064385906
 11
170.7693627878
 21
154.2064385906
  0
LINE
  5
2C5
100
AcDbEntity
  8
0
100
AcDbLine
 62
7
  6
CONTINUOUS
 10
170.6028656208
 20
155.0183746641
 11
169.9368750472
 21
155.0183746641
  0
LINE
  5
2C6
100
AcDbEntity
  8
0
100
AcDbLine
 62
7
  6
CONTINUOUS
 10
165.940927795
 20
155.0183746641
 11
164.941940982
 21
155.0183746641
  0
LINE
  5
2C7
100
AcDbEntity
  8
0
100
AcDbLine
 62
7
  6
CONTINUOUS
 10
160.2800022035
 20
155.0183746641
 11
158.7815219839
 21
155.0183746641
  0
LINE
  5
2C8
100
AcDbEntity
  8
0
100
AcDbLine
 62
7
  6
CONTINUOUS
 10
152.4546053424
 20
155.0183746641
 11
148.458657852
 21
155.0183746641
  0
LINE
  5
2C9
100
AcDbEntity
  8
0
100
AcDbLine
 62
7
  6
CONTINUOUS
 10
147.126675514
 20
155.0183746641
 11
146.127688701
 21
155.0183746641
  0
LINE
  5
2CA
100
AcDbEntity
  8
0
100
AcDbLine
 62
7
  6
CONTINUOUS
 10
120.7549774159
 20
155.0183746641
 11
116.9388774159
 21
155.0183746641
  0
LINE
  5
2CB
100
AcDbEntity
  8
0
100
AcDbLine
 62
7
  6
CONTINUOUS
 10
115.6668443858
 20
155.0183746641
 11
114.7128193858
 21
155.0183746641
  0
LINE
  5
2CC
100
AcDbEntity
  8
0
100
AcDbLine
 62
7
  6
CONTINUOUS
 10
110.8967193858
 20
155.0183746641
 11
109.9426939309
 21
155.0183746641
  0
LINE
  5
2CD
100
AcDbEntity
  8
0
100
AcDbLine
 62
7
  6
CONTINUOUS
 10
106.4446024159
 20
155.0183746641
 11
102.6285024159
 21
155.0183746641
  0
LINE
  5
2CE
100
AcDbEntity
  8
0
100
AcDbLine
 62
7
  6
CONTINUOUS
 10
157.9490323379
 20
147.548561893
 11
158.7815219839
 21
147.3861746641
  0
LINE
  5
2CF
100
AcDbEntity
  8
0
100
AcDbLine
 62
7
  6
CONTINUOUS
 10
169.1043854012
 20
147.548561893
 11
169.9368750472
 21
147.3861746641
  0
LINE
  5
2D0
100
AcDbEntity
  8
0
100
AcDbLine
 62
7
  6
CONTINUOUS
 10
111.6917399159
 20
147.548561893
 11
112.4867604459
 21
147.3861746641
  0
LINE
  5
2D1
100
AcDbEntity
  8
0
100
AcDbLine
 62
7
  6
CONTINUOUS
 10
107.2396234009
 20
154.8559874494
 11
106.4446024159
 21
155.0183746641
  0
LINE
  5
2D2
100
AcDbEntity
  8
0
100
AcDbLine
 62
7
  6
CONTINUOUS
 10
121.5499988558
 20
154.8559874494
 11
120.7549774159
 21
155.0183746641
  0
LINE
  5
2D3
100
AcDbEntity
  8
0
100
AcDbLine
 62
7
  6
CONTINUOUS
 10
112.4867604459
 20
148.3604980659
 11
111.8507443858
 21
148.5228852806
  0
LINE
  5
2D4
100
AcDbEntity
  8
0
100
AcDbLine
 62
7
  6
CONTINUOUS
 10
120.7549774159
 20
154.0440513759
 11
121.390993476
 21
153.8816641613
  0
LINE
  5
2D5
100
AcDbEntity
  8
0
100
AcDbLine
 62
7
  6
CONTINUOUS
 10
106.6036064309
 20
154.2064385906
 11
107.0806189309
 21
154.0440513759
  0
LINE
  5
2D6
100
AcDbEntity
  8
RUNDUNGEN
100
AcDbLine
 62
7
  6
CONTINUOUS
 10
206.3401140075
 20
113.7710964346
 11
195.4863494207
 21
119.1450286213
  0
LINE
  5
2D7
100
AcDbEntity
  8
0
100
AcDbLine
 62
7
  6
CONTINUOUS
 10
111.0557229459
 20
147.873336365
 11
111.6917399159
 21
147.548561893
  0
LINE
  5
2D8
100
AcDbEntity
  8
0
100
AcDbLine
 62
7
  6
CONTINUOUS
 10
122.1860149159
 20
154.53121302
 11
121.5499988558
 21
154.8559874494
  0
LINE
  5
2D9
100
AcDbEntity
  8
0
100
AcDbLine
 62
7
  6
CONTINUOUS
 10
111.8507443858
 20
148.5228852806
 11
111.3737318858
 21
148.8476598237
  0
LINE
  5
2DA
100
AcDbEntity
  8
0
100
AcDbLine
 62
7
  6
CONTINUOUS
 10
121.390993476
 20
153.8816641613
 11
121.868005976
 21
153.5568897319
  0
LINE
  5
2DB
100
AcDbEntity
  8
0
100
AcDbLine
 62
7
  6
CONTINUOUS
 10
107.8756399159
 20
154.3688258053
 11
107.2396234009
 21
154.8559874494
  0
LINE
  5
2DC
100
AcDbEntity
  8
0
100
AcDbLine
 62
7
  6
CONTINUOUS
 10
110.4197068858
 20
148.5228852806
 11
111.0557229459
 21
147.873336365
  0
LINE
  5
2DD
100
AcDbEntity
  8
0
100
AcDbLine
 62
7
  6
CONTINUOUS
 10
107.0806189309
 20
154.0440513759
 11
107.3986274159
 21
153.7192769466
  0
LINE
  5
2DE
100
AcDbEntity
  8
0
100
AcDbLine
 62
7
  6
CONTINUOUS
 10
108.3526524159
 20
153.7192769466
 11
107.8756399159
 21
154.3688258053
  0
LINE
  5
2DF
100
AcDbEntity
  8
0
100
AcDbLine
 62
7
  6
CONTINUOUS
 10
111.3737318858
 20
148.8476598237
 11
111.0557229459
 21
149.3348214677
  0
LINE
  5
2E0
100
AcDbEntity
  8
0
100
AcDbLine
 62
7
  6
CONTINUOUS
 10
81.187853049
 20
187.9486970919
 11
88.60834094
 21
160.255059266
  0
LINE
  5
2E1
100
AcDbEntity
  8
0
100
AcDbLine
 62
7
  6
CONTINUOUS
 10
88.60834094
 20
144.2695677416
 11
91.075128701
 21
132.6642437675
  0
LINE
  5
2E2
100
AcDbEntity
  8
RUNDUNGEN
100
AcDbLine
 62
7
  6
CONTINUOUS
 10
84.7294645286
 20
93.1505808685
 11
84.7294645286
 21
96.6861147744
  0
LINE
  5
2E3
100
AcDbEntity
  8
0
100
AcDbLine
 62
7
  6
CONTINUOUS
 10
88.60834094
 20
144.2695677416
 11
88.60834094
 21
160.255059266
  0
LINE
  5
2E4
100
AcDbEntity
  8
RUNDUNGEN
100
AcDbLine
 62
7
  6
CONTINUOUS
 10
91.075128701
 20
103.4509470919
 11
91.075128701
 21
154.9486970919
  0
LINE
  5
2E5
100
AcDbEntity
  8
RUNDUNGEN
100
AcDbLine
 62
7
  6
CONTINUOUS
 10
94.425128701
 20
8.2445235229
 11
94.425128701
 21
15.457012691
  0
LINE
  5
2E6
100
AcDbEntity
  8
0
100
AcDbLine
 62
7
  6
CONTINUOUS
 10
88.60834094
 20
215.6423349179
 11
81.187853049
 21
187.9486970919
  0
LINE
  5
2E7
100
AcDbEntity
  8
0
100
AcDbLine
 62
7
  6
CONTINUOUS
 10
113.7587943858
 20
148.5228852806
 11
113.1227774159
 21
148.3604980659
  0
LINE
  5
2E8
100
AcDbEntity
  8
RUNDUNGEN
100
AcDbLine
 62
7
  6
CONTINUOUS
 10
167.436039743
 20
164.7971663203
 11
162.8240643542
 21
164.7971663203
  0
LINE
  5
2E9
100
AcDbEntity
  8
RUNDUNGEN
100
AcDbLine
 62
7
  6
CONTINUOUS
 10
110.3261930477
 20
164.7971663203
 11
105.7142169251
 21
164.7971663203
  0
LINE
  5
2EA
100
AcDbEntity
  8
RUNDUNGEN
100
AcDbLine
 62
7
  6
CONTINUOUS
 10
118.6005146954
 20
164.9486970919
 11
154.5497427065
 21
164.9486970919
  0
LINE
  5
2EB
100
AcDbEntity
  8
0
100
AcDbLine
 62
7
  6
CONTINUOUS
 10
153.2870940358
 20
154.8559874494
 11
152.4546053424
 21
155.0183746641
  0
LINE
  5
2EC
100
AcDbEntity
  8
0
100
AcDbLine
 62
7
  6
CONTINUOUS
 10
171.6018524339
 20
152.0954043448
 11
170.7693627878
 21
152.2577915595
  0
LINE
  5
2ED
100
AcDbEntity
  8
0
100
AcDbLine
 62
7
  6
CONTINUOUS
 10
161.1124908968
 20
154.8559874494
 11
160.2800022035
 21
155.0183746641
  0
LINE
  5
2EE
100
AcDbEntity
  8
0
100
AcDbLine
 62
7
  6
CONTINUOUS
 10
171.4353552668
 20
154.8559874494
 11
170.6028656208
 21
155.0183746641
  0
LINE
  5
2EF
100
AcDbEntity
  8
0
100
AcDbLine
 62
7
  6
CONTINUOUS
 10
158.7815219839
 20
148.3604980659
 11
158.1155304576
 21
148.5228852806
  0
LINE
  5
2F0
100
AcDbEntity
  8
0
100
AcDbLine
 62
7
  6
CONTINUOUS
 10
160.2800022035
 20
154.0440513759
 11
160.9459927771
 21
153.8816641613
  0
LINE
  5
2F1
100
AcDbEntity
  8
0
100
AcDbLine
 62
7
  6
CONTINUOUS
 10
169.7703759748
 20
148.1981108512
 11
169.2708825683
 21
148.3604980659
  0
LINE
  5
2F2
100
AcDbEntity
  8
0
100
AcDbLine
 62
7
  6
CONTINUOUS
 10
152.6211029858
 20
154.2064385906
 11
153.1205963924
 21
154.0440513759
  0
LINE
  5
2F3
100
AcDbEntity
  8
0
100
AcDbLine
 62
7
  6
CONTINUOUS
 10
170.9358618603
 20
151.4458554861
 11
171.4353552668
 21
151.2834682714
  0
LINE
  5
2F4
100
AcDbEntity
  8
0
100
AcDbLine
 62
7
  6
CONTINUOUS
 10
170.7693627878
 20
154.2064385906
 11
171.2688561944
 21
154.0440513759
  0
LINE
  5
2F5
100
AcDbEntity
  8
0
100
AcDbLine
 62
7
  6
CONTINUOUS
 10
157.2830417643
 20
147.873336365
 11
157.9490323379
 21
147.548561893
  0
LINE
  5
2F6
100
AcDbEntity
  8
RUNDUNGEN
100
AcDbLine
 62
7
  6
CONTINUOUS
 10
206.3401140075
 20
117.3066303405
 11
195.4863494207
 21
122.6805625272
  0
LINE
  5
2F7
100
AcDbEntity
  8
0
100
AcDbLine
 62
7
  6
CONTINUOUS
 10
122.822030976
 20
153.8816641613
 11
122.1860149159
 21
154.53121302
  0
LINE
  5
2F8
100
AcDbEntity
  8
0
100
AcDbLine
 62
7
  6
CONTINUOUS
 10
121.868005976
 20
153.5568897319
 11
122.1860149159
 21
153.0697276329
  0
LINE
  5
2F9
100
AcDbEntity
  8
0
100
AcDbLine
 62
7
  6
CONTINUOUS
 10
110.1016984009
 20
149.172434253
 11
110.4197068858
 21
148.5228852806
  0
LINE
  5
2FA
100
AcDbEntity
  8
0
100
AcDbLine
 62
7
  6
CONTINUOUS
 10
108.6706609009
 20
147.3861746641
 11
107.2396234009
 21
151.1210810567
  0
LINE
  5
2FB
100
AcDbEntity
  8
0
100
AcDbLine
 62
7
  6
CONTINUOUS
 10
106.2855981734
 20
150.7963066273
 11
107.5576314309
 21
147.3861746641
  0
LINE
  5
2FC
100
AcDbEntity
  8
0
100
AcDbLine
 62
7
  6
CONTINUOUS
 10
107.3986274159
 20
153.7192769466
 11
107.5576314309
 21
153.2321153025
  0
LINE
  5
2FD
100
AcDbEntity
  8
0
100
AcDbLine
 62
7
  6
CONTINUOUS
 10
108.5116564309
 20
153.2321153025
 11
108.3526524159
 21
153.7192769466
  0
LINE
  5
2FE
100
AcDbEntity
  8
0
100
AcDbLine
 62
7
  6
CONTINUOUS
 10
102.6285024159
 20
155.0183746641
 11
102.6285024159
 21
147.3861746641
  0
LINE
  5
2FF
100
AcDbEntity
  8
0
100
AcDbLine
 62
7
  6
CONTINUOUS
 10
103.5825274159
 20
147.3861746641
 11
103.5825274159
 21
150.7963066273
  0
LINE
  5
300
100
AcDbEntity
  8
0
100
AcDbLine
 62
7
  6
CONTINUOUS
 10
103.5825274159
 20
151.7706299155
 11
103.5825274159
 21
154.2064385906
  0
LINE
  5
301
100
AcDbEntity
  8
0
100
AcDbLine
 62
7
  6
CONTINUOUS
 10
107.5576314309
 20
153.2321153025
 11
107.5576314309
 21
152.7449532036
  0
LINE
  5
302
100
AcDbEntity
  8
0
100
AcDbLine
 62
7
  6
CONTINUOUS
 10
108.5116564309
 20
152.5825659889
 11
108.5116564309
 21
153.2321153025
  0
LINE
  5
303
100
AcDbEntity
  8
0
100
AcDbLine
 62
7
  6
CONTINUOUS
 10
109.9426939309
 20
155.0183746641
 11
109.9426939309
 21
149.9843703265
  0
LINE
  5
304
100
AcDbEntity
  8
0
100
AcDbLine
 62
7
  6
CONTINUOUS
 10
110.8967193858
 20
149.9843703265
 11
110.8967193858
 21
155.0183746641
  0
LINE
  5
305
100
AcDbEntity
  8
0
100
AcDbLine
 62
7
  6
CONTINUOUS
 10
108.881490875
 20
235.9154848529
 11
88.60834094
 21
215.6423349179
  0
LINE
  5
306
100
AcDbEntity
  8
0
100
AcDbLine
 62
7
  6
CONTINUOUS
 10
161.7784824231
 20
154.53121302
 11
161.1124908968
 21
154.8559874494
  0
LINE
  5
307
100
AcDbEntity
  8
0
100
AcDbLine
 62
7
  6
CONTINUOUS
 10
168.2718957552
 20
148.0357235797
 11
169.1043854012
 21
147.548561893
  0
LINE
  5
308
100
AcDbEntity
  8
0
100
AcDbLine
 62
7
  6
CONTINUOUS
 10
172.4343420799
 20
151.6082427008
 11
171.6018524339
 21
152.0954043448
  0
LINE
  5
309
100
AcDbEntity
  8
0
100
AcDbLine
 62
7
  6
CONTINUOUS
 10
172.2678430074
 20
154.3688258053
 11
171.4353552668
 21
154.8559874494
  0
LINE
  5
30A
100
AcDbEntity
  8
0
100
AcDbLine
 62
7
  6
CONTINUOUS
 10
158.1155304576
 20
148.5228852806
 11
157.6160370511
 21
148.8476598237
  0
LINE
  5
30B
100
AcDbEntity
  8
0
100
AcDbLine
 62
7
  6
CONTINUOUS
 10
169.2708825683
 20
148.3604980659
 11
168.7713891617
 21
148.6852724953
  0
LINE
  5
30C
100
AcDbEntity
  8
0
100
AcDbLine
 62
7
  6
CONTINUOUS
 10
160.9459927771
 20
153.8816641613
 11
161.4454861836
 21
153.5568897319
  0
LINE
  5
30D
100
AcDbEntity
  8
0
100
AcDbLine
 62
7
  6
CONTINUOUS
 10
171.4353552668
 20
151.2834682714
 11
171.9348486734
 21
150.958693842
  0
LINE
  5
30E
100
AcDbEntity
  8
0
100
AcDbLine
 62
7
  6
CONTINUOUS
 10
171.2688561944
 20
154.0440513759
 11
171.7683496009
 21
153.7192769466
  0
LINE
  5
30F
100
AcDbEntity
  8
0
100
AcDbLine
 62
7
  6
CONTINUOUS
 10
153.953085562
 20
154.3688258053
 11
153.2870940358
 21
154.8559874494
  0
LINE
  5
310
100
AcDbEntity
  8
0
100
AcDbLine
 62
7
  6
CONTINUOUS
 10
156.6170502381
 20
148.5228852806
 11
157.2830417643
 21
147.873336365
  0
LINE
  5
311
100
AcDbEntity
  8
0
100
AcDbLine
 62
7
  6
CONTINUOUS
 10
153.1205963924
 20
154.0440513759
 11
153.4535921555
 21
153.7192769466
  0
LINE
  5
312
100
AcDbEntity
  8
0
100
AcDbLine
 62
7
  6
CONTINUOUS
 10
123.1400399159
 20
153.2321153025
 11
122.822030976
 21
153.8816641613
  0
LINE
  5
313
100
AcDbEntity
  8
0
100
AcDbLine
 62
7
  6
CONTINUOUS
 10
111.0557229459
 20
149.3348214677
 11
110.8967193858
 21
149.9843703265
  0
LINE
  5
314
100
AcDbEntity
  8
0
100
AcDbLine
 62
7
  6
CONTINUOUS
 10
122.1860149159
 20
153.0697276329
 11
122.345018476
 21
152.4201787742
  0
LINE
  5
315
100
AcDbEntity
  8
0
100
AcDbLine
 62
7
  6
CONTINUOUS
 10
109.9426939309
 20
149.9843703265
 11
110.1016984009
 21
149.172434253
  0
LINE
  5
316
100
AcDbEntity
  8
BEZUGSACHSEN
100
AcDbLine
 62
7
  6
CONTINUOUS
 10
111.185049185
 20
118.9783290381
 11
111.185049185
 21
121.0856970919
  0
LINE
  5
317
100
AcDbEntity
  8
0
100
AcDbLine
 62
7
  6
CONTINUOUS
 10
113.2355003246
 20
94.8792463538
 11
113.2355003246
 21
87.4121987445
  0
LINE
  5
318
100
AcDbEntity
  8
0
100
AcDbLine
 62
7
  6
CONTINUOUS
 10
114.7128193858
 20
155.0183746641
 11
114.7128193858
 21
149.9843703265
  0
LINE
  5
319
100
AcDbEntity
  8
0
100
AcDbLine
 62
7
  6
CONTINUOUS
 10
115.6668443858
 20
149.9843703265
 11
115.6668443858
 21
155.0183746641
  0
LINE
  5
31A
100
AcDbEntity
  8
0
100
AcDbLine
 62
7
  6
CONTINUOUS
 10
116.3555003246
 20
88.4304325094
 11
116.3555003246
 21
91.0325854642
  0
LINE
  5
31B
100
AcDbEntity
  8
0
100
AcDbLine
 62
7
  6
CONTINUOUS
 10
116.3555003246
 20
91.8245450591
 11
116.3555003246
 21
94.4266980139
  0
LINE
  5
31C
100
AcDbEntity
  8
0
100
AcDbLine
 62
7
  6
CONTINUOUS
 10
116.9388774159
 20
155.0183746641
 11
116.9388774159
 21
147.3861746641
  0
LINE
  5
31D
100
AcDbEntity
  8
0
100
AcDbLine
 62
7
  6
CONTINUOUS
 10
117.0755003246
 20
93.5555424595
 11
117.0755003246
 21
92.1300151886
  0
LINE
  5
31E
100
AcDbEntity
  8
0
100
AcDbLine
 62
7
  6
CONTINUOUS
 10
117.0755003246
 20
90.1614299098
 11
117.0755003246
 21
88.7359026389
  0
LINE
  5
31F
100
AcDbEntity
  8
0
100
AcDbLine
 62
7
  6
CONTINUOUS
 10
117.6755003246
 20
90.0935476588
 11
117.6755003246
 21
90.2971944118
  0
LINE
  5
320
100
AcDbEntity
  8
0
100
AcDbLine
 62
7
  6
CONTINUOUS
 10
117.6755003246
 20
90.8063112942
 11
117.6755003246
 21
91.4851338041
  0
LINE
  5
321
100
AcDbEntity
  8
0
100
AcDbLine
 62
7
  6
CONTINUOUS
 10
117.6755003246
 20
91.9942506866
 11
117.6755003246
 21
92.7635828645
  0
LINE
  5
322
100
AcDbEntity
  8
0
100
AcDbLine
 62
7
  6
CONTINUOUS
 10
117.8929024159
 20
148.3604980659
 11
117.8929024159
 21
154.0440513759
  0
LINE
  5
323
100
AcDbEntity
  8
0
100
AcDbLine
 62
7
  6
CONTINUOUS
 10
118.3955003246
 20
92.7635828645
 11
118.3955003246
 21
91.9942506866
  0
LINE
  5
324
100
AcDbEntity
  8
0
100
AcDbLine
 62
7
  6
CONTINUOUS
 10
118.3955003246
 20
91.4851338041
 11
118.3955003246
 21
90.8063112942
  0
LINE
  5
325
100
AcDbEntity
  8
0
100
AcDbLine
 62
7
  6
CONTINUOUS
 10
118.3955003246
 20
90.2971944118
 11
118.3955003246
 21
90.0935476588
  0
LINE
  5
326
100
AcDbEntity
  8
0
100
AcDbLine
 62
7
  6
CONTINUOUS
 10
118.9955003246
 20
88.7359026389
 11
118.9955003246
 21
90.1614299098
  0
LINE
  5
327
100
AcDbEntity
  8
0
100
AcDbLine
 62
7
  6
CONTINUOUS
 10
118.9955003246
 20
92.1300151886
 11
118.9955003246
 21
93.5555424595
  0
LINE
  5
328
100
AcDbEntity
  8
0
100
AcDbLine
 62
7
  6
CONTINUOUS
 10
119.7155003246
 20
94.4266980139
 11
119.7155003246
 21
91.8245450591
  0
LINE
  5
329
100
AcDbEntity
  8
0
100
AcDbLine
 62
7
  6
CONTINUOUS
 10
119.7155003246
 20
91.0325854642
 11
119.7155003246
 21
88.4304325094
  0
LINE
  5
32A
100
AcDbEntity
  8
0
100
AcDbLine
 62
7
  6
CONTINUOUS
 10
120.575128701
 20
396.9486970919
 11
120.575128701
 21
194.9486970919
  0
LINE
  5
32B
100
AcDbEntity
  8
0
100
AcDbLine
 62
7
  6
CONTINUOUS
 10
122.345018476
 20
152.4201787742
 11
122.345018476
 21
149.9843703265
  0
LINE
  5
32C
100
AcDbEntity
  8
0
100
AcDbLine
 62
7
  6
CONTINUOUS
 10
122.8355003246
 20
87.4121987445
 11
122.8355003246
 21
94.8792463538
  0
LINE
  5
32D
100
AcDbEntity
  8
0
100
AcDbLine
 62
7
  6
CONTINUOUS
 10
123.299043476
 20
149.9843703265
 11
123.299043476
 21
152.4201787742
  0
LINE
  5
32E
100
AcDbEntity
  8
0
100
AcDbLine
 62
7
  6
CONTINUOUS
 10
162.4444739493
 20
153.8816641613
 11
161.7784824231
 21
154.53121302
  0
LINE
  5
32F
100
AcDbEntity
  8
0
100
AcDbLine
 62
7
  6
CONTINUOUS
 10
171.9348486734
 20
150.958693842
 11
172.2678430074
 21
150.6339194127
  0
LINE
  5
330
100
AcDbEntity
  8
0
100
AcDbLine
 62
7
  6
CONTINUOUS
 10
172.9338354864
 20
151.1210810567
 11
172.4343420799
 21
151.6082427008
  0
LINE
  5
331
100
AcDbEntity
  8
0
100
AcDbLine
 62
7
  6
CONTINUOUS
 10
154.4525784922
 20
153.7192769466
 11
153.953085562
 21
154.3688258053
  0
LINE
  5
332
100
AcDbEntity
  8
0
100
AcDbLine
 62
7
  6
CONTINUOUS
 10
167.7724023487
 20
148.6852724953
 11
168.2718957552
 21
148.0357235797
  0
LINE
  5
333
100
AcDbEntity
  8
0
100
AcDbLine
 62
7
  6
CONTINUOUS
 10
157.6160370511
 20
148.8476598237
 11
157.2830417643
 21
149.3348214677
  0
LINE
  5
334
100
AcDbEntity
  8
0
100
AcDbLine
 62
7
  6
CONTINUOUS
 10
123.299043476
 20
152.4201787742
 11
123.1400399159
 21
153.2321153025
  0
LINE
  5
335
100
AcDbEntity
  8
0
100
AcDbLine
 62
7
  6
CONTINUOUS
 10
125.948782407
 20
95.5580688638
 11
125.948782407
 21
94.5285213904
  0
LINE
  5
336
100
AcDbEntity
  8
0
100
AcDbLine
 62
7
  6
CONTINUOUS
 10
125.948782407
 20
93.5781698765
 11
125.948782407
 21
86.7333762346
  0
LINE
  5
337
100
AcDbEntity
  8
0
100
AcDbLine
 62
7
  6
CONTINUOUS
 10
127.325128701
 20
118.0081970919
 11
127.325128701
 21
99.6574576736
  0
LINE
  5
338
100
AcDbEntity
  8
KONSTRUKTIONSELEMENTE
100
AcDbLine
 62
7
  6
CONTINUOUS
 10
127.325128701
 20
118.0081970919
 11
127.325128701
 21
141.1986970919
  0
LINE
  5
339
100
AcDbEntity
  8
0
100
AcDbLine
 62
7
  6
CONTINUOUS
 10
127.484782407
 20
86.7333762346
 11
127.484782407
 21
91.5571643244
  0
LINE
  5
33A
100
AcDbEntity
  8
0
100
AcDbLine
 62
7
  6
CONTINUOUS
 10
127.484782407
 20
92.0775949153
 11
127.484782407
 21
93.5781698765
  0
LINE
  5
33B
100
AcDbEntity
  8
KONSTRUKTIONSELEMENTE
100
AcDbLine
 62
7
  6
CONTINUOUS
 10
128.575128701
 20
129.1528970919
 11
128.575128701
 21
138.847146008
  0
LINE
  5
33C
100
AcDbEntity
  8
KONSTRUKTIONSELEMENTE
100
AcDbLine
 62
7
  6
CONTINUOUS
 10
128.575128701
 20
166.4036981104
 11
128.575128701
 21
169.9598443802
  0
LINE
  5
33D
100
AcDbEntity
  8
0
100
AcDbLine
 62
7
  6
CONTINUOUS
 10
131.324782407
 20
90.9914788994
 11
131.324782407
 21
91.5571643244
  0
LINE
  5
33E
100
AcDbEntity
  8
0
100
AcDbLine
 62
7
  6
CONTINUOUS
 10
132.9602200373
 20
91.1607170809
 11
132.9602200373
 21
91.7264025059
  0
LINE
  5
33F
100
AcDbEntity
  8
KONSTRUKTIONSELEMENTE
100
AcDbLine
 62
7
  6
CONTINUOUS
 10
133.075128701
 20
129.1528970919
 11
133.075128701
 21
138.847146008
  0
LINE
  5
340
100
AcDbEntity
  8
KONSTRUKTIONSELEMENTE
100
AcDbLine
 62
7
  6
CONTINUOUS
 10
133.075128701
 20
165.2202670584
 11
133.075128701
 21
169.9598443802
  0
LINE
  5
341
100
AcDbEntity
  8
0
100
AcDbLine
 62
7
  6
CONTINUOUS
 10
133.6978491377
 20
93.8687435778
 11
133.6978491377
 21
93.3030581528
  0
LINE
  5
342
100
AcDbEntity
  8
KONSTRUKTIONSELEMENTE
100
AcDbLine
 62
7
  6
CONTINUOUS
 10
134.075128701
 20
129.1528970919
 11
134.075128701
 21
129.8915743649
  0
LINE
  5
343
100
AcDbEntity
  8
KONSTRUKTIONSELEMENTE
100
AcDbLine
 62
7
  6
CONTINUOUS
 10
134.075128701
 20
168.6020539688
 11
134.075128701
 21
179.1532096269
  0
LINE
  5
344
100
AcDbEntity
  8
KONSTRUKTIONSELEMENTE
100
AcDbLine
 62
7
  6
CONTINUOUS
 10
134.325128701
 20
138.0960855234
 11
134.325128701
 21
150.1586160381
  0
LINE
  5
345
100
AcDbEntity
  8
0
100
AcDbLine
 62
7
  6
CONTINUOUS
 10
134.801508674
 20
86.7333762346
 11
134.801508674
 21
87.2990616595
  0
LINE
  5
346
100
AcDbEntity
  8
0
100
AcDbLine
 62
7
  6
CONTINUOUS
 10
137.468782407
 20
95.5580688638
 11
137.468782407
 21
89.9745675094
  0
LINE
  5
347
100
AcDbEntity
  8
KONSTRUKTIONSELEMENTE
100
AcDbLine
 62
7
  6
CONTINUOUS
 10
138.825128701
 20
138.0960855234
 11
138.825128701
 21
150.1586160381
  0
LINE
  5
348
100
AcDbEntity
  8
0
100
AcDbLine
 62
7
  6
CONTINUOUS
 10
139.004782407
 20
89.9745675094
 11
139.004782407
 21
95.5580688638
  0
LINE
  5
349
100
AcDbEntity
  8
KONSTRUKTIONSELEMENTE
100
AcDbLine
 62
7
  6
CONTINUOUS
 10
139.075128701
 20
129.1528970919
 11
139.075128701
 21
129.8915743649
  0
LINE
  5
34A
100
AcDbEntity
  8
KONSTRUKTIONSELEMENTE
100
AcDbLine
 62
7
  6
CONTINUOUS
 10
139.075128701
 20
168.6020539688
 11
139.075128701
 21
179.1532096269
  0
LINE
  5
34B
100
AcDbEntity
  8
0
100
AcDbLine
 62
7
  6
CONTINUOUS
 10
115.5078399159
 20
149.172434253
 11
115.6668443858
 21
149.9843703265
  0
LINE
  5
34C
100
AcDbEntity
  8
0
100
AcDbLine
 62
7
  6
CONTINUOUS
 10
123.1400399159
 20
149.172434253
 11
123.299043476
 21
149.9843703265
  0
LINE
  5
34D
100
AcDbEntity
  8
0
100
AcDbLine
 62
7
  6
CONTINUOUS
 10
114.7128193858
 20
149.9843703265
 11
114.5538149159
 21
149.3348214677
  0
LINE
  5
34E
100
AcDbEntity
  8
0
100
AcDbLine
 62
7
  6
CONTINUOUS
 10
122.345018476
 20
149.9843703265
 11
122.1860149159
 21
149.3348214677
  0
LINE
  5
34F
100
AcDbEntity
  8
0
100
AcDbLine
 62
7
  6
CONTINUOUS
 10
107.5576314309
 20
152.7449532036
 11
107.3986274159
 21
152.2577915595
  0
LINE
  5
350
100
AcDbEntity
  8
0
100
AcDbLine
 62
7
  6
CONTINUOUS
 10
108.3526524159
 20
152.0954043448
 11
108.5116564309
 21
152.5825659889
  0
LINE
  5
351
100
AcDbEntity
  8
0
100
AcDbLine
 62
7
  6
CONTINUOUS
 10
172.767336414
 20
153.7192769466
 11
172.2678430074
 21
154.3688258053
  0
LINE
  5
352
100
AcDbEntity
  8
0
100
AcDbLine
 62
7
  6
CONTINUOUS
 10
168.7713891617
 20
148.6852724953
 11
168.4383948277
 21
149.172434253
  0
LINE
  5
353
100
AcDbEntity
  8
0
100
AcDbLine
 62
7
  6
CONTINUOUS
 10
171.7683496009
 20
153.7192769466
 11
172.1013458404
 21
153.2321153025
  0
LINE
  5
354
100
AcDbEntity
  8
0
100
AcDbLine
 62
7
  6
CONTINUOUS
 10
156.2840549513
 20
149.172434253
 11
156.6170502381
 21
148.5228852806
  0
LINE
  5
355
100
AcDbEntity
  8
0
100
AcDbLine
 62
7
  6
CONTINUOUS
 10
154.7855747317
 20
147.3861746641
 11
153.2870940358
 21
151.1210810567
  0
LINE
  5
356
100
AcDbEntity
  8
0
100
AcDbLine
 62
7
  6
CONTINUOUS
 10
152.2881072227
 20
150.7963066273
 11
153.6200897989
 21
147.3861746641
  0
LINE
  5
357
100
AcDbEntity
  8
0
100
AcDbLine
 62
7
  6
CONTINUOUS
 10
153.4535921555
 20
153.7192769466
 11
153.6200897989
 21
153.2321153025
  0
LINE
  5
358
100
AcDbEntity
  8
0
100
AcDbLine
 62
7
  6
CONTINUOUS
 10
154.6190766119
 20
153.2321153025
 11
154.4525784922
 21
153.7192769466
  0
LINE
  5
359
100
AcDbEntity
  8
KONSTRUKTIONSELEMENTE
100
AcDbLine
 62
7
  6
CONTINUOUS
 10
140.075128701
 20
169.9598443802
 11
140.075128701
 21
165.2202670584
  0
LINE
  5
35A
100
AcDbEntity
  8
KONSTRUKTIONSELEMENTE
100
AcDbLine
 62
7
  6
CONTINUOUS
 10
140.075128701
 20
138.847146008
 11
140.075128701
 21
129.1528970919
  0
LINE
  5
35B
100
AcDbEntity
  8
KONSTRUKTIONSELEMENTE
100
AcDbLine
 62
7
  6
CONTINUOUS
 10
144.575128701
 20
169.9598443802
 11
144.575128701
 21
166.4036981104
  0
LINE
  5
35C
100
AcDbEntity
  8
KONSTRUKTIONSELEMENTE
100
AcDbLine
 62
7
  6
CONTINUOUS
 10
144.575128701
 20
138.847146008
 11
144.575128701
 21
129.1528970919
  0
LINE
  5
35D
100
AcDbEntity
  8
0
100
AcDbLine
 62
7
  6
CONTINUOUS
 10
145.0433989839
 20
95.5580688638
 11
145.0433989839
 21
89.9745675094
  0
LINE
  5
35E
100
AcDbEntity
  8
0
100
AcDbLine
 62
7
  6
CONTINUOUS
 10
145.825128701
 20
99.6574576736
 11
145.825128701
 21
118.0081970919
  0
LINE
  5
35F
100
AcDbEntity
  8
KONSTRUKTIONSELEMENTE
100
AcDbLine
 62
7
  6
CONTINUOUS
 10
145.825128701
 20
118.0081970919
 11
145.825128701
 21
141.1986970919
  0
LINE
  5
360
100
AcDbEntity
  8
0
100
AcDbLine
 62
7
  6
CONTINUOUS
 10
146.127688701
 20
155.0183746641
 11
146.127688701
 21
147.3861746641
  0
LINE
  5
361
100
AcDbEntity
  8
0
100
AcDbLine
 62
7
  6
CONTINUOUS
 10
146.5793989839
 20
89.9745675094
 11
146.5793989839
 21
95.5580688638
  0
LINE
  5
362
100
AcDbEntity
  8
0
100
AcDbLine
 62
7
  6
CONTINUOUS
 10
147.126675514
 20
147.3861746641
 11
147.126675514
 21
155.0183746641
  0
LINE
  5
363
100
AcDbEntity
  8
0
100
AcDbLine
 62
7
  6
CONTINUOUS
 10
148.458657852
 20
155.0183746641
 11
148.458657852
 21
147.3861746641
  0
LINE
  5
364
100
AcDbEntity
  8
0
100
AcDbLine
 62
7
  6
CONTINUOUS
 10
149.4576446651
 20
147.3861746641
 11
149.4576446651
 21
150.7963066273
  0
LINE
  5
365
100
AcDbEntity
  8
0
100
AcDbLine
 62
7
  6
CONTINUOUS
 10
149.4576446651
 20
151.7706299155
 11
149.4576446651
 21
154.2064385906
  0
LINE
  5
366
100
AcDbEntity
  8
0
100
AcDbLine
 62
7
  6
CONTINUOUS
 10
149.9393989839
 20
95.5580688638
 11
149.9393989839
 21
94.4719528479
  0
LINE
  5
367
100
AcDbEntity
  8
0
100
AcDbLine
 62
7
  6
CONTINUOUS
 10
149.9393989839
 20
93.521601334
 11
149.9393989839
 21
86.7333762346
  0
LINE
  5
368
100
AcDbEntity
  8
0
100
AcDbLine
 62
7
  6
CONTINUOUS
 10
151.4753989839
 20
87.8647470845
 11
151.4753989839
 21
93.521601334
  0
LINE
  5
369
100
AcDbEntity
  8
0
100
AcDbLine
 62
7
  6
CONTINUOUS
 10
152.575128701
 20
396.9486970919
 11
152.575128701
 21
194.9486970919
  0
LINE
  5
36A
100
AcDbEntity
  8
0
100
AcDbLine
 62
7
  6
CONTINUOUS
 10
153.6200897989
 20
153.2321153025
 11
153.6200897989
 21
152.7449532036
  0
LINE
  5
36B
100
AcDbEntity
  8
0
100
AcDbLine
 62
7
  6
CONTINUOUS
 10
115.1898318858
 20
148.5228852806
 11
115.5078399159
 21
149.172434253
  0
LINE
  5
36C
100
AcDbEntity
  8
0
100
AcDbLine
 62
7
  6
CONTINUOUS
 10
122.822030976
 20
148.5228852806
 11
123.1400399159
 21
149.172434253
  0
LINE
  5
36D
100
AcDbEntity
  8
0
100
AcDbLine
 62
7
  6
CONTINUOUS
 10
114.5538149159
 20
149.3348214677
 11
114.2358068858
 21
148.8476598237
  0
LINE
  5
36E
100
AcDbEntity
  8
0
100
AcDbLine
 62
7
  6
CONTINUOUS
 10
107.8756399159
 20
151.4458554861
 11
108.3526524159
 21
152.0954043448
  0
LINE
  5
36F
100
AcDbEntity
  8
0
100
AcDbLine
 62
7
  6
CONTINUOUS
 10
167.4394080146
 20
149.4972086824
 11
167.7724023487
 21
148.6852724953
  0
LINE
  5
370
100
AcDbEntity
  8
0
100
AcDbLine
 62
7
  6
CONTINUOUS
 10
173.2668298205
 20
150.3091449833
 11
172.9338354864
 21
151.1210810567
  0
LINE
  5
371
100
AcDbEntity
  8
0
100
AcDbLine
 62
7
  6
CONTINUOUS
 10
161.4454861836
 20
153.5568897319
 11
161.6119843033
 21
153.0697276329
  0
LINE
  5
372
100
AcDbEntity
  8
0
100
AcDbLine
 62
7
  6
CONTINUOUS
 10
168.4383948277
 20
149.172434253
 11
168.2718957552
 21
149.6595958971
  0
LINE
  5
373
100
AcDbEntity
  8
0
100
AcDbLine
 62
7
  6
CONTINUOUS
 10
172.2678430074
 20
150.6339194127
 11
172.4343420799
 21
150.1467575411
  0
LINE
  5
374
100
AcDbEntity
  8
0
100
AcDbLine
 62
7
  6
CONTINUOUS
 10
172.9338354864
 20
153.2321153025
 11
172.767336414
 21
153.7192769466
  0
LINE
  5
375
100
AcDbEntity
  8
0
100
AcDbLine
 62
7
  6
CONTINUOUS
 10
157.2830417643
 20
149.3348214677
 11
157.1165436446
 21
149.9843703265
  0
LINE
  5
376
100
AcDbEntity
  8
0
100
AcDbLine
 62
7
  6
CONTINUOUS
 10
156.1175568315
 20
149.9843703265
 11
156.2840549513
 21
149.172434253
  0
LINE
  5
377
100
AcDbEntity
  8
0
100
AcDbLine
 62
7
  6
CONTINUOUS
 10
162.6109711164
 20
153.0697276329
 11
162.4444739493
 21
153.8816641613
  0
LINE
  5
378
100
AcDbEntity
  8
0
100
AcDbLine
 62
7
  6
CONTINUOUS
 10
154.6190766119
 20
152.5825659889
 11
154.6190766119
 21
153.2321153025
  0
LINE
  5
379
100
AcDbEntity
  8
0
100
AcDbLine
 62
7
  6
CONTINUOUS
 10
156.1175568315
 20
152.4201787742
 11
156.1175568315
 21
149.9843703265
  0
LINE
  5
37A
100
AcDbEntity
  8
0
100
AcDbLine
 62
7
  6
CONTINUOUS
 10
157.1165436446
 20
149.9843703265
 11
157.1165436446
 21
152.4201787742
  0
LINE
  5
37B
100
AcDbEntity
  8
0
100
AcDbLine
 62
7
  6
CONTINUOUS
 10
158.0875809885
 20
91.7340353911
 11
158.0875809885
 21
91.1683499662
  0
LINE
  5
37C
100
AcDbEntity
  8
0
100
AcDbLine
 62
7
  6
CONTINUOUS
 10
160.1135040837
 20
151.6082427008
 11
160.1135040837
 21
150.6339194127
  0
LINE
  5
37D
100
AcDbEntity
  8
0
100
AcDbLine
 62
7
  6
CONTINUOUS
 10
161.6119843033
 20
150.6339194127
 11
161.6119843033
 21
149.3348214677
  0
LINE
  5
37E
100
AcDbEntity
  8
KONSTRUKTIONSELEMENTE
100
AcDbLine
 62
7
  6
CONTINUOUS
 10
161.965208217
 20
118.0081970919
 11
161.965208217
 21
121.0856970919
  0
LINE
  5
37F
100
AcDbEntity
  8
0
100
AcDbLine
 62
7
  6
CONTINUOUS
 10
162.6109711164
 20
149.172434253
 11
162.6109711164
 21
151.6082427008
  0
LINE
  5
380
100
AcDbEntity
  8
0
100
AcDbLine
 62
7
  6
CONTINUOUS
 10
163.9429541689
 20
153.8816641613
 11
163.9429541689
 21
152.5825659889
  0
LINE
  5
381
100
AcDbEntity
  8
0
100
AcDbLine
 62
7
  6
CONTINUOUS
 10
164.941940982
 20
153.7192769466
 11
164.941940982
 21
147.3861746641
  0
LINE
  5
382
100
AcDbEntity
  8
0
100
AcDbLine
 62
7
  6
CONTINUOUS
 10
165.940927795
 20
147.3861746641
 11
165.940927795
 21
155.0183746641
  0
LINE
  5
383
100
AcDbEntity
  8
0
100
AcDbLine
 62
7
  6
CONTINUOUS
 10
167.2729089422
 20
151.7706299155
 11
167.2729089422
 21
150.6339194127
  0
LINE
  5
384
100
AcDbEntity
  8
0
100
AcDbLine
 62
7
  6
CONTINUOUS
 10
168.1053985882
 20
151.4458554861
 11
168.1053985882
 21
151.7706299155
  0
LINE
  5
385
100
AcDbEntity
  8
0
100
AcDbLine
 62
7
  6
CONTINUOUS
 10
156.2840549513
 20
153.2321153025
 11
156.1175568315
 21
152.4201787742
  0
LINE
  5
386
100
AcDbEntity
  8
0
100
AcDbLine
 62
7
  6
CONTINUOUS
 10
122.1860149159
 20
149.3348214677
 11
121.868005976
 21
148.8476598237
  0
LINE
  5
387
100
AcDbEntity
  8
0
100
AcDbLine
 62
7
  6
CONTINUOUS
 10
107.3986274159
 20
152.2577915595
 11
107.0806189309
 21
151.9330171301
  0
LINE
  5
388
100
AcDbEntity
  8
0
100
AcDbLine
 62
7
  6
CONTINUOUS
 10
114.5538149159
 20
147.873336365
 11
115.1898318858
 21
148.5228852806
  0
LINE
  5
389
100
AcDbEntity
  8
0
100
AcDbLine
 62
7
  6
CONTINUOUS
 10
167.2729089422
 20
150.6339194127
 11
167.4394080146
 21
149.4972086824
  0
LINE
  5
38A
100
AcDbEntity
  8
0
100
AcDbLine
 62
7
  6
CONTINUOUS
 10
168.2718957552
 20
149.6595958971
 11
168.2718957552
 21
150.1467575411
  0
LINE
  5
38B
100
AcDbEntity
  8
0
100
AcDbLine
 62
7
  6
CONTINUOUS
 10
172.4343420799
 20
150.1467575411
 11
172.4343420799
 21
149.6595958971
  0
LINE
  5
38C
100
AcDbEntity
  8
0
100
AcDbLine
 62
7
  6
CONTINUOUS
 10
173.2668298205
 20
149.4972086824
 11
173.2668298205
 21
150.3091449833
  0
LINE
  5
38D
100
AcDbEntity
  8
RUNDUNGEN
100
AcDbLine
 62
7
  6
CONTINUOUS
 10
178.725128701
 20
15.457012691
 11
178.725128701
 21
8.2445235229
  0
LINE
  5
38E
100
AcDbEntity
  8
RUNDUNGEN
100
AcDbLine
 62
7
  6
CONTINUOUS
 10
182.075128701
 20
103.4509470919
 11
182.075128701
 21
154.9486970919
  0
LINE
  5
38F
100
AcDbEntity
  8
0
100
AcDbLine
 62
7
  6
CONTINUOUS
 10
167.4394080146
 20
152.9073404182
 11
167.2729089422
 21
151.7706299155
  0
LINE
  5
390
100
AcDbEntity
  8
0
100
AcDbLine
 62
7
  6
CONTINUOUS
 10
168.1053985882
 20
151.7706299155
 11
168.2718957552
 21
152.7449532036
  0
LINE
  5
391
100
AcDbEntity
  8
0
100
AcDbLine
 62
7
  6
CONTINUOUS
 10
157.1165436446
 20
152.4201787742
 11
157.2830417643
 21
153.0697276329
  0
LINE
  5
392
100
AcDbEntity
  8
0
100
AcDbLine
 62
7
  6
CONTINUOUS
 10
162.4444739493
 20
148.5228852806
 11
162.6109711164
 21
149.172434253
  0
LINE
  5
393
100
AcDbEntity
  8
0
100
AcDbLine
 62
7
  6
CONTINUOUS
 10
153.6200897989
 20
152.7449532036
 11
153.4535921555
 21
152.2577915595
  0
LINE
  5
394
100
AcDbEntity
  8
0
100
AcDbLine
 62
7
  6
CONTINUOUS
 10
154.4525784922
 20
152.0954043448
 11
154.6190766119
 21
152.5825659889
  0
LINE
  5
395
100
AcDbEntity
  8
0
100
AcDbLine
 62
7
  6
CONTINUOUS
 10
161.6119843033
 20
149.3348214677
 11
161.4454861836
 21
148.8476598237
  0
LINE
  5
396
100
AcDbEntity
  8
0
100
AcDbLine
 62
7
  6
CONTINUOUS
 10
156.6170502381
 20
153.8816641613
 11
156.2840549513
 21
153.2321153025
  0
LINE
  5
397
100
AcDbEntity
  8
0
100
AcDbLine
 62
7
  6
CONTINUOUS
 10
122.1860149159
 20
147.873336365
 11
122.822030976
 21
148.5228852806
  0
LINE
  5
398
100
AcDbEntity
  8
0
100
AcDbLine
 62
7
  6
CONTINUOUS
 10
114.2358068858
 20
148.8476598237
 11
113.7587943858
 21
148.5228852806
  0
LINE
  5
399
100
AcDbEntity
  8
0
100
AcDbLine
 62
7
  6
CONTINUOUS
 10
121.868005976
 20
148.8476598237
 11
121.390993476
 21
148.5228852806
  0
LINE
  5
39A
100
AcDbEntity
  8
0
100
AcDbLine
 62
7
  6
CONTINUOUS
 10
107.2396234009
 20
151.1210810567
 11
107.8756399159
 21
151.4458554861
  0
LINE
  5
39B
100
AcDbEntity
  8
0
100
AcDbLine
 62
7
  6
CONTINUOUS
 10
120.575128701
 20
239.048785665
 11
108.881490875
 21
235.9154848529
  0
LINE
  5
39C
100
AcDbEntity
  8
0
100
AcDbLine
 62
7
  6
CONTINUOUS
 10
164.268766527
 20
235.9154848529
 11
152.575128701
 21
239.048785665
  0
LINE
  5
39D
100
AcDbEntity
  8
0
100
AcDbLine
 62
7
  6
CONTINUOUS
 10
184.541916462
 20
215.6423349179
 11
164.268766527
 21
235.9154848529
  0
LINE
  5
39E
100
AcDbEntity
  8
0
100
AcDbLine
 62
7
  6
CONTINUOUS
 10
184.541916462
 20
144.2695677416
 11
184.541916462
 21
160.255059266
  0
LINE
  5
39F
100
AcDbEntity
  8
RUNDUNGEN
100
AcDbLine
 62
7
  6
CONTINUOUS
 10
191.075128701
 20
13.3356923474
 11
191.075128701
 21
26.4013354586
  0
LINE
  5
3A0
100
AcDbEntity
  8
0
100
AcDbLine
 62
7
  6
CONTINUOUS
 10
184.541916462
 20
160.255059266
 11
191.9624043529
 21
187.9486970919
  0
LINE
  5
3A1
100
AcDbEntity
  8
0
100
AcDbLine
 62
7
  6
CONTINUOUS
 10
168.2718957552
 20
152.7449532036
 11
168.4383948277
 21
153.2321153025
  0
LINE
  5
3A2
100
AcDbEntity
  8
0
100
AcDbLine
 62
7
  6
CONTINUOUS
 10
168.2718957552
 20
150.1467575411
 11
168.4383948277
 21
150.6339194127
  0
LINE
  5
3A3
100
AcDbEntity
  8
0
100
AcDbLine
 62
7
  6
CONTINUOUS
 10
172.4343420799
 20
149.6595958971
 11
172.2678430074
 21
149.172434253
  0
LINE
  5
3A4
100
AcDbEntity
  8
0
100
AcDbLine
 62
7
  6
CONTINUOUS
 10
167.7724023487
 20
153.7192769466
 11
167.4394080146
 21
152.9073404182
  0
LINE
  5
3A5
100
AcDbEntity
  8
0
100
AcDbLine
 62
7
  6
CONTINUOUS
 10
172.9338354864
 20
148.6852724953
 11
173.2668298205
 21
149.4972086824
  0
LINE
  5
3A6
100
AcDbEntity
  8
0
100
AcDbLine
 62
7
  6
CONTINUOUS
 10
157.2830417643
 20
153.0697276329
 11
157.6160370511
 21
153.5568897319
  0
LINE
  5
3A7
100
AcDbEntity
  8
0
100
AcDbLine
 62
7
  6
CONTINUOUS
 10
168.4383948277
 20
153.2321153025
 11
168.7713891617
 21
153.7192769466
  0
LINE
  5
3A8
100
AcDbEntity
  8
0
100
AcDbLine
 62
7
  6
CONTINUOUS
 10
153.953085562
 20
151.4458554861
 11
154.4525784922
 21
152.0954043448
  0
LINE
  5
3A9
100
AcDbEntity
  8
0
100
AcDbLine
 62
7
  6
CONTINUOUS
 10
168.2718957552
 20
154.3688258053
 11
167.7724023487
 21
153.7192769466
  0
LINE
  5
3AA
100
AcDbEntity
  8
0
100
AcDbLine
 62
7
  6
CONTINUOUS
 10
164.941940982
 20
155.0183746641
 11
163.9429541689
 21
153.8816641613
  0
LINE
  5
3AB
100
AcDbEntity
  8
0
100
AcDbLine
 62
7
  6
CONTINUOUS
 10
163.9429541689
 20
152.5825659889
 11
164.941940982
 21
153.7192769466
  0
LINE
  5
3AC
100
AcDbEntity
  8
0
100
AcDbLine
 62
7
  6
CONTINUOUS
 10
153.4535921555
 20
152.2577915595
 11
153.1205963924
 21
151.9330171301
  0
LINE
  5
3AD
100
AcDbEntity
  8
0
100
AcDbLine
 62
7
  6
CONTINUOUS
 10
157.2830417643
 20
154.53121302
 11
156.6170502381
 21
153.8816641613
  0
LINE
  5
3AE
100
AcDbEntity
  8
0
100
AcDbLine
 62
7
  6
CONTINUOUS
 10
157.6160370511
 20
153.5568897319
 11
158.1155304576
 21
153.8816641613
  0
LINE
  5
3AF
100
AcDbEntity
  8
0
100
AcDbLine
 62
7
  6
CONTINUOUS
 10
113.9177979459
 20
147.548561893
 11
114.5538149159
 21
147.873336365
  0
LINE
  5
3B0
100
AcDbEntity
  8
0
100
AcDbLine
 62
7
  6
CONTINUOUS
 10
121.5499988558
 20
147.548561893
 11
122.1860149159
 21
147.873336365
  0
LINE
  5
3B1
100
AcDbEntity
  8
RUNDUNGEN
100
AcDbLine
 62
7
  6
CONTINUOUS
 10
72.9537837266
 20
120.3484787481
 11
71.315479638
 21
119.5373191727
  0
LINE
  5
3B2
100
AcDbEntity
  8
RUNDUNGEN
100
AcDbLine
 62
7
  6
CONTINUOUS
 10
72.9537837266
 20
116.8129448421
 11
71.315479638
 21
116.0017852668
  0
LINE
  5
3B3
100
AcDbEntity
  8
0
100
AcDbLine
 62
7
  6
CONTINUOUS
 10
157.9490323379
 20
154.8559874494
 11
157.2830417643
 21
154.53121302
  0
LINE
  5
3B4
100
AcDbEntity
  8
0
100
AcDbLine
 62
7
  6
CONTINUOUS
 10
107.0806189309
 20
151.9330171301
 11
106.6036064309
 21
151.7706299155
  0
LINE
  5
3B5
100
AcDbEntity
  8
0
100
AcDbLine
 62
7
  6
CONTINUOUS
 10
191.9624043529
 20
187.9486970919
 11
184.541916462
 21
215.6423349179
  0
LINE
  5
3B6
100
AcDbEntity
  8
RUNDUNGEN
100
AcDbLine
 62
7
  6
CONTINUOUS
 10
207.4061729166
 20
112.3230265213
 11
207.4061729166
 21
115.8585604272
  0
LINE
  5
3B7
100
AcDbEntity
  8
0
100
AcDbLine
 62
7
  6
CONTINUOUS
 10
184.541916462
 20
144.2695677416
 11
182.075128701
 21
132.6642437675
  0
LINE
  5
3B8
100
AcDbEntity
  8
0
100
AcDbLine
 62
7
  6
CONTINUOUS
 10
172.2678430074
 20
149.172434253
 11
171.9348486734
 21
148.6852724953
  0
LINE
  5
3B9
100
AcDbEntity
  8
0
100
AcDbLine
 62
7
  6
CONTINUOUS
 10
172.4343420799
 20
148.0357235797
 11
172.9338354864
 21
148.6852724953
  0
LINE
  5
3BA
100
AcDbEntity
  8
0
100
AcDbLine
 62
7
  6
CONTINUOUS
 10
161.7784824231
 20
147.873336365
 11
162.4444739493
 21
148.5228852806
  0
LINE
  5
3BB
100
AcDbEntity
  8
0
100
AcDbLine
 62
7
  6
CONTINUOUS
 10
168.4383948277
 20
150.6339194127
 11
168.7713891617
 21
150.958693842
  0
LINE
  5
3BC
100
AcDbEntity
  8
0
100
AcDbLine
 62
7
  6
CONTINUOUS
 10
168.7713891617
 20
153.7192769466
 11
169.2708825683
 21
154.0440513759
  0
LINE
  5
3BD
100
AcDbEntity
  8
0
100
AcDbLine
 62
7
  6
CONTINUOUS
 10
161.4454861836
 20
148.8476598237
 11
160.9459927771
 21
148.5228852806
  0
LINE
  5
3BE
100
AcDbEntity
  8
0
100
AcDbLine
 62
7
  6
CONTINUOUS
 10
169.1043854012
 20
152.0954043448
 11
168.1053985882
 21
151.4458554861
  0
LINE
  5
3BF
100
AcDbEntity
  8
0
100
AcDbLine
 62
7
  6
CONTINUOUS
 10
168.7713891617
 20
150.958693842
 11
169.2708825683
 21
151.2834682714
  0
LINE
  5
3C0
100
AcDbEntity
  8
0
100
AcDbLine
 62
7
  6
CONTINUOUS
 10
171.9348486734
 20
148.6852724953
 11
171.4353552668
 21
148.3604980659
  0
LINE
  5
3C1
100
AcDbEntity
  8
0
100
AcDbLine
 62
7
  6
CONTINUOUS
 10
169.1043854012
 20
154.8559874494
 11
168.2718957552
 21
154.3688258053
  0
LINE
  5
3C2
100
AcDbEntity
  8
0
100
AcDbLine
 62
7
  6
CONTINUOUS
 10
171.6018524339
 20
147.548561893
 11
172.4343420799
 21
148.0357235797
  0
LINE
  5
3C3
100
AcDbEntity
  8
RUNDUNGEN
100
AcDbLine
 62
7
  6
CONTINUOUS
 10
82.1722193185
 20
106.270875661
 11
76.8477310306
 21
103.6346070412
  0
LINE
  5
3C4
100
AcDbEntity
  8
0
100
AcDbLine
 62
7
  6
CONTINUOUS
 10
153.2870940358
 20
151.1210810567
 11
153.953085562
 21
151.4458554861
  0
LINE
  5
3C5
100
AcDbEntity
  8
0
100
AcDbLine
 62
7
  6
CONTINUOUS
 10
161.1124908968
 20
147.548561893
 11
161.7784824231
 21
147.873336365
  0
LINE
  5
3C6
100
AcDbEntity
  8
0
100
AcDbLine
 62
7
  6
CONTINUOUS
 10
153.1205963924
 20
151.9330171301
 11
152.6211029858
 21
151.7706299155
  0
LINE
  5
3C7
100
AcDbEntity
  8
0
100
AcDbLine
 62
7
  6
CONTINUOUS
 10
169.2708825683
 20
154.0440513759
 11
169.7703759748
 21
154.2064385906
  0
LINE
  5
3C8
100
AcDbEntity
  8
0
100
AcDbLine
 62
7
  6
CONTINUOUS
 10
169.2708825683
 20
151.2834682714
 11
169.7703759748
 21
151.4458554861
  0
LINE
  5
3C9
100
AcDbEntity
  8
0
100
AcDbLine
 62
7
  6
CONTINUOUS
 10
171.4353552668
 20
148.3604980659
 11
170.9358618603
 21
148.1981108512
  0
LINE
  5
3CA
100
AcDbEntity
  8
RUNDUNGEN
100
AcDbLine
 62
7
  6
CONTINUOUS
 10
85.7955234377
 20
98.1341846878
 11
91.1200117256
 21
100.7704533077
  0
LINE
  5
3CB
100
AcDbEntity
  8
RUNDUNGEN
100
AcDbLine
 62
7
  6
CONTINUOUS
 10
85.7955234377
 20
94.5986507819
 11
91.1200117256
 21
97.2349194017
  0
LINE
  5
3CC
100
AcDbEntity
  8
RUNDUNGEN
100
AcDbLine
 62
7
  6
CONTINUOUS
 10
182.075128701
 20
103.4509470919
 11
174.6896669482
 21
91.4495717436
  0
LINE
  5
3CD
100
AcDbEntity
  8
RUNDUNGEN
100
AcDbLine
 62
7
  6
CONTINUOUS
 10
107.002171669
 20
53.3575873671
 11
83.5219123467
 21
29.64597376
  0
LINE
  5
3CE
100
AcDbEntity
  8
RUNDUNGEN
100
AcDbLine
 62
7
  6
CONTINUOUS
 10
107.002171669
 20
49.8220534612
 11
83.5219123467
 21
26.110439854
  0
LINE
  5
3CF
100
AcDbEntity
  8
RUNDUNGEN
100
AcDbLine
 62
7
  6
CONTINUOUS
 10
182.075128701
 20
112.2192068003
 11
192.0045282191
 21
122.246442083
  0
LINE
  5
3D0
100
AcDbEntity
  8
RUNDUNGEN
100
AcDbLine
 62
7
  6
CONTINUOUS
 10
182.075128701
 20
108.6836728944
 11
192.0045282191
 21
118.7109081771
  0
LINE
  5
3D1
100
AcDbEntity
  8
RUNDUNGEN
100
AcDbLine
 62
7
  6
CONTINUOUS
 10
120.0275578002
 20
23.5260828886
 11
128.3836082581
 21
31.9644666824
  0
LINE
  5
3D2
100
AcDbEntity
  8
RUNDUNGEN
100
AcDbLine
 62
7
  6
CONTINUOUS
 10
166.148085733
 20
70.1010428448
 11
206.9540530274
 21
111.3090770521
  0
ARC
  5
3D3
100
AcDbEntity
  8
KONSTRUKTIONSELEMENTE
100
AcDbCircle
 62
7
  6
CONTINUOUS
 10
360.6466969548
 20
114.4873173961
 40
9.55
100
AcDbArc
 50
135.0
 51
209.8048644765
  0
ARC
  5
3D4
100
AcDbEntity
  8
KONSTRUKTIONSELEMENTE
100
AcDbCircle
 62
7
  6
CONTINUOUS
 10
360.6466969548
 20
114.4873173961
 40
9.55
100
AcDbArc
 50
240.1951355235
 51
315.0
  0
ARC
  5
3D5
100
AcDbEntity
  8
KONSTRUKTIONSELEMENTE
100
AcDbCircle
 62
7
  6
CONTINUOUS
 10
369.0612676509
 20
122.9018880923
 40
9.55
100
AcDbArc
 50
315.0
 51
31.3702929546
  0
ARC
  5
3D6
100
AcDbEntity
  8
KONSTRUKTIONSELEMENTE
100
AcDbCircle
 62
7
  6
CONTINUOUS
 10
369.0612676509
 20
122.9018880923
 40
9.55
100
AcDbArc
 50
58.6297070454
 51
135.0
  0
ARC
  5
3D7
100
AcDbEntity
  8
KONSTRUKTIONSELEMENTE
100
AcDbCircle
 62
7
  6
CONTINUOUS
 10
360.6466969548
 20
114.4873173961
 40
4.55
100
AcDbArc
 50
135.0
 51
191.6416672297
  0
ARC
  5
3D8
100
AcDbEntity
  8
KONSTRUKTIONSELEMENTE
100
AcDbCircle
 62
7
  6
CONTINUOUS
 10
360.6466969548
 20
114.4873173961
 40
4.55
100
AcDbArc
 50
258.3583327703
 51
315.0
  0
ARC
  5
3D9
100
AcDbEntity
  8
KONSTRUKTIONSELEMENTE
100
AcDbCircle
 62
7
  6
CONTINUOUS
 10
369.0612676509
 20
122.9018880923
 40
4.55
100
AcDbArc
 50
315.0
 51
15.3477978529
  0
ARC
  5
3DA
100
AcDbEntity
  8
KONSTRUKTIONSELEMENTE
100
AcDbCircle
 62
7
  6
CONTINUOUS
 10
369.0612676509
 20
122.9018880923
 40
4.55
100
AcDbArc
 50
74.6522021471
 51
135.0
  0
ARC
  5
3DB
100
AcDbEntity
  8
KONSTRUKTIONSELEMENTE
100
AcDbCircle
 62
7
  6
CONTINUOUS
 10
370.3340598571
 20
124.1746802984
 40
2.25
100
AcDbArc
 50
135.0
 51
315.0
  0
ARC
  5
3DC
100
AcDbEntity
  8
KONSTRUKTIONSELEMENTE
100
AcDbCircle
 62
7
  6
CONTINUOUS
 10
389.956273035
 20
143.7968934763
 40
8.0
100
AcDbArc
 50
135.0
 51
208.6357041722
  0
ARC
  5
3DD
100
AcDbEntity
  8
KONSTRUKTIONSELEMENTE
100
AcDbCircle
 62
7
  6
CONTINUOUS
 10
389.956273035
 20
143.7968934763
 40
8.0
100
AcDbArc
 50
241.3642958278
 51
315.0
  0
ARC
  5
3DE
100
AcDbEntity
  8
KONSTRUKTIONSELEMENTE
100
AcDbCircle
 62
7
  6
CONTINUOUS
 10
400.5628747528
 20
154.4034951941
 40
8.0
100
AcDbArc
 50
315.0
 51
28.6357041722
  0
ARC
  5
3DF
100
AcDbEntity
  8
KONSTRUKTIONSELEMENTE
100
AcDbCircle
 62
7
  6
CONTINUOUS
 10
400.5628747528
 20
154.4034951941
 40
8.0
100
AcDbArc
 50
61.3642958278
 51
135.0
  0
ARC
  5
3E0
100
AcDbEntity
  8
KONSTRUKTIONSELEMENTE
100
AcDbCircle
 62
7
  6
CONTINUOUS
 10
389.956273035
 20
143.7968934763
 40
3.5
100
AcDbArc
 50
135.0
 51
184.8461224921
  0
ARC
  5
3E1
100
AcDbEntity
  8
KONSTRUKTIONSELEMENTE
100
AcDbCircle
 62
7
  6
CONTINUOUS
 10
389.956273035
 20
143.7968934763
 40
3.5
100
AcDbArc
 50
265.1538775079
 51
315.0
  0
ARC
  5
3E2
100
AcDbEntity
  8
KONSTRUKTIONSELEMENTE
100
AcDbCircle
 62
7
  6
CONTINUOUS
 10
400.5628747528
 20
154.4034951941
 40
3.5
100
AcDbArc
 50
315.0
 51
4.8461224921
  0
ARC
  5
3E3
100
AcDbEntity
  8
KONSTRUKTIONSELEMENTE
100
AcDbCircle
 62
7
  6
CONTINUOUS
 10
400.5628747528
 20
154.4034951941
 40
3.5
100
AcDbArc
 50
85.1538775079
 51
135.0
  0
ARC
  5
3E4
100
AcDbEntity
  8
KONSTRUKTIONSELEMENTE
100
AcDbCircle
 62
7
  6
CONTINUOUS
 10
401.4467582293
 20
155.2873786706
 40
2.25
100
AcDbArc
 50
135.0
 51
315.0
  0
ARC
  5
3E5
100
AcDbEntity
  8
KONSTRUKTIONSELEMENTE
100
AcDbCircle
 62
7
  6
CONTINUOUS
 10
389.0723895585
 20
142.9130099998
 40
2.25
100
AcDbArc
 50
315.0
 51
135.0
  0
ARC
  5
3E6
100
AcDbEntity
  8
0
100
AcDbCircle
 62
7
  6
CONTINUOUS
 10
377.987789277
 20
173.8487440814
 40
121.7052235046
100
AcDbArc
 50
1.3942966853
 51
6.6528451095
  0
ARC
  5
3E7
100
AcDbEntity
  8
KONSTRUKTIONSELEMENTE
100
AcDbCircle
 62
7
  6
CONTINUOUS
 10
421.8114335275
 20
175.6520539688
 40
9.55
100
AcDbArc
 50
135.0
 51
211.3702929546
  0
ARC
  5
3E8
100
AcDbEntity
  8
KONSTRUKTIONSELEMENTE
100
AcDbCircle
 62
7
  6
CONTINUOUS
 10
421.8114335275
 20
175.6520539688
 40
9.55
100
AcDbArc
 50
238.6297070454
 51
315.0
  0
ARC
  5
3E9
100
AcDbEntity
  8
KONSTRUKTIONSELEMENTE
100
AcDbCircle
 62
7
  6
CONTINUOUS
 10
421.8114335275
 20
175.6520539688
 40
4.55
100
AcDbArc
 50
135.0
 51
195.3477978529
  0
ARC
  5
3EA
100
AcDbEntity
  8
KONSTRUKTIONSELEMENTE
100
AcDbCircle
 62
7
  6
CONTINUOUS
 10
421.8114335275
 20
175.6520539688
 40
4.55
100
AcDbArc
 50
254.6522021471
 51
315.0
  0
ARC
  5
3EB
100
AcDbEntity
  8
KONSTRUKTIONSELEMENTE
100
AcDbCircle
 62
7
  6
CONTINUOUS
 10
420.1850879307
 20
174.0257083721
 40
2.25
100
AcDbArc
 50
315.0
 51
135.0
  0
ARC
  5
3EC
100
AcDbEntity
  8
0
100
AcDbCircle
 62
7
  6
CONTINUOUS
 10
484.1080766506
 20
157.4486970919
 40
7.5
100
AcDbArc
 50
94.7389711817
 51
180.0
  0
ARC
  5
3ED
100
AcDbEntity
  8
0
100
AcDbCircle
 62
7
  6
CONTINUOUS
 10
483.6029165075
 20
163.5253518598
 40
1.4023849395
100
AcDbArc
 50
90.4525100647
 51
94.6816907924
  0
ARC
  5
3EE
100
AcDbEntity
  8
KONSTRUKTIONSELEMENTE
100
AcDbCircle
 62
7
  6
CONTINUOUS
 10
430.2260042236
 20
184.0666246649
 40
9.55
100
AcDbArc
 50
315.0
 51
20.2302350871
  0
ARC
  5
3EF
100
AcDbEntity
  8
KONSTRUKTIONSELEMENTE
100
AcDbCircle
 62
7
  6
CONTINUOUS
 10
430.2260042236
 20
184.0666246649
 40
9.55
100
AcDbArc
 50
69.7697649129
 51
135.0
  0
ARC
  5
3F0
100
AcDbEntity
  8
KONSTRUKTIONSELEMENTE
100
AcDbCircle
 62
7
  6
CONTINUOUS
 10
430.2260042236
 20
184.0666246649
 40
4.55
100
AcDbArc
 50
315.0
 51
343.1962591458
  0
ARC
  5
3F1
100
AcDbEntity
  8
KONSTRUKTIONSELEMENTE
100
AcDbCircle
 62
7
  6
CONTINUOUS
 10
430.2260042236
 20
184.0666246649
 40
4.55
100
AcDbArc
 50
106.8037408542
 51
135.0
  0
ARC
  5
3F2
100
AcDbEntity
  8
KONSTRUKTIONSELEMENTE
100
AcDbCircle
 62
7
  6
CONTINUOUS
 10
470.9199994809
 20
224.7606199222
 40
4.0
100
AcDbArc
 50
315.0
 51
135.0
  0
ARC
  5
3F3
100
AcDbEntity
  8
KONSTRUKTIONSELEMENTE
100
AcDbCircle
 62
7
  6
CONTINUOUS
 10
429.907806172
 20
183.7484266134
 40
4.0
100
AcDbArc
 50
135.0
 51
315.0
  0
ARC
  5
3F4
100
AcDbEntity
  8
0
100
AcDbCircle
 62
7
  6
CONTINUOUS
 10
611.2283640243
 20
173.8487440814
 40
121.7052235046
100
AcDbArc
 50
173.3471548905
 51
178.6057033147
  0
ARC
  5
3F5
100
AcDbEntity
  8
0
100
AcDbCircle
 62
7
  6
CONTINUOUS
 10
493.5122766506
 20
113.8528970919
 40
22.4042
100
AcDbArc
 50
180.0
 51
270.0
  0
ARC
  5
3F6
100
AcDbEntity
  8
RUNDUNGEN
100
AcDbCircle
 62
7
  6
CONTINUOUS
 10
495.7038766506
 20
113.8528970919
 40
22.4042
100
AcDbArc
 50
274.0706633568
 51
360.0
  0
ARC
  5
3F7
100
AcDbEntity
  8
RUNDUNGEN
100
AcDbCircle
 62
7
  6
CONTINUOUS
 10
495.7038761096
 20
113.6302125475
 40
22.1806408039
100
AcDbArc
 50
270.0000013974
 51
270.2848421363
  0
ARC
  5
3F8
100
AcDbEntity
  8
0
100
AcDbCircle
 62
7
  6
CONTINUOUS
 10
493.5118904983
 20
113.6021087911
 40
22.1525370509
100
AcDbArc
 50
266.6842159644
 51
270.0009987523
  0
ARC
  5
3F9
100
AcDbEntity
  8
RUNDUNGEN
100
AcDbCircle
 62
7
  6
CONTINUOUS
 10
495.7044130869
 20
113.5982755446
 40
22.1487015294
100
AcDbArc
 50
270.2838637861
 51
273.3159694596
  0
ARC
  5
3FA
100
AcDbEntity
  8
0
100
AcDbCircle
 62
7
  6
CONTINUOUS
 10
493.5063988819
 20
113.4969039685
 40
22.0471907278
100
AcDbArc
 50
266.020902303
 51
266.6826501372
  0
ARC
  5
3FB
100
AcDbEntity
  8
RUNDUNGEN
100
AcDbCircle
 62
7
  6
CONTINUOUS
 10
495.7099540009
 20
113.4936877625
 40
22.0439683621
100
AcDbArc
 50
273.3173157174
 51
274.0587811351
  0
ARC
  5
3FC
100
AcDbEntity
  8
RUNDUNGEN
100
AcDbCircle
 62
7
  6
CONTINUOUS
 10
495.7180512223
 20
113.3840392983
 40
21.9340217826
100
AcDbArc
 50
274.0579556574
 51
275.6632429226
  0
ARC
  5
3FD
100
AcDbEntity
  8
0
100
AcDbCircle
 62
7
  6
CONTINUOUS
 10
493.4926838202
 20
113.3184045129
 40
21.8681698726
100
AcDbArc
 50
263.1276709106
 51
266.0242965022
  0
ARC
  5
3FE
100
AcDbEntity
  8
RUNDUNGEN
100
AcDbCircle
 62
7
  6
CONTINUOUS
 10
495.7346182489
 20
113.2156957786
 40
21.7648650773
100
AcDbArc
 50
275.6635751554
 51
276.8755438613
  0
ARC
  5
3FF
100
AcDbEntity
  8
0
100
AcDbCircle
 62
7
  6
CONTINUOUS
 10
493.4678672128
 20
113.1002234207
 40
21.6485869176
100
AcDbArc
 50
262.7099732879
 51
263.1237838849
  0
ARC
  5
400
100
AcDbEntity
  8
RUNDUNGEN
100
AcDbCircle
 62
7
  6
CONTINUOUS
 10
495.7482860885
 20
113.1002234207
 40
21.6485869176
100
AcDbArc
 50
276.8762161151
 51
277.2900267121
  0
ARC
  5
401
100
AcDbEntity
  8
RUNDUNGEN
100
AcDbCircle
 62
7
  6
CONTINUOUS
 10
495.7618109973
 20
112.9954551916
 40
21.542949376
100
AcDbArc
 50
277.2897040063
 51
278.0658511453
  0
ARC
  5
402
100
AcDbEntity
  8
RUNDUNGEN
100
AcDbCircle
 62
7
  6
CONTINUOUS
 10
495.8061160036
 20
112.6930687893
 40
21.2373379058
100
AcDbArc
 50
278.0619701498
 51
280.4177290761
  0
ARC
  5
403
100
AcDbEntity
  8
RUNDUNGEN
100
AcDbCircle
 62
7
  6
CONTINUOUS
 10
495.8702943552
 20
112.3367351752
 40
20.875273338
100
AcDbArc
 50
280.4213330439
 51
281.4726472152
  0
ARC
  5
404
100
AcDbEntity
  8
BEZUGSACHSEN
100
AcDbCircle
 62
7
  6
CONTINUOUS
 10
494.6080766506
 20
222.9486970919
 40
12.0
100
AcDbArc
 50
0.0
 51
23.361736267
  0
ARC
  5
405
100
AcDbEntity
  8
BEZUGSACHSEN
100
AcDbCircle
 62
7
  6
CONTINUOUS
 10
494.6080766506
 20
222.9486970919
 40
12.0
100
AcDbArc
 50
156.638263733
 51
180.0
  0
CIRCLE
  5
406
100
AcDbEntity
  8
BEZUGSACHSEN
100
AcDbCircle
 62
7
  6
CONTINUOUS
 10
494.6080766506
 20
117.8528970919
 40
11.375
  0
ARC
  5
407
100
AcDbEntity
  8
RUNDUNGEN
100
AcDbCircle
 62
7
  6
CONTINUOUS
 10
505.1080766506
 20
157.4486970919
 40
7.5
100
AcDbArc
 50
0.0
 51
85.2610288183
  0
ARC
  5
408
100
AcDbEntity
  8
RUNDUNGEN
100
AcDbCircle
 62
7
  6
CONTINUOUS
 10
505.6132367937
 20
163.5253518598
 40
1.4023849395
100
AcDbArc
 50
85.3183092076
 51
89.5474899353
  0
ARC
  5
409
100
AcDbEntity
  8
0
100
AcDbCircle
 62
7
  6
CONTINUOUS
 10
494.6080766506
 20
248.4486970919
 40
69.5
100
AcDbArc
 50
279.9458203676
 51
360.0
  0
ARC
  5
40A
100
AcDbEntity
  8
0
100
AcDbCircle
 62
7
  6
CONTINUOUS
 10
494.6080766506
 20
248.4486970919
 40
69.5
100
AcDbArc
 50
228.3003244345
 51
260.0541796324
  0
ARC
  5
40B
100
AcDbEntity
  8
0
100
AcDbCircle
 62
7
  6
CONTINUOUS
 10
494.6080766506
 20
248.4486970919
 40
69.5
100
AcDbArc
 50
180.0
 51
221.6996755655
  0
ARC
  5
40C
100
AcDbEntity
  8
0
100
AcDbCircle
 62
7
  6
CONTINUOUS
 10
494.6080766506
 20
343.4486970919
 40
69.5
100
AcDbArc
 50
0.0
 51
180.0
  0
ARC
  5
40D
100
AcDbEntity
  8
0
100
AcDbCircle
 62
7
  6
CONTINUOUS
 10
494.6080766506
 20
248.4486970919
 40
37.5
100
AcDbArc
 50
288.6676469941
 51
360.0
  0
ARC
  5
40E
100
AcDbEntity
  8
0
100
AcDbCircle
 62
7
  6
CONTINUOUS
 10
494.6080766506
 20
248.4486970919
 40
37.5
100
AcDbArc
 50
231.1235812811
 51
251.3323530059
  0
ARC
  5
40F
100
AcDbEntity
  8
0
100
AcDbCircle
 62
7
  6
CONTINUOUS
 10
494.6080766506
 20
248.4486970919
 40
37.5
100
AcDbArc
 50
180.0
 51
218.8764187189
  0
ARC
  5
410
100
AcDbEntity
  8
0
100
AcDbCircle
 62
7
  6
CONTINUOUS
 10
494.6080766506
 20
343.4486970919
 40
37.5
100
AcDbArc
 50
0.0
 51
180.0
  0
ARC
  5
411
100
AcDbEntity
  8
KONSTRUKTIONSELEMENTE
100
AcDbCircle
 62
7
  6
CONTINUOUS
 10
136.575128701
 20
42.7940970919
 40
57.6108
100
AcDbArc
 50
57.6179865928
 51
80.7605878645
  0
ARC
  5
412
100
AcDbEntity
  8
KONSTRUKTIONSELEMENTE
100
AcDbCircle
 62
7
  6
CONTINUOUS
 10
136.575128701
 20
42.7940970919
 40
57.6108
100
AcDbArc
 50
99.2394121355
 51
122.3820134072
  0
ARC
  5
413
100
AcDbEntity
  8
BEZUGSACHSEN
100
AcDbCircle
 62
7
  6
CONTINUOUS
 10
136.575128701
 20
187.9486970919
 40
23.0
100
AcDbArc
 50
134.1060203689
 51
45.8939796311
  0
ARC
  5
414
100
AcDbEntity
  8
0
100
AcDbCircle
 62
7
  6
CONTINUOUS
 10
136.575128701
 20
396.9486970919
 40
16.0
100
AcDbArc
 50
0.0
 51
180.0
  0
ARC
  5
415
100
AcDbEntity
  8
0
100
AcDbCircle
 62
7
  6
CONTINUOUS
 10
136.575128701
 20
194.9486970919
 40
16.0
100
AcDbArc
 50
180.0
 51
360.0
  0
ARC
  5
416
100
AcDbEntity
  8
RUNDUNGEN
100
AcDbCircle
 62
7
  6
CONTINUOUS
 10
101.075128701
 20
154.9486970919
 40
10.0
100
AcDbArc
 50
98.3778284426
 51
180.0
  0
ARC
  5
417
100
AcDbEntity
  8
RUNDUNGEN
100
AcDbCircle
 62
7
  6
CONTINUOUS
 10
172.075128701
 20
154.9486970919
 40
10.0
100
AcDbArc
 50
0.0
 51
81.6221715574
  0
ARC
  5
418
100
AcDbEntity
  8
KONSTRUKTIONSELEMENTE
100
AcDbCircle
 62
7
  6
CONTINUOUS
 10
136.575128701
 20
141.1986970919
 40
9.25
100
AcDbArc
 50
0.0
 51
180.0
  0
ARC
  5
419
100
AcDbEntity
  8
RUNDUNGEN
100
AcDbCircle
 62
7
  6
CONTINUOUS
 10
100.7881279894
 20
156.1622762537
 40
8.7654812864
100
AcDbArc
 50
88.1236775843
 51
89.7802372716
  0
ARC
  5
41A
100
AcDbEntity
  8
RUNDUNGEN
100
AcDbCircle
 62
7
  6
CONTINUOUS
 10
172.3621026543
 20
156.1636534935
 40
8.7641039541
100
AcDbArc
 50
90.219622331
 51
91.8621277479
  0
ARC
  5
41B
100
AcDbEntity
  8
RUNDUNGEN
100
AcDbCircle
 62
7
  6
CONTINUOUS
 10
172.3590706229
 20
156.8626325625
 40
8.0651184057
100
AcDbArc
 50
81.6367431021
 51
90.2171164423
  0
ARC
  5
41C
100
AcDbEntity
  8
RUNDUNGEN
100
AcDbCircle
 62
7
  6
CONTINUOUS
 10
100.7911867791
 20
156.8626325625
 40
8.0651184057
100
AcDbArc
 50
89.7828835577
 51
98.3632568979
  0
ARC
  5
41D
100
AcDbEntity
  8
RUNDUNGEN
100
AcDbCircle
 62
7
  6
CONTINUOUS
 10
174.575128701
 20
98.9486970919
 40
7.5
100
AcDbArc
 50
270.0
 51
270.8750417703
  0
ARC
  5
41E
100
AcDbEntity
  8
RUNDUNGEN
100
AcDbCircle
 62
7
  6
CONTINUOUS
 10
98.575128701
 20
98.9486970919
 40
7.5
100
AcDbArc
 50
269.1249582297
 51
270.0
  0
ARC
  5
41F
100
AcDbEntity
  8
0
100
AcDbCircle
 62
7
  6
CONTINUOUS
 10
156.5155811659
 20
91.7156834303
 40
3.406738993
100
AcDbArc
 50
350.5636876715
 51
355.3957076166
  0
ARC
  5
420
100
AcDbEntity
  8
RUNDUNGEN
100
AcDbCircle
 62
7
  6
CONTINUOUS
 10
89.7117093747
 20
103.8532215246
 40
3.3795221867
100
AcDbArc
 50
307.7882030539
 51
311.5825901981
  0
CIRCLE
  5
421
100
AcDbEntity
  8
BEZUGSACHSEN
100
AcDbCircle
 62
7
  6
CONTINUOUS
 10
108.275128701
 20
118.2486970919
 40
3.0
  0
ARC
  5
422
100
AcDbEntity
  8
KONSTRUKTIONSELEMENTE
100
AcDbCircle
 62
7
  6
CONTINUOUS
 10
136.575128701
 20
107.4373173961
 40
2.5
100
AcDbArc
 50
200.7781638084
 51
339.2218361916
  0
ARC
  5
423
100
AcDbEntity
  8
KONSTRUKTIONSELEMENTE
100
AcDbCircle
 62
7
  6
CONTINUOUS
 10
136.575128701
 20
129.9518880923
 40
2.5
100
AcDbArc
 50
0.0
 51
180.0
  0
ARC
  5
424
100
AcDbEntity
  8
KONSTRUKTIONSELEMENTE
100
AcDbCircle
 62
7
  6
CONTINUOUS
 10
136.575128701
 20
168.6020539688
 40
2.5
100
AcDbArc
 50
180.0
 51
360.0
  0
ARC
  5
425
100
AcDbEntity
  8
KONSTRUKTIONSELEMENTE
100
AcDbCircle
 62
7
  6
CONTINUOUS
 10
136.575128701
 20
138.0468934763
 40
2.25
100
AcDbArc
 50
180.0
 51
360.0
  0
ARC
  5
426
100
AcDbEntity
  8
0
100
AcDbCircle
 62
7
  6
CONTINUOUS
 10
119.235142624
 20
90.7048611814
 40
0.6671356336
100
AcDbArc
 50
78.8903114983
 51
89.9692795104
  0
SPLINE
  5
427
100
AcDbEntity
  8
0
100
AcDbSpline
 62
7
  6
CONTINUOUS
 70
0
 71
3
 72
11
 73
7
 74
0
 42
0.0000001
 43
0.0000001
 44
0.0000000001
 40
0.0
 40
0.0
 40
0.0
 40
0.0
 40
0.2552284564
 40
0.5000000008
 40
0.7447715449
 40
1.0
 40
1.0
 40
1.0
 40
1.0
 10
498.8734904719
 20
243.3359727439
 30
0.0
 10
499.1311640512
 20
242.7394315351
 30
0.0
 10
499.5415865785
 20
241.5249822621
 30
0.0
 10
499.760657809
 20
239.6257287931
 30
0.0
 10
499.5415865743
 20
237.7264753281
 30
0.0
 10
499.1311640499
 20
236.5120260588
 30
0.0
 10
498.8734904719
 20
235.9154848529
 30
0.0
  0
SPLINE
  5
428
100
AcDbEntity
  8
0
100
AcDbSpline
 62
7
  6
CONTINUOUS
 70
0
 71
3
 72
11
 73
7
 74
0
 42
0.0000001
 43
0.0000001
 44
0.0000000001
 40
0.0
 40
0.0
 40
0.0
 40
0.0
 40
0.2552284564
 40
0.5000000008
 40
0.7447715449
 40
1.0
 40
1.0
 40
1.0
 40
1.0
 10
490.3426628293
 20
243.3359727439
 30
0.0
 10
490.08498925
 20
242.7394315351
 30
0.0
 10
489.6745667227
 20
241.5249822621
 30
0.0
 10
489.4554954922
 20
239.6257287931
 30
0.0
 10
489.6745667269
 20
237.7264753281
 30
0.0
 10
490.0849892513
 20
236.5120260588
 30
0.0
 10
490.3426628293
 20
235.9154848529
 30
0.0
  0
SPLINE
  5
429
100
AcDbEntity
  8
0
100
AcDbSpline
 62
7
  6
CONTINUOUS
 70
0
 71
3
 72
11
 73
7
 74
0
 42
0.0000001
 43
0.0000001
 44
0.0000000001
 40
0.0
 40
0.0
 40
0.0
 40
0.0
 40
0.2500298113
 40
0.5000000009
 40
0.7499701899
 40
1.0
 40
1.0
 40
1.0
 40
1.0
 10
498.8734904719
 20
215.6423349179
 30
0.0
 10
499.1394258393
 20
213.3446302512
 30
0.0
 10
499.5489919592
 20
208.734431116
 30
0.0
 10
499.7584847184
 20
201.795515986
 30
0.0
 10
499.548991955
 20
194.8566008672
 30
0.0
 10
499.139425838
 20
190.2464017478
 30
0.0
 10
498.8734904719
 20
187.9486970919
 30
0.0
  0
LINE
  5
42A
100
AcDbEntity
  8
0
100
AcDbLine
 62
7
  6
CONTINUOUS
 10
484.1080766506
 20
140.9387702124
 11
476.6080766506
 21
143.303511129
  0
SPLINE
  5
42B
100
AcDbEntity
  8
0
100
AcDbSpline
 62
7
  6
CONTINUOUS
 70
0
 71
3
 72
9
 73
5
 74
0
 42
0.0000001
 43
0.0000001
 44
0.0000000001
 40
0.0
 40
0.0
 40
0.0
 40
0.0
 40
0.2443167374
 40
1.0
 40
1.0
 40
1.0
 40
1.0
 10
483.5918408801
 20
164.9276930626
 30
0.0
 10
483.6345716381
 20
164.9280721941
 30
0.0
 10
483.8095130728
 20
164.9219037101
 30
0.0
 10
483.9828617645
 20
164.8843058541
 30
0.0
 10
484.1080766506
 20
164.8419849735
 30
0.0
  0
LINE
  5
42C
100
AcDbEntity
  8
0
100
AcDbLine
 62
7
  6
CONTINUOUS
 10
478.6080766506
 20
133.0839561753
 11
471.1080766506
 21
135.4486970919
  0
SPLINE
  5
42D
100
AcDbEntity
  8
0
100
AcDbSpline
 62
7
  6
CONTINUOUS
 70
0
 71
3
 72
11
 73
7
 74
0
 42
0.0000001
 43
0.0000001
 44
0.0000000001
 40
0.0
 40
0.0
 40
0.0
 40
0.0
 40
0.2503958304
 40
0.5000000009
 40
0.7496041707
 40
1.0
 40
1.0
 40
1.0
 40
1.0
 10
498.8734904719
 20
235.9154848529
 30
0.0
 10
499.1387943631
 20
234.2374423724
 30
0.0
 10
499.5485029135
 20
230.8660357792
 30
0.0
 10
499.7586266122
 20
225.7789098715
 30
0.0
 10
499.5485029093
 20
220.6917839723
 30
0.0
 10
499.1387943618
 20
217.3203773905
 30
0.0
 10
498.8734904719
 20
215.6423349179
 30
0.0
  0
SPLINE
  5
42E
100
AcDbEntity
  8
0
100
AcDbSpline
 62
7
  6
CONTINUOUS
 70
0
 71
3
 72
11
 73
7
 74
0
 42
0.0000001
 43
0.0000001
 44
0.0000000001
 40
0.0
 40
0.0
 40
0.0
 40
0.0
 40
0.2500298113
 40
0.5000000009
 40
0.7499701899
 40
1.0
 40
1.0
 40
1.0
 40
1.0
 10
490.3426628293
 20
215.6423349179
 30
0.0
 10
490.0767274619
 20
213.3446302512
 30
0.0
 10
489.667161342
 20
208.734431116
 30
0.0
 10
489.4576685828
 20
201.795515986
 30
0.0
 10
489.6671613463
 20
194.8566008672
 30
0.0
 10
490.0767274632
 20
190.2464017478
 30
0.0
 10
490.3426628293
 20
187.9486970919
 30
0.0
  0
SPLINE
  5
42F
100
AcDbEntity
  8
0
100
AcDbSpline
 62
7
  6
CONTINUOUS
 70
0
 71
3
 72
11
 73
7
 74
0
 42
0.0000001
 43
0.0000001
 44
0.0000000001
 40
0.0
 40
0.0
 40
0.0
 40
0.0
 40
0.2503958304
 40
0.5000000009
 40
0.7496041707
 40
1.0
 40
1.0
 40
1.0
 40
1.0
 10
490.3426628293
 20
235.9154848529
 30
0.0
 10
490.0773589382
 20
234.2374423724
 30
0.0
 10
489.6676503877
 20
230.8660357792
 30
0.0
 10
489.457526689
 20
225.7789098715
 30
0.0
 10
489.6676503919
 20
220.6917839723
 30
0.0
 10
490.0773589394
 20
217.3203773905
 30
0.0
 10
490.3426628293
 20
215.6423349179
 30
0.0
  0
LINE
  5
430
100
AcDbEntity
  8
RUNDUNGEN
100
AcDbLine
 62
7
  6
CONTINUOUS
 10
505.1080766506
 20
140.9387702124
 11
512.6080766506
 21
143.303511129
  0
SPLINE
  5
431
100
AcDbEntity
  8
RUNDUNGEN
100
AcDbSpline
 62
7
  6
CONTINUOUS
 70
0
 71
3
 72
9
 73
5
 74
0
 42
0.0000001
 43
0.0000001
 44
0.0000000001
 40
0.0
 40
0.0
 40
0.0
 40
0.0
 40
0.2443167374
 40
1.0
 40
1.0
 40
1.0
 40
1.0
 10
505.6243124211
 20
164.9276930626
 30
0.0
 10
505.5815816632
 20
164.9280721941
 30
0.0
 10
505.4066402284
 20
164.9219037101
 30
0.0
 10
505.2332915367
 20
164.8843058541
 30
0.0
 10
505.1080766506
 20
164.8419849735
 30
0.0
  0
LINE
  5
432
100
AcDbEntity
  8
RUNDUNGEN
100
AcDbLine
 62
7
  6
CONTINUOUS
 10
510.6080766506
 20
133.0839561753
 11
518.1080766506
 21
135.4486970919
  0
SPLINE
  5
433
100
AcDbEntity
  8
0
100
AcDbSpline
 62
7
  6
CONTINUOUS
 70
0
 71
3
 72
21
 73
17
 74
0
 42
0.0000001
 43
0.0000001
 44
0.0000000001
 40
0.0
 40
0.0
 40
0.0
 40
0.0
 40
0.132756255
 40
0.2637276417
 40
0.3918614936
 40
0.5159869298
 40
0.5763289425
 40
0.6353415115
 40
0.6930867091
 40
0.7500009208
 40
0.7786338804
 40
0.807722658
 40
0.8376416761
 40
0.8686654957
 40
0.9333797797
 40
1.0
 40
1.0
 40
1.0
 40
1.0
 10
490.7208357851
 20
91.6266318751
 30
0.0
 10
489.7795353483
 20
91.7470504579
 30
0.0
 10
487.922672976
 20
92.1096249299
 30
0.0
 10
485.267167733
 20
93.0330549288
 30
0.0
 10
482.8458057796
 20
94.3413191597
 30
0.0
 10
481.1051736542
 20
95.7760124072
 30
0.0
 10
479.9971589109
 20
97.1250724404
 30
0.0
 10
479.3516371565
 20
98.2215753205
 30
0.0
 10
478.936222282
 20
99.4010981044
 30
0.0
 10
478.8512542864
 20
100.4396428802
 30
0.0
 10
479.0010081974
 20
101.2500864551
 30
0.0
 10
479.2403110598
 20
101.8346164338
 30
0.0
 10
479.6184858424
 20
102.3629841659
 30
0.0
 10
480.3067017864
 20
102.9532571125
 30
0.0
 10
481.4194445289
 20
103.3808032917
 30
0.0
 10
482.3620444779
 20
103.4509470919
 30
0.0
 10
482.8382608254
 20
103.4509470919
 30
0.0
  0
SPLINE
  5
434
100
AcDbEntity
  8
RUNDUNGEN
100
AcDbSpline
 62
7
  6
CONTINUOUS
 70
0
 71
3
 72
20
 73
16
 74
0
 42
0.0000001
 43
0.0000001
 44
0.0000000001
 40
0.0
 40
0.0
 40
0.0
 40
0.0
 40
0.1326380083
 40
0.2631612582
 40
0.3905977596
 40
0.5139183197
 40
0.6322320041
 40
0.6898820473
 40
0.7470498728
 40
0.7760174904
 40
0.8055706634
 40
0.8360405406
 40
0.8675844033
 40
0.9330017689
 40
1.0
 40
1.0
 40
1.0
 40
1.0
 10
500.0223882978
 20
91.8785545907
 30
0.0
 10
500.8843572044
 20
92.0535110761
 30
0.0
 10
502.5750233728
 20
92.5094995177
 30
0.0
 10
504.9659937524
 20
93.5285643081
 30
0.0
 10
507.1145718409
 20
94.8872721594
 30
0.0
 10
508.90135525
 20
96.5842574366
 30
0.0
 10
509.9606651848
 20
98.3099242663
 30
0.0
 10
510.3478928678
 20
99.8190521426
 30
0.0
 10
510.3323036995
 20
100.7898444806
 30
0.0
 10
510.1157301557
 20
101.5304276538
 30
0.0
 10
509.8366358121
 20
102.0555820308
 30
0.0
 10
509.4371720781
 20
102.5197186608
 30
0.0
 10
508.7529824399
 20
103.0266304553
 30
0.0
 10
507.7030761836
 20
103.3889368828
 30
0.0
 10
506.8221692625
 20
103.4509470919
 30
0.0
 10
506.3778924758
 20
103.4509470919
 30
0.0
  0
SPLINE
  5
435
100
AcDbEntity
  8
KONSTRUKTIONSELEMENTE
100
AcDbSpline
 62
7
  6
CONTINUOUS
 70
0
 71
3
 72
13
 73
9
 74
0
 42
0.0000001
 43
0.0000001
 44
0.0000000001
 40
0.0
 40
0.0
 40
0.0
 40
0.0
 40
0.1194785188
 40
0.2392741704
 40
0.3602835725
 40
0.4830059608
 40
0.7355440041
 40
1.0
 40
1.0
 40
1.0
 40
1.0
 10
128.575128701
 20
138.847146008
 30
0.0
 10
128.575128701
 20
139.2057856192
 30
0.0
 10
128.6512241841
 20
139.9262922483
 30
0.0
 10
128.9868004118
 20
140.961788004
 30
0.0
 10
129.522784877
 20
141.9201076831
 30
0.0
 10
130.4804804428
 20
143.070487444
 30
0.0
 10
132.0667990855
 20
144.2098299633
 30
0.0
 10
133.5468525279
 20
144.7373559836
 30
0.0
 10
134.3210163805
 20
144.9129121287
 30
0.0
  0
SPLINE
  5
436
100
AcDbEntity
  8
KONSTRUKTIONSELEMENTE
100
AcDbSpline
 62
7
  6
CONTINUOUS
 70
0
 71
3
 72
13
 73
9
 74
0
 42
0.0000001
 43
0.0000001
 44
0.0000000001
 40
0.0
 40
0.0
 40
0.0
 40
0.0
 40
0.2644681654
 40
0.5169944072
 40
0.6397129492
 40
0.760706397
 40
0.8805228501
 40
1.0
 40
1.0
 40
1.0
 40
1.0
 10
138.8272994798
 20
144.913343341
 30
0.0
 10
139.6016968063
 20
144.7378632368
 30
0.0
 10
141.0821876539
 20
144.2105425081
 30
0.0
 10
142.669038061
 20
143.0711900447
 30
0.0
 10
143.6270100203
 20
141.9207474958
 30
0.0
 10
144.163326778
 20
140.9623257093
 30
0.0
 10
144.4989411146
 20
139.9265722968
 30
0.0
 10
144.575128701
 20
139.2058602783
 30
0.0
 10
144.575128701
 20
138.847146008
 30
0.0
  0
SPLINE
  5
437
100
AcDbEntity
  8
KONSTRUKTIONSELEMENTE
100
AcDbSpline
 62
7
  6
CONTINUOUS
 70
0
 71
3
 72
11
 73
7
 74
0
 42
0.0000001
 43
0.0000001
 44
0.0000000001
 40
0.0
 40
0.0
 40
0.0
 40
0.0
 40
0.3114703232
 40
0.4450990083
 40
0.6063354134
 40
1.0
 40
1.0
 40
1.0
 40
1.0
 10
133.075128701
 20
138.847146008
 30
0.0
 10
133.075128701
 20
139.0443008545
 30
0.0
 10
133.2138392366
 20
139.3193957414
 30
0.0
 10
133.4652070831
 20
139.6057477358
 30
0.0
 10
133.7935757574
 20
139.895527742
 30
0.0
 10
134.0983778394
 20
140.0769101723
 30
0.0
 10
134.3231368127
 20
140.1844983033
 30
0.0
  0
SPLINE
  5
438
100
AcDbEntity
  8
KONSTRUKTIONSELEMENTE
100
AcDbSpline
 62
7
  6
CONTINUOUS
 70
0
 71
3
 72
11
 73
7
 74
0
 42
0.0000001
 43
0.0000001
 44
0.0000000001
 40
0.0
 40
0.0
 40
0.0
 40
0.0
 40
0.3936803283
 40
0.5549226436
 40
0.6885473432
 40
1.0
 40
1.0
 40
1.0
 40
1.0
 10
138.8268779365
 20
140.1846102314
 30
0.0
 10
139.0516858424
 20
140.0770203308
 30
0.0
 10
139.3565527511
 20
139.895617213
 30
0.0
 10
139.684980551
 20
139.6057979418
 30
0.0
 10
139.9364239277
 20
139.3194527956
 30
0.0
 10
140.075128701
 20
139.0443173119
 30
0.0
 10
140.075128701
 20
138.847146008
 30
0.0
  0
SPLINE
  5
439
100
AcDbEntity
  8
KONSTRUKTIONSELEMENTE
100
AcDbSpline
 62
7
  6
CONTINUOUS
 70
0
 71
3
 72
13
 73
9
 74
0
 42
0.0000001
 43
0.0000001
 44
0.0000000001
 40
0.0
 40
0.0
 40
0.0
 40
0.0
 40
0.1197290731
 40
0.2397365246
 40
0.3609040964
 40
0.4836831257
 40
0.7359942557
 40
1.0
 40
1.0
 40
1.0
 40
1.0
 10
128.575128701
 20
169.9598443802
 30
0.0
 10
128.575128701
 20
170.3090580823
 30
0.0
 10
128.6472323228
 20
171.0103991183
 30
0.0
 10
128.9655176575
 20
172.0206173665
 30
0.0
 10
129.4749011992
 20
172.9591955851
 30
0.0
 10
130.3867017277
 20
174.0919700918
 30
0.0
 10
131.9025929933
 20
175.2291135079
 30
0.0
 10
133.3254798434
 20
175.7756592319
 30
0.0
 10
134.0717043651
 20
175.9656277225
 30
0.0
  0
SPLINE
  5
43A
100
AcDbEntity
  8
KONSTRUKTIONSELEMENTE
100
AcDbSpline
 62
7
  6
CONTINUOUS
 70
0
 71
3
 72
13
 73
9
 74
0
 42
0.0000001
 43
0.0000001
 44
0.0000000001
 40
0.0
 40
0.0
 40
0.0
 40
0.0
 40
0.2640112835
 40
0.5163080567
 40
0.6390830379
 40
0.7602378991
 40
0.8802701562
 40
1.0
 40
1.0
 40
1.0
 40
1.0
 10
139.0794565035
 20
175.9653805329
 30
0.0
 10
139.8255963258
 20
175.7753459316
 30
0.0
 10
141.2482727672
 20
175.2287793004
 30
0.0
 10
142.7638628343
 20
174.0916339595
 30
0.0
 10
143.6754531117
 20
172.9590184509
 30
0.0
 10
144.1848440275
 20
172.0205411643
 30
0.0
 10
144.5029807466
 20
171.0103530612
 30
0.0
 10
144.575128701
 20
170.3090231777
 30
0.0
 10
144.575128701
 20
169.9598443802
 30
0.0
  0
SPLINE
  5
43B
100
AcDbEntity
  8
KONSTRUKTIONSELEMENTE
100
AcDbSpline
 62
7
  6
CONTINUOUS
 70
0
 71
3
 72
12
 73
8
 74
0
 42
0.0000001
 43
0.0000001
 44
0.0000000001
 40
0.0
 40
0.0
 40
0.0
 40
0.0
 40
0.1282453638
 40
0.2146169864
 40
0.321985829
 40
0.6101725692
 40
1.0
 40
1.0
 40
1.0
 40
1.0
 10
133.075128701
 20
169.9598443802
 30
0.0
 10
133.075128701
 20
170.0291073901
 30
0.0
 10
133.0947916867
 20
170.1456512397
 30
0.0
 10
133.1614815804
 20
170.3066747636
 30
0.0
 10
133.2926464711
 20
170.5324859376
 30
0.0
 10
133.5839409315
 20
170.847460381
 30
0.0
 10
133.8862383349
 20
171.058827623
 30
0.0
 10
134.068774636
 20
171.1637422195
 30
0.0
  0
SPLINE
  5
43C
100
AcDbEntity
  8
KONSTRUKTIONSELEMENTE
100
AcDbSpline
 62
7
  6
CONTINUOUS
 70
0
 71
3
 72
12
 73
8
 74
0
 42
0.0000001
 43
0.0000001
 44
0.0000000001
 40
0.0
 40
0.0
 40
0.0
 40
0.0
 40
0.3898396094
 40
0.6780156338
 40
0.7853729626
 40
0.8717632718
 40
1.0
 40
1.0
 40
1.0
 40
1.0
 10
139.0815743021
 20
171.1636897484
 30
0.0
 10
139.2641015455
 20
171.0587743388
 30
0.0
 10
139.5663493092
 20
170.8473850011
 30
0.0
 10
139.8576542854
 20
170.5324670836
 30
0.0
 10
139.9887924437
 20
170.3066586216
 30
0.0
 10
140.0554382508
 20
170.1456328872
 30
0.0
 10
140.075128701
 20
170.0290981126
 30
0.0
 10
140.075128701
 20
169.9598443802
 30
0.0
  0
SPLINE
  5
43D
100
AcDbEntity
  8
KONSTRUKTIONSELEMENTE
100
AcDbSpline
 62
7
  6
CONTINUOUS
 70
0
 71
3
 72
10
 73
6
 74
0
 42
0.0000001
 43
0.0000001
 44
0.0000000001
 40
0.0
 40
0.0
 40
0.0
 40
0.0
 40
0.4858995158
 40
0.7403239272
 40
1.0
 40
1.0
 40
1.0
 40
1.0
 10
159.5326003796
 20
186.5895543509
 30
0.0
 10
157.1447318351
 20
184.8805413748
 30
0.0
 10
153.1148697338
 20
182.7924396281
 30
0.0
 10
147.3425290437
 20
180.9839440358
 30
0.0
 10
144.2843699795
 20
180.3895341874
 30
0.0
 10
142.730070167
 20
180.1730839144
 30
0.0
  0
SPLINE
  5
43E
100
AcDbEntity
  8
KONSTRUKTIONSELEMENTE
100
AcDbSpline
 62
7
  6
CONTINUOUS
 70
0
 71
3
 72
10
 73
6
 74
0
 42
0.0000001
 43
0.0000001
 44
0.0000000001
 40
0.0
 40
0.0
 40
0.0
 40
0.0
 40
0.2596784858
 40
0.5141021318
 40
1.0
 40
1.0
 40
1.0
 40
1.0
 10
130.409788975
 20
180.1745271669
 30
0.0
 10
128.856159078
 20
180.3912692438
 30
0.0
 10
125.7993689241
 20
180.9861102865
 30
0.0
 10
120.0297262336
 20
182.7949859088
 30
0.0
 10
116.0018477082
 20
184.8827944546
 30
0.0
 10
113.6151354095
 20
186.5913552831
 30
0.0
  0
SPLINE
  5
43F
100
AcDbEntity
  8
KONSTRUKTIONSELEMENTE
100
AcDbSpline
 62
7
  6
CONTINUOUS
 70
0
 71
3
 72
9
 73
5
 74
0
 42
0.0000001
 43
0.0000001
 44
0.0000000001
 40
0.0
 40
0.0
 40
0.0
 40
0.0
 40
0.2334728158
 40
1.0
 40
1.0
 40
1.0
 40
1.0
 10
158.1141554509
 20
195.9725485122
 30
0.0
 10
157.7252171831
 20
195.5368532165
 30
0.0
 10
155.9640497539
 20
193.7560907851
 30
0.0
 10
153.8653052909
 20
192.3260454531
 30
0.0
 10
152.174114202
 20
191.4223531237
 30
0.0
  0
SPLINE
  5
440
100
AcDbEntity
  8
KONSTRUKTIONSELEMENTE
100
AcDbSpline
 62
7
  6
CONTINUOUS
 70
0
 71
3
 72
9
 73
5
 74
0
 42
0.0000001
 43
0.0000001
 44
0.0000000001
 40
0.0
 40
0.0
 40
0.0
 40
0.0
 40
0.2669512994
 40
1.0
 40
1.0
 40
1.0
 40
1.0
 10
120.9717756632
 20
191.4246888709
 30
0.0
 10
120.3835232896
 20
191.7391772426
 30
0.0
 10
118.2266014837
 20
192.9993064515
 30
0.0
 10
116.2576185181
 20
194.6045663066
 30
0.0
 10
115.0376236863
 20
195.9708467842
 30
0.0
  0
SPLINE
  5
441
100
AcDbEntity
  8
0
100
AcDbSpline
 62
7
  6
CONTINUOUS
 70
0
 71
3
 72
12
 73
8
 74
0
 42
0.0000001
 43
0.0000001
 44
0.0000000001
 40
0.0
 40
0.0
 40
0.0
 40
0.0
 40
0.1089727213
 40
0.2201620805
 40
0.4554253
 40
0.7155329149
 40
1.0
 40
1.0
 40
1.0
 40
1.0
 10
159.9221132349
 20
91.1457225492
 30
0.0
 10
159.9221132349
 20
91.3757213621
 30
0.0
 10
159.8737480449
 20
91.8417820558
 30
0.0
 10
159.5830445216
 20
92.7638434171
 30
0.0
 10
158.8467280811
 20
93.846871734
 30
0.0
 10
157.529369147
 20
94.8666172476
 30
0.0
 10
156.4615652823
 20
95.3246194772
 30
0.0
 10
155.8878128139
 20
95.5015003213
 30
0.0
  0
SPLINE
  5
442
100
AcDbEntity
  8
0
100
AcDbSpline
 62
7
  6
CONTINUOUS
 70
0
 71
3
 72
17
 73
13
 74
0
 42
0.0000001
 43
0.0000001
 44
0.0000000001
 40
0.0
 40
0.0
 40
0.0
 40
0.0
 40
0.0517809237
 40
0.1054811646
 40
0.2228479209
 40
0.3562855052
 40
0.5
 40
0.6437144948
 40
0.7771520791
 40
0.8945188354
 40
0.9482190763
 40
1.0
 40
1.0
 40
1.0
 40
1.0
 10
139.004782407
 20
89.9745675094
 30
0.0
 10
139.004782407
 20
89.8344330242
 30
0.0
 10
139.0455833253
 20
89.5475306915
 30
0.0
 10
139.2893926625
 20
88.9890734808
 30
0.0
 10
139.8918823815
 20
88.3862058668
 30
0.0
 10
140.8810172792
 20
87.9419411425
 30
0.0
 10
142.0240906954
 20
87.7865231111
 30
0.0
 10
143.1671641116
 20
87.9419411425
 30
0.0
 10
144.1562990093
 20
88.3862058668
 30
0.0
 10
144.7587887284
 20
88.9890734808
 30
0.0
 10
145.0025980656
 20
89.5475306915
 30
0.0
 10
145.0433989839
 20
89.8344330242
 30
0.0
 10
145.0433989839
 20
89.9745675094
 30
0.0
  0
SPLINE
  5
443
100
AcDbEntity
  8
0
100
AcDbSpline
 62
7
  6
CONTINUOUS
 70
0
 71
3
 72
12
 73
8
 74
0
 42
0.0000001
 43
0.0000001
 44
0.0000000001
 40
0.0
 40
0.0
 40
0.0
 40
0.0
 40
0.1035930223
 40
0.210949621
 40
0.4457011106
 40
0.7125563401
 40
1.0
 40
1.0
 40
1.0
 40
1.0
 10
135.1538423028
 20
93.3035648303
 30
0.0
 10
135.1538200947
 20
93.4516058115
 30
0.0
 10
135.1106634987
 20
93.7545889131
 30
0.0
 10
134.8529054354
 20
94.3442475004
 30
0.0
 10
134.2165289139
 20
94.980855893
 30
0.0
 10
133.1726374284
 20
95.4500339994
 30
0.0
 10
132.3755575824
 20
95.5580688638
 30
0.0
 10
131.964782407
 20
95.5580688638
 30
0.0
  0
SPLINE
  5
444
100
AcDbEntity
  8
0
100
AcDbSpline
 62
7
  6
CONTINUOUS
 70
0
 71
3
 72
9
 73
5
 74
0
 42
0.0000001
 43
0.0000001
 44
0.0000000001
 40
0.0
 40
0.0
 40
0.0
 40
0.0
 40
0.4402133985
 40
1.0
 40
1.0
 40
1.0
 40
1.0
 10
117.6755003246
 20
90.0935476588
 30
0.0
 10
117.6755003246
 20
90.0564609166
 30
0.0
 10
117.7326167875
 20
89.9757001362
 30
0.0
 10
117.820339876
 20
89.9577831568
 30
0.0
 10
117.8675003246
 20
89.9577831568
 30
0.0
  0
SPLINE
  5
445
100
AcDbEntity
  8
0
100
AcDbSpline
 62
7
  6
CONTINUOUS
 70
0
 71
3
 72
9
 73
5
 74
0
 42
0.0000001
 43
0.0000001
 44
0.0000000001
 40
0.0
 40
0.0
 40
0.0
 40
0.0
 40
0.4402133985
 40
1.0
 40
1.0
 40
1.0
 40
1.0
 10
118.9955003246
 20
90.1614299098
 30
0.0
 10
118.9955003246
 20
90.1985166519
 30
0.0
 10
118.9383838616
 20
90.2792774324
 30
0.0
 10
118.8506607731
 20
90.2971944118
 30
0.0
 10
118.8035003246
 20
90.2971944118
 30
0.0
  0
SPLINE
  5
446
100
AcDbEntity
  8
0
100
AcDbSpline
 62
7
  6
CONTINUOUS
 70
0
 71
3
 72
9
 73
5
 74
0
 42
0.0000001
 43
0.0000001
 44
0.0000000001
 40
0.0
 40
0.0
 40
0.0
 40
0.0
 40
0.4402133985
 40
1.0
 40
1.0
 40
1.0
 40
1.0
 10
118.9955003246
 20
93.5555424595
 30
0.0
 10
118.9955003246
 20
93.5926292016
 30
0.0
 10
118.9383838616
 20
93.6733899821
 30
0.0
 10
118.8506607731
 20
93.6913069614
 30
0.0
 10
118.8035003246
 20
93.6913069614
 30
0.0
  0
SPLINE
  5
447
100
AcDbEntity
  8
0
100
AcDbSpline
 62
7
  6
CONTINUOUS
 70
0
 71
3
 72
11
 73
7
 74
0
 42
0.0000001
 43
0.0000001
 44
0.0000000001
 40
0.0
 40
0.0
 40
0.0
 40
0.0
 40
0.2094668498
 40
0.4446559298
 40
0.7120302568
 40
1.0
 40
1.0
 40
1.0
 40
1.0
 10
116.3555003246
 20
91.8245450591
 30
0.0
 10
116.3555003246
 20
91.7795689395
 30
0.0
 10
116.3847090653
 20
91.6829626246
 30
0.0
 10
116.4965597116
 20
91.5723335372
 30
0.0
 10
116.6536756959
 20
91.5012994537
 30
0.0
 10
116.7736682894
 20
91.4851338041
 30
0.0
 10
116.8355003246
 20
91.4851338041
 30
0.0
  0
SPLINE
  5
448
100
AcDbEntity
  8
0
100
AcDbSpline
 62
7
  6
CONTINUOUS
 70
0
 71
3
 72
11
 73
7
 74
0
 42
0.0000001
 43
0.0000001
 44
0.0000000001
 40
0.0
 40
0.0
 40
0.0
 40
0.0
 40
0.2094668498
 40
0.4446559298
 40
0.7120302568
 40
1.0
 40
1.0
 40
1.0
 40
1.0
 10
116.3555003246
 20
88.4304325094
 30
0.0
 10
116.3555003246
 20
88.3854563898
 30
0.0
 10
116.3847090653
 20
88.2888500749
 30
0.0
 10
116.4965597116
 20
88.1782209875
 30
0.0
 10
116.6536756959
 20
88.107186904
 30
0.0
 10
116.7736682894
 20
88.0910212544
 30
0.0
 10
116.8355003246
 20
88.0910212544
 30
0.0
  0
SPLINE
  5
449
100
AcDbEntity
  8
0
100
AcDbSpline
 62
7
  6
CONTINUOUS
 70
0
 71
3
 72
9
 73
5
 74
0
 42
0.0000001
 43
0.0000001
 44
0.0000000001
 40
0.0
 40
0.0
 40
0.0
 40
0.0
 40
0.2432035461
 40
1.0
 40
1.0
 40
1.0
 40
1.0
 10
122.8355003246
 20
94.8792463538
 30
0.0
 10
122.8355003246
 20
94.9058825404
 30
0.0
 10
122.8263929619
 20
95.0154085723
 30
0.0
 10
122.7793269562
 20
95.1201812694
 30
0.0
 10
122.7308682446
 20
95.1874259267
 30
0.0
  0
SPLINE
  5
44A
100
AcDbEntity
  8
0
100
AcDbSpline
 62
7
  6
CONTINUOUS
 70
0
 71
3
 72
9
 73
5
 74
0
 42
0.0000001
 43
0.0000001
 44
0.0000000001
 40
0.0
 40
0.0
 40
0.0
 40
0.0
 40
0.4654299385
 40
1.0
 40
1.0
 40
1.0
 40
1.0
 10
122.7308682446
 20
95.1874259267
 30
0.0
 10
122.6440759684
 20
95.3078648877
 30
0.0
 10
122.367998557
 20
95.5007013237
 30
0.0
 10
122.0460067567
 20
95.5580688638
 30
0.0
 10
121.8755003246
 20
95.5580688638
 30
0.0
  0
SPLINE
  5
44B
100
AcDbEntity
  8
RUNDUNGEN
100
AcDbSpline
 62
7
  6
CONTINUOUS
 70
0
 71
3
 72
11
 73
7
 74
0
 42
0.0000001
 43
0.0000001
 44
0.0000000001
 40
0.0
 40
0.0
 40
0.0
 40
0.0
 40
0.2256933976
 40
0.4632957072
 40
0.7206234985
 40
1.0
 40
1.0
 40
1.0
 40
1.0
 10
84.7294845159
 20
96.6871030843
 30
0.0
 10
84.7295744072
 20
96.8291113691
 30
0.0
 10
84.7812145077
 20
97.1226651632
 30
0.0
 10
85.0023239479
 20
97.5261802538
 30
0.0
 10
85.3486086361
 20
97.8762633885
 30
0.0
 10
85.6379892664
 20
98.0561861329
 30
0.0
 10
85.7955234377
 20
98.1341846878
 30
0.0
  0
SPLINE
  5
44C
100
AcDbEntity
  8
RUNDUNGEN
100
AcDbSpline
 62
7
  6
CONTINUOUS
 70
0
 71
3
 72
9
 73
5
 74
0
 42
0.0000001
 43
0.0000001
 44
0.0000000001
 40
0.0
 40
0.0
 40
0.0
 40
0.0
 40
0.4805183102
 40
1.0
 40
1.0
 40
1.0
 40
1.0
 10
84.7294823609
 20
93.151498677
 30
0.0
 10
84.7293793466
 20
92.9700206479
 30
0.0
 10
84.8156175434
 20
92.5887872747
 30
0.0
 10
85.0435364933
 20
92.2760395294
 30
0.0
 10
85.1815844178
 20
92.1366313993
 30
0.0
  0
SPLINE
  5
44D
100
AcDbEntity
  8
RUNDUNGEN
100
AcDbSpline
 62
7
  6
CONTINUOUS
 70
0
 71
3
 72
11
 73
7
 74
0
 42
0.0000001
 43
0.0000001
 44
0.0000000001
 40
0.0
 40
0.0
 40
0.0
 40
0.0
 40
0.2256919297
 40
0.4632773963
 40
0.7205986282
 40
1.0
 40
1.0
 40
1.0
 40
1.0
 10
67.9040950105
 20
114.9024731784
 30
0.0
 10
67.9040072794
 20
115.3572081395
 30
0.0
 10
68.0684539908
 20
116.2973591832
 30
0.0
 10
68.7757588864
 20
117.5899066869
 30
0.0
 10
69.884325428
 20
118.7112813324
 30
0.0
 10
70.8109800208
 20
119.2875305663
 30
0.0
 10
71.315479638
 20
119.5373191727
 30
0.0
  0
SPLINE
  5
44E
100
AcDbEntity
  8
RUNDUNGEN
100
AcDbSpline
 62
7
  6
CONTINUOUS
 70
0
 71
3
 72
10
 73
6
 74
0
 42
0.0000001
 43
0.0000001
 44
0.0000000001
 40
0.0
 40
0.0
 40
0.0
 40
0.0
 40
0.2382860828
 40
0.4819052527
 40
1.0
 40
1.0
 40
1.0
 40
1.0
 10
67.9040950105
 20
111.3669392724
 30
0.0
 10
67.9041506592
 20
111.0784961482
 30
0.0
 10
67.9685354339
 20
110.4931445727
 30
0.0
 10
68.3531766275
 20
109.3381705336
 30
0.0
 10
68.9095928235
 20
108.5689532066
 30
0.0
 10
69.3508747745
 20
108.1233232427
 30
0.0
  0
SPLINE
  5
44F
100
AcDbEntity
  8
RUNDUNGEN
100
AcDbSpline
 62
7
  6
CONTINUOUS
 70
0
 71
3
 72
11
 73
7
 74
0
 42
0.0000001
 43
0.0000001
 44
0.0000000001
 40
0.0
 40
0.0
 40
0.0
 40
0.0
 40
0.2377805486
 40
0.4809056598
 40
0.733919361
 40
1.0
 40
1.0
 40
1.0
 40
1.0
 10
161.6268868402
 20
59.9615488784
 30
0.0
 10
161.6268868711
 20
60.8631797237
 30
0.0
 10
161.8269031296
 20
62.6925304184
 30
0.0
 10
162.7137693063
 20
65.3504151888
 30
0.0
 10
164.1603463445
 20
67.8722670809
 30
0.0
 10
165.4381628662
 20
69.3841250085
 30
0.0
 10
166.148085733
 20
70.1010428448
 30
0.0
  0
SPLINE
  5
450
100
AcDbEntity
  8
RUNDUNGEN
100
AcDbSpline
 62
7
  6
CONTINUOUS
 70
0
 71
3
 72
10
 73
6
 74
0
 42
0.0000001
 43
0.0000001
 44
0.0000000001
 40
0.0
 40
0.0
 40
0.0
 40
0.0
 40
0.2381555918
 40
0.4827085932
 40
1.0
 40
1.0
 40
1.0
 40
1.0
 10
161.7523851586
 20
61.7282013615
 30
0.0
 10
161.8596150601
 20
60.9740930413
 30
0.0
 10
162.21669121
 20
59.4619428063
 30
0.0
 10
163.4785464923
 20
56.5106246127
 30
0.0
 10
164.9839585836
 20
54.5331848244
 30
0.0
 10
166.148085733
 20
53.3575873671
 30
0.0
  0
SPLINE
  5
451
100
AcDbEntity
  8
RUNDUNGEN
100
AcDbSpline
 62
7
  6
CONTINUOUS
 70
0
 71
3
 72
10
 73
6
 74
0
 42
0.0000001
 43
0.0000001
 44
0.0000000001
 40
0.0
 40
0.0
 40
0.0
 40
0.0
 40
0.2382826319
 40
0.4819247904
 40
1.0
 40
1.0
 40
1.0
 40
1.0
 10
82.075128701
 20
26.4013354586
 30
0.0
 10
82.075128701
 20
26.6898553845
 30
0.0
 10
82.1393211389
 20
27.2754207346
 30
0.0
 10
82.5240041624
 20
28.4307588791
 30
0.0
 10
83.0805231601
 20
29.2002355039
 30
0.0
 10
83.5219123467
 20
29.64597376
 30
0.0
  0
SPLINE
  5
452
100
AcDbEntity
  8
RUNDUNGEN
100
AcDbSpline
 62
7
  6
CONTINUOUS
 70
0
 71
3
 72
10
 73
6
 74
0
 42
0.0000001
 43
0.0000001
 44
0.0000000001
 40
0.0
 40
0.0
 40
0.0
 40
0.0
 40
0.5180750537
 40
0.7617172794
 40
1.0
 40
1.0
 40
1.0
 40
1.0
 10
189.6283450553
 20
29.64597376
 30
0.0
 10
190.0697341097
 20
29.2002356374
 30
0.0
 10
190.6262530773
 20
28.4307591471
 30
0.0
 10
191.010936203
 20
27.2754210319
 30
0.0
 10
191.075128701
 20
26.6898554923
 30
0.0
 10
191.075128701
 20
26.4013354586
 30
0.0
  0
SPLINE
  5
453
100
AcDbEntity
  8
RUNDUNGEN
100
AcDbSpline
 62
7
  6
CONTINUOUS
 70
0
 71
3
 72
11
 73
7
 74
0
 42
0.0000001
 43
0.0000001
 44
0.0000000001
 40
0.0
 40
0.0
 40
0.0
 40
0.0
 40
0.2793754766
 40
0.5367190768
 40
0.7743209476
 40
1.0
 40
1.0
 40
1.0
 40
1.0
 10
206.3401140075
 20
117.3066303405
 30
0.0
 10
206.4976505519
 20
117.2286306106
 30
0.0
 10
206.7870433496
 20
117.0486980951
 30
0.0
 10
207.1333400959
 20
116.6985992642
 30
0.0
 10
207.3544391321
 20
116.2950673083
 30
0.0
 10
207.406070111
 20
116.0015162137
 30
0.0
 10
207.4061548333
 20
115.8595142919
 30
0.0
  0
SPLINE
  5
454
100
AcDbEntity
  8
RUNDUNGEN
100
AcDbSpline
 62
7
  6
CONTINUOUS
 70
0
 71
3
 72
11
 73
7
 74
0
 42
0.0000001
 43
0.0000001
 44
0.0000000001
 40
0.0
 40
0.0
 40
0.0
 40
0.0
 40
0.2297148973
 40
0.4842569687
 40
0.7475608842
 40
1.0
 40
1.0
 40
1.0
 40
1.0
 10
192.0045282191
 20
122.246442083
 30
0.0
 10
192.2041013783
 20
122.4479816645
 30
0.0
 10
192.719908021
 20
122.7807730402
 30
0.0
 10
193.6239399906
 20
123.0180863518
 30
0.0
 10
194.5859162329
 20
123.0046107451
 30
0.0
 10
195.2070216271
 20
122.8188637229
 30
0.0
 10
195.4863494207
 20
122.6805625272
 30
0.0
  0
SPLINE
  5
455
100
AcDbEntity
  8
RUNDUNGEN
100
AcDbSpline
 62
7
  6
CONTINUOUS
 70
0
 71
3
 72
11
 73
7
 74
0
 42
0.0000001
 43
0.0000001
 44
0.0000000001
 40
0.0
 40
0.0
 40
0.0
 40
0.0
 40
0.240240535
 40
0.4905941601
 40
0.7458010452
 40
1.0
 40
1.0
 40
1.0
 40
1.0
 10
72.9537837266
 20
120.3484787481
 30
0.0
 10
74.285330711
 20
121.0077562863
 30
0.0
 10
77.134642103
 20
122.101828359
 30
0.0
 10
81.670001101
 20
123.0363260759
 30
0.0
 10
86.3804988442
 20
123.2710452342
 30
0.0
 10
89.529377296
 20
122.9497288987
 30
0.0
 10
91.0759277672
 20
122.6671738942
 30
0.0
  0
SPLINE
  5
456
100
AcDbEntity
  8
0
100
AcDbSpline
 62
7
  6
CONTINUOUS
 70
0
 71
3
 72
11
 73
7
 74
0
 42
0.0000001
 43
0.0000001
 44
0.0000000001
 40
0.0
 40
0.0
 40
0.0
 40
0.0
 40
0.2880052506
 40
0.5553344723
 40
0.7905070702
 40
1.0
 40
1.0
 40
1.0
 40
1.0
 10
114.1955003246
 20
95.5580688638
 30
0.0
 10
114.0718218725
 20
95.5580688638
 30
0.0
 10
113.8318284021
 20
95.5257622246
 30
0.0
 10
113.517663374
 20
95.3836101757
 30
0.0
 10
113.2939046853
 20
95.1624403444
 30
0.0
 10
113.2355003246
 20
94.9692091626
 30
0.0
 10
113.2355003246
 20
94.8792463538
 30
0.0
  0
SPLINE
  5
457
100
AcDbEntity
  8
0
100
AcDbSpline
 62
7
  6
CONTINUOUS
 70
0
 71
3
 72
11
 73
7
 74
0
 42
0.0000001
 43
0.0000001
 44
0.0000000001
 40
0.0
 40
0.0
 40
0.0
 40
0.0
 40
0.2879697432
 40
0.5553440702
 40
0.7905331502
 40
1.0
 40
1.0
 40
1.0
 40
1.0
 10
119.2355003246
 20
91.4851338041
 30
0.0
 10
119.2973323597
 20
91.4851338041
 30
0.0
 10
119.4173249532
 20
91.5012994537
 30
0.0
 10
119.5744409375
 20
91.5723335372
 30
0.0
 10
119.6862915838
 20
91.6829626246
 30
0.0
 10
119.7155003246
 20
91.7795689395
 30
0.0
 10
119.7155003246
 20
91.8245450591
 30
0.0
  0
SPLINE
  5
458
100
AcDbEntity
  8
0
100
AcDbSpline
 62
7
  6
CONTINUOUS
 70
0
 71
3
 72
11
 73
7
 74
0
 42
0.0000001
 43
0.0000001
 44
0.0000000001
 40
0.0
 40
0.0
 40
0.0
 40
0.0
 40
0.2879697432
 40
0.5553440702
 40
0.7905331502
 40
1.0
 40
1.0
 40
1.0
 40
1.0
 10
119.2355003246
 20
88.0910212544
 30
0.0
 10
119.2973323597
 20
88.0910212544
 30
0.0
 10
119.4173249532
 20
88.107186904
 30
0.0
 10
119.5744409375
 20
88.1782209875
 30
0.0
 10
119.6862915838
 20
88.2888500749
 30
0.0
 10
119.7155003246
 20
88.3854563898
 30
0.0
 10
119.7155003246
 20
88.4304325094
 30
0.0
  0
SPLINE
  5
459
100
AcDbEntity
  8
0
100
AcDbSpline
 62
7
  6
CONTINUOUS
 70
0
 71
3
 72
9
 73
5
 74
0
 42
0.0000001
 43
0.0000001
 44
0.0000000001
 40
0.0
 40
0.0
 40
0.0
 40
0.0
 40
0.5597866015
 40
1.0
 40
1.0
 40
1.0
 40
1.0
 10
117.2675003246
 20
93.6913069614
 30
0.0
 10
117.220339876
 20
93.6913069614
 30
0.0
 10
117.1326167875
 20
93.6733899821
 30
0.0
 10
117.0755003246
 20
93.5926292016
 30
0.0
 10
117.0755003246
 20
93.5555424595
 30
0.0
  0
SPLINE
  5
45A
100
AcDbEntity
  8
0
100
AcDbSpline
 62
7
  6
CONTINUOUS
 70
0
 71
3
 72
9
 73
5
 74
0
 42
0.0000001
 43
0.0000001
 44
0.0000000001
 40
0.0
 40
0.0
 40
0.0
 40
0.0
 40
0.5597866015
 40
1.0
 40
1.0
 40
1.0
 40
1.0
 10
117.2675003246
 20
90.2971944118
 30
0.0
 10
117.220339876
 20
90.2971944118
 30
0.0
 10
117.1326167875
 20
90.2792774324
 30
0.0
 10
117.0755003246
 20
90.1985166519
 30
0.0
 10
117.0755003246
 20
90.1614299098
 30
0.0
  0
SPLINE
  5
45B
100
AcDbEntity
  8
0
100
AcDbSpline
 62
7
  6
CONTINUOUS
 70
0
 71
3
 72
9
 73
5
 74
0
 42
0.0000001
 43
0.0000001
 44
0.0000000001
 40
0.0
 40
0.0
 40
0.0
 40
0.0
 40
0.5597866015
 40
1.0
 40
1.0
 40
1.0
 40
1.0
 10
118.2035003246
 20
89.9577831568
 30
0.0
 10
118.2506607731
 20
89.9577831568
 30
0.0
 10
118.3383838616
 20
89.9757001362
 30
0.0
 10
118.3955003246
 20
90.0564609166
 30
0.0
 10
118.3955003246
 20
90.0935476588
 30
0.0
  0
SPLINE
  5
45C
100
AcDbEntity
  8
0
100
AcDbSpline
 62
7
  6
CONTINUOUS
 70
0
 71
3
 72
11
 73
7
 74
0
 42
0.0000001
 43
0.0000001
 44
0.0000000001
 40
0.0
 40
0.0
 40
0.0
 40
0.0
 40
0.2880001164
 40
0.5553425139
 40
0.7905343079
 40
1.0
 40
1.0
 40
1.0
 40
1.0
 10
131.964782407
 20
92.0775949153
 30
0.0
 10
132.1880522382
 20
92.0775949153
 30
0.0
 10
132.621295786
 20
92.1359549472
 30
0.0
 10
133.1885344868
 20
92.3924750142
 30
0.0
 10
133.5923963494
 20
92.7918566139
 30
0.0
 10
133.6978192218
 20
93.140671518
 30
0.0
 10
133.6978192218
 20
93.3030581528
 30
0.0
  0
SPLINE
  5
45D
100
AcDbEntity
  8
0
100
AcDbSpline
 62
7
  6
CONTINUOUS
 70
0
 71
3
 72
9
 73
5
 74
0
 42
0.0000001
 43
0.0000001
 44
0.0000000001
 40
0.0
 40
0.0
 40
0.0
 40
0.0
 40
0.2457811574
 40
1.0
 40
1.0
 40
1.0
 40
1.0
 10
155.8878128139
 20
95.5015003213
 30
0.0
 10
155.8573866279
 20
95.510880341
 30
0.0
 10
155.732108001
 20
95.5441058836
 30
0.0
 10
155.6018501165
 20
95.5580688638
 30
0.0
 10
155.504146292
 20
95.5580688638
 30
0.0
  0
SPLINE
  5
45E
100
AcDbEntity
  8
0
100
AcDbSpline
 62
7
  6
CONTINUOUS
 70
0
 71
3
 72
11
 73
7
 74
0
 42
0.0000001
 43
0.0000001
 44
0.0000000001
 40
0.0
 40
0.0
 40
0.0
 40
0.0
 40
0.2779817175
 40
0.5346952233
 40
0.772857858
 40
1.0
 40
1.0
 40
1.0
 40
1.0
 10
155.829643172
 20
87.9346863734
 30
0.0
 10
156.1661310379
 20
88.1168947875
 30
0.0
 10
156.7826317344
 20
88.5305802778
 30
0.0
 10
157.5152471005
 20
89.3168925895
 30
0.0
 10
157.9799588992
 20
90.2109110724
 30
0.0
 10
158.0875522029
 20
90.8556789668
 30
0.0
 10
158.0875522029
 20
91.1683499662
 30
0.0
  0
SPLINE
  5
45F
100
AcDbEntity
  8
0
100
AcDbSpline
 62
7
  6
CONTINUOUS
 70
0
 71
3
 72
9
 73
5
 74
0
 42
0.0000001
 43
0.0000001
 44
0.0000000001
 40
0.0
 40
0.0
 40
0.0
 40
0.0
 40
0.2591205677
 40
1.0
 40
1.0
 40
1.0
 40
1.0
 10
155.5378046567
 20
87.8647470845
 30
0.0
 10
155.56386825
 20
87.8647470845
 30
0.0
 10
155.6642739903
 20
87.8704995162
 30
0.0
 10
155.7641127098
 20
87.8992015824
 30
0.0
 10
155.829643172
 20
87.9346863734
 30
0.0
  0
SPLINE
  5
460
100
AcDbEntity
  8
RUNDUNGEN
100
AcDbSpline
 62
7
  6
CONTINUOUS
 70
0
 71
3
 72
11
 73
7
 74
0
 42
0.0000001
 43
0.0000001
 44
0.0000000001
 40
0.0
 40
0.0
 40
0.0
 40
0.0
 40
0.2880068215
 40
0.5553366529
 40
0.7905059061
 40
1.0
 40
1.0
 40
1.0
 40
1.0
 10
93.625128701
 20
7.6788380979
 30
0.0
 10
93.7281946535
 20
7.6788380979
 30
0.0
 10
93.9281897457
 20
7.7057613224
 30
0.0
 10
94.1899943723
 20
7.8242200537
 30
0.0
 10
94.3764580512
 20
8.0085291072
 30
0.0
 10
94.425128701
 20
8.1695540891
 30
0.0
 10
94.425128701
 20
8.2445235229
 30
0.0
  0
SPLINE
  5
461
100
AcDbEntity
  8
RUNDUNGEN
100
AcDbSpline
 62
7
  6
CONTINUOUS
 70
0
 71
3
 72
13
 73
9
 74
0
 42
0.0000001
 43
0.0000001
 44
0.0000000001
 40
0.0
 40
0.0
 40
0.0
 40
0.0
 40
0.1034546555
 40
0.2106690395
 40
0.3244963599
 40
0.4464318111
 40
0.7129511617
 40
1.0
 40
1.0
 40
1.0
 40
1.0
 10
82.075128701
 20
13.3356923474
 30
0.0
 10
82.075128701
 20
12.9642799371
 30
0.0
 10
82.1829138429
 20
12.2040996638
 30
0.0
 10
82.6545754593
 20
11.1254303073
 30
0.0
 10
83.4111700029
 20
10.1402798628
 30
0.0
 10
84.794067977
 20
8.9658544743
 30
0.0
 10
87.0470928689
 20
7.9471752235
 30
0.0
 10
89.0445950781
 20
7.6788380979
 30
0.0
 10
90.075128701
 20
7.6788380979
 30
0.0
  0
SPLINE
  5
462
100
AcDbEntity
  8
RUNDUNGEN
100
AcDbSpline
 62
7
  6
CONTINUOUS
 70
0
 71
3
 72
11
 73
7
 74
0
 42
0.0000001
 43
0.0000001
 44
0.0000000001
 40
0.0
 40
0.0
 40
0.0
 40
0.0
 40
0.229702364
 40
0.4842340538
 40
0.7475494509
 40
1.0
 40
1.0
 40
1.0
 40
1.0
 10
73.365909829
 20
104.0687274853
 30
0.0
 10
73.5654721092
 20
103.86719889
 30
0.0
 10
74.0812483579
 20
103.5344163256
 30
0.0
 10
74.9852622256
 20
103.2970913644
 30
0.0
 10
75.9472550983
 20
103.3105488071
 30
0.0
 10
76.5683905722
 20
103.4962995748
 30
0.0
 10
76.8477310306
 20
103.6346070412
 30
0.0
  0
SPLINE
  5
463
100
AcDbEntity
  8
RUNDUNGEN
100
AcDbSpline
 62
7
  6
CONTINUOUS
 70
0
 71
3
 72
9
 73
5
 74
0
 42
0.0000001
 43
0.0000001
 44
0.0000000001
 40
0.0
 40
0.0
 40
0.0
 40
0.0
 40
0.5194816315
 40
1.0
 40
1.0
 40
1.0
 40
1.0
 10
206.9540530274
 20
111.3090770521
 30
0.0
 10
207.0921125035
 20
111.4484968475
 30
0.0
 10
207.3200482044
 20
111.7612748839
 30
0.0
 10
207.4062716074
 20
112.1425485655
 30
0.0
 10
207.4061527658
 20
112.3240418129
 30
0.0
  0
SPLINE
  5
464
100
AcDbEntity
  8
RUNDUNGEN
100
AcDbSpline
 62
7
  6
CONTINUOUS
 70
0
 71
3
 72
13
 73
9
 74
0
 42
0.0000001
 43
0.0000001
 44
0.0000000001
 40
0.0
 40
0.0
 40
0.0
 40
0.0
 40
0.2870490624
 40
0.5535683755
 40
0.6755038246
 40
0.7893311355
 40
0.8965454157
 40
1.0
 40
1.0
 40
1.0
 40
1.0
 10
183.075128701
 20
7.6788380979
 30
0.0
 10
184.1056631281
 20
7.6788380979
 30
0.0
 10
186.1031660542
 20
7.947175479
 30
0.0
 10
188.3561912767
 20
8.965855618
 30
0.0
 10
189.7390888037
 20
10.1402812815
 30
0.0
 10
190.4956826674
 20
11.1254317193
 30
0.0
 10
190.967343787
 20
12.2041005401
 30
0.0
 10
191.075128701
 20
12.9642801927
 30
0.0
 10
191.075128701
 20
13.3356923474
 30
0.0
  0
SPLINE
  5
465
100
AcDbEntity
  8
RUNDUNGEN
100
AcDbSpline
 62
7
  6
CONTINUOUS
 70
0
 71
3
 72
11
 73
7
 74
0
 42
0.0000001
 43
0.0000001
 44
0.0000000001
 40
0.0
 40
0.0
 40
0.0
 40
0.0
 40
0.2094942263
 40
0.444667264
 40
0.7119932261
 40
1.0
 40
1.0
 40
1.0
 40
1.0
 10
178.725128701
 20
8.2445235229
 30
0.0
 10
178.725128701
 20
8.169554048
 30
0.0
 10
178.7738002858
 20
8.0085278296
 30
0.0
 10
178.9602644594
 20
7.8242191413
 30
0.0
 10
179.2220690299
 20
7.7057607704
 30
0.0
 10
179.4220627741
 20
7.6788380979
 30
0.0
 10
179.525128701
 20
7.6788380979
 30
0.0
  0
SPLINE
  5
466
100
AcDbEntity
  8
RUNDUNGEN
100
AcDbSpline
 62
7
  6
CONTINUOUS
 70
0
 71
3
 72
10
 73
6
 74
0
 42
0.0000001
 43
0.0000001
 44
0.0000000001
 40
0.0
 40
0.0
 40
0.0
 40
0.0
 40
0.47201694
 40
0.7322443513
 40
1.0
 40
1.0
 40
1.0
 40
1.0
 10
153.1226996018
 20
23.5260828886
 30
0.0
 10
153.9117900768
 20
22.7292173946
 30
0.0
 10
155.4797580164
 20
21.8212825725
 30
0.0
 10
157.7810797364
 20
21.2202005193
 30
0.0
 10
159.0397617494
 20
21.1138669405
 30
0.0
 10
159.6759159561
 20
21.1138669405
 30
0.0
  0
SPLINE
  5
467
100
AcDbEntity
  8
RUNDUNGEN
100
AcDbSpline
 62
7
  6
CONTINUOUS
 70
0
 71
3
 72
10
 73
6
 74
0
 42
0.0000001
 43
0.0000001
 44
0.0000000001
 40
0.0
 40
0.0
 40
0.0
 40
0.0
 40
0.2677558652
 40
0.5279833681
 40
1.0
 40
1.0
 40
1.0
 40
1.0
 10
113.4743414459
 20
21.1138669405
 30
0.0
 10
114.1104961703
 20
21.1138669405
 30
0.0
 10
115.3691789304
 20
21.2202006521
 30
0.0
 10
117.6705005687
 20
21.8212831508
 30
0.0
 10
119.2384678361
 20
22.7292179105
 30
0.0
 10
120.0275578002
 20
23.5260828886
 30
0.0
  0
SPLINE
  5
468
100
AcDbEntity
  8
RUNDUNGEN
100
AcDbSpline
 62
7
  6
CONTINUOUS
 70
0
 71
3
 72
13
 73
9
 74
0
 42
0.0000001
 43
0.0000001
 44
0.0000000001
 40
0.0
 40
0.0
 40
0.0
 40
0.0
 40
0.1034546555
 40
0.2106690395
 40
0.3244963599
 40
0.4464318111
 40
0.7129511617
 40
1.0
 40
1.0
 40
1.0
 40
1.0
 10
94.425128701
 20
15.457012691
 30
0.0
 10
94.425128701
 20
15.8284251012
 30
0.0
 10
94.5329138429
 20
16.5886053745
 30
0.0
 10
95.0045754593
 20
17.6672747311
 30
0.0
 10
95.7611700029
 20
18.6524251756
 30
0.0
 10
97.144067977
 20
19.8268505641
 30
0.0
 10
99.3970928689
 20
20.8455298149
 30
0.0
 10
101.3945950781
 20
21.1138669405
 30
0.0
 10
102.425128701
 20
21.1138669405
 30
0.0
  0
SPLINE
  5
469
100
AcDbEntity
  8
RUNDUNGEN
100
AcDbSpline
 62
7
  6
CONTINUOUS
 70
0
 71
3
 72
13
 73
9
 74
0
 42
0.0000001
 43
0.0000001
 44
0.0000000001
 40
0.0
 40
0.0
 40
0.0
 40
0.0
 40
0.2870490624
 40
0.5535683755
 40
0.6755038246
 40
0.7893311355
 40
0.8965454157
 40
1.0
 40
1.0
 40
1.0
 40
1.0
 10
170.725128701
 20
21.1138669405
 30
0.0
 10
171.7556631281
 20
21.1138669405
 30
0.0
 10
173.7531660542
 20
20.8455295593
 30
0.0
 10
176.0061912767
 20
19.8268494203
 30
0.0
 10
177.3890888037
 20
18.6524237569
 30
0.0
 10
178.1456826674
 20
17.6672733191
 30
0.0
 10
178.617343787
 20
16.5886044983
 30
0.0
 10
178.725128701
 20
15.8284248457
 30
0.0
 10
178.725128701
 20
15.457012691
 30
0.0
  0
SPLINE
  5
46A
100
AcDbEntity
  8
RUNDUNGEN
100
AcDbSpline
 62
7
  6
CONTINUOUS
 70
0
 71
3
 72
13
 73
9
 74
0
 42
0.0000001
 43
0.0000001
 44
0.0000000001
 40
0.0
 40
0.0
 40
0.0
 40
0.0
 40
0.2360077452
 40
0.3661261418
 40
0.5000000756
 40
0.6338740402
 40
0.7639924068
 40
1.0
 40
1.0
 40
1.0
 40
1.0
 10
128.3836082581
 20
31.9644666824
 30
0.0
 10
129.3699682912
 20
32.960545459
 30
0.0
 10
131.3295689637
 20
34.0955069218
 30
0.0
 10
134.207297958
 20
34.8467904768
 30
0.0
 10
136.5751302758
 20
35.047155458
 30
0.0
 10
138.9429623755
 20
34.8467899993
 30
0.0
 10
141.8206903564
 20
34.0955060561
 30
0.0
 10
143.780289746
 20
32.9605448175
 30
0.0
 10
144.7666491439
 20
31.9644666824
 30
0.0
  0
SPLINE
  5
46B
100
AcDbEntity
  8
RUNDUNGEN
100
AcDbSpline
 62
7
  6
CONTINUOUS
 70
0
 71
3
 72
10
 73
6
 74
0
 42
0.0000001
 43
0.0000001
 44
0.0000000001
 40
0.0
 40
0.0
 40
0.0
 40
0.0
 40
0.5172913397
 40
0.7618443771
 40
1.0
 40
1.0
 40
1.0
 40
1.0
 10
107.002171669
 20
53.3575873671
 30
0.0
 10
108.1662941342
 20
54.5331800941
 30
0.0
 10
109.6717010616
 20
56.5106109496
 30
0.0
 10
110.9335565553
 20
59.4619153358
 30
0.0
 10
111.2906351745
 20
60.9740588989
 30
0.0
 10
111.3978669216
 20
61.7281640612
 30
0.0
  0
SPLINE
  5
46C
100
AcDbEntity
  8
RUNDUNGEN
100
AcDbSpline
 62
7
  6
CONTINUOUS
 70
0
 71
3
 72
11
 73
7
 74
0
 42
0.0000001
 43
0.0000001
 44
0.0000000001
 40
0.0
 40
0.0
 40
0.0
 40
0.0
 40
0.2660806618
 40
0.5190943778
 40
0.7622194713
 40
1.0
 40
1.0
 40
1.0
 40
1.0
 10
107.002171669
 20
70.1010428448
 30
0.0
 10
107.7120946867
 20
69.3841248561
 30
0.0
 10
108.9899114208
 20
67.8722665865
 30
0.0
 10
110.4364885721
 20
65.3504142407
 30
0.0
 10
111.32335458
 20
62.6925291164
 30
0.0
 10
111.5233705927
 20
60.8631783117
 30
0.0
 10
111.5233705618
 20
59.9615474276
 30
0.0
  0
SPLINE
  5
46D
100
AcDbEntity
  8
RUNDUNGEN
100
AcDbSpline
 62
7
  6
CONTINUOUS
 70
0
 71
3
 72
11
 73
7
 74
0
 42
0.0000001
 43
0.0000001
 44
0.0000000001
 40
0.0
 40
0.0
 40
0.0
 40
0.0
 40
0.2524507309
 40
0.5157647478
 40
0.7702968692
 40
1.0
 40
1.0
 40
1.0
 40
1.0
 10
82.1722193185
 20
106.270875661
 30
0.0
 10
82.6191643792
 20
106.4921677693
 30
0.0
 10
83.6129789766
 20
106.7893680177
 30
0.0
 10
85.1521657344
 20
106.8109010265
 30
0.0
 10
86.5985882101
 20
106.4311830465
 30
0.0
 10
87.423832523
 20
105.8987297831
 30
0.0
 10
87.743133241
 20
105.5762829504
 30
0.0
  0
SPLINE
  5
46E
100
AcDbEntity
  8
RUNDUNGEN
100
AcDbSpline
 62
7
  6
CONTINUOUS
 70
0
 71
3
 72
9
 73
5
 74
0
 42
0.0000001
 43
0.0000001
 44
0.0000000001
 40
0.0
 40
0.0
 40
0.0
 40
0.0
 40
0.5194825986
 40
1.0
 40
1.0
 40
1.0
 40
1.0
 10
92.1023141573
 20
101.1741504138
 30
0.0
 10
92.3232091519
 20
100.9510789099
 30
0.0
 10
92.6879049279
 20
100.4506352628
 30
0.0
 10
92.8258636533
 20
99.8405995315
 30
0.0
 10
92.8256740523
 20
99.5502116801
 30
0.0
  0
SPLINE
  5
46F
100
AcDbEntity
  8
RUNDUNGEN
100
AcDbSpline
 62
7
  6
CONTINUOUS
 70
0
 71
3
 72
9
 73
5
 74
0
 42
0.0000001
 43
0.0000001
 44
0.0000000001
 40
0.0
 40
0.0
 40
0.0
 40
0.0
 40
0.2563152072
 40
1.0
 40
1.0
 40
1.0
 40
1.0
 10
91.1200117256
 20
100.7704533077
 30
0.0
 10
91.1797998659
 20
100.8000557013
 30
0.0
 10
91.4103084291
 20
100.9209653981
 30
0.0
 10
91.6295585455
 20
101.0637860993
 30
0.0
 10
91.7824925046
 20
101.1824487077
 30
0.0
  0
SPLINE
  5
470
100
AcDbEntity
  8
0
100
AcDbSpline
 62
7
  6
CONTINUOUS
 70
0
 71
3
 72
11
 73
7
 74
0
 42
0.0000001
 43
0.0000001
 44
0.0000000001
 40
0.0
 40
0.0
 40
0.0
 40
0.0
 40
0.2094656921
 40
0.4446574861
 40
0.7119998836
 40
1.0
 40
1.0
 40
1.0
 40
1.0
 10
133.6978192218
 20
93.3030581528
 30
0.0
 10
133.6978192218
 20
93.4654447877
 30
0.0
 10
133.5923963494
 20
93.8142596918
 30
0.0
 10
133.1885344868
 20
94.2136412915
 30
0.0
 10
132.621295786
 20
94.4701613585
 30
0.0
 10
132.1880522382
 20
94.5285213904
 30
0.0
 10
131.964782407
 20
94.5285213904
 30
0.0
  0
SPLINE
  5
471
100
AcDbEntity
  8
0
100
AcDbSpline
 62
7
  6
CONTINUOUS
 70
0
 71
3
 72
9
 73
5
 74
0
 42
0.0000001
 43
0.0000001
 44
0.0000000001
 40
0.0
 40
0.0
 40
0.0
 40
0.0
 40
0.4402133985
 40
1.0
 40
1.0
 40
1.0
 40
1.0
 10
117.0755003246
 20
92.1300151886
 30
0.0
 10
117.0755003246
 20
92.0929284465
 30
0.0
 10
117.1326167875
 20
92.012167666
 30
0.0
 10
117.220339876
 20
91.9942506866
 30
0.0
 10
117.2675003246
 20
91.9942506866
 30
0.0
  0
SPLINE
  5
472
100
AcDbEntity
  8
0
100
AcDbSpline
 62
7
  6
CONTINUOUS
 70
0
 71
3
 72
11
 73
7
 74
0
 42
0.0000001
 43
0.0000001
 44
0.0000000001
 40
0.0
 40
0.0
 40
0.0
 40
0.0
 40
0.2094929298
 40
0.4446655277
 40
0.7119947494
 40
1.0
 40
1.0
 40
1.0
 40
1.0
 10
113.2355003246
 20
87.4121987445
 30
0.0
 10
113.2355003246
 20
87.3222359358
 30
0.0
 10
113.2939046853
 20
87.129004754
 30
0.0
 10
113.517663374
 20
86.9078349227
 30
0.0
 10
113.8318284021
 20
86.7656828737
 30
0.0
 10
114.0718218725
 20
86.7333762346
 30
0.0
 10
114.1955003246
 20
86.7333762346
 30
0.0
  0
SPLINE
  5
473
100
AcDbEntity
  8
0
100
AcDbSpline
 62
7
  6
CONTINUOUS
 70
0
 71
3
 72
11
 73
7
 74
0
 42
0.0000001
 43
0.0000001
 44
0.0000000001
 40
0.0
 40
0.0
 40
0.0
 40
0.0
 40
0.2094668498
 40
0.4446559298
 40
0.7120302568
 40
1.0
 40
1.0
 40
1.0
 40
1.0
 10
119.7155003246
 20
90.4669000392
 30
0.0
 10
119.7155003246
 20
90.5118761588
 30
0.0
 10
119.6862915838
 20
90.6084824737
 30
0.0
 10
119.5744409375
 20
90.7191115611
 30
0.0
 10
119.4173249532
 20
90.7901456447
 30
0.0
 10
119.2973323597
 20
90.8063112942
 30
0.0
 10
119.2355003246
 20
90.8063112942
 30
0.0
  0
SPLINE
  5
474
100
AcDbEntity
  8
0
100
AcDbSpline
 62
7
  6
CONTINUOUS
 70
0
 71
3
 72
9
 73
5
 74
0
 42
0.0000001
 43
0.0000001
 44
0.0000000001
 40
0.0
 40
0.0
 40
0.0
 40
0.0
 40
0.2445376398
 40
1.0
 40
1.0
 40
1.0
 40
1.0
 10
113.2355003246
 20
87.9778841695
 30
0.0
 10
113.2355003246
 20
87.955739013
 30
0.0
 10
113.2418608686
 20
87.8652097736
 30
0.0
 10
113.2740353623
 20
87.7771645979
 30
0.0
 10
113.3085759734
 20
87.7181100414
 30
0.0
  0
SPLINE
  5
475
100
AcDbEntity
  8
0
100
AcDbSpline
 62
7
  6
CONTINUOUS
 70
0
 71
3
 72
9
 73
5
 74
0
 42
0.0000001
 43
0.0000001
 44
0.0000000001
 40
0.0
 40
0.0
 40
0.0
 40
0.0
 40
0.461013727
 40
1.0
 40
1.0
 40
1.0
 40
1.0
 10
113.3085759734
 20
87.7181100414
 30
0.0
 10
113.3871063524
 20
87.5838455751
 30
0.0
 10
113.6724796748
 20
87.3629012396
 30
0.0
 10
114.0136486131
 20
87.2990616595
 30
0.0
 10
114.1955003246
 20
87.2990616595
 30
0.0
  0
SPLINE
  5
476
100
AcDbEntity
  8
0
100
AcDbSpline
 62
7
  6
CONTINUOUS
 70
0
 71
3
 72
11
 73
7
 74
0
 42
0.0000001
 43
0.0000001
 44
0.0000000001
 40
0.0
 40
0.0
 40
0.0
 40
0.0
 40
0.2880052506
 40
0.5553344723
 40
0.7905070702
 40
1.0
 40
1.0
 40
1.0
 40
1.0
 10
121.8755003246
 20
86.7333762346
 30
0.0
 10
121.9991787766
 20
86.7333762346
 30
0.0
 10
122.2391722471
 20
86.7656828737
 30
0.0
 10
122.5533372751
 20
86.9078349227
 30
0.0
 10
122.7770959639
 20
87.129004754
 30
0.0
 10
122.8355003246
 20
87.3222359358
 30
0.0
 10
122.8355003246
 20
87.4121987445
 30
0.0
  0
SPLINE
  5
477
100
AcDbEntity
  8
0
100
AcDbSpline
 62
7
  6
CONTINUOUS
 70
0
 71
3
 72
11
 73
7
 74
0
 42
0.0000001
 43
0.0000001
 44
0.0000000001
 40
0.0
 40
0.0
 40
0.0
 40
0.0
 40
0.2879697432
 40
0.5553440702
 40
0.7905331502
 40
1.0
 40
1.0
 40
1.0
 40
1.0
 10
116.8355003246
 20
90.8063112942
 30
0.0
 10
116.7736682894
 20
90.8063112942
 30
0.0
 10
116.6536756959
 20
90.7901456447
 30
0.0
 10
116.4965597116
 20
90.7191115611
 30
0.0
 10
116.3847090653
 20
90.6084824737
 30
0.0
 10
116.3555003246
 20
90.5118761588
 30
0.0
 10
116.3555003246
 20
90.4669000392
 30
0.0
  0
SPLINE
  5
478
100
AcDbEntity
  8
0
100
AcDbSpline
 62
7
  6
CONTINUOUS
 70
0
 71
3
 72
11
 73
7
 74
0
 42
0.0000001
 43
0.0000001
 44
0.0000000001
 40
0.0
 40
0.0
 40
0.0
 40
0.0
 40
0.2879697432
 40
0.5553440702
 40
0.7905331502
 40
1.0
 40
1.0
 40
1.0
 40
1.0
 10
116.8355003246
 20
94.2004238439
 30
0.0
 10
116.7736682894
 20
94.2004238439
 30
0.0
 10
116.6536756959
 20
94.1842581944
 30
0.0
 10
116.4965597116
 20
94.1132241108
 30
0.0
 10
116.3847090653
 20
94.0025950234
 30
0.0
 10
116.3555003246
 20
93.9059887085
 30
0.0
 10
116.3555003246
 20
93.8610125889
 30
0.0
  0
SPLINE
  5
479
100
AcDbEntity
  8
RUNDUNGEN
100
AcDbSpline
 62
7
  6
CONTINUOUS
 70
0
 71
3
 72
11
 73
7
 74
0
 42
0.0000001
 43
0.0000001
 44
0.0000000001
 40
0.0
 40
0.0
 40
0.0
 40
0.0
 40
0.2377805486
 40
0.4809056598
 40
0.733919361
 40
1.0
 40
1.0
 40
1.0
 40
1.0
 10
111.5233705618
 20
59.9615474276
 30
0.0
 10
111.5233705309
 20
59.0599165823
 30
0.0
 10
111.3233542723
 20
57.2305658876
 30
0.0
 10
110.4364880957
 20
54.5726811171
 30
0.0
 10
108.9899110575
 20
52.0508292251
 30
0.0
 10
107.7120945358
 20
50.5389712974
 30
0.0
 10
107.002171669
 20
49.8220534612
 30
0.0
  0
SPLINE
  5
47A
100
AcDbEntity
  8
0
100
AcDbSpline
 62
7
  6
CONTINUOUS
 70
0
 71
3
 72
9
 73
5
 74
0
 42
0.0000001
 43
0.0000001
 44
0.0000000001
 40
0.0
 40
0.0
 40
0.0
 40
0.0
 40
0.5597866015
 40
1.0
 40
1.0
 40
1.0
 40
1.0
 10
117.8675003246
 20
92.3336619416
 30
0.0
 10
117.820339876
 20
92.3336619416
 30
0.0
 10
117.7326167875
 20
92.3157449622
 30
0.0
 10
117.6755003246
 20
92.2349841817
 30
0.0
 10
117.6755003246
 20
92.1978974396
 30
0.0
  0
SPLINE
  5
47B
100
AcDbEntity
  8
RUNDUNGEN
100
AcDbSpline
 62
7
  6
CONTINUOUS
 70
0
 71
3
 72
10
 73
6
 74
0
 42
0.0000001
 43
0.0000001
 44
0.0000000001
 40
0.0
 40
0.0
 40
0.0
 40
0.0
 40
0.2382827206
 40
0.4819249463
 40
1.0
 40
1.0
 40
1.0
 40
1.0
 10
191.075128701
 20
22.8658015527
 30
0.0
 10
191.075128701
 20
23.1543215864
 30
0.0
 10
191.010936203
 20
23.739887126
 30
0.0
 10
190.6262530773
 20
24.8952252412
 30
0.0
 10
190.0697341097
 20
25.6647017315
 30
0.0
 10
189.6283450553
 20
26.110439854
 30
0.0
  0
SPLINE
  5
47C
100
AcDbEntity
  8
0
100
AcDbSpline
 62
7
  6
CONTINUOUS
 70
0
 71
3
 72
9
 73
5
 74
0
 42
0.0000001
 43
0.0000001
 44
0.0000000001
 40
0.0
 40
0.0
 40
0.0
 40
0.0
 40
0.5597866015
 40
1.0
 40
1.0
 40
1.0
 40
1.0
 10
118.8035003246
 20
91.9942506866
 30
0.0
 10
118.8506607731
 20
91.9942506866
 30
0.0
 10
118.9383838616
 20
92.012167666
 30
0.0
 10
118.9955003246
 20
92.0929284465
 30
0.0
 10
118.9955003246
 20
92.1300151886
 30
0.0
  0
SPLINE
  5
47D
100
AcDbEntity
  8
0
100
AcDbSpline
 62
7
  6
CONTINUOUS
 70
0
 71
3
 72
9
 73
5
 74
0
 42
0.0000001
 43
0.0000001
 44
0.0000000001
 40
0.0
 40
0.0
 40
0.0
 40
0.0
 40
0.5597866015
 40
1.0
 40
1.0
 40
1.0
 40
1.0
 10
118.8035003246
 20
88.6001381369
 30
0.0
 10
118.8506607731
 20
88.6001381369
 30
0.0
 10
118.9383838616
 20
88.6180551163
 30
0.0
 10
118.9955003246
 20
88.6988158968
 30
0.0
 10
118.9955003246
 20
88.7359026389
 30
0.0
  0
SPLINE
  5
47E
100
AcDbEntity
  8
0
100
AcDbSpline
 62
7
  6
CONTINUOUS
 70
0
 71
3
 72
11
 73
7
 74
0
 42
0.0000001
 43
0.0000001
 44
0.0000000001
 40
0.0
 40
0.0
 40
0.0
 40
0.0
 40
0.2865059912
 40
0.5484241175
 40
0.7833822346
 40
1.0
 40
1.0
 40
1.0
 40
1.0
 10
132.9602200373
 20
91.1607170809
 30
0.0
 10
133.2661142343
 20
91.2317838682
 30
0.0
 10
133.8396066807
 20
91.4339936322
 30
0.0
 10
134.5568257799
 20
91.9271196551
 30
0.0
 10
135.0370097026
 20
92.5660041389
 30
0.0
 10
135.1538779214
 20
93.0661287542
 30
0.0
 10
135.1538423028
 20
93.3035648303
 30
0.0
  0
SPLINE
  5
47F
100
AcDbEntity
  8
RUNDUNGEN
100
AcDbSpline
 62
7
  6
CONTINUOUS
 70
0
 71
3
 72
11
 73
7
 74
0
 42
0.0000001
 43
0.0000001
 44
0.0000000001
 40
0.0
 40
0.0
 40
0.0
 40
0.0
 40
0.22569408
 40
0.4632959224
 40
0.7206237489
 40
1.0
 40
1.0
 40
1.0
 40
1.0
 10
207.4061527658
 20
112.3240418129
 30
0.0
 10
207.4060597799
 20
112.4660485158
 30
0.0
 10
207.3544147316
 20
112.7595970587
 30
0.0
 10
207.1333038228
 20
113.1631037044
 30
0.0
 10
206.787022356
 20
113.5131793512
 30
0.0
 10
206.4976458086
 20
113.6930990532
 30
0.0
 10
206.3401140075
 20
113.7710964346
 30
0.0
  0
SPLINE
  5
480
100
AcDbEntity
  8
0
100
AcDbSpline
 62
7
  6
CONTINUOUS
 70
0
 71
3
 72
9
 73
5
 74
0
 42
0.0000001
 43
0.0000001
 44
0.0000000001
 40
0.0
 40
0.0
 40
0.0
 40
0.0
 40
0.2536121958
 40
1.0
 40
1.0
 40
1.0
 40
1.0
 10
155.504146292
 20
86.7333762346
 30
0.0
 10
155.5369985596
 20
86.7333762346
 30
0.0
 10
155.6664750928
 20
86.7380696306
 30
0.0
 10
155.795418659
 20
86.7614607931
 30
0.0
 10
155.8878128139
 20
86.7899447771
 30
0.0
  0
SPLINE
  5
481
100
AcDbEntity
  8
0
100
AcDbSpline
 62
7
  6
CONTINUOUS
 70
0
 71
3
 72
12
 73
8
 74
0
 42
0.0000001
 43
0.0000001
 44
0.0000000001
 40
0.0
 40
0.0
 40
0.0
 40
0.0
 40
0.2844670851
 40
0.5445747
 40
0.7798379195
 40
0.8910272787
 40
1.0
 40
1.0
 40
1.0
 40
1.0
 10
155.8878128139
 20
86.7899447771
 30
0.0
 10
156.4615652823
 20
86.9668256211
 30
0.0
 10
157.529369147
 20
87.4248278508
 30
0.0
 10
158.8467280811
 20
88.4445733644
 30
0.0
 10
159.5830445216
 20
89.5276016813
 30
0.0
 10
159.8737480449
 20
90.4496630425
 30
0.0
 10
159.9221132349
 20
90.9157237363
 30
0.0
 10
159.9221132349
 20
91.1457225492
 30
0.0
  0
SPLINE
  5
482
100
AcDbEntity
  8
0
100
AcDbSpline
 62
7
  6
CONTINUOUS
 70
0
 71
3
 72
9
 73
5
 74
0
 42
0.0000001
 43
0.0000001
 44
0.0000000001
 40
0.0
 40
0.0
 40
0.0
 40
0.0
 40
0.239729366
 40
1.0
 40
1.0
 40
1.0
 40
1.0
 10
155.829643172
 20
94.402013559
 30
0.0
 10
155.8084329199
 20
94.4134989253
 30
0.0
 10
155.7165420392
 20
94.4549905152
 30
0.0
 10
155.6142990354
 20
94.4719528479
 30
0.0
 10
155.5378046567
 20
94.4719528479
 30
0.0
  0
SPLINE
  5
483
100
AcDbEntity
  8
0
100
AcDbSpline
 62
7
  6
CONTINUOUS
 70
0
 71
3
 72
9
 73
5
 74
0
 42
0.0000001
 43
0.0000001
 44
0.0000000001
 40
0.0
 40
0.0
 40
0.0
 40
0.0
 40
0.4402133985
 40
1.0
 40
1.0
 40
1.0
 40
1.0
 10
117.0755003246
 20
92.6957006135
 30
0.0
 10
117.0755003246
 20
92.6586138714
 30
0.0
 10
117.1326167875
 20
92.5778530909
 30
0.0
 10
117.220339876
 20
92.5599361115
 30
0.0
 10
117.2675003246
 20
92.5599361115
 30
0.0
  0
SPLINE
  5
484
100
AcDbEntity
  8
0
100
AcDbSpline
 62
7
  6
CONTINUOUS
 70
0
 71
3
 72
11
 73
7
 74
0
 42
0.0000001
 43
0.0000001
 44
0.0000000001
 40
0.0
 40
0.0
 40
0.0
 40
0.0
 40
0.2094668498
 40
0.4446559298
 40
0.7120302568
 40
1.0
 40
1.0
 40
1.0
 40
1.0
 10
119.7155003246
 20
93.8610125889
 30
0.0
 10
119.7155003246
 20
93.9059887085
 30
0.0
 10
119.6862915838
 20
94.0025950234
 30
0.0
 10
119.5744409375
 20
94.1132241108
 30
0.0
 10
119.4173249532
 20
94.1842581944
 30
0.0
 10
119.2973323597
 20
94.2004238439
 30
0.0
 10
119.2355003246
 20
94.2004238439
 30
0.0
  0
SPLINE
  5
485
100
AcDbEntity
  8
BEZUGSACHSEN
100
AcDbSpline
 62
7
  6
CONTINUOUS
 70
0
 71
3
 72
15
 73
11
 74
0
 42
0.0000001
 43
0.0000001
 44
0.0000000001
 40
0.0
 40
0.0
 40
0.0
 40
0.0
 40
0.1084868148
 40
0.2293910952
 40
0.3614748234
 40
0.5
 40
0.6385251766
 40
0.7706089048
 40
0.8915131852
 40
1.0
 40
1.0
 40
1.0
 40
1.0
 10
130.884246857
 20
106.5523074908
 30
0.0
 10
131.0909557086
 20
106.114755019
 30
0.0
 10
131.7276876557
 20
105.2793286521
 30
0.0
 10
133.0807425259
 20
104.3651939158
 30
0.0
 10
134.7462107892
 20
103.7849953888
 30
0.0
 10
136.575128701
 20
103.586804044
 30
0.0
 10
138.4040466128
 20
103.7849953888
 30
0.0
 10
140.0695148761
 20
104.3651939158
 30
0.0
 10
141.4225697463
 20
105.2793286521
 30
0.0
 10
142.0593016934
 20
106.114755019
 30
0.0
 10
142.266010545
 20
106.5523074908
 30
0.0
  0
SPLINE
  5
486
100
AcDbEntity
  8
0
100
AcDbSpline
 62
7
  6
CONTINUOUS
 70
0
 71
3
 72
11
 73
7
 74
0
 42
0.0000001
 43
0.0000001
 44
0.0000000001
 40
0.0
 40
0.0
 40
0.0
 40
0.0
 40
0.227142142
 40
0.4653047767
 40
0.7220182825
 40
1.0
 40
1.0
 40
1.0
 40
1.0
 10
158.0875522029
 20
91.1683499662
 30
0.0
 10
158.0875522029
 20
91.4810209656
 30
0.0
 10
157.9799588992
 20
92.1257888599
 30
0.0
 10
157.5152471005
 20
93.0198073429
 30
0.0
 10
156.7826317344
 20
93.8061196545
 30
0.0
 10
156.1661310379
 20
94.2198051448
 30
0.0
 10
155.829643172
 20
94.402013559
 30
0.0
  0
SPLINE
  5
487
100
AcDbEntity
  8
0
100
AcDbSpline
 62
7
  6
CONTINUOUS
 70
0
 71
3
 72
19
 73
15
 74
0
 42
0.0000001
 43
0.0000001
 44
0.0000000001
 40
0.0
 40
0.0
 40
0.0
 40
0.0
 40
0.0517234907
 40
0.1053372095
 40
0.1622487312
 40
0.2232163938
 40
0.3564752704
 40
0.5
 40
0.6435247296
 40
0.7767836062
 40
0.8377512688
 40
0.8946627905
 40
0.9482765093
 40
1.0
 40
1.0
 40
1.0
 40
1.0
 10
137.468782407
 20
89.9745675094
 30
0.0
 10
137.468782407
 20
89.7630966944
 30
0.0
 10
137.5301967265
 20
89.3302405898
 30
0.0
 10
137.7986996822
 20
88.7160016697
 30
0.0
 10
138.2296087322
 20
88.1550789025
 30
0.0
 10
139.0169042121
 20
87.4863240646
 30
0.0
 10
140.3006567542
 20
86.9062911495
 30
0.0
 10
142.0240906954
 20
86.6742377143
 30
0.0
 10
143.7475246366
 20
86.9062911495
 30
0.0
 10
145.0312771787
 20
87.4863240646
 30
0.0
 10
145.8185726586
 20
88.1550789025
 30
0.0
 10
146.2494817087
 20
88.7160016697
 30
0.0
 10
146.5179846644
 20
89.3302405898
 30
0.0
 10
146.5793989839
 20
89.7630966944
 30
0.0
 10
146.5793989839
 20
89.9745675094
 30
0.0
  0
SPLINE
  5
488
100
AcDbEntity
  8
RUNDUNGEN
100
AcDbSpline
 62
7
  6
CONTINUOUS
 70
0
 71
3
 72
10
 73
6
 74
0
 42
0.0000001
 43
0.0000001
 44
0.0000000001
 40
0.0
 40
0.0
 40
0.0
 40
0.0
 40
0.5180752096
 40
0.7617173681
 40
1.0
 40
1.0
 40
1.0
 40
1.0
 10
83.5219123467
 20
26.110439854
 30
0.0
 10
83.0805231601
 20
25.664701598
 30
0.0
 10
82.5240041624
 20
24.8952249731
 30
0.0
 10
82.1393211389
 20
23.7398868287
 30
0.0
 10
82.075128701
 20
23.1543214786
 30
0.0
 10
82.075128701
 20
22.8658015527
 30
0.0
  0
SPLINE
  5
489
100
AcDbEntity
  8
RUNDUNGEN
100
AcDbSpline
 62
7
  6
CONTINUOUS
 70
0
 71
3
 72
11
 73
7
 74
0
 42
0.0000001
 43
0.0000001
 44
0.0000000001
 40
0.0
 40
0.0
 40
0.0
 40
0.0
 40
0.2793751981
 40
0.5367195601
 40
0.7743217724
 40
1.0
 40
1.0
 40
1.0
 40
1.0
 10
85.7955234377
 20
94.5986507819
 30
0.0
 10
85.637984071
 20
94.5206496546
 30
0.0
 10
85.3485857831
 20
94.3407129868
 30
0.0
 10
85.002284379
 20
93.9906044713
 30
0.0
 10
84.7811874953
 20
93.5870607004
 30
0.0
 10
84.7295629682
 20
93.2935027678
 30
0.0
 10
84.7294823609
 20
93.151498677
 30
0.0
  0
SPLINE
  5
48A
100
AcDbEntity
  8
0
100
AcDbSpline
 62
7
  6
CONTINUOUS
 70
0
 71
3
 72
9
 73
5
 74
0
 42
0.0000001
 43
0.0000001
 44
0.0000000001
 40
0.0
 40
0.0
 40
0.0
 40
0.0
 40
0.4402133985
 40
1.0
 40
1.0
 40
1.0
 40
1.0
 10
117.0755003246
 20
88.7359026389
 30
0.0
 10
117.0755003246
 20
88.6988158968
 30
0.0
 10
117.1326167875
 20
88.6180551163
 30
0.0
 10
117.220339876
 20
88.6001381369
 30
0.0
 10
117.2675003246
 20
88.6001381369
 30
0.0
  0
SPLINE
  5
48B
100
AcDbEntity
  8
RUNDUNGEN
100
AcDbSpline
 62
7
  6
CONTINUOUS
 70
0
 71
3
 72
11
 73
7
 74
0
 42
0.0000001
 43
0.0000001
 44
0.0000000001
 40
0.0
 40
0.0
 40
0.0
 40
0.0
 40
0.2794013718
 40
0.5367226037
 40
0.7743080703
 40
1.0
 40
1.0
 40
1.0
 40
1.0
 10
71.315479638
 20
116.0017852668
 30
0.0
 10
70.8109800208
 20
115.7519966603
 30
0.0
 10
69.884325428
 20
115.1757474264
 30
0.0
 10
68.7757588864
 20
114.0543727809
 30
0.0
 10
68.0684539908
 20
112.7618252773
 30
0.0
 10
67.9040072794
 20
111.8216742336
 30
0.0
 10
67.9040950105
 20
111.3669392724
 30
0.0
  0
SPLINE
  5
48C
100
AcDbEntity
  8
RUNDUNGEN
100
AcDbSpline
 62
7
  6
CONTINUOUS
 70
0
 71
3
 72
11
 73
7
 74
0
 42
0.0000001
 43
0.0000001
 44
0.0000000001
 40
0.0
 40
0.0
 40
0.0
 40
0.0
 40
0.2541993935
 40
0.5094061607
 40
0.7597596283
 40
1.0
 40
1.0
 40
1.0
 40
1.0
 10
91.0754779312
 20
119.1317219596
 30
0.0
 10
89.5289579765
 20
119.4142441977
 30
0.0
 10
86.3801521594
 20
119.7355140693
 30
0.0
 10
81.6697716235
 20
119.5007589197
 30
0.0
 10
77.1345334591
 20
118.566255923
 30
0.0
 10
74.285297095
 20
117.4722057364
 30
0.0
 10
72.9537837266
 20
116.8129448421
 30
0.0
  0
SPLINE
  5
48D
100
AcDbEntity
  8
RUNDUNGEN
100
AcDbSpline
 62
7
  6
CONTINUOUS
 70
0
 71
3
 72
11
 73
7
 74
0
 42
0.0000001
 43
0.0000001
 44
0.0000000001
 40
0.0
 40
0.0
 40
0.0
 40
0.0
 40
0.2524504594
 40
0.5157648204
 40
0.7702974051
 40
1.0
 40
1.0
 40
1.0
 40
1.0
 10
195.4863494207
 20
119.1450286213
 30
0.0
 10
195.207009059
 20
119.2833360397
 30
0.0
 10
194.5858749598
 20
119.4690865267
 30
0.0
 10
193.6238825008
 20
119.4825444729
 30
0.0
 10
192.719868193
 20
119.2452202974
 30
0.0
 10
192.2040907016
 20
118.9124369768
 30
0.0
 10
192.0045282191
 20
118.7109081771
 30
0.0
  0
SPLINE
  5
48E
100
AcDbEntity
  8
0
100
AcDbSpline
 62
7
  6
CONTINUOUS
 70
0
 71
3
 72
9
 73
5
 74
0
 42
0.0000001
 43
0.0000001
 44
0.0000000001
 40
0.0
 40
0.0
 40
0.0
 40
0.0
 40
0.4402133985
 40
1.0
 40
1.0
 40
1.0
 40
1.0
 10
117.0755003246
 20
89.3015880638
 30
0.0
 10
117.0755003246
 20
89.2645013217
 30
0.0
 10
117.1326167875
 20
89.1837405412
 30
0.0
 10
117.220339876
 20
89.1658235619
 30
0.0
 10
117.2675003246
 20
89.1658235619
 30
0.0
  0
SPLINE
  5
48F
100
AcDbEntity
  8
0
100
AcDbSpline
 62
7
  6
CONTINUOUS
 70
0
 71
3
 72
9
 73
5
 74
0
 42
0.0000001
 43
0.0000001
 44
0.0000000001
 40
0.0
 40
0.0
 40
0.0
 40
0.0
 40
0.2536121958
 40
1.0
 40
1.0
 40
1.0
 40
1.0
 10
155.504146292
 20
87.2990616595
 30
0.0
 10
155.5369985596
 20
87.2990616595
 30
0.0
 10
155.6664750928
 20
87.3037550556
 30
0.0
 10
155.795418659
 20
87.3271462181
 30
0.0
 10
155.8878128139
 20
87.355630202
 30
0.0
  0
SPLINE
  5
490
100
AcDbEntity
  8
0
100
AcDbSpline
 62
7
  6
CONTINUOUS
 70
0
 71
3
 72
11
 73
7
 74
0
 42
0.0000001
 43
0.0000001
 44
0.0000000001
 40
0.0
 40
0.0
 40
0.0
 40
0.0
 40
0.2816347582
 40
0.5420479832
 40
0.7798483853
 40
1.0
 40
1.0
 40
1.0
 40
1.0
 10
155.8878128139
 20
87.355630202
 30
0.0
 10
156.4060130577
 20
87.5153849771
 30
0.0
 10
157.3776713149
 20
87.9202634494
 30
0.0
 10
158.6111461314
 20
88.8021878576
 30
0.0
 10
159.4947603439
 20
89.8914483117
 30
0.0
 10
159.8067682314
 20
90.7389877658
 30
0.0
 10
159.8762217081
 20
91.157144522
 30
0.0
  0
SPLINE
  5
491
100
AcDbEntity
  8
0
100
AcDbSpline
 62
7
  6
CONTINUOUS
 70
0
 71
3
 72
9
 73
5
 74
0
 42
0.0000001
 43
0.0000001
 44
0.0000000001
 40
0.0
 40
0.0
 40
0.0
 40
0.0
 40
0.2591205677
 40
1.0
 40
1.0
 40
1.0
 40
1.0
 10
155.5378046567
 20
95.0376382728
 30
0.0
 10
155.56386825
 20
95.0376382728
 30
0.0
 10
155.6642739903
 20
95.0318858411
 30
0.0
 10
155.7641127098
 20
95.0031837749
 30
0.0
 10
155.829643172
 20
94.9676989839
 30
0.0
  0
SPLINE
  5
492
100
AcDbEntity
  8
0
100
AcDbSpline
 62
7
  6
CONTINUOUS
 70
0
 71
3
 72
11
 73
7
 74
0
 42
0.0000001
 43
0.0000001
 44
0.0000000001
 40
0.0
 40
0.0
 40
0.0
 40
0.0
 40
0.2779697373
 40
0.5346991835
 40
0.7728568778
 40
1.0
 40
1.0
 40
1.0
 40
1.0
 10
155.829643172
 20
94.9676989839
 30
0.0
 10
156.1661177418
 20
94.7854977696
 30
0.0
 10
156.7826110583
 20
94.3717947564
 30
0.0
 10
157.5152750941
 20
93.5855197226
 30
0.0
 10
157.9799691768
 20
92.6914684871
 30
0.0
 10
158.0875809885
 20
92.0467088601
 30
0.0
 10
158.0875809885
 20
91.7340353911
 30
0.0
  0
SPLINE
  5
493
100
AcDbEntity
  8
0
100
AcDbSpline
 62
7
  6
CONTINUOUS
 70
0
 71
3
 72
11
 73
7
 74
0
 42
0.0000001
 43
0.0000001
 44
0.0000000001
 40
0.0
 40
0.0
 40
0.0
 40
0.0
 40
0.2782911642
 40
0.539206302
 40
0.7792454761
 40
1.0
 40
1.0
 40
1.0
 40
1.0
 10
132.9602200373
 20
91.7264025059
 30
0.0
 10
133.2035016523
 20
91.7829228418
 30
0.0
 10
133.6665445969
 20
91.9348519594
 30
0.0
 10
134.2786961819
 20
92.2840153209
 30
0.0
 10
134.7564361878
 20
92.7311946412
 30
0.0
 10
134.9716032533
 20
93.0933848521
 30
0.0
 10
135.0425659772
 20
93.2783631225
 30
0.0
  0
SPLINE
  5
494
100
AcDbEntity
  8
0
100
AcDbSpline
 62
7
  6
CONTINUOUS
 70
0
 71
3
 72
8
 73
4
 74
0
 42
0.0000001
 43
0.0000001
 44
0.0000000001
 40
0.0
 40
0.0
 40
0.0
 40
0.0
 40
1.0
 40
1.0
 40
1.0
 40
1.0
 10
135.0425659772
 20
93.2783631225
 30
0.0
 10
135.0792796217
 20
93.3740644441
 30
0.0
 10
135.1077450283
 20
93.4734182276
 30
0.0
 10
135.1265249429
 20
93.5741850349
 30
0.0
  0
SPLINE
  5
495
100
AcDbEntity
  8
0
100
AcDbSpline
 62
7
  6
CONTINUOUS
 70
0
 71
3
 72
11
 73
7
 74
0
 42
0.0000001
 43
0.0000001
 44
0.0000000001
 40
0.0
 40
0.0
 40
0.0
 40
0.0
 40
0.2880066977
 40
0.5553334191
 40
0.790532629
 40
1.0
 40
1.0
 40
1.0
 40
1.0
 10
131.964782407
 20
95.0942068153
 30
0.0
 10
132.18805649
 20
95.0942068153
 30
0.0
 10
132.6212989023
 20
95.0358695355
 30
0.0
 10
133.1885078595
 20
94.7792887223
 30
0.0
 10
133.592368412
 20
94.3799408807
 30
0.0
 10
133.6978491377
 20
94.0311308958
 30
0.0
 10
133.6978491377
 20
93.8687435778
 30
0.0
  0
SPLINE
  5
496
100
AcDbEntity
  8
0
100
AcDbSpline
 62
7
  6
CONTINUOUS
 70
0
 71
3
 72
9
 73
5
 74
0
 42
0.0000001
 43
0.0000001
 44
0.0000000001
 40
0.0
 40
0.0
 40
0.0
 40
0.0
 40
0.5597866015
 40
1.0
 40
1.0
 40
1.0
 40
1.0
 10
118.8035003246
 20
89.1658235619
 30
0.0
 10
118.8506607731
 20
89.1658235619
 30
0.0
 10
118.9383838616
 20
89.1837405412
 30
0.0
 10
118.9955003246
 20
89.2645013217
 30
0.0
 10
118.9955003246
 20
89.3015880638
 30
0.0
  0
SPLINE
  5
497
100
AcDbEntity
  8
0
100
AcDbSpline
 62
7
  6
CONTINUOUS
 70
0
 71
3
 72
9
 73
5
 74
0
 42
0.0000001
 43
0.0000001
 44
0.0000000001
 40
0.0
 40
0.0
 40
0.0
 40
0.0
 40
0.4402133985
 40
1.0
 40
1.0
 40
1.0
 40
1.0
 10
117.6755003246
 20
92.7635828645
 30
0.0
 10
117.6755003246
 20
92.8006696067
 30
0.0
 10
117.7326167875
 20
92.8814303871
 30
0.0
 10
117.820339876
 20
92.8993473665
 30
0.0
 10
117.8675003246
 20
92.8993473665
 30
0.0
  0
SPLINE
  5
498
100
AcDbEntity
  8
0
100
AcDbSpline
 62
7
  6
CONTINUOUS
 70
0
 71
3
 72
9
 73
5
 74
0
 42
0.0000001
 43
0.0000001
 44
0.0000000001
 40
0.0
 40
0.0
 40
0.0
 40
0.0
 40
0.5597866015
 40
1.0
 40
1.0
 40
1.0
 40
1.0
 10
118.2035003246
 20
92.8993473665
 30
0.0
 10
118.2506607731
 20
92.8993473665
 30
0.0
 10
118.3383838616
 20
92.8814303871
 30
0.0
 10
118.3955003246
 20
92.8006696067
 30
0.0
 10
118.3955003246
 20
92.7635828645
 30
0.0
  0
SPLINE
  5
499
100
AcDbEntity
  8
0
100
AcDbSpline
 62
7
  6
CONTINUOUS
 70
0
 71
3
 72
9
 73
5
 74
0
 42
0.0000001
 43
0.0000001
 44
0.0000000001
 40
0.0
 40
0.0
 40
0.0
 40
0.0
 40
0.5597866015
 40
1.0
 40
1.0
 40
1.0
 40
1.0
 10
118.8035003246
 20
92.5599361115
 30
0.0
 10
118.8506607731
 20
92.5599361115
 30
0.0
 10
118.9383838616
 20
92.5778530909
 30
0.0
 10
118.9955003246
 20
92.6586138714
 30
0.0
 10
118.9955003246
 20
92.6957006135
 30
0.0
  0
SPLINE
  5
49A
100
AcDbEntity
  8
0
100
AcDbSpline
 62
7
  6
CONTINUOUS
 70
0
 71
3
 72
11
 73
7
 74
0
 42
0.0000001
 43
0.0000001
 44
0.0000000001
 40
0.0
 40
0.0
 40
0.0
 40
0.0
 40
0.2876567391
 40
0.555407049
 40
0.7907201247
 40
1.0
 40
1.0
 40
1.0
 40
1.0
 10
119.2355003246
 20
94.7661092689
 30
0.0
 10
119.2972562048
 20
94.7661092689
 30
0.0
 10
119.4171557428
 20
94.7496985008
 30
0.0
 10
119.5745652434
 20
94.6791172785
 30
0.0
 10
119.6860435432
 20
94.5680799122
 30
0.0
 10
119.7155003246
 20
94.4716274773
 30
0.0
 10
119.7155003246
 20
94.4266980139
 30
0.0
  0
SPLINE
  5
49B
100
AcDbEntity
  8
0
100
AcDbSpline
 62
7
  6
CONTINUOUS
 70
0
 71
3
 72
8
 73
4
 74
0
 42
0.0000001
 43
0.0000001
 44
0.0000000001
 40
0.0
 40
0.0
 40
0.0
 40
0.0
 40
1.0
 40
1.0
 40
1.0
 40
1.0
 10
119.3636915861
 20
91.3594947568
 30
0.0
 10
119.401820255
 20
91.3520107675
 30
0.0
 10
119.4395017293
 20
91.3411497805
 30
0.0
 10
119.4755003246
 20
91.3265242333
 30
0.0
  0
SPLINE
  5
49C
100
AcDbEntity
  8
0
100
AcDbSpline
 62
7
  6
CONTINUOUS
 70
0
 71
3
 72
9
 73
5
 74
0
 42
0.0000001
 43
0.0000001
 44
0.0000000001
 40
0.0
 40
0.0
 40
0.0
 40
0.0
 40
0.5424756321
 40
1.0
 40
1.0
 40
1.0
 40
1.0
 10
119.4755003246
 20
91.3265242333
 30
0.0
 10
119.5419513817
 20
91.2995264278
 30
0.0
 10
119.6591354389
 20
91.226031833
 30
0.0
 10
119.7155003246
 20
91.09307926
 30
0.0
 10
119.7155003246
 20
91.0325854642
 30
0.0
  0
SPLINE
  5
49D
100
AcDbEntity
  8
0
100
AcDbSpline
 62
7
  6
CONTINUOUS
 70
0
 71
3
 72
9
 73
5
 74
0
 42
0.0000001
 43
0.0000001
 44
0.0000000001
 40
0.0
 40
0.0
 40
0.0
 40
0.0
 40
0.4575243679
 40
1.0
 40
1.0
 40
1.0
 40
1.0
 10
116.3555003246
 20
91.0325854642
 30
0.0
 10
116.3555003246
 20
91.09307926
 30
0.0
 10
116.4118652102
 20
91.226031833
 30
0.0
 10
116.5290492674
 20
91.2995264278
 30
0.0
 10
116.5955003246
 20
91.3265242333
 30
0.0
  0
SPLINE
  5
49E
100
AcDbEntity
  8
0
100
AcDbSpline
 62
7
  6
CONTINUOUS
 70
0
 71
3
 72
9
 73
5
 74
0
 42
0.0000001
 43
0.0000001
 44
0.0000000001
 40
0.0
 40
0.0
 40
0.0
 40
0.0
 40
0.2441493338
 40
1.0
 40
1.0
 40
1.0
 40
1.0
 10
116.5955003246
 20
91.3265242333
 30
0.0
 10
116.6139812159
 20
91.3340326693
 30
0.0
 10
116.6913269415
 20
91.360600327
 30
0.0
 10
116.7737444443
 20
91.3719967192
 30
0.0
 10
116.8355003246
 20
91.3719967192
 30
0.0
  0
SPLINE
  5
49F
100
AcDbEntity
  8
0
100
AcDbSpline
 62
7
  6
CONTINUOUS
 70
0
 71
3
 72
11
 73
7
 74
0
 42
0.0000001
 43
0.0000001
 44
0.0000000001
 40
0.0
 40
0.0
 40
0.0
 40
0.0
 40
0.2092798753
 40
0.444592951
 40
0.7123432609
 40
1.0
 40
1.0
 40
1.0
 40
1.0
 10
116.3555003246
 20
94.4266980139
 30
0.0
 10
116.3555003246
 20
94.4716274773
 30
0.0
 10
116.384957106
 20
94.5680799122
 30
0.0
 10
116.4964354057
 20
94.6791172785
 30
0.0
 10
116.6538449063
 20
94.7496985008
 30
0.0
 10
116.7737444443
 20
94.7661092689
 30
0.0
 10
116.8355003246
 20
94.7661092689
 30
0.0
  0
SPLINE
  5
4A0
100
AcDbEntity
  8
RUNDUNGEN
100
AcDbSpline
 62
7
  6
CONTINUOUS
 70
0
 71
3
 72
11
 73
7
 74
0
 42
0.0000001
 43
0.0000001
 44
0.0000000001
 40
0.0
 40
0.0
 40
0.0
 40
0.0
 40
0.2660806618
 40
0.5190943778
 40
0.7622194713
 40
1.0
 40
1.0
 40
1.0
 40
1.0
 10
166.148085733
 20
49.8220534612
 30
0.0
 10
165.4381627153
 20
50.5389714498
 30
0.0
 10
164.1603459812
 20
52.0508297195
 30
0.0
 10
162.7137688299
 20
54.5726820653
 30
0.0
 10
161.826902822
 20
57.2305671895
 30
0.0
 10
161.6268868093
 20
59.0599179943
 30
0.0
 10
161.6268868402
 20
59.9615488784
 30
0.0
  0
SPLINE
  5
4A1
100
AcDbEntity
  8
0
100
AcDbSpline
 62
7
  6
CONTINUOUS
 70
0
 71
3
 72
19
 73
15
 74
0
 42
0.0000001
 43
0.0000001
 44
0.0000000001
 40
0.0
 40
0.0
 40
0.0
 40
0.0
 40
0.051855061
 40
0.1061589371
 40
0.1638754827
 40
0.2253669227
 40
0.3583203672
 40
0.5
 40
0.6416796328
 40
0.7746330773
 40
0.8361245173
 40
0.8938410629
 40
0.948144939
 40
1.0
 40
1.0
 40
1.0
 40
1.0
 10
137.5025695554
 20
90.1492013628
 30
0.0
 10
137.5364269963
 20
89.9535184723
 30
0.0
 10
137.6579400366
 20
89.5604133008
 30
0.0
 10
137.9818708866
 20
89.0170890172
 30
0.0
 10
138.4367471687
 20
88.5266232355
 30
0.0
 10
139.215971841
 20
87.9486527208
 30
0.0
 10
140.4257345183
 20
87.4507845117
 30
0.0
 10
142.0240906954
 20
87.2513063502
 30
0.0
 10
143.6224468725
 20
87.4507845117
 30
0.0
 10
144.8322095498
 20
87.9486527208
 30
0.0
 10
145.6114342221
 20
88.5266232355
 30
0.0
 10
146.0663105043
 20
89.0170890172
 30
0.0
 10
146.3902413542
 20
89.5604133008
 30
0.0
 10
146.5117543946
 20
89.9535184723
 30
0.0
 10
146.5456118354
 20
90.1492013628
 30
0.0
  0
SPLINE
  5
4A2
100
AcDbEntity
  8
RUNDUNGEN
100
AcDbSpline
 62
7
  6
CONTINUOUS
 70
0
 71
3
 72
11
 73
7
 74
0
 42
0.0000001
 43
0.0000001
 44
0.0000000001
 40
0.0
 40
0.0
 40
0.0
 40
0.0
 40
0.2256927635
 40
0.4632951072
 40
0.7206222905
 40
1.0
 40
1.0
 40
1.0
 40
1.0
 10
92.8256740523
 20
99.5502116801
 30
0.0
 10
92.8255257017
 20
99.3230019066
 30
0.0
 10
92.7428954522
 20
98.8533240371
 30
0.0
 10
92.3891190861
 20
98.2077129196
 30
0.0
 10
91.8350683236
 20
97.6475886988
 30
0.0
 10
91.372064338
 20
97.3597160689
 30
0.0
 10
91.1200117256
 20
97.2349194017
 30
0.0
  0
SPLINE
  5
4A3
100
AcDbEntity
  8
0
100
AcDbSpline
 62
7
  6
CONTINUOUS
 70
0
 71
3
 72
9
 73
5
 74
0
 42
0.0000001
 43
0.0000001
 44
0.0000000001
 40
0.0
 40
0.0
 40
0.0
 40
0.0
 40
0.4402133985
 40
1.0
 40
1.0
 40
1.0
 40
1.0
 10
118.3955003246
 20
92.1978974396
 30
0.0
 10
118.3955003246
 20
92.2349841817
 30
0.0
 10
118.3383838616
 20
92.3157449622
 30
0.0
 10
118.2506607731
 20
92.3336619416
 30
0.0
 10
118.2035003246
 20
92.3336619416
 30
0.0
  0
SPLINE
  5
4A4
100
AcDbEntity
  8
0
100
AcDbSpline
 62
7
  6
CONTINUOUS
 70
0
 71
3
 72
9
 73
5
 74
0
 42
0.0000001
 43
0.0000001
 44
0.0000000001
 40
0.0
 40
0.0
 40
0.0
 40
0.0
 40
0.538986273
 40
1.0
 40
1.0
 40
1.0
 40
1.0
 10
121.8755003246
 20
87.2990616595
 30
0.0
 10
122.057352036
 20
87.2990616595
 30
0.0
 10
122.3985209743
 20
87.3629012396
 30
0.0
 10
122.6838942968
 20
87.5838455751
 30
0.0
 10
122.7624246758
 20
87.7181100414
 30
0.0
  0
SPLINE
  5
4A5
100
AcDbEntity
  8
0
100
AcDbSpline
 62
7
  6
CONTINUOUS
 70
0
 71
3
 72
9
 73
5
 74
0
 42
0.0000001
 43
0.0000001
 44
0.0000000001
 40
0.0
 40
0.0
 40
0.0
 40
0.0
 40
0.2592261758
 40
1.0
 40
1.0
 40
1.0
 40
1.0
 10
122.7624246758
 20
87.7181100414
 30
0.0
 10
122.7742741213
 20
87.738369201
 30
0.0
 10
122.8152714584
 20
87.8191352934
 30
0.0
 10
122.8355003246
 20
87.9108153509
 30
0.0
 10
122.8355003246
 20
87.9778841695
 30
0.0
  0
SPLINE
  5
4A6
100
AcDbEntity
  8
BEZUGSACHSEN
100
AcDbSpline
 62
7
  6
CONTINUOUS
 70
0
 71
3
 72
9
 73
5
 74
0
 42
0.0000001
 43
0.0000001
 44
0.0000000001
 40
0.0
 40
0.0
 40
0.0
 40
0.0
 40
0.5000519127
 40
1.0
 40
1.0
 40
1.0
 40
1.0
 10
110.4556436461
 20
113.8528970919
 30
0.0
 10
110.6552567086
 20
114.436030152
 30
0.0
 10
110.9870123882
 20
115.6270334544
 30
0.0
 10
111.1439023261
 20
116.8553299454
 30
0.0
 10
111.1725435353
 20
117.4708878108
 30
0.0
  0
SPLINE
  5
4A7
100
AcDbEntity
  8
KONSTRUKTIONSELEMENTE
100
AcDbSpline
 62
7
  6
CONTINUOUS
 70
0
 71
3
 72
17
 73
13
 74
0
 42
0.0000001
 43
0.0000001
 44
0.0000000001
 40
0.0
 40
0.0
 40
0.0
 40
0.0
 40
0.0624765206
 40
0.1249606408
 40
0.1874588626
 40
0.2499662178
 40
0.3748703651
 40
0.4998555185
 40
0.6248739153
 40
0.7499073518
 40
0.8749496075
 40
1.0
 40
1.0
 40
1.0
 40
1.0
 10
111.185049185
 20
121.0856970919
 30
0.0
 10
111.185049185
 20
121.5430234465
 30
0.0
 10
111.2819095182
 20
122.4603676581
 30
0.0
 10
111.6942887801
 20
123.7768787783
 30
0.0
 10
112.3215794183
 20
125.0037381183
 30
0.0
 10
113.3736187302
 20
126.505672149
 30
0.0
 10
114.9884392729
 20
128.1459310997
 30
0.0
 10
117.1947285693
 20
129.7894433328
 30
0.0
 10
119.5765690622
 20
131.1649186801
 30
0.0
 10
122.0783796199
 20
132.3048316076
 30
0.0
 10
124.6664653302
 20
133.2307047011
 30
0.0
 10
126.4341196764
 20
133.7143243487
 30
0.0
 10
127.325128701
 20
133.9240779774
 30
0.0
  0
SPLINE
  5
4A8
100
AcDbEntity
  8
RUNDUNGEN
100
AcDbSpline
 62
7
  6
CONTINUOUS
 70
0
 71
3
 72
17
 73
13
 74
0
 42
0.0000001
 43
0.0000001
 44
0.0000000001
 40
0.0
 40
0.0
 40
0.0
 40
0.0
 40
0.0276647326
 40
0.0575349468
 40
0.0913022043
 40
0.1300915712
 40
0.2248637921
 40
0.343640902
 40
0.4848999831
 40
0.6450698933
 40
0.8189329156
 40
1.0
 40
1.0
 40
1.0
 40
1.0
 10
91.075128701
 20
133.0839561753
 30
0.0
 10
91.075128701
 20
133.1602767693
 30
0.0
 10
91.1004942523
 20
133.3198365071
 30
0.0
 10
91.2099993352
 20
133.5496111113
 30
0.0
 10
91.3874098297
 20
133.7719872459
 30
0.0
 10
91.7349346021
 20
134.0784185131
 30
0.0
 10
92.3450022114
 20
134.4259343911
 30
0.0
 10
93.2619200461
 20
134.773772064
 30
0.0
 10
94.3864392315
 20
135.0636460855
 30
0.0
 10
95.6805649252
 20
135.2821062823
 30
0.0
 10
97.0961441052
 20
135.4181096329
 30
0.0
 10
98.0756065237
 20
135.4486970919
 30
0.0
 10
98.575128701
 20
135.4486970919
 30
0.0
  0
SPLINE
  5
4A9
100
AcDbEntity
  8
RUNDUNGEN
100
AcDbSpline
 62
7
  6
CONTINUOUS
 70
0
 71
3
 72
17
 73
13
 74
0
 42
0.0000001
 43
0.0000001
 44
0.0000000001
 40
0.0
 40
0.0
 40
0.0
 40
0.0
 40
0.0276647326
 40
0.0575349468
 40
0.0913022043
 40
0.1300915712
 40
0.2248637921
 40
0.343640902
 40
0.4848999831
 40
0.6450698933
 40
0.8189329156
 40
1.0
 40
1.0
 40
1.0
 40
1.0
 10
182.075128701
 20
133.0839561753
 30
0.0
 10
182.075128701
 20
133.1602767693
 30
0.0
 10
182.0497631497
 20
133.3198365071
 30
0.0
 10
181.9402580668
 20
133.5496111113
 30
0.0
 10
181.7628475723
 20
133.7719872459
 30
0.0
 10
181.4153227998
 20
134.0784185131
 30
0.0
 10
180.8052551906
 20
134.4259343911
 30
0.0
 10
179.8883373559
 20
134.773772064
 30
0.0
 10
178.7638181705
 20
135.0636460855
 30
0.0
 10
177.4696924767
 20
135.2821062823
 30
0.0
 10
176.0541132967
 20
135.4181096329
 30
0.0
 10
175.0746508782
 20
135.4486970919
 30
0.0
 10
174.575128701
 20
135.4486970919
 30
0.0
  0
SPLINE
  5
4AA
100
AcDbEntity
  8
RUNDUNGEN
100
AcDbSpline
 62
7
  6
CONTINUOUS
 70
0
 71
3
 72
17
 73
13
 74
0
 42
0.0000001
 43
0.0000001
 44
0.0000000001
 40
0.0
 40
0.0
 40
0.0
 40
0.0
 40
0.0276647326
 40
0.0575349468
 40
0.0913022043
 40
0.1300915712
 40
0.2248637921
 40
0.343640902
 40
0.4848999831
 40
0.6450698933
 40
0.8189329156
 40
1.0
 40
1.0
 40
1.0
 40
1.0
 10
182.075128701
 20
140.9387702124
 30
0.0
 10
182.075128701
 20
141.0150908064
 30
0.0
 10
182.0497631497
 20
141.1746505441
 30
0.0
 10
181.9402580668
 20
141.4044251483
 30
0.0
 10
181.7628475723
 20
141.626801283
 30
0.0
 10
181.4153227998
 20
141.9332325502
 30
0.0
 10
180.8052551906
 20
142.2807484282
 30
0.0
 10
179.8883373559
 20
142.6285861011
 30
0.0
 10
178.7638181705
 20
142.9184601225
 30
0.0
 10
177.4696924767
 20
143.1369203194
 30
0.0
 10
176.0541132967
 20
143.27292367
 30
0.0
 10
175.0746508782
 20
143.303511129
 30
0.0
 10
174.575128701
 20
143.303511129
 30
0.0
  0
SPLINE
  5
4AB
100
AcDbEntity
  8
RUNDUNGEN
100
AcDbSpline
 62
7
  6
CONTINUOUS
 70
0
 71
3
 72
9
 73
5
 74
0
 42
0.0000001
 43
0.0000001
 44
0.0000000001
 40
0.0
 40
0.0
 40
0.0
 40
0.0
 40
0.4924952808
 40
1.0
 40
1.0
 40
1.0
 40
1.0
 10
118.6005052801
 20
164.9486970919
 30
0.0
 10
117.2419227516
 20
164.9486970919
 30
0.0
 10
114.4842786437
 20
164.8605412852
 30
0.0
 10
111.7261801573
 20
164.7971663203
 30
0.0
 10
110.3261930477
 20
164.7971663203
 30
0.0
  0
SPLINE
  5
4AC
100
AcDbEntity
  8
RUNDUNGEN
100
AcDbSpline
 62
7
  6
CONTINUOUS
 70
0
 71
3
 72
17
 73
13
 74
0
 42
0.0000001
 43
0.0000001
 44
0.0000000001
 40
0.0
 40
0.0
 40
0.0
 40
0.0
 40
0.0276647326
 40
0.0575349468
 40
0.0913022043
 40
0.1300915712
 40
0.2248637921
 40
0.343640902
 40
0.4848999831
 40
0.6450698933
 40
0.8189329156
 40
1.0
 40
1.0
 40
1.0
 40
1.0
 10
91.075128701
 20
140.9387702124
 30
0.0
 10
91.075128701
 20
141.0150908064
 30
0.0
 10
91.1004942523
 20
141.1746505441
 30
0.0
 10
91.2099993352
 20
141.4044251483
 30
0.0
 10
91.3874098297
 20
141.626801283
 30
0.0
 10
91.7349346021
 20
141.9332325502
 30
0.0
 10
92.3450022114
 20
142.2807484282
 30
0.0
 10
93.2619200461
 20
142.6285861011
 30
0.0
 10
94.3864392315
 20
142.9184601225
 30
0.0
 10
95.6805649252
 20
143.1369203194
 30
0.0
 10
97.0961441052
 20
143.27292367
 30
0.0
 10
98.0756065237
 20
143.303511129
 30
0.0
 10
98.575128701
 20
143.303511129
 30
0.0
  0
SPLINE
  5
4AD
100
AcDbEntity
  8
KONSTRUKTIONSELEMENTE
100
AcDbSpline
 62
7
  6
CONTINUOUS
 70
0
 71
3
 72
23
 73
19
 74
0
 42
0.0000001
 43
0.0000001
 44
0.0000000001
 40
0.0
 40
0.0
 40
0.0
 40
0.0
 40
0.1925437368
 40
0.3784994303
 40
0.5509323253
 40
0.7029105232
 40
0.7691986359
 40
0.828047618
 40
0.8788228497
 40
0.9209893419
 40
0.9387117612
 40
0.9541368626
 40
0.9672364829
 40
0.9780056863
 40
0.9864622562
 40
0.9926833284
 40
0.9969235548
 40
1.0
 40
1.0
 40
1.0
 40
1.0
 10
110.4556436461
 20
113.8528970919
 30
0.0
 10
109.9759420379
 20
112.4515365631
 30
0.0
 10
109.0955534559
 20
109.6750440213
 30
0.0
 10
107.9686799186
 20
105.5885797902
 30
0.0
 10
107.0498567418
 20
101.7708434219
 30
0.0
 10
106.4351004896
 20
98.8282855273
 30
0.0
 10
106.0518133949
 20
96.7311560556
 30
0.0
 10
105.8326627629
 20
95.3956744958
 30
0.0
 10
105.668415206
 20
94.2395045873
 30
0.0
 10
105.5718490798
 20
93.3934957837
 30
0.0
 10
105.5248261116
 20
92.8159736762
 30
0.0
 10
105.5054961315
 20
92.4606996816
 30
0.0
 10
105.4997589932
 20
92.1583241331
 30
0.0
 10
105.5076875461
 20
91.9098095602
 30
0.0
 10
105.5283458473
 20
91.7144233372
 30
0.0
 10
105.5629691079
 20
91.5733660362
 30
0.0
 10
105.609636194
 20
91.4766098441
 30
0.0
 10
105.6656655585
 20
91.4486970919
 30
0.0
 10
105.6893318756
 20
91.4486970919
 30
0.0
  0
SPLINE
  5
4AE
100
AcDbEntity
  8
KONSTRUKTIONSELEMENTE
100
AcDbSpline
 62
7
  6
CONTINUOUS
 70
0
 71
3
 72
23
 73
19
 74
0
 42
0.0000001
 43
0.0000001
 44
0.0000000001
 40
0.0
 40
0.0
 40
0.0
 40
0.0
 40
0.0030764452
 40
0.0073166716
 40
0.0135377438
 40
0.0219943137
 40
0.0327635171
 40
0.0458631374
 40
0.0612882388
 40
0.0790106581
 40
0.1211771503
 40
0.171952382
 40
0.2308013641
 40
0.2970894768
 40
0.4490676747
 40
0.6215005697
 40
0.8074562632
 40
1.0
 40
1.0
 40
1.0
 40
1.0
 10
167.4609255264
 20
91.4486970919
 30
0.0
 10
167.4845918434
 20
91.4486970919
 30
0.0
 10
167.540621208
 20
91.4766098441
 30
0.0
 10
167.5872882941
 20
91.5733660362
 30
0.0
 10
167.6219115546
 20
91.7144233372
 30
0.0
 10
167.6425698559
 20
91.9098095602
 30
0.0
 10
167.6504984088
 20
92.1583241331
 30
0.0
 10
167.6447612704
 20
92.4606996816
 30
0.0
 10
167.6254312904
 20
92.8159736762
 30
0.0
 10
167.5784083222
 20
93.3934957837
 30
0.0
 10
167.481842196
 20
94.2395045873
 30
0.0
 10
167.317594639
 20
95.3956744958
 30
0.0
 10
167.098444007
 20
96.7311560556
 30
0.0
 10
166.7151569123
 20
98.8282855273
 30
0.0
 10
166.1004006602
 20
101.7708434219
 30
0.0
 10
165.1815774834
 20
105.5885797902
 30
0.0
 10
164.0547039461
 20
109.6750440213
 30
0.0
 10
163.174315364
 20
112.4515365631
 30
0.0
 10
162.6946137558
 20
113.8528970919
 30
0.0
  0
SPLINE
  5
4AF
100
AcDbEntity
  8
KONSTRUKTIONSELEMENTE
100
AcDbSpline
 62
7
  6
CONTINUOUS
 70
0
 71
3
 72
9
 73
5
 74
0
 42
0.0000001
 43
0.0000001
 44
0.0000000001
 40
0.0
 40
0.0
 40
0.0
 40
0.0
 40
0.4999249095
 40
1.0
 40
1.0
 40
1.0
 40
1.0
 10
161.965208217
 20
118.0081970919
 30
0.0
 10
161.965208217
 20
117.3027203185
 30
0.0
 10
162.0973972823
 20
115.888801049
 30
0.0
 10
162.4660678452
 20
114.5205521774
 30
0.0
 10
162.6946137558
 20
113.8528970919
 30
0.0
  0
SPLINE
  5
4B0
100
AcDbEntity
  8
KONSTRUKTIONSELEMENTE
100
AcDbSpline
 62
7
  6
CONTINUOUS
 70
0
 71
3
 72
17
 73
13
 74
0
 42
0.0000001
 43
0.0000001
 44
0.0000000001
 40
0.0
 40
0.0
 40
0.0
 40
0.0
 40
0.1250501132
 40
0.2500925254
 40
0.3751263995
 40
0.5001452291
 40
0.6251307079
 40
0.7500347905
 40
0.8125419213
 40
0.8750398546
 40
0.9375238334
 40
1.0
 40
1.0
 40
1.0
 40
1.0
 10
145.825128701
 20
133.9240779774
 30
0.0
 10
146.7161357311
 20
133.7143248182
 30
0.0
 10
148.4837893229
 20
133.2307058793
 30
0.0
 10
151.07187729
 20
132.3048323078
 30
0.0
 10
153.5736949218
 20
131.1649166209
 30
0.0
 10
155.9555415918
 20
129.7894343534
 30
0.0
 10
158.1618335334
 20
128.1459171769
 30
0.0
 10
159.7766521021
 20
126.5056557987
 30
0.0
 10
160.8286866273
 20
125.003723643
 30
0.0
 10
161.45597352
 20
123.7768677421
 30
0.0
 10
161.86834817
 20
122.460361278
 30
0.0
 10
161.965208217
 20
121.5430208536
 30
0.0
 10
161.965208217
 20
121.0856970919
 30
0.0
  0
SPLINE
  5
4B1
100
AcDbEntity
  8
RUNDUNGEN
100
AcDbSpline
 62
7
  6
CONTINUOUS
 70
0
 71
3
 72
9
 73
5
 74
0
 42
0.0000001
 43
0.0000001
 44
0.0000000001
 40
0.0
 40
0.0
 40
0.0
 40
0.0
 40
0.5075045585
 40
1.0
 40
1.0
 40
1.0
 40
1.0
 10
162.8240643542
 20
164.7971663203
 30
0.0
 10
161.4240727159
 20
164.7971663203
 30
0.0
 10
158.665964445
 20
164.8605420818
 30
0.0
 10
155.9083105217
 20
164.9486970919
 30
0.0
 10
154.549722725
 20
164.9486970919
 30
0.0
  0
SPLINE
  5
4B2
100
AcDbEntity
  8
RUNDUNGEN
100
AcDbSpline
 62
7
  6
CONTINUOUS
 70
0
 71
3
 72
9
 73
5
 74
0
 42
0.0000001
 43
0.0000001
 44
0.0000000001
 40
0.0
 40
0.0
 40
0.0
 40
0.0
 40
0.4911624891
 40
1.0
 40
1.0
 40
1.0
 40
1.0
 10
172.077317223
 20
164.9231292408
 30
0.0
 10
171.317533923
 20
164.8983272062
 30
0.0
 10
169.7713531003
 20
164.8288266864
 30
0.0
 10
168.2235839492
 20
164.7971663203
 30
0.0
 10
167.436039743
 20
164.7971663203
 30
0.0
  0
SPLINE
  5
4B3
100
AcDbEntity
  8
RUNDUNGEN
100
AcDbSpline
 62
7
  6
CONTINUOUS
 70
0
 71
3
 72
9
 73
5
 74
0
 42
0.0000001
 43
0.0000001
 44
0.0000000001
 40
0.0
 40
0.0
 40
0.0
 40
0.0
 40
0.5088285907
 40
1.0
 40
1.0
 40
1.0
 40
1.0
 10
105.7142169251
 20
164.7971663203
 30
0.0
 10
104.9270580176
 20
164.7971663297
 30
0.0
 10
103.3800187955
 20
164.8287946811
 30
0.0
 10
101.834566703
 20
164.8982459678
 30
0.0
 10
101.075128701
 20
164.9230577698
 30
0.0
  0
ELLIPSE
  5
4B4
100
AcDbEntity
  8
0
100
AcDbEllipse
 62
7
  6
CONTINUOUS
 10
484.3809659463
 20
154.9486970919
 30
0.0
 11
-1.0897843695
 21
9.989598968
 31
0.0
 40
0.418407714
 41
-1.6164095607
 42
-0.1918339244
  0
ELLIPSE
  5
4B5
100
AcDbEntity
  8
RUNDUNGEN
100
AcDbEllipse
 62
7
  6
CONTINUOUS
 10
504.8351873549
 20
154.9486970919
 30
0.0
 11
1.0897843695
 21
9.989598968
 31
0.0
 40
0.418407714
 41
0.1918339244
 42
1.6164095607
  0
ENDSEC
  0
SECTION
  2
OBJECTS
  0
DICTIONARY
  5
C
100
AcDbDictionary
280
0
281
1
  3
ACAD_GROUP
350
D
  3
ACAD_MLINESTYLE
350
17
  3
ACAD_LAYOUT
350
1A
  3
ACAD_PLOTSETTINGS
350
19
  3
ACAD_PLOTSTYLENAME
350
E
  0
DICTIONARY
  5
D
102
{ACAD_REACTORS
330
C
102
}
100
AcDbDictionary
280
0
281
1
  0
ACDBDICTIONARYWDFLT
  5
E
102
{ACAD_REACTORS
330
C
102
}
100
AcDbDictionary
281
1
  3
Normal
350
F
100
AcDbDictionaryWithDefault
340
F
  0
DICTIONARY
  5
17
102
{ACAD_REACTORS
330
C
102
}
100
AcDbDictionary
280
0
281
1
  3
Standard
350
18
  0
DICTIONARY
  5
19
102
{ACAD_REACTORS
330
C
102
}
100
AcDbDictionary
281
1
  0
DICTIONARY
  5
1A
102
{ACAD_REACTORS
330
C
102
}
100
AcDbDictionary
281
1
  3
Model
350
4B6
  3
Layout1
350
4B7
  0
ACDBPLACEHOLDER
  5
F
102
{ACAD_REACTORS
330
E
102
}
  0
MLINESTYLE
  5
18
102
{ACAD_REACTORS
330
17
102
}
100
AcDbMlineStyle
  2
STANDARD
 70
0
  3

 62
256
 51
90.0
 52
90.0
 71
2
 49
0.5
 62
256
  6
BYLAYER
 49
-0.5
 62
256
  6
BYLAYER
  0
LAYOUT
  5
4B6
102
{ACAD_REACTORS
330
1A
102
}
100
AcDbPlotSettings
  1

  2
none_device
  4
ISO_A2_(594.00_x_420.00_MM)
  6

 40
0.0
 41
0.0
 42
0.0
 43
0.0
 44
594.0
 45
420.0
 46
0.0
 47
0.0
 48
0.0
 49
0.0
140
0.0
141
0.0
142
1.0
143
1.0
 70
1024
 72
1
 73
0
 74
0
  7

 75
0
147
1.0
148
0.0
149
0.0
100
AcDbLayout
  1
Model
 70
0
 71
0
 10
0.0
 20
0.0
 11
594.0
 21
420.0
 12
0.0
 22
0.0
 32
0.0
 14
0.0
 24
0.0
 34
0.0
 15
0.0
 25
0.0
 35
0.0
146
0.0
 13
0.0
 23
0.0
 33
0.0
 16
1.0
 26
0.0
 36
0.0
 17
0.0
 27
1.0
 37
0.0
 76
0
330
20A
345
0
346
0
  0
LAYOUT
  5
4B7
102
{ACAD_REACTORS
330
1A
102
}
100
AcDbPlotSettings
  1

  2
none_device
  4
ISO_A2_(594.00_x_420.00_MM)
  6

 40
0.0
 41
0.0
 42
0.0
 43
0.0
 44
594.0
 45
420.0
 46
0.0
 47
0.0
 48
0.0
 49
0.0
140
0.0
141
0.0
142
1.0
143
1.0
 70
0
 72
1
 73
0
 74
0
  7

 75
0
147
1.0
148
0.0
149
0.0
100
AcDbLayout
  1
Layout1
 70
0
 71
1
 10
0.0
 20
0.0
 11
594.0
 21
420.0
 12
0.0
 22
0.0
 32
0.0
 14
0.0
 24
0.0
 34
0.0
 15
0.0
 25
0.0
 35
0.0
146
0.0
 13
0.0
 23
0.0
 33
0.0
 16
1.0
 26
0.0
 36
0.0
 17
0.0
 27
1.0
 37
0.0
 76
0
330
20B
345
0
346
0
  0
ENDSEC
  0
EOF
