999
DXF file: IBK-RG-1-13_7903044_M34546-P-4.dxf
999
Pro/ENGINEER 2010140 by Parametric Technology Corporation
  0
SECTION
  2
HEADER
  9
$ACADVER
  1
AC1015
  9
$DWGCODEPAGE
  3
ANSI_1252
  9
$EXTMAX
 10
594.0
 20
420.0
 30
0.0
  9
$EXTMIN
 10
0.0
 20
0.0
 30
0.0
  9
$LIMMIN
 10
0.0
 20
0.0
  9
$LIMMAX
 10
594.0
 20
420.0
  9
$VIEWCTR
 10
297.0
 20
210.0
  9
$VIEWSIZE
 40
420.0
  9
$CLAYER
  8
0
  9
$LTSCALE
 40
32.67
  9
$CELTYPE
  6
BYLAYER
  9
$DIMSCALE
 40
1.0
  9
$DIMASZ
 40
3.5
  9
$DIMEXO
 40
3.7125
  9
$DIMDLI
 40
22.572
  9
$DIMEXE
 40
10.692
  9
$DIMCEN
 40
5.346
  9
$DIMLFAC
 40
1.0
  9
$DIMBLK
  1
_FILLED
  9
$DIMTXT
 40
3.5
  9
$DIMTOL
 70
1
  9
$DIMLIM
 70
0
  9
$DIMTFAC
 40
1.0
  9
$DIMTP
 40
0.005
  9
$DIMTM
 40
0.005
  9
$PDMODE
 70
3
  9
$PDSIZE
 40
0.3125
  9
$HANDSEED
  5
4B2
  9
$TILEMODE
 70
1
  9
$MEASUREMENT
 70
1
  9
$INSUNITS
 70
4
  0
ENDSEC
  0
SECTION
  2
CLASSES
  0
CLASS
  1
ACDBDICTIONARYWDFLT
  2
AcDbDictionaryWithDefault
  3
AutoCAD 2000
 90
0
280
0
281
0
  0
CLASS
  1
ACDBPLACEHOLDER
  2
AcDbPlaceHolder
  3
AutoCAD 2000
 90
0
280
0
281
0
  0
CLASS
  1
LAYOUT
  2
AcDbLayout
  3
AutoCAD 2000
 90
0
280
0
281
0
  0
ENDSEC
  0
SECTION
  2
TABLES
  0
TABLE
  2
VPORT
  5
8
100
AcDbSymbolTable
 70
2
  0
VPORT
  5
1F4
100
AcDbSymbolTableRecord
100
AcDbViewportTableRecord
  2
*ACTIVE
 70
0
 10
0.0
 20
0.0
 11
1.0
 21
1.0
 12
297.0
 22
210.0
 13
0.0
 23
0.0
 14
1.0
 24
1.0
 15
0.0
 25
0.0
 16
0.0
 26
0.0
 36
1.0
 17
0.0
 27
0.0
 37
0.0
 40
420.0
 41
1.4142857143
 42
50.0
 43
0.0
 44
0.0
 50
0.0
 51
0.0
 71
0
 72
100
 73
1
 74
1
 75
0
 76
0
 77
0
 78
0
  0
ENDTAB
  0
TABLE
  2
LTYPE
  5
5
100
AcDbSymbolTable
 70
6
  0
LTYPE
  5
14
100
AcDbSymbolTableRecord
100
AcDbLinetypeTableRecord
  2
BYBLOCK
 70
0
  3

 72
65
 73
0
 40
0.0
  0
LTYPE
  5
15
100
AcDbSymbolTableRecord
100
AcDbLinetypeTableRecord
  2
BYLAYER
 70
0
  3

 72
65
 73
0
 40
0.0
  0
LTYPE
  5
16
100
AcDbSymbolTableRecord
100
AcDbLinetypeTableRecord
  2
CONTINUOUS
 70
64
  3
Solid line
 72
65
 73
0
 40
0.0
  0
LTYPE
  5
1F5
100
AcDbSymbolTableRecord
100
AcDbLinetypeTableRecord
  2
CENTER
 70
64
  3
____ _ ____ _ ____ _ ____ _ ____ _ ____ _ ____
 72
65
 73
4
 40
0.6
 49
0.375
 74
0
 49
-0.075
 74
0
 49
0.075
 74
0
 49
-0.075
 74
0
  0
LTYPE
  5
1F6
100
AcDbSymbolTableRecord
100
AcDbLinetypeTableRecord
  2
HIDDEN
 70
64
  3
- - - - - - - - - - - - - - - - - - - -
 72
65
 73
2
 40
0.2
 49
0.1
 74
0
 49
-0.1
 74
0
  0
LTYPE
  5
1F7
100
AcDbSymbolTableRecord
100
AcDbLinetypeTableRecord
  2
PHANTOM
 70
64
  3
_____ _ _ _____ _ _ _____ _ _ _____
 72
65
 73
6
 40
0.8
 49
0.45
 74
0
 49
-0.05
 74
0
 49
0.1
 74
0
 49
-0.05
 74
0
 49
0.1
 74
0
 49
-0.05
 74
0
  0
LTYPE
  5
1F8
100
AcDbSymbolTableRecord
100
AcDbLinetypeTableRecord
  2
DOT
 70
64
  3
. . . . . . . . . . . . . . . . . . . .
 72
65
 73
2
 40
0.2
 49
0.1
 74
0
 49
-0.1
 74
0
  0
LTYPE
  5
1F9
100
AcDbSymbolTableRecord
100
AcDbLinetypeTableRecord
  2
DASHED
 70
64
  3
- - - - - - - - - - - - - - - - - - - -
 72
65
 73
2
 40
0.2
 49
0.1
 74
0
 49
-0.1
 74
0
  0
ENDTAB
  0
TABLE
  2
LAYER
  5
2
100
AcDbSymbolTable
 70
36
  0
LAYER
  5
10
100
AcDbSymbolTableRecord
100
AcDbLayerTableRecord
  2
0
 70
0
 62
7
  6
CONTINUOUS
370
-3
390
F
  0
LAYER
  5
1FA
100
AcDbSymbolTableRecord
100
AcDbLayerTableRecord
  2
DEFAULT_1
 70
0
 62
7
  6
CENTER
370
-3
390
F
  0
LAYER
  5
1FB
100
AcDbSymbolTableRecord
100
AcDbLayerTableRecord
  2
DEFAULT_2
 70
0
 62
8
  6
HIDDEN
370
-3
390
F
  0
LAYER
  5
1FC
100
AcDbSymbolTableRecord
100
AcDbLayerTableRecord
  2
DEFAULT_3
 70
0
 62
7
  6
PHANTOM
370
-3
390
F
  0
LAYER
  5
1FD
100
AcDbSymbolTableRecord
100
AcDbLayerTableRecord
  2
BEZUGSACHSEN
 70
0
 62
7
  6
CONTINUOUS
370
-3
390
F
  0
LAYER
  5
1FE
100
AcDbSymbolTableRecord
100
AcDbLayerTableRecord
  2
BEZUGSEBENEN
 70
0
 62
7
  6
CONTINUOUS
370
-3
390
F
  0
LAYER
  5
1FF
100
AcDbSymbolTableRecord
100
AcDbLayerTableRecord
  2
BG_STARTBEZUEGE
 70
0
 62
7
  6
CONTINUOUS
370
-3
390
F
  0
LAYER
  5
200
100
AcDbSymbolTableRecord
100
AcDbLayerTableRecord
  2
FASEN
 70
0
 62
7
  6
CONTINUOUS
370
-3
390
F
  0
LAYER
  5
201
100
AcDbSymbolTableRecord
100
AcDbLayerTableRecord
  2
HILFEN
 70
0
 62
7
  6
CONTINUOUS
370
-3
390
F
  0
LAYER
  5
202
100
AcDbSymbolTableRecord
100
AcDbLayerTableRecord
  2
KONSTRUKTIONSELEMENTE
 70
0
 62
7
  6
CONTINUOUS
370
-3
390
F
  0
LAYER
  5
203
100
AcDbSymbolTableRecord
100
AcDbLayerTableRecord
  2
NORM
 70
0
 62
7
  6
CONTINUOUS
370
-3
390
F
  0
LAYER
  5
204
100
AcDbSymbolTableRecord
100
AcDbLayerTableRecord
  2
PLATZIERUNG
 70
0
 62
7
  6
CONTINUOUS
370
-3
390
F
  0
LAYER
  5
205
100
AcDbSymbolTableRecord
100
AcDbLayerTableRecord
  2
RUNDUNGEN
 70
0
 62
7
  6
CONTINUOUS
370
-3
390
F
  0
LAYER
  5
206
100
AcDbSymbolTableRecord
100
AcDbLayerTableRecord
  2
TEIL_STARTBEZUEGE
 70
0
 62
7
  6
CONTINUOUS
370
-3
390
F
  0
LAYER
  5
207
100
AcDbSymbolTableRecord
100
AcDbLayerTableRecord
  2
T_STARTBEZUEGE
 70
0
 62
7
  6
CONTINUOUS
370
-3
390
F
  0
ENDTAB
  0
TABLE
  2
STYLE
  5
3
100
AcDbSymbolTable
 70
1
  0
STYLE
  5
11
100
AcDbSymbolTableRecord
100
AcDbTextStyleTableRecord
  2
STANDARD
 70
0
 40
0.0
 41
0.7
 50
0.0
 71
0
 42
0.2
  3
txt
  4

  0
STYLE
  5
208
100
AcDbSymbolTableRecord
100
AcDbTextStyleTableRecord
  2
TEXTSTYLE_1
 70
0
 40
0.0
 41
0.8
 50
0.0
 71
0
 42
0.2
  3
gdt
  4

  0
ENDTAB
  0
TABLE
  2
VIEW
  5
6
100
AcDbSymbolTable
 70
0
  0
ENDTAB
  0
TABLE
  2
UCS
  5
7
100
AcDbSymbolTable
 70
0
  0
ENDTAB
  0
TABLE
  2
APPID
  5
9
100
AcDbSymbolTable
 70
1
  0
APPID
  5
209
100
AcDbSymbolTableRecord
100
AcDbRegAppTableRecord
  2
ACAD
 70
0
  0
ENDTAB
  0
TABLE
  2
BLOCK_RECORD
  5
1
100
AcDbSymbolTable
 70
0
  0
BLOCK_RECORD
  5
20A
100
AcDbSymbolTableRecord
100
AcDbBlockTableRecord
  2
*Model_Space
  0
BLOCK_RECORD
  5
20B
100
AcDbSymbolTableRecord
100
AcDbBlockTableRecord
  2
*Paper_Space
  0
ENDTAB
  0
TABLE
  2
DIMSTYLE
  5
A
100
AcDbSymbolTable
 70
1
100
AcDbDimStyleTable
 71
0
  0
DIMSTYLE
105
20C
100
AcDbSymbolTableRecord
100
AcDbDimStyleTableRecord
  2
STANDARD
 70
0
  3

  4

 40
1.0
 41
3.5
 42
0.0625
 43
0.38
 44
0.18
 45
0.0
 46
0.0
 47
0.005
 48
0.005
140
3.5
141
0.09
142
0.0
143
25.4
144
1.0
145
0.0
146
1.0
147
0.09
 71
1.0
 72
0.0
 73
0
 74
0
 75
0
 76
0
 77
1
 78
8
170
0
171
2
172
0
173
0
174
0
175
0
176
0
177
0
178
5
270
2
271
3
272
3
273
2
274
2
275
0
280
0
281
0
282
0
283
1
284
8
285
0
286
0
287
3
288
0
340
11
  0
ENDTAB
  0
ENDSEC
  0
SECTION
  2
BLOCKS
  0
BLOCK
  5
20
100
AcDbEntity
  8
0
100
AcDbBlockBegin
  2
*Model_Space
 70
0
 10
0.0
 20
0.0
 30
0.0
  3
*Model_Space
  1

  0
ENDBLK
  5
21
100
AcDbEntity
  8
0
100
AcDbBlockEnd
  0
BLOCK
  5
1C
100
AcDbEntity
  8
0
100
AcDbBlockBegin
  2
*Paper_Space
 70
0
 10
0.0
 20
0.0
 30
0.0
  3
*Paper_Space
  1

  0
ENDBLK
  5
1D
100
AcDbEntity
  8
0
100
AcDbBlockEnd
  0
ENDSEC
  0
SECTION
  2
ENTITIES
  0
MTEXT
  5
20D
100
AcDbEntity
  8
0
100
AcDbMText
 62
5
  6
CONTINUOUS
  7
STANDARD
 71
1
 72
1
 10
426.9552239527
 20
275.7872639635
 30
0.0
 11
0.0
 21
1.0
 31
0.0
 44
0.9
  1
RUD
 40
8.0
 41
21.3333333333
  0
MTEXT
  5
20E
100
AcDbEntity
  8
0
100
AcDbMText
 62
5
  6
CONTINUOUS
  7
STANDARD
 71
1
 72
1
 10
517.6922330827
 20
251.8336237916
 30
0.0
 11
0.0
 21
1.0
 31
0.0
 44
0.9
  1
IBK-RG 1-13
 40
8.0
 41
64.380952381
  0
MTEXT
  5
20F
100
AcDbEntity
  8
0
100
AcDbMText
 62
5
  6
CONTINUOUS
  7
STANDARD
 71
1
 72
1
 10
111.3502953813
 20
241.7991071429
 30
0.0
 11
0.0
 21
1.0
 31
0.0
 44
0.9
  1
RUD IBK-RG 1-13
 40
8.0
 41
90.4761904762
  0
LINE
  5
210
100
AcDbEntity
  8
0
100
AcDbLine
 62
7
  6
CONTINUOUS
 10
0.0
 20
0.0
 11
0.0
 21
420.0
  0
LINE
  5
211
100
AcDbEntity
  8
0
100
AcDbLine
 62
7
  6
CONTINUOUS
 10
0.0
 20
0.0
 11
594.0
 21
0.0
  0
LINE
  5
212
100
AcDbEntity
  8
0
100
AcDbLine
 62
7
  6
CONTINUOUS
 10
0.0
 20
420.0
 11
594.0
 21
420.0
  0
LINE
  5
213
100
AcDbEntity
  8
0
100
AcDbLine
 62
7
  6
CONTINUOUS
 10
594.0
 20
0.0
 11
594.0
 21
420.0
  0
LINE
  5
214
100
AcDbEntity
  8
RUNDUNGEN
100
AcDbLine
 62
7
  6
CONTINUOUS
 10
268.2177891268
 20
35.4765959835
 11
264.6822552209
 21
39.0121298894
  0
LINE
  5
215
100
AcDbEntity
  8
RUNDUNGEN
100
AcDbLine
 62
7
  6
CONTINUOUS
 10
342.5097460939
 20
116.8396207625
 11
346.0452799999
 21
113.3040868566
  0
LINE
  5
216
100
AcDbEntity
  8
0
100
AcDbLine
 62
7
  6
CONTINUOUS
 10
475.1607361862
 20
117.2550769489
 11
477.7607361862
 21
117.2550769489
  0
LINE
  5
217
100
AcDbEntity
  8
KONSTRUKTIONSELEMENTE
100
AcDbLine
 62
7
  6
CONTINUOUS
 10
353.9191310066
 20
131.148143478
 11
350.3835971007
 21
134.683677384
  0
LINE
  5
218
100
AcDbEntity
  8
RUNDUNGEN
100
AcDbLine
 62
7
  6
CONTINUOUS
 10
359.1594116062
 20
126.4182184629
 11
355.6238777003
 21
129.9537523688
  0
LINE
  5
219
100
AcDbEntity
  8
KONSTRUKTIONSELEMENTE
100
AcDbLine
 62
7
  6
CONTINUOUS
 10
354.2726843972
 20
131.5016968686
 11
350.7371504913
 21
135.0372307745
  0
LINE
  5
21A
100
AcDbEntity
  8
0
100
AcDbLine
 62
7
  6
CONTINUOUS
 10
466.3608782328
 20
127.0050769489
 11
486.5605941396
 21
127.0050769489
  0
LINE
  5
21B
100
AcDbEntity
  8
0
100
AcDbLine
 62
7
  6
CONTINUOUS
 10
473.2107361862
 20
149.8272177748
 11
479.7107361862
 21
149.8272177748
  0
LINE
  5
21C
100
AcDbEntity
  8
0
100
AcDbLine
 62
7
  6
CONTINUOUS
 10
479.7107361862
 20
157.6163275485
 11
473.2107361862
 21
157.6163275485
  0
LINE
  5
21D
100
AcDbEntity
  8
0
100
AcDbLine
 62
7
  6
CONTINUOUS
 10
471.9807969465
 20
174.1001666881
 11
480.9406754259
 21
174.1001666881
  0
LINE
  5
21E
100
AcDbEntity
  8
0
100
AcDbLine
 62
7
  6
CONTINUOUS
 10
473.1290180013
 20
196.2550769489
 11
479.7924543711
 21
196.2550769489
  0
LINE
  5
21F
100
AcDbEntity
  8
KONSTRUKTIONSELEMENTE
100
AcDbLine
 62
7
  6
CONTINUOUS
 10
415.0838675792
 20
192.3128800507
 11
411.5483336733
 21
195.8484139566
  0
LINE
  5
220
100
AcDbEntity
  8
KONSTRUKTIONSELEMENTE
100
AcDbLine
 62
7
  6
CONTINUOUS
 10
415.4374209698
 20
192.6664334412
 11
411.9018870639
 21
196.2019673472
  0
LINE
  5
221
100
AcDbEntity
  8
0
100
AcDbLine
 62
7
  6
CONTINUOUS
 10
473.1290180013
 20
218.4099872096
 11
479.7924543711
 21
218.4099872096
  0
LINE
  5
222
100
AcDbEntity
  8
0
100
AcDbLine
 62
7
  6
CONTINUOUS
 10
417.9607361862
 20
247.2550769489
 11
417.9607361862
 21
322.2550769489
  0
LINE
  5
223
100
AcDbEntity
  8
KONSTRUKTIONSELEMENTE
100
AcDbLine
 62
7
  6
CONTINUOUS
 10
415.9323957167
 20
200.2324759999
 11
411.9018870639
 21
196.2019673472
  0
LINE
  5
224
100
AcDbEntity
  8
KONSTRUKTIONSELEMENTE
100
AcDbLine
 62
7
  6
CONTINUOUS
 10
411.5483336733
 20
195.8484139566
 11
407.5178250205
 21
191.8179053038
  0
LINE
  5
225
100
AcDbEntity
  8
KONSTRUKTIONSELEMENTE
100
AcDbLine
 62
7
  6
CONTINUOUS
 10
354.767659144
 20
139.0677394273
 11
350.7371504913
 21
135.0372307745
  0
LINE
  5
226
100
AcDbEntity
  8
KONSTRUKTIONSELEMENTE
100
AcDbLine
 62
7
  6
CONTINUOUS
 10
350.3835971007
 20
134.683677384
 11
346.3530884479
 21
130.6531687312
  0
LINE
  5
227
100
AcDbEntity
  8
KONSTRUKTIONSELEMENTE
100
AcDbLine
 62
7
  6
CONTINUOUS
 10
387.3652817567
 20
169.4733310183
 11
376.7586800389
 21
158.8667293005
  0
LINE
  5
228
100
AcDbEntity
  8
KONSTRUKTIONSELEMENTE
100
AcDbLine
 62
7
  6
CONTINUOUS
 10
419.4679296226
 20
196.696942094
 11
415.4374209698
 21
192.6664334412
  0
LINE
  5
229
100
AcDbEntity
  8
KONSTRUKTIONSELEMENTE
100
AcDbLine
 62
7
  6
CONTINUOUS
 10
415.0838675792
 20
192.3128800507
 11
411.0533589265
 21
188.2823713979
  0
LINE
  5
22A
100
AcDbEntity
  8
KONSTRUKTIONSELEMENTE
100
AcDbLine
 62
7
  6
CONTINUOUS
 10
358.30319305
 20
135.5322055214
 11
354.2726843972
 21
131.5016968686
  0
LINE
  5
22B
100
AcDbEntity
  8
KONSTRUKTIONSELEMENTE
100
AcDbLine
 62
7
  6
CONTINUOUS
 10
353.9191310066
 20
131.148143478
 11
349.8886223538
 21
127.1176348253
  0
LINE
  5
22C
100
AcDbEntity
  8
KONSTRUKTIONSELEMENTE
100
AcDbLine
 62
7
  6
CONTINUOUS
 10
390.5472622721
 20
166.291350503
 11
379.9406605543
 21
155.6847487852
  0
LINE
  5
22D
100
AcDbEntity
  8
KONSTRUKTIONSELEMENTE
100
AcDbLine
 62
7
  6
CONTINUOUS
 10
420.2457470819
 20
195.9898353128
 11
453.4333012693
 21
229.1773895002
  0
LINE
  5
22E
100
AcDbEntity
  8
RUNDUNGEN
100
AcDbLine
 62
7
  6
CONTINUOUS
 10
264.6822552209
 20
39.0121298894
 11
355.624041306
 21
129.9539159746
  0
LINE
  5
22F
100
AcDbEntity
  8
KONSTRUKTIONSELEMENTE
100
AcDbLine
 62
7
  6
CONTINUOUS
 10
361.2023308528
 20
135.1786521308
 11
379.911015828
 21
153.887337106
  0
LINE
  5
230
100
AcDbEntity
  8
KONSTRUKTIONSELEMENTE
100
AcDbLine
 62
7
  6
CONTINUOUS
 10
392.315029225
 20
166.291350503
 11
411.0237142002
 21
185.0000354782
  0
LINE
  5
231
100
AcDbEntity
  8
KONSTRUKTIONSELEMENTE
100
AcDbLine
 62
7
  6
CONTINUOUS
 10
364.3843113682
 20
131.9966716154
 11
383.0929963433
 21
150.7053565906
  0
LINE
  5
232
100
AcDbEntity
  8
KONSTRUKTIONSELEMENTE
100
AcDbLine
 62
7
  6
CONTINUOUS
 10
395.4970097404
 20
163.1093699877
 11
414.2056947155
 21
181.8180549628
  0
LINE
  5
233
100
AcDbEntity
  8
RUNDUNGEN
100
AcDbLine
 62
7
  6
CONTINUOUS
 10
268.2177891268
 20
35.4765959835
 11
359.1595634382
 21
126.4183702949
  0
LINE
  5
234
100
AcDbEntity
  8
KONSTRUKTIONSELEMENTE
100
AcDbLine
 62
7
  6
CONTINUOUS
 10
384.8904080226
 20
150.7350013169
 11
395.4970097404
 21
161.3416030347
  0
LINE
  5
235
100
AcDbEntity
  8
KONSTRUKTIONSELEMENTE
100
AcDbLine
 62
7
  6
CONTINUOUS
 10
425.2419590786
 20
191.0865523729
 11
458.3830487376
 21
224.2276420319
  0
LINE
  5
236
100
AcDbEntity
  8
KONSTRUKTIONSELEMENTE
100
AcDbLine
 62
7
  6
CONTINUOUS
 10
356.3232940626
 20
120.6829631165
 11
364.7378647588
 21
129.0975338126
  0
LINE
  5
237
100
AcDbEntity
  8
KONSTRUKTIONSELEMENTE
100
AcDbLine
 62
7
  6
CONTINUOUS
 10
417.4880306353
 20
181.8476996891
 11
425.9026013314
 21
190.2622703852
  0
LINE
  5
238
100
AcDbEntity
  8
0
100
AcDbLine
 62
7
  6
CONTINUOUS
 10
473.1290180013
 20
234.6285071576
 11
479.7924543711
 21
234.6285071576
  0
LINE
  5
239
100
AcDbEntity
  8
0
100
AcDbLine
 62
7
  6
CONTINUOUS
 10
443.9607361862
 20
247.2550769489
 11
443.9607361862
 21
322.2550769489
  0
LINE
  5
23A
100
AcDbEntity
  8
KONSTRUKTIONSELEMENTE
100
AcDbLine
 62
7
  6
CONTINUOUS
 10
388.0723885379
 20
147.5530208015
 11
398.6789902557
 21
158.1596225193
  0
LINE
  5
23B
100
AcDbEntity
  8
KONSTRUKTIONSELEMENTE
100
AcDbLine
 62
7
  6
CONTINUOUS
 10
359.8588279686
 20
117.1474292105
 11
368.2733986647
 21
125.5619999066
  0
LINE
  5
23C
100
AcDbEntity
  8
KONSTRUKTIONSELEMENTE
100
AcDbLine
 62
7
  6
CONTINUOUS
 10
421.0235645412
 20
178.3121657832
 11
429.4381352373
 21
186.7267364793
  0
LINE
  5
23D
100
AcDbEntity
  8
0
100
AcDbLine
 62
7
  6
CONTINUOUS
 10
479.7924543711
 20
240.5648974704
 11
473.1290180013
 21
240.5648974704
  0
LINE
  5
23E
100
AcDbEntity
  8
0
100
AcDbLine
 62
7
  6
CONTINUOUS
 10
456.9607361862
 20
135.4550769489
 11
456.9607361862
 21
153.2550769489
  0
LINE
  5
23F
100
AcDbEntity
  8
0
100
AcDbLine
 62
7
  6
CONTINUOUS
 10
467.7323966882
 20
228.0055555326
 11
473.1290180013
 21
240.5648974704
  0
LINE
  5
240
100
AcDbEntity
  8
RUNDUNGEN
100
AcDbLine
 62
7
  6
CONTINUOUS
 10
495.9607361862
 20
153.2550769489
 11
490.4607361862
 21
161.1098909859
  0
LINE
  5
241
100
AcDbEntity
  8
0
100
AcDbLine
 62
7
  6
CONTINUOUS
 10
473.2107361862
 20
149.8272177748
 11
471.7238218968
 21
169.7550769489
  0
LINE
  5
242
100
AcDbEntity
  8
0
100
AcDbLine
 62
7
  6
CONTINUOUS
 10
473.2107361862
 20
157.6163275485
 11
471.9807969465
 21
174.1001666881
  0
LINE
  5
243
100
AcDbEntity
  8
0
100
AcDbLine
 62
7
  6
CONTINUOUS
 10
462.4607361862
 20
171.7550769489
 11
462.4607361862
 21
161.1098909859
  0
LINE
  5
244
100
AcDbEntity
  8
0
100
AcDbLine
 62
7
  6
CONTINUOUS
 10
466.9607361862
 20
191.3929279742
 11
466.9607361862
 21
177.5645519682
  0
LINE
  5
245
100
AcDbEntity
  8
BEZUGSACHSEN
100
AcDbLine
 62
7
  6
CONTINUOUS
 10
466.9607361862
 20
191.3929279742
 11
466.9607361862
 21
224.2550769489
  0
LINE
  5
246
100
AcDbEntity
  8
0
100
AcDbLine
 62
7
  6
CONTINUOUS
 10
473.2107361862
 20
157.6163275485
 11
473.2107361862
 21
149.8272177748
  0
LINE
  5
247
100
AcDbEntity
  8
0
100
AcDbLine
 62
7
  6
CONTINUOUS
 10
472.5505130791
 20
188.7945453697
 11
471.9807969465
 21
174.1001666881
  0
LINE
  5
248
100
AcDbEntity
  8
0
100
AcDbLine
 62
7
  6
CONTINUOUS
 10
480.3709592934
 20
188.7945453697
 11
480.9406754259
 21
174.1001666881
  0
LINE
  5
249
100
AcDbEntity
  8
0
100
AcDbLine
 62
7
  6
CONTINUOUS
 10
479.7107361862
 20
157.6163275485
 11
479.7107361862
 21
149.8272177748
  0
LINE
  5
24A
100
AcDbEntity
  8
RUNDUNGEN
100
AcDbLine
 62
7
  6
CONTINUOUS
 10
485.9607361862
 20
191.3929279742
 11
485.9607361862
 21
177.5645519682
  0
LINE
  5
24B
100
AcDbEntity
  8
BEZUGSACHSEN
100
AcDbLine
 62
7
  6
CONTINUOUS
 10
485.9607361862
 20
191.3929279742
 11
485.9607361862
 21
224.2550769489
  0
LINE
  5
24C
100
AcDbEntity
  8
0
100
AcDbLine
 62
7
  6
CONTINUOUS
 10
479.7107361862
 20
157.6163275485
 11
480.9406754259
 21
174.1001666881
  0
LINE
  5
24D
100
AcDbEntity
  8
RUNDUNGEN
100
AcDbLine
 62
7
  6
CONTINUOUS
 10
479.7107361862
 20
149.8272177748
 11
481.1976504756
 21
169.7550769489
  0
LINE
  5
24E
100
AcDbEntity
  8
0
100
AcDbLine
 62
7
  6
CONTINUOUS
 10
456.9607361862
 20
153.2550769489
 11
462.4607361862
 21
161.1098909859
  0
LINE
  5
24F
100
AcDbEntity
  8
KONSTRUKTIONSELEMENTE
100
AcDbLine
 62
7
  6
CONTINUOUS
 10
479.7924543711
 20
240.5648974704
 11
485.1890756843
 21
228.0055555326
  0
LINE
  5
250
100
AcDbEntity
  8
RUNDUNGEN
100
AcDbLine
 62
7
  6
CONTINUOUS
 10
490.4607361862
 20
171.7550769489
 11
490.4607361862
 21
161.1098909859
  0
LINE
  5
251
100
AcDbEntity
  8
RUNDUNGEN
100
AcDbLine
 62
7
  6
CONTINUOUS
 10
495.9607361862
 20
135.4550769489
 11
495.9607361862
 21
153.2550769489
  0
LINE
  5
252
100
AcDbEntity
  8
0
100
AcDbLine
 62
7
  6
CONTINUOUS
 10
508.9607361862
 20
322.2550769489
 11
508.9607361862
 21
247.2550769489
  0
LINE
  5
253
100
AcDbEntity
  8
0
100
AcDbLine
 62
7
  6
CONTINUOUS
 10
534.9607361862
 20
322.2550769489
 11
534.9607361862
 21
247.2550769489
  0
LINE
  5
254
100
AcDbEntity
  8
RUNDUNGEN
100
AcDbLine
 62
7
  6
CONTINUOUS
 10
77.8744528305
 20
35.4765959835
 11
81.3744528305
 21
35.4765959835
  0
LINE
  5
255
100
AcDbEntity
  8
RUNDUNGEN
100
AcDbLine
 62
7
  6
CONTINUOUS
 10
150.3744528305
 20
35.4765959835
 11
153.8744528305
 21
35.4765959835
  0
LINE
  5
256
100
AcDbEntity
  8
RUNDUNGEN
100
AcDbLine
 62
7
  6
CONTINUOUS
 10
87.8744528305
 20
46.0831977013
 11
96.7298686187
 21
46.0831977013
  0
LINE
  5
257
100
AcDbEntity
  8
RUNDUNGEN
100
AcDbLine
 62
7
  6
CONTINUOUS
 10
135.0190370424
 20
46.0831977013
 11
143.8744528305
 21
46.0831977013
  0
LINE
  5
258
100
AcDbEntity
  8
0
100
AcDbLine
 62
7
  6
CONTINUOUS
 10
97.6910047747
 20
99.3990490027
 11
103.9310047747
 21
99.3990490027
  0
LINE
  5
259
100
AcDbEntity
  8
0
100
AcDbLine
 62
7
  6
CONTINUOUS
 10
107.2405464666
 20
99.3990490027
 11
108.4885464666
 21
99.3990490027
  0
LINE
  5
25A
100
AcDbEntity
  8
0
100
AcDbLine
 62
7
  6
CONTINUOUS
 10
114.4333865586
 20
99.3990490027
 11
115.8744528305
 21
99.3990490027
  0
LINE
  5
25B
100
AcDbEntity
  8
0
100
AcDbLine
 62
7
  6
CONTINUOUS
 10
126.7329224354
 20
99.3990490027
 11
131.2542796233
 21
99.3990490027
  0
LINE
  5
25C
100
AcDbEntity
  8
0
100
AcDbLine
 62
7
  6
CONTINUOUS
 10
97.6910047747
 20
99.8586684105
 11
103.9310047747
 21
99.8586684105
  0
LINE
  5
25D
100
AcDbEntity
  8
0
100
AcDbLine
 62
7
  6
CONTINUOUS
 10
107.2405464666
 20
99.8586684105
 11
108.4885464666
 21
99.8586684105
  0
LINE
  5
25E
100
AcDbEntity
  8
0
100
AcDbLine
 62
7
  6
CONTINUOUS
 10
114.4333865586
 20
99.8586684105
 11
115.4991751555
 21
99.8586684105
  0
LINE
  5
25F
100
AcDbEntity
  8
0
100
AcDbLine
 62
7
  6
CONTINUOUS
 10
126.7329224354
 20
99.8586684105
 11
131.2542796233
 21
99.8586684105
  0
LINE
  5
260
100
AcDbEntity
  8
0
100
AcDbLine
 62
7
  6
CONTINUOUS
 10
131.2816270446
 20
100.3182878183
 11
127.9809224354
 21
100.3182878183
  0
LINE
  5
261
100
AcDbEntity
  8
0
100
AcDbLine
 62
7
  6
CONTINUOUS
 10
101.7860047747
 20
100.5021355814
 11
99.8360047747
 21
100.5021355814
  0
LINE
  5
262
100
AcDbEntity
  8
0
100
AcDbLine
 62
7
  6
CONTINUOUS
 10
100.1870047747
 20
100.9157930484
 11
101.4350047747
 21
100.9157930484
  0
LINE
  5
263
100
AcDbEntity
  8
0
100
AcDbLine
 62
7
  6
CONTINUOUS
 10
100.1870047747
 20
101.3754124562
 11
101.4350047747
 21
101.3754124562
  0
LINE
  5
264
100
AcDbEntity
  8
0
100
AcDbLine
 62
7
  6
CONTINUOUS
 10
100.9475047747
 20
102.018879627
 11
100.6745047747
 21
102.018879627
  0
LINE
  5
265
100
AcDbEntity
  8
0
100
AcDbLine
 62
7
  6
CONTINUOUS
 10
101.4350047747
 20
102.2946512717
 11
101.1035047747
 21
102.2946512717
  0
LINE
  5
266
100
AcDbEntity
  8
0
100
AcDbLine
 62
7
  6
CONTINUOUS
 10
100.5185047747
 20
102.2946512717
 11
100.1870047747
 21
102.2946512717
  0
LINE
  5
267
100
AcDbEntity
  8
0
100
AcDbLine
 62
7
  6
CONTINUOUS
 10
99.8360047747
 20
102.7083087387
 11
100.5185047747
 21
102.7083087387
  0
LINE
  5
268
100
AcDbEntity
  8
0
100
AcDbLine
 62
7
  6
CONTINUOUS
 10
101.1035047747
 20
102.7083087387
 11
101.7860047747
 21
102.7083087387
  0
LINE
  5
269
100
AcDbEntity
  8
0
100
AcDbLine
 62
7
  6
CONTINUOUS
 10
108.4885464666
 20
102.8587574179
 11
111.6085464666
 21
102.8587574179
  0
LINE
  5
26A
100
AcDbEntity
  8
0
100
AcDbLine
 62
7
  6
CONTINUOUS
 10
99.8360047747
 20
103.1679281465
 11
100.5185047747
 21
103.1679281465
  0
LINE
  5
26B
100
AcDbEntity
  8
0
100
AcDbLine
 62
7
  6
CONTINUOUS
 10
101.1035047747
 20
103.1679281465
 11
101.7860047747
 21
103.1679281465
  0
LINE
  5
26C
100
AcDbEntity
  8
0
100
AcDbLine
 62
7
  6
CONTINUOUS
 10
101.7860047747
 20
103.259852028
 11
101.1035047747
 21
103.259852028
  0
LINE
  5
26D
100
AcDbEntity
  8
0
100
AcDbLine
 62
7
  6
CONTINUOUS
 10
100.5185047747
 20
103.259852028
 11
99.8360047747
 21
103.259852028
  0
LINE
  5
26E
100
AcDbEntity
  8
0
100
AcDbLine
 62
7
  6
CONTINUOUS
 10
108.4885464666
 20
103.3183768257
 11
111.6085464666
 21
103.3183768257
  0
LINE
  5
26F
100
AcDbEntity
  8
0
100
AcDbLine
 62
7
  6
CONTINUOUS
 10
100.1870047747
 20
103.673509495
 11
100.5185047747
 21
103.673509495
  0
LINE
  5
270
100
AcDbEntity
  8
0
100
AcDbLine
 62
7
  6
CONTINUOUS
 10
101.1035047747
 20
103.673509495
 11
101.4350047747
 21
103.673509495
  0
LINE
  5
271
100
AcDbEntity
  8
0
100
AcDbLine
 62
7
  6
CONTINUOUS
 10
112.1285464666
 20
103.7412266808
 11
108.4885464666
 21
103.7412266808
  0
LINE
  5
272
100
AcDbEntity
  8
0
100
AcDbLine
 62
7
  6
CONTINUOUS
 10
100.6745047747
 20
103.9492811397
 11
100.9475047747
 21
103.9492811397
  0
LINE
  5
273
100
AcDbEntity
  8
0
100
AcDbLine
 62
7
  6
CONTINUOUS
 10
100.1870047747
 20
104.1331289028
 11
100.5185047747
 21
104.1331289028
  0
LINE
  5
274
100
AcDbEntity
  8
0
100
AcDbLine
 62
7
  6
CONTINUOUS
 10
101.1035047747
 20
104.1331289028
 11
101.4350047747
 21
104.1331289028
  0
LINE
  5
275
100
AcDbEntity
  8
0
100
AcDbLine
 62
7
  6
CONTINUOUS
 10
100.6745047747
 20
104.4089005475
 11
100.9475047747
 21
104.4089005475
  0
LINE
  5
276
100
AcDbEntity
  8
0
100
AcDbLine
 62
7
  6
CONTINUOUS
 10
127.9809224354
 20
104.914481896
 11
126.7329224354
 21
104.914481896
  0
LINE
  5
277
100
AcDbEntity
  8
0
100
AcDbLine
 62
7
  6
CONTINUOUS
 10
108.4885464666
 20
104.9604438368
 11
107.2405464666
 21
104.9604438368
  0
LINE
  5
278
100
AcDbEntity
  8
0
100
AcDbLine
 62
7
  6
CONTINUOUS
 10
101.4350047747
 20
105.0523677183
 11
100.1870047747
 21
105.0523677183
  0
LINE
  5
279
100
AcDbEntity
  8
0
100
AcDbLine
 62
7
  6
CONTINUOUS
 10
99.8360047747
 20
105.4660251853
 11
101.7860047747
 21
105.4660251853
  0
LINE
  5
27A
100
AcDbEntity
  8
0
100
AcDbLine
 62
7
  6
CONTINUOUS
 10
126.7329224354
 20
105.6866425011
 11
131.2816270446
 21
105.6866425011
  0
LINE
  5
27B
100
AcDbEntity
  8
0
100
AcDbLine
 62
7
  6
CONTINUOUS
 10
107.2405464666
 20
105.7326044418
 11
112.1285464666
 21
105.7326044418
  0
LINE
  5
27C
100
AcDbEntity
  8
0
100
AcDbLine
 62
7
  6
CONTINUOUS
 10
99.8360047747
 20
105.9256445931
 11
101.7860047747
 21
105.9256445931
  0
LINE
  5
27D
100
AcDbEntity
  8
0
100
AcDbLine
 62
7
  6
CONTINUOUS
 10
126.7329224354
 20
106.1462619088
 11
131.2816270446
 21
106.1462619088
  0
LINE
  5
27E
100
AcDbEntity
  8
0
100
AcDbLine
 62
7
  6
CONTINUOUS
 10
107.2405464666
 20
106.1922238496
 11
112.1285464666
 21
106.1922238496
  0
LINE
  5
27F
100
AcDbEntity
  8
0
100
AcDbLine
 62
7
  6
CONTINUOUS
 10
131.2542796233
 20
106.569111764
 11
126.7329224354
 21
106.569111764
  0
LINE
  5
280
100
AcDbEntity
  8
0
100
AcDbLine
 62
7
  6
CONTINUOUS
 10
124.0029224354
 20
106.569111764
 11
122.7549224354
 21
106.569111764
  0
LINE
  5
281
100
AcDbEntity
  8
0
100
AcDbLine
 62
7
  6
CONTINUOUS
 10
117.8485464666
 20
106.569111764
 11
116.6005464666
 21
106.569111764
  0
LINE
  5
282
100
AcDbEntity
  8
0
100
AcDbLine
 62
7
  6
CONTINUOUS
 10
112.1285464666
 20
106.569111764
 11
107.2405464666
 21
106.569111764
  0
LINE
  5
283
100
AcDbEntity
  8
0
100
AcDbLine
 62
7
  6
CONTINUOUS
 10
103.9310047747
 20
106.569111764
 11
97.6910047747
 21
106.569111764
  0
LINE
  5
284
100
AcDbEntity
  8
RUNDUNGEN
100
AcDbLine
 62
7
  6
CONTINUOUS
 10
61.0179582971
 20
117.3963936842
 11
64.488095737
 21
113.8920644939
  0
LINE
  5
285
100
AcDbEntity
  8
RUNDUNGEN
100
AcDbLine
 62
7
  6
CONTINUOUS
 10
73.8373916496
 20
104.4506486589
 11
91.9719322872
 21
86.1374258516
  0
LINE
  5
286
100
AcDbEntity
  8
RUNDUNGEN
100
AcDbLine
 62
7
  6
CONTINUOUS
 10
122.4276691848
 20
55.3816043113
 11
129.6945487545
 21
48.0431231591
  0
LINE
  5
287
100
AcDbEntity
  8
RUNDUNGEN
100
AcDbLine
 62
7
  6
CONTINUOUS
 10
146.8744528305
 20
117.2550769489
 11
141.6509828695
 21
117.2550769489
  0
LINE
  5
288
100
AcDbEntity
  8
0
100
AcDbLine
 62
7
  6
CONTINUOUS
 10
141.6509828695
 20
117.2550769489
 11
141.5927107196
 21
117.2550769489
  0
LINE
  5
289
100
AcDbEntity
  8
0
100
AcDbLine
 62
7
  6
CONTINUOUS
 10
90.1561949415
 20
117.2550769489
 11
90.0979227915
 21
117.2550769489
  0
LINE
  5
28A
100
AcDbEntity
  8
RUNDUNGEN
100
AcDbLine
 62
7
  6
CONTINUOUS
 10
90.0979227915
 20
117.2550769489
 11
84.8744528305
 21
117.2550769489
  0
LINE
  5
28B
100
AcDbEntity
  8
RUNDUNGEN
100
AcDbLine
 62
7
  6
CONTINUOUS
 10
79.4558906456
 20
111.7212218492
 11
76.0717896711
 21
115.1386668447
  0
LINE
  5
28C
100
AcDbEntity
  8
BEZUGSACHSEN
100
AcDbLine
 62
7
  6
CONTINUOUS
 10
108.4744528305
 20
129.4800769489
 11
123.2744528305
 21
129.4800769489
  0
LINE
  5
28D
100
AcDbEntity
  8
BEZUGSACHSEN
100
AcDbLine
 62
7
  6
CONTINUOUS
 10
108.4744528305
 20
134.3457121465
 11
123.2744528305
 21
134.3457121465
  0
LINE
  5
28E
100
AcDbEntity
  8
RUNDUNGEN
100
AcDbLine
 62
7
  6
CONTINUOUS
 10
144.2205136699
 20
113.3083251263
 11
127.3459815575
 21
121.6632687523
  0
LINE
  5
28F
100
AcDbEntity
  8
RUNDUNGEN
100
AcDbLine
 62
7
  6
CONTINUOUS
 10
158.7893650963
 20
50.7145108629
 11
139.7769733739
 21
69.9142343447
  0
LINE
  5
290
100
AcDbEntity
  8
RUNDUNGEN
100
AcDbLine
 62
7
  6
CONTINUOUS
 10
158.7893650963
 20
54.2500447689
 11
139.7769733739
 21
73.4497682506
  0
LINE
  5
291
100
AcDbEntity
  8
RUNDUNGEN
100
AcDbLine
 62
7
  6
CONTINUOUS
 10
84.8744528208
 20
117.2550769646
 11
78.8744528305
 21
127.0050769489
  0
LINE
  5
292
100
AcDbEntity
  8
BEZUGSACHSEN
100
AcDbLine
 62
7
  6
CONTINUOUS
 10
108.4744528305
 20
142.9644417512
 11
123.2744528305
 21
142.9644417512
  0
LINE
  5
293
100
AcDbEntity
  8
BEZUGSACHSEN
100
AcDbLine
 62
7
  6
CONTINUOUS
 10
108.4744528305
 20
147.8300769489
 11
123.2744528305
 21
147.8300769489
  0
LINE
  5
294
100
AcDbEntity
  8
RUNDUNGEN
100
AcDbLine
 62
7
  6
CONTINUOUS
 10
143.3899742611
 20
117.2550769489
 11
144.2205136699
 21
116.8438590322
  0
LINE
  5
295
100
AcDbEntity
  8
0
100
AcDbLine
 62
7
  6
CONTINUOUS
 10
111.6085464666
 20
102.8587574179
 11
114.4333865586
 21
99.3990490027
  0
LINE
  5
296
100
AcDbEntity
  8
0
100
AcDbLine
 62
7
  6
CONTINUOUS
 10
111.6085464666
 20
103.3183768257
 11
114.4333865586
 21
99.8586684105
  0
LINE
  5
297
100
AcDbEntity
  8
0
100
AcDbLine
 62
7
  6
CONTINUOUS
 10
115.8744528305
 20
99.3990490027
 11
112.9373395413
 21
102.9962634404
  0
LINE
  5
298
100
AcDbEntity
  8
RUNDUNGEN
100
AcDbLine
 62
7
  6
CONTINUOUS
 10
59.9328705628
 20
119.8298724103
 11
59.9328705628
 21
123.3654063162
  0
LINE
  5
299
100
AcDbEntity
  8
0
100
AcDbLine
 62
7
  6
CONTINUOUS
 10
143.7873148608
 20
163.4882025152
 11
144.3283307614
 21
163.6201174046
  0
LINE
  5
29A
100
AcDbEntity
  8
0
100
AcDbLine
 62
7
  6
CONTINUOUS
 10
135.6720678395
 20
164.4116067528
 11
135.131051939
 21
164.2796918749
  0
LINE
  5
29B
100
AcDbEntity
  8
0
100
AcDbLine
 62
7
  6
CONTINUOUS
 10
144.3283307614
 20
164.2796918749
 11
143.6520597248
 21
164.147776997
  0
LINE
  5
29C
100
AcDbEntity
  8
0
100
AcDbLine
 62
7
  6
CONTINUOUS
 10
135.131051939
 20
163.4882025152
 11
135.8073222016
 21
163.6201174046
  0
LINE
  5
29D
100
AcDbEntity
  8
RUNDUNGEN
100
AcDbLine
 62
7
  6
CONTINUOUS
 10
84.8744528305
 20
153.2550769489
 11
108.4744528305
 21
153.2550769489
  0
LINE
  5
29E
100
AcDbEntity
  8
RUNDUNGEN
100
AcDbLine
 62
7
  6
CONTINUOUS
 10
123.2744528305
 20
153.2550769489
 11
146.8744528305
 21
153.2550769489
  0
LINE
  5
29F
100
AcDbEntity
  8
RUNDUNGEN
100
AcDbLine
 62
7
  6
CONTINUOUS
 10
146.8744528305
 20
161.1098909859
 11
121.6270788639
 21
161.1098909859
  0
LINE
  5
2A0
100
AcDbEntity
  8
RUNDUNGEN
100
AcDbLine
 62
7
  6
CONTINUOUS
 10
110.1218267971
 20
161.1098909859
 11
84.8744528305
 21
161.1098909859
  0
LINE
  5
2A1
100
AcDbEntity
  8
0
100
AcDbLine
 62
7
  6
CONTINUOUS
 10
95.6604895607
 20
163.6201174046
 11
96.3063226477
 21
163.4882025152
  0
LINE
  5
2A2
100
AcDbEntity
  8
0
100
AcDbLine
 62
7
  6
CONTINUOUS
 10
96.3063226477
 20
164.2796918749
 11
95.7896564738
 21
164.4116067528
  0
LINE
  5
2A3
100
AcDbEntity
  8
RUNDUNGEN
100
AcDbLine
 62
7
  6
CONTINUOUS
 10
172.5341018935
 20
121.6829210516
 11
165.6532247214
 21
125.0897912681
  0
LINE
  5
2A4
100
AcDbEntity
  8
RUNDUNGEN
100
AcDbLine
 62
7
  6
CONTINUOUS
 10
172.5341018935
 20
125.2184549575
 11
165.6532247214
 21
128.625325174
  0
LINE
  5
2A5
100
AcDbEntity
  8
0
100
AcDbLine
 62
7
  6
CONTINUOUS
 10
95.1438226477
 20
163.883947195
 11
95.6604895607
 21
163.6201174046
  0
LINE
  5
2A6
100
AcDbEntity
  8
0
100
AcDbLine
 62
7
  6
CONTINUOUS
 10
95.7896564738
 20
164.4116067528
 11
95.4021564738
 21
164.675436601
  0
LINE
  5
2A7
100
AcDbEntity
  8
0
100
AcDbLine
 62
7
  6
CONTINUOUS
 10
77.5010226217
 20
157.6163275485
 11
78.8744528305
 21
149.8272177748
  0
LINE
  5
2A8
100
AcDbEntity
  8
RUNDUNGEN
100
AcDbLine
 62
7
  6
CONTINUOUS
 10
71.8744528305
 20
39.7192366706
 11
71.8744528305
 21
51.8165660428
  0
LINE
  5
2A9
100
AcDbEntity
  8
RUNDUNGEN
100
AcDbLine
 62
7
  6
CONTINUOUS
 10
73.4847381359
 20
105.2415292448
 11
73.4847381359
 21
108.7770631508
  0
LINE
  5
2AA
100
AcDbEntity
  8
0
100
AcDbLine
 62
7
  6
CONTINUOUS
 10
77.5010226217
 20
157.6163275485
 11
77.5010226217
 21
174.1001666881
  0
LINE
  5
2AB
100
AcDbEntity
  8
RUNDUNGEN
100
AcDbLine
 62
7
  6
CONTINUOUS
 10
78.8744528305
 20
127.0050769489
 11
78.8744528305
 21
169.7550769489
  0
LINE
  5
2AC
100
AcDbEntity
  8
RUNDUNGEN
100
AcDbLine
 62
7
  6
CONTINUOUS
 10
81.8744528305
 20
35.8301493741
 11
81.8744528305
 21
41.8405570142
  0
LINE
  5
2AD
100
AcDbEntity
  8
0
100
AcDbLine
 62
7
  6
CONTINUOUS
 10
77.5010226217
 20
218.4099872096
 11
71.564632309
 21
196.2550769489
  0
LINE
  5
2AE
100
AcDbEntity
  8
0
100
AcDbLine
 62
7
  6
CONTINUOUS
 10
93.7195425697
 20
234.6285071576
 11
77.5010226217
 21
218.4099872096
  0
LINE
  5
2AF
100
AcDbEntity
  8
0
100
AcDbLine
 62
7
  6
CONTINUOUS
 10
103.5396557347
 20
164.4116067528
 11
103.0229895607
 21
164.2796918749
  0
LINE
  5
2B0
100
AcDbEntity
  8
0
100
AcDbLine
 62
7
  6
CONTINUOUS
 10
97.3396564738
 20
164.4116067528
 11
96.8229895607
 21
164.2796918749
  0
LINE
  5
2B1
100
AcDbEntity
  8
0
100
AcDbLine
 62
7
  6
CONTINUOUS
 10
133.3727483274
 20
168.7647983699
 11
133.9137650019
 21
168.8967132478
  0
LINE
  5
2B2
100
AcDbEntity
  8
0
100
AcDbLine
 62
7
  6
CONTINUOUS
 10
103.0229895607
 20
163.4882025152
 11
103.6688233868
 21
163.6201174046
  0
LINE
  5
2B3
100
AcDbEntity
  8
0
100
AcDbLine
 62
7
  6
CONTINUOUS
 10
96.8229895607
 20
163.4882025152
 11
97.4688226477
 21
163.6201174046
  0
LINE
  5
2B4
100
AcDbEntity
  8
0
100
AcDbLine
 62
7
  6
CONTINUOUS
 10
142.2995191995
 20
168.8967132478
 11
142.9757902361
 21
169.0286281257
  0
LINE
  5
2B5
100
AcDbEntity
  8
0
100
AcDbLine
 62
7
  6
CONTINUOUS
 10
133.9137650019
 20
169.6882025152
 11
133.2374939653
 21
169.5562876373
  0
LINE
  5
2B6
100
AcDbEntity
  8
0
100
AcDbLine
 62
7
  6
CONTINUOUS
 10
143.1110438243
 20
169.6882025152
 11
142.1642656114
 21
169.5562876373
  0
LINE
  5
2B7
100
AcDbEntity
  8
0
100
AcDbLine
 62
7
  6
CONTINUOUS
 10
88.2979895607
 20
163.4882025152
 11
89.0729895607
 21
163.4882025152
  0
LINE
  5
2B8
100
AcDbEntity
  8
0
100
AcDbLine
 62
7
  6
CONTINUOUS
 10
92.3021561042
 20
163.4882025152
 11
93.2063230173
 21
163.4882025152
  0
LINE
  5
2B9
100
AcDbEntity
  8
0
100
AcDbLine
 62
7
  6
CONTINUOUS
 10
96.3063226477
 20
163.4882025152
 11
96.8229895607
 21
163.4882025152
  0
LINE
  5
2BA
100
AcDbEntity
  8
0
100
AcDbLine
 62
7
  6
CONTINUOUS
 10
99.9229895607
 20
163.4882025152
 11
103.0229895607
 21
163.4882025152
  0
LINE
  5
2BB
100
AcDbEntity
  8
0
100
AcDbLine
 62
7
  6
CONTINUOUS
 10
123.6344528305
 20
163.4882025152
 11
124.4459774553
 21
163.4882025152
  0
LINE
  5
2BC
100
AcDbEntity
  8
0
100
AcDbLine
 62
7
  6
CONTINUOUS
 10
125.5280102237
 20
163.4882025152
 11
126.3395348485
 21
163.4882025152
  0
LINE
  5
2BD
100
AcDbEntity
  8
0
100
AcDbLine
 62
7
  6
CONTINUOUS
 10
129.7208875161
 20
163.4882025152
 11
130.6676665029
 21
163.4882025152
  0
LINE
  5
2BE
100
AcDbEntity
  8
0
100
AcDbLine
 62
7
  6
CONTINUOUS
 10
133.9137650019
 20
163.4882025152
 11
135.131051939
 21
163.4882025152
  0
LINE
  5
2BF
100
AcDbEntity
  8
0
100
AcDbLine
 62
7
  6
CONTINUOUS
 10
138.9181671124
 20
163.4882025152
 11
139.7296917371
 21
163.4882025152
  0
LINE
  5
2C0
100
AcDbEntity
  8
0
100
AcDbLine
 62
7
  6
CONTINUOUS
 10
142.7052815119
 20
163.4882025152
 11
143.7873148608
 21
163.4882025152
  0
LINE
  5
2C1
100
AcDbEntity
  8
0
100
AcDbLine
 62
7
  6
CONTINUOUS
 10
143.6520597248
 20
164.147776997
 11
142.8405351001
 21
164.147776997
  0
LINE
  5
2C2
100
AcDbEntity
  8
0
100
AcDbLine
 62
7
  6
CONTINUOUS
 10
135.131051939
 20
164.2796918749
 11
133.9137650019
 21
164.2796918749
  0
LINE
  5
2C3
100
AcDbEntity
  8
0
100
AcDbLine
 62
7
  6
CONTINUOUS
 10
103.0229895607
 20
164.2796918749
 11
100.6979895607
 21
164.2796918749
  0
LINE
  5
2C4
100
AcDbEntity
  8
0
100
AcDbLine
 62
7
  6
CONTINUOUS
 10
96.8229895607
 20
164.2796918749
 11
96.3063226477
 21
164.2796918749
  0
LINE
  5
2C5
100
AcDbEntity
  8
0
100
AcDbLine
 62
7
  6
CONTINUOUS
 10
141.4879945748
 20
164.9392663567
 11
140.8117235382
 21
164.9392663567
  0
LINE
  5
2C6
100
AcDbEntity
  8
0
100
AcDbLine
 62
7
  6
CONTINUOUS
 10
134.9957975769
 20
166.1265004425
 11
136.213084514
 21
166.1265004425
  0
LINE
  5
2C7
100
AcDbEntity
  8
0
100
AcDbLine
 62
7
  6
CONTINUOUS
 10
89.0729895607
 20
166.2584153204
 11
91.2688228325
 21
166.2584153204
  0
LINE
  5
2C8
100
AcDbEntity
  8
0
100
AcDbLine
 62
7
  6
CONTINUOUS
 10
126.3395348485
 20
166.2584153204
 11
128.6388545541
 21
166.2584153204
  0
LINE
  5
2C9
100
AcDbEntity
  8
0
100
AcDbLine
 62
7
  6
CONTINUOUS
 10
142.9757902361
 20
166.3903301983
 11
143.5168061366
 21
166.3903301983
  0
LINE
  5
2CA
100
AcDbEntity
  8
0
100
AcDbLine
 62
7
  6
CONTINUOUS
 10
143.5168061366
 20
166.9179897099
 11
142.9757902361
 21
166.9179897099
  0
LINE
  5
2CB
100
AcDbEntity
  8
0
100
AcDbLine
 62
7
  6
CONTINUOUS
 10
137.0246091387
 20
166.9179897099
 11
134.9957975769
 21
166.9179897099
  0
LINE
  5
2CC
100
AcDbEntity
  8
0
100
AcDbLine
 62
7
  6
CONTINUOUS
 10
128.9093628913
 20
167.0499045878
 11
126.3395348485
 21
167.0499045878
  0
LINE
  5
2CD
100
AcDbEntity
  8
0
100
AcDbLine
 62
7
  6
CONTINUOUS
 10
91.5271561042
 20
167.0499045878
 11
89.0729895607
 21
167.0499045878
  0
LINE
  5
2CE
100
AcDbEntity
  8
0
100
AcDbLine
 62
7
  6
CONTINUOUS
 10
136.213084514
 20
168.1052236109
 11
137.0246091387
 21
168.1052236109
  0
LINE
  5
2CF
100
AcDbEntity
  8
0
100
AcDbLine
 62
7
  6
CONTINUOUS
 10
140.9469786742
 20
168.2371388583
 11
141.623248163
 21
168.2371388583
  0
LINE
  5
2D0
100
AcDbEntity
  8
0
100
AcDbLine
 62
7
  6
CONTINUOUS
 10
100.6979895607
 20
168.8967132478
 11
103.0229895607
 21
168.8967132478
  0
LINE
  5
2D1
100
AcDbEntity
  8
0
100
AcDbLine
 62
7
  6
CONTINUOUS
 10
133.9137650019
 20
168.8967132478
 11
135.131051939
 21
168.8967132478
  0
LINE
  5
2D2
100
AcDbEntity
  8
0
100
AcDbLine
 62
7
  6
CONTINUOUS
 10
89.0729895607
 20
169.0286281257
 11
91.5271561042
 21
169.0286281257
  0
LINE
  5
2D3
100
AcDbEntity
  8
0
100
AcDbLine
 62
7
  6
CONTINUOUS
 10
126.3395348485
 20
169.0286281257
 11
128.9093628913
 21
169.0286281257
  0
LINE
  5
2D4
100
AcDbEntity
  8
0
100
AcDbLine
 62
7
  6
CONTINUOUS
 10
142.9757902361
 20
169.0286281257
 11
143.5168061366
 21
169.0286281257
  0
LINE
  5
2D5
100
AcDbEntity
  8
0
100
AcDbLine
 62
7
  6
CONTINUOUS
 10
143.3815525485
 20
169.6882025152
 11
143.1110438243
 21
169.6882025152
  0
LINE
  5
2D6
100
AcDbEntity
  8
0
100
AcDbLine
 62
7
  6
CONTINUOUS
 10
139.7296917371
 20
169.6882025152
 11
138.9181671124
 21
169.6882025152
  0
LINE
  5
2D7
100
AcDbEntity
  8
0
100
AcDbLine
 62
7
  6
CONTINUOUS
 10
135.131051939
 20
169.6882025152
 11
133.9137650019
 21
169.6882025152
  0
LINE
  5
2D8
100
AcDbEntity
  8
0
100
AcDbLine
 62
7
  6
CONTINUOUS
 10
128.7741089162
 20
169.6882025152
 11
125.5280102237
 21
169.6882025152
  0
LINE
  5
2D9
100
AcDbEntity
  8
0
100
AcDbLine
 62
7
  6
CONTINUOUS
 10
124.4459774553
 20
169.6882025152
 11
123.6344528305
 21
169.6882025152
  0
LINE
  5
2DA
100
AcDbEntity
  8
0
100
AcDbLine
 62
7
  6
CONTINUOUS
 10
103.0229895607
 20
169.6882025152
 11
99.9229895607
 21
169.6882025152
  0
LINE
  5
2DB
100
AcDbEntity
  8
0
100
AcDbLine
 62
7
  6
CONTINUOUS
 10
98.8896564738
 20
169.6882025152
 11
98.1146564738
 21
169.6882025152
  0
LINE
  5
2DC
100
AcDbEntity
  8
0
100
AcDbLine
 62
7
  6
CONTINUOUS
 10
95.0146564738
 20
169.6882025152
 11
94.2396561042
 21
169.6882025152
  0
LINE
  5
2DD
100
AcDbEntity
  8
0
100
AcDbLine
 62
7
  6
CONTINUOUS
 10
91.3979895607
 20
169.6882025152
 11
88.2979895607
 21
169.6882025152
  0
LINE
  5
2DE
100
AcDbEntity
  8
0
100
AcDbLine
 62
7
  6
CONTINUOUS
 10
143.5168061366
 20
166.3903301983
 11
144.3283307614
 21
166.2584153204
  0
LINE
  5
2DF
100
AcDbEntity
  8
0
100
AcDbLine
 62
7
  6
CONTINUOUS
 10
133.2374939653
 20
163.6201174046
 11
133.9137650019
 21
163.4882025152
  0
LINE
  5
2E0
100
AcDbEntity
  8
0
100
AcDbLine
 62
7
  6
CONTINUOUS
 10
142.8405351001
 20
164.147776997
 11
142.1642656114
 21
164.2796918749
  0
LINE
  5
2E1
100
AcDbEntity
  8
0
100
AcDbLine
 62
7
  6
CONTINUOUS
 10
129.4503791788
 20
169.5562876373
 11
128.7741089162
 21
169.6882025152
  0
LINE
  5
2E2
100
AcDbEntity
  8
0
100
AcDbLine
 62
7
  6
CONTINUOUS
 10
92.0438230173
 20
169.5562876373
 11
91.3979895607
 21
169.6882025152
  0
LINE
  5
2E3
100
AcDbEntity
  8
0
100
AcDbLine
 62
7
  6
CONTINUOUS
 10
103.6688233868
 20
169.5562876373
 11
103.0229895607
 21
169.6882025152
  0
LINE
  5
2E4
100
AcDbEntity
  8
0
100
AcDbLine
 62
7
  6
CONTINUOUS
 10
133.9137650019
 20
164.2796918749
 11
133.3727483274
 21
164.4116067528
  0
LINE
  5
2E5
100
AcDbEntity
  8
0
100
AcDbLine
 62
7
  6
CONTINUOUS
 10
142.1642656114
 20
163.6201174046
 11
142.7052815119
 21
163.4882025152
  0
LINE
  5
2E6
100
AcDbEntity
  8
0
100
AcDbLine
 62
7
  6
CONTINUOUS
 10
103.0229895607
 20
168.8967132478
 11
103.5396557347
 21
168.7647983699
  0
LINE
  5
2E7
100
AcDbEntity
  8
0
100
AcDbLine
 62
7
  6
CONTINUOUS
 10
91.5271561042
 20
169.0286281257
 11
91.9146561042
 21
168.8967132478
  0
LINE
  5
2E8
100
AcDbEntity
  8
0
100
AcDbLine
 62
7
  6
CONTINUOUS
 10
104.1854895607
 20
169.2924578815
 11
103.6688233868
 21
169.5562876373
  0
LINE
  5
2E9
100
AcDbEntity
  8
0
100
AcDbLine
 62
7
  6
CONTINUOUS
 10
103.5396557347
 20
168.7647983699
 11
103.9271557347
 21
168.5009686141
  0
LINE
  5
2EA
100
AcDbEntity
  8
0
100
AcDbLine
 62
7
  6
CONTINUOUS
 10
92.5604895607
 20
169.1605430036
 11
92.0438230173
 21
169.5562876373
  0
LINE
  5
2EB
100
AcDbEntity
  8
0
100
AcDbLine
 62
7
  6
CONTINUOUS
 10
94.6271564738
 20
164.4116067528
 11
95.1438226477
 21
163.883947195
  0
LINE
  5
2EC
100
AcDbEntity
  8
0
100
AcDbLine
 62
7
  6
CONTINUOUS
 10
91.9146561042
 20
168.8967132478
 11
92.1729895607
 21
168.632883492
  0
LINE
  5
2ED
100
AcDbEntity
  8
0
100
AcDbLine
 62
7
  6
CONTINUOUS
 10
104.7021557347
 20
168.7647983699
 11
104.1854895607
 21
169.2924578815
  0
LINE
  5
2EE
100
AcDbEntity
  8
0
100
AcDbLine
 62
7
  6
CONTINUOUS
 10
92.9479895607
 20
168.632883492
 11
92.5604895607
 21
169.1605430036
  0
LINE
  5
2EF
100
AcDbEntity
  8
0
100
AcDbLine
 62
7
  6
CONTINUOUS
 10
95.4021564738
 20
164.675436601
 11
95.1438226477
 21
165.0711812346
  0
LINE
  5
2F0
100
AcDbEntity
  8
0
100
AcDbLine
 62
7
  6
CONTINUOUS
 10
94.3688230173
 20
164.9392663567
 11
94.6271564738
 21
164.4116067528
  0
LINE
  5
2F1
100
AcDbEntity
  8
0
100
AcDbLine
 62
7
  6
CONTINUOUS
 10
93.2063230173
 20
163.4882025152
 11
92.0438230173
 21
166.5222450762
  0
LINE
  5
2F2
100
AcDbEntity
  8
0
100
AcDbLine
 62
7
  6
CONTINUOUS
 10
91.2688228325
 20
166.2584153204
 11
92.3021561042
 21
163.4882025152
  0
LINE
  5
2F3
100
AcDbEntity
  8
0
100
AcDbLine
 62
7
  6
CONTINUOUS
 10
92.1729895607
 20
168.632883492
 11
92.3021561042
 21
168.2371388583
  0
LINE
  5
2F4
100
AcDbEntity
  8
0
100
AcDbLine
 62
7
  6
CONTINUOUS
 10
93.0771561042
 20
168.2371388583
 11
92.9479895607
 21
168.632883492
  0
LINE
  5
2F5
100
AcDbEntity
  8
0
100
AcDbLine
 62
7
  6
CONTINUOUS
 10
71.564632309
 20
196.2550769489
 11
77.5010226217
 21
174.1001666881
  0
LINE
  5
2F6
100
AcDbEntity
  8
0
100
AcDbLine
 62
7
  6
CONTINUOUS
 10
88.2979895607
 20
169.6882025152
 11
88.2979895607
 21
163.4882025152
  0
LINE
  5
2F7
100
AcDbEntity
  8
0
100
AcDbLine
 62
7
  6
CONTINUOUS
 10
89.0729895607
 20
163.4882025152
 11
89.0729895607
 21
166.2584153204
  0
LINE
  5
2F8
100
AcDbEntity
  8
0
100
AcDbLine
 62
7
  6
CONTINUOUS
 10
89.0729895607
 20
167.0499045878
 11
89.0729895607
 21
169.0286281257
  0
LINE
  5
2F9
100
AcDbEntity
  8
0
100
AcDbLine
 62
7
  6
CONTINUOUS
 10
92.3021561042
 20
168.2371388583
 11
92.3021561042
 21
167.8413938551
  0
LINE
  5
2FA
100
AcDbEntity
  8
0
100
AcDbLine
 62
7
  6
CONTINUOUS
 10
93.0771561042
 20
167.7094789772
 11
93.0771561042
 21
168.2371388583
  0
LINE
  5
2FB
100
AcDbEntity
  8
RUNDUNGEN
100
AcDbLine
 62
7
  6
CONTINUOUS
 10
141.0107541256
 20
177.5645519682
 11
136.7230565235
 21
177.5645519682
  0
LINE
  5
2FC
100
AcDbEntity
  8
RUNDUNGEN
100
AcDbLine
 62
7
  6
CONTINUOUS
 10
95.0258491376
 20
177.5645519682
 11
90.7381509086
 21
177.5645519682
  0
LINE
  5
2FD
100
AcDbEntity
  8
RUNDUNGEN
100
AcDbLine
 62
7
  6
CONTINUOUS
 10
102.4176560886
 20
177.7550769489
 11
129.3312495724
 21
177.7550769489
  0
LINE
  5
2FE
100
AcDbEntity
  8
0
100
AcDbLine
 62
7
  6
CONTINUOUS
 10
144.3283307614
 20
169.5562876373
 11
143.3815525485
 21
169.6882025152
  0
LINE
  5
2FF
100
AcDbEntity
  8
0
100
AcDbLine
 62
7
  6
CONTINUOUS
 10
135.8073222016
 20
169.5562876373
 11
135.131051939
 21
169.6882025152
  0
LINE
  5
300
100
AcDbEntity
  8
0
100
AcDbLine
 62
7
  6
CONTINUOUS
 10
143.5168061366
 20
169.0286281257
 11
144.1930771732
 21
168.8967132478
  0
LINE
  5
301
100
AcDbEntity
  8
0
100
AcDbLine
 62
7
  6
CONTINUOUS
 10
135.131051939
 20
168.8967132478
 11
135.6720678395
 21
168.7647983699
  0
LINE
  5
302
100
AcDbEntity
  8
0
100
AcDbLine
 62
7
  6
CONTINUOUS
 10
128.9093628913
 20
169.0286281257
 11
129.3151252037
 21
168.8967132478
  0
LINE
  5
303
100
AcDbEntity
  8
0
100
AcDbLine
 62
7
  6
CONTINUOUS
 10
145.2751089743
 20
166.3903301983
 11
144.5988394856
 21
166.6541599541
  0
LINE
  5
304
100
AcDbEntity
  8
0
100
AcDbLine
 62
7
  6
CONTINUOUS
 10
132.6964780648
 20
163.883947195
 11
133.2374939653
 21
163.6201174046
  0
LINE
  5
305
100
AcDbEntity
  8
0
100
AcDbLine
 62
7
  6
CONTINUOUS
 10
141.623248163
 20
163.883947195
 11
142.1642656114
 21
163.6201174046
  0
LINE
  5
306
100
AcDbEntity
  8
0
100
AcDbLine
 62
7
  6
CONTINUOUS
 10
142.1642656114
 20
164.2796918749
 11
141.8937568872
 21
164.4116067528
  0
LINE
  5
307
100
AcDbEntity
  8
0
100
AcDbLine
 62
7
  6
CONTINUOUS
 10
136.3483388761
 20
169.2924578815
 11
135.8073222016
 21
169.5562876373
  0
LINE
  5
308
100
AcDbEntity
  8
0
100
AcDbLine
 62
7
  6
CONTINUOUS
 10
133.3727483274
 20
164.4116067528
 11
132.966986015
 21
164.675436601
  0
LINE
  5
309
100
AcDbEntity
  8
0
100
AcDbLine
 62
7
  6
CONTINUOUS
 10
141.2174858506
 20
164.147776997
 11
141.623248163
 21
163.883947195
  0
LINE
  5
30A
100
AcDbEntity
  8
0
100
AcDbLine
 62
7
  6
CONTINUOUS
 10
135.6720678395
 20
168.7647983699
 11
136.0778301519
 21
168.5009686141
  0
LINE
  5
30B
100
AcDbEntity
  8
0
100
AcDbLine
 62
7
  6
CONTINUOUS
 10
129.9913958533
 20
169.1605430036
 11
129.4503791788
 21
169.5562876373
  0
LINE
  5
30C
100
AcDbEntity
  8
0
100
AcDbLine
 62
7
  6
CONTINUOUS
 10
103.9271557347
 20
168.5009686141
 11
104.1854895607
 21
168.1052236109
  0
LINE
  5
30D
100
AcDbEntity
  8
0
100
AcDbLine
 62
7
  6
CONTINUOUS
 10
104.9604895607
 20
168.2371388583
 11
104.7021557347
 21
168.7647983699
  0
LINE
  5
30E
100
AcDbEntity
  8
0
100
AcDbLine
 62
7
  6
CONTINUOUS
 10
95.1438226477
 20
165.0711812346
 11
95.0146564738
 21
165.5988407462
  0
LINE
  5
30F
100
AcDbEntity
  8
0
100
AcDbLine
 62
7
  6
CONTINUOUS
 10
94.2396561042
 20
165.5988407462
 11
94.3688230173
 21
164.9392663567
  0
LINE
  5
310
100
AcDbEntity
  8
0
100
AcDbLine
 62
7
  6
CONTINUOUS
 10
94.2396561042
 20
169.6882025152
 11
94.2396561042
 21
165.5988407462
  0
LINE
  5
311
100
AcDbEntity
  8
KONSTRUKTIONSELEMENTE
100
AcDbLine
 62
7
  6
CONTINUOUS
 10
94.4343035773
 20
139.2550769489
 11
94.4343035773
 21
141.7550769489
  0
LINE
  5
312
100
AcDbEntity
  8
0
100
AcDbLine
 62
7
  6
CONTINUOUS
 10
95.0146564738
 20
165.5988407462
 11
95.0146564738
 21
169.6882025152
  0
LINE
  5
313
100
AcDbEntity
  8
0
100
AcDbLine
 62
7
  6
CONTINUOUS
 10
96.9110047747
 20
106.0175684746
 11
96.9110047747
 21
99.9505922921
  0
LINE
  5
314
100
AcDbEntity
  8
0
100
AcDbLine
 62
7
  6
CONTINUOUS
 10
98.1146564738
 20
169.6882025152
 11
98.1146564738
 21
165.5988407462
  0
LINE
  5
315
100
AcDbEntity
  8
0
100
AcDbLine
 62
7
  6
CONTINUOUS
 10
98.8896564738
 20
165.5988407462
 11
98.8896564738
 21
169.6882025152
  0
LINE
  5
316
100
AcDbEntity
  8
0
100
AcDbLine
 62
7
  6
CONTINUOUS
 10
99.4460047747
 20
100.7779072261
 11
99.4460047747
 21
102.8921565018
  0
LINE
  5
317
100
AcDbEntity
  8
0
100
AcDbLine
 62
7
  6
CONTINUOUS
 10
99.4460047747
 20
103.5356236727
 11
99.4460047747
 21
105.6498729484
  0
LINE
  5
318
100
AcDbEntity
  8
0
100
AcDbLine
 62
7
  6
CONTINUOUS
 10
99.9229895607
 20
169.6882025152
 11
99.9229895607
 21
163.4882025152
  0
LINE
  5
319
100
AcDbEntity
  8
0
100
AcDbLine
 62
7
  6
CONTINUOUS
 10
100.0310047747
 20
104.9420590605
 11
100.0310047747
 21
103.7838181529
  0
LINE
  5
31A
100
AcDbEntity
  8
0
100
AcDbLine
 62
7
  6
CONTINUOUS
 10
100.0310047747
 20
102.1843426138
 11
100.0310047747
 21
101.0261017063
  0
LINE
  5
31B
100
AcDbEntity
  8
0
100
AcDbLine
 62
7
  6
CONTINUOUS
 10
100.5185047747
 20
102.1291882849
 11
100.5185047747
 21
102.2946512717
  0
LINE
  5
31C
100
AcDbEntity
  8
0
100
AcDbLine
 62
7
  6
CONTINUOUS
 10
100.5185047747
 20
102.7083087387
 11
100.5185047747
 21
103.259852028
  0
LINE
  5
31D
100
AcDbEntity
  8
0
100
AcDbLine
 62
7
  6
CONTINUOUS
 10
100.5185047747
 20
103.673509495
 11
100.5185047747
 21
104.2985918896
  0
LINE
  5
31E
100
AcDbEntity
  8
0
100
AcDbLine
 62
7
  6
CONTINUOUS
 10
100.6979895607
 20
164.2796918749
 11
100.6979895607
 21
168.8967132478
  0
LINE
  5
31F
100
AcDbEntity
  8
0
100
AcDbLine
 62
7
  6
CONTINUOUS
 10
101.1035047747
 20
104.2985918896
 11
101.1035047747
 21
103.673509495
  0
LINE
  5
320
100
AcDbEntity
  8
0
100
AcDbLine
 62
7
  6
CONTINUOUS
 10
101.1035047747
 20
103.259852028
 11
101.1035047747
 21
102.7083087387
  0
LINE
  5
321
100
AcDbEntity
  8
0
100
AcDbLine
 62
7
  6
CONTINUOUS
 10
101.1035047747
 20
102.2946512717
 11
101.1035047747
 21
102.1291882849
  0
LINE
  5
322
100
AcDbEntity
  8
0
100
AcDbLine
 62
7
  6
CONTINUOUS
 10
101.5910047747
 20
101.0261017063
 11
101.5910047747
 21
102.1843426138
  0
LINE
  5
323
100
AcDbEntity
  8
0
100
AcDbLine
 62
7
  6
CONTINUOUS
 10
101.5910047747
 20
103.7838181529
 11
101.5910047747
 21
104.9420590605
  0
LINE
  5
324
100
AcDbEntity
  8
0
100
AcDbLine
 62
7
  6
CONTINUOUS
 10
102.1760047747
 20
105.6498729484
 11
102.1760047747
 21
103.5356236727
  0
LINE
  5
325
100
AcDbEntity
  8
0
100
AcDbLine
 62
7
  6
CONTINUOUS
 10
102.1760047747
 20
102.8921565018
 11
102.1760047747
 21
100.7779072261
  0
LINE
  5
326
100
AcDbEntity
  8
0
100
AcDbLine
 62
7
  6
CONTINUOUS
 10
102.8744528305
 20
367.6966780251
 11
102.8744528305
 21
201.8134758726
  0
LINE
  5
327
100
AcDbEntity
  8
0
100
AcDbLine
 62
7
  6
CONTINUOUS
 10
104.3146557347
 20
167.5775640993
 11
104.3146557347
 21
165.5988407462
  0
LINE
  5
328
100
AcDbEntity
  8
0
100
AcDbLine
 62
7
  6
CONTINUOUS
 10
104.7110047747
 20
99.9505922921
 11
104.7110047747
 21
106.0175684746
  0
LINE
  5
329
100
AcDbEntity
  8
0
100
AcDbLine
 62
7
  6
CONTINUOUS
 10
105.0896557347
 20
165.5988407462
 11
105.0896557347
 21
167.5775640993
  0
LINE
  5
32A
100
AcDbEntity
  8
0
100
AcDbLine
 62
7
  6
CONTINUOUS
 10
92.3021561042
 20
167.8413938551
 11
92.1729895607
 21
167.4456492214
  0
LINE
  5
32B
100
AcDbEntity
  8
0
100
AcDbLine
 62
7
  6
CONTINUOUS
 10
144.8693466619
 20
169.2924578815
 11
144.3283307614
 21
169.5562876373
  0
LINE
  5
32C
100
AcDbEntity
  8
0
100
AcDbLine
 62
7
  6
CONTINUOUS
 10
144.3283307614
 20
166.2584153204
 11
144.7340930737
 21
165.9945855646
  0
LINE
  5
32D
100
AcDbEntity
  8
0
100
AcDbLine
 62
7
  6
CONTINUOUS
 10
144.1930771732
 20
168.8967132478
 11
144.5988394856
 21
168.632883492
  0
LINE
  5
32E
100
AcDbEntity
  8
0
100
AcDbLine
 62
7
  6
CONTINUOUS
 10
132.1554613903
 20
164.4116067528
 11
132.6964780648
 21
163.883947195
  0
LINE
  5
32F
100
AcDbEntity
  8
0
100
AcDbLine
 62
7
  6
CONTINUOUS
 10
129.3151252037
 20
168.8967132478
 11
129.5856335409
 21
168.632883492
  0
LINE
  5
330
100
AcDbEntity
  8
0
100
AcDbLine
 62
7
  6
CONTINUOUS
 10
136.8893555505
 20
168.7647983699
 11
136.3483388761
 21
169.2924578815
  0
LINE
  5
331
100
AcDbEntity
  8
0
100
AcDbLine
 62
7
  6
CONTINUOUS
 10
141.8937568872
 20
164.4116067528
 11
141.623248163
 21
164.675436601
  0
LINE
  5
332
100
AcDbEntity
  8
0
100
AcDbLine
 62
7
  6
CONTINUOUS
 10
130.3971577787
 20
168.632883492
 11
129.9913958533
 21
169.1605430036
  0
LINE
  5
333
100
AcDbEntity
  8
0
100
AcDbLine
 62
7
  6
CONTINUOUS
 10
132.966986015
 20
164.675436601
 11
132.6964780648
 21
165.0711812346
  0
LINE
  5
334
100
AcDbEntity
  8
0
100
AcDbLine
 62
7
  6
CONTINUOUS
 10
104.1854895607
 20
168.1052236109
 11
104.3146557347
 21
167.5775640993
  0
LINE
  5
335
100
AcDbEntity
  8
0
100
AcDbLine
 62
7
  6
CONTINUOUS
 10
105.0896557347
 20
167.5775640993
 11
104.9604895607
 21
168.2371388583
  0
LINE
  5
336
100
AcDbEntity
  8
0
100
AcDbLine
 62
7
  6
CONTINUOUS
 10
107.2405464666
 20
106.569111764
 11
107.2405464666
 21
105.7326044418
  0
LINE
  5
337
100
AcDbEntity
  8
0
100
AcDbLine
 62
7
  6
CONTINUOUS
 10
107.2405464666
 20
104.9604438368
 11
107.2405464666
 21
99.3990490027
  0
LINE
  5
338
100
AcDbEntity
  8
0
100
AcDbLine
 62
7
  6
CONTINUOUS
 10
108.4744528305
 20
139.2550769489
 11
108.4744528305
 21
124.3663309894
  0
LINE
  5
339
100
AcDbEntity
  8
KONSTRUKTIONSELEMENTE
100
AcDbLine
 62
7
  6
CONTINUOUS
 10
108.4744528305
 20
139.2550769489
 11
108.4744528305
 21
156.4550769489
  0
LINE
  5
33A
100
AcDbEntity
  8
0
100
AcDbLine
 62
7
  6
CONTINUOUS
 10
108.4885464666
 20
99.3990490027
 11
108.4885464666
 21
103.3183768257
  0
LINE
  5
33B
100
AcDbEntity
  8
0
100
AcDbLine
 62
7
  6
CONTINUOUS
 10
108.4885464666
 20
103.7412266808
 11
108.4885464666
 21
104.9604438368
  0
LINE
  5
33C
100
AcDbEntity
  8
0
100
AcDbLine
 62
7
  6
CONTINUOUS
 10
111.6085464666
 20
102.8587574179
 11
111.6085464666
 21
103.3183768257
  0
LINE
  5
33D
100
AcDbEntity
  8
KONSTRUKTIONSELEMENTE
100
AcDbLine
 62
7
  6
CONTINUOUS
 10
112.3744528305
 20
147.8300769489
 11
112.3744528305
 21
148.2601275827
  0
LINE
  5
33E
100
AcDbEntity
  8
KONSTRUKTIONSELEMENTE
100
AcDbLine
 62
7
  6
CONTINUOUS
 10
112.3744528305
 20
178.1033760627
 11
112.3744528305
 21
179.3728259549
  0
LINE
  5
33F
100
AcDbEntity
  8
0
100
AcDbLine
 62
7
  6
CONTINUOUS
 10
112.9373395413
 20
102.9962634404
 11
112.9373395413
 21
103.4558828482
  0
LINE
  5
340
100
AcDbEntity
  8
KONSTRUKTIONSELEMENTE
100
AcDbLine
 62
7
  6
CONTINUOUS
 10
113.3744528305
 20
116.8502989709
 11
113.3744528305
 21
129.4800769489
  0
LINE
  5
341
100
AcDbEntity
  8
KONSTRUKTIONSELEMENTE
100
AcDbLine
 62
7
  6
CONTINUOUS
 10
113.3744528305
 20
178.0150355435
 11
113.3744528305
 21
189.0046543466
  0
LINE
  5
342
100
AcDbEntity
  8
0
100
AcDbLine
 62
7
  6
CONTINUOUS
 10
113.5366631853
 20
105.1965349691
 11
113.5366631853
 21
104.7369155613
  0
LINE
  5
343
100
AcDbEntity
  8
KONSTRUKTIONSELEMENTE
100
AcDbLine
 62
7
  6
CONTINUOUS
 10
113.6244528305
 20
147.8300769489
 11
113.6244528305
 21
163.500560679
  0
LINE
  5
344
100
AcDbEntity
  8
0
100
AcDbLine
 62
7
  6
CONTINUOUS
 10
114.4333865586
 20
99.3990490027
 11
114.4333865586
 21
99.8586684105
  0
LINE
  5
345
100
AcDbEntity
  8
0
100
AcDbLine
 62
7
  6
CONTINUOUS
 10
116.6005464666
 20
106.569111764
 11
116.6005464666
 21
102.0325169136
  0
LINE
  5
346
100
AcDbEntity
  8
0
100
AcDbLine
 62
7
  6
CONTINUOUS
 10
117.8485464666
 20
102.0325169136
 11
117.8485464666
 21
106.569111764
  0
LINE
  5
347
100
AcDbEntity
  8
KONSTRUKTIONSELEMENTE
100
AcDbLine
 62
7
  6
CONTINUOUS
 10
118.1244528305
 20
147.8300769489
 11
118.1244528305
 21
163.500560679
  0
LINE
  5
348
100
AcDbEntity
  8
0
100
AcDbLine
 62
7
  6
CONTINUOUS
 10
98.7604895607
 20
164.9392663567
 11
98.8896564738
 21
165.5988407462
  0
LINE
  5
349
100
AcDbEntity
  8
0
100
AcDbLine
 62
7
  6
CONTINUOUS
 10
104.9604895607
 20
164.9392663567
 11
105.0896557347
 21
165.5988407462
  0
LINE
  5
34A
100
AcDbEntity
  8
0
100
AcDbLine
 62
7
  6
CONTINUOUS
 10
98.1146564738
 20
165.5988407462
 11
97.9854895607
 21
165.0711812346
  0
LINE
  5
34B
100
AcDbEntity
  8
0
100
AcDbLine
 62
7
  6
CONTINUOUS
 10
104.3146557347
 20
165.5988407462
 11
104.1854895607
 21
165.0711812346
  0
LINE
  5
34C
100
AcDbEntity
  8
0
100
AcDbLine
 62
7
  6
CONTINUOUS
 10
92.9479895607
 20
167.3137343436
 11
93.0771561042
 21
167.7094789772
  0
LINE
  5
34D
100
AcDbEntity
  8
0
100
AcDbLine
 62
7
  6
CONTINUOUS
 10
145.4103641103
 20
168.7647983699
 11
144.8693466619
 21
169.2924578815
  0
LINE
  5
34E
100
AcDbEntity
  8
0
100
AcDbLine
 62
7
  6
CONTINUOUS
 10
140.9469786742
 20
164.5435216307
 11
141.2174858506
 21
164.147776997
  0
LINE
  5
34F
100
AcDbEntity
  8
0
100
AcDbLine
 62
7
  6
CONTINUOUS
 10
145.5456176985
 20
165.9945855646
 11
145.2751089743
 21
166.3903301983
  0
LINE
  5
350
100
AcDbEntity
  8
0
100
AcDbLine
 62
7
  6
CONTINUOUS
 10
144.5988394856
 20
168.632883492
 11
144.8693466619
 21
168.2371388583
  0
LINE
  5
351
100
AcDbEntity
  8
0
100
AcDbLine
 62
7
  6
CONTINUOUS
 10
131.88495344
 20
164.9392663567
 11
132.1554613903
 21
164.4116067528
  0
LINE
  5
352
100
AcDbEntity
  8
0
100
AcDbLine
 62
7
  6
CONTINUOUS
 10
130.6676665029
 20
163.4882025152
 11
129.4503791788
 21
166.5222450762
  0
LINE
  5
353
100
AcDbEntity
  8
0
100
AcDbLine
 62
7
  6
CONTINUOUS
 10
128.6388545541
 20
166.2584153204
 11
129.7208875161
 21
163.4882025152
  0
LINE
  5
354
100
AcDbEntity
  8
0
100
AcDbLine
 62
7
  6
CONTINUOUS
 10
129.5856335409
 20
168.632883492
 11
129.7208875161
 21
168.2371388583
  0
LINE
  5
355
100
AcDbEntity
  8
0
100
AcDbLine
 62
7
  6
CONTINUOUS
 10
130.5324121408
 20
168.2371388583
 11
130.3971577787
 21
168.632883492
  0
LINE
  5
356
100
AcDbEntity
  8
KONSTRUKTIONSELEMENTE
100
AcDbLine
 62
7
  6
CONTINUOUS
 10
118.3744528305
 20
116.8502989709
 11
118.3744528305
 21
129.4800769489
  0
LINE
  5
357
100
AcDbEntity
  8
KONSTRUKTIONSELEMENTE
100
AcDbLine
 62
7
  6
CONTINUOUS
 10
118.3744528305
 20
178.0150355435
 11
118.3744528305
 21
189.0046543466
  0
LINE
  5
358
100
AcDbEntity
  8
KONSTRUKTIONSELEMENTE
100
AcDbLine
 62
7
  6
CONTINUOUS
 10
119.3744528305
 20
179.3728259549
 11
119.3744528305
 21
178.1033760627
  0
LINE
  5
359
100
AcDbEntity
  8
KONSTRUKTIONSELEMENTE
100
AcDbLine
 62
7
  6
CONTINUOUS
 10
119.3744528305
 20
148.2601275827
 11
119.3744528305
 21
147.8300769489
  0
LINE
  5
35A
100
AcDbEntity
  8
0
100
AcDbLine
 62
7
  6
CONTINUOUS
 10
122.7549224354
 20
106.569111764
 11
122.7549224354
 21
102.0325169136
  0
LINE
  5
35B
100
AcDbEntity
  8
0
100
AcDbLine
 62
7
  6
CONTINUOUS
 10
123.2744528305
 20
124.3663309894
 11
123.2744528305
 21
139.2550769489
  0
LINE
  5
35C
100
AcDbEntity
  8
KONSTRUKTIONSELEMENTE
100
AcDbLine
 62
7
  6
CONTINUOUS
 10
123.2744528305
 20
139.2550769489
 11
123.2744528305
 21
156.4550770697
  0
LINE
  5
35D
100
AcDbEntity
  8
0
100
AcDbLine
 62
7
  6
CONTINUOUS
 10
123.6344528305
 20
169.6882025152
 11
123.6344528305
 21
163.4882025152
  0
LINE
  5
35E
100
AcDbEntity
  8
0
100
AcDbLine
 62
7
  6
CONTINUOUS
 10
124.0029224354
 20
102.0325169136
 11
124.0029224354
 21
106.569111764
  0
LINE
  5
35F
100
AcDbEntity
  8
0
100
AcDbLine
 62
7
  6
CONTINUOUS
 10
124.4459774553
 20
163.4882025152
 11
124.4459774553
 21
169.6882025152
  0
LINE
  5
360
100
AcDbEntity
  8
0
100
AcDbLine
 62
7
  6
CONTINUOUS
 10
125.5280102237
 20
169.6882025152
 11
125.5280102237
 21
163.4882025152
  0
LINE
  5
361
100
AcDbEntity
  8
0
100
AcDbLine
 62
7
  6
CONTINUOUS
 10
126.3395348485
 20
163.4882025152
 11
126.3395348485
 21
166.2584153204
  0
LINE
  5
362
100
AcDbEntity
  8
0
100
AcDbLine
 62
7
  6
CONTINUOUS
 10
126.3395348485
 20
167.0499045878
 11
126.3395348485
 21
169.0286281257
  0
LINE
  5
363
100
AcDbEntity
  8
0
100
AcDbLine
 62
7
  6
CONTINUOUS
 10
126.7329224354
 20
106.569111764
 11
126.7329224354
 21
105.6866425011
  0
LINE
  5
364
100
AcDbEntity
  8
0
100
AcDbLine
 62
7
  6
CONTINUOUS
 10
126.7329224354
 20
104.914481896
 11
126.7329224354
 21
99.3990490027
  0
LINE
  5
365
100
AcDbEntity
  8
0
100
AcDbLine
 62
7
  6
CONTINUOUS
 10
127.9809224354
 20
100.3182878183
 11
127.9809224354
 21
104.914481896
  0
LINE
  5
366
100
AcDbEntity
  8
0
100
AcDbLine
 62
7
  6
CONTINUOUS
 10
128.8744528305
 20
367.6966780251
 11
128.8744528305
 21
201.8134758726
  0
LINE
  5
367
100
AcDbEntity
  8
0
100
AcDbLine
 62
7
  6
CONTINUOUS
 10
129.7208875161
 20
168.2371388583
 11
129.7208875161
 21
167.8413938551
  0
LINE
  5
368
100
AcDbEntity
  8
0
100
AcDbLine
 62
7
  6
CONTINUOUS
 10
98.5021564738
 20
164.4116067528
 11
98.7604895607
 21
164.9392663567
  0
LINE
  5
369
100
AcDbEntity
  8
0
100
AcDbLine
 62
7
  6
CONTINUOUS
 10
104.7021557347
 20
164.4116067528
 11
104.9604895607
 21
164.9392663567
  0
LINE
  5
36A
100
AcDbEntity
  8
0
100
AcDbLine
 62
7
  6
CONTINUOUS
 10
97.9854895607
 20
165.0711812346
 11
97.7271564738
 21
164.675436601
  0
LINE
  5
36B
100
AcDbEntity
  8
0
100
AcDbLine
 62
7
  6
CONTINUOUS
 10
104.1854895607
 20
165.0711812346
 11
103.9271557347
 21
164.675436601
  0
LINE
  5
36C
100
AcDbEntity
  8
0
100
AcDbLine
 62
7
  6
CONTINUOUS
 10
92.5604895607
 20
166.786074832
 11
92.9479895607
 21
167.3137343436
  0
LINE
  5
36D
100
AcDbEntity
  8
0
100
AcDbLine
 62
7
  6
CONTINUOUS
 10
92.1729895607
 20
167.4456492214
 11
91.9146561042
 21
167.1818194657
  0
LINE
  5
36E
100
AcDbEntity
  8
0
100
AcDbLine
 62
7
  6
CONTINUOUS
 10
141.623248163
 20
164.675436601
 11
141.4879945748
 21
164.9392663567
  0
LINE
  5
36F
100
AcDbEntity
  8
0
100
AcDbLine
 62
7
  6
CONTINUOUS
 10
144.7340930737
 20
165.9945855646
 11
145.0046017979
 21
165.4669258683
  0
LINE
  5
370
100
AcDbEntity
  8
0
100
AcDbLine
 62
7
  6
CONTINUOUS
 10
136.0778301519
 20
168.5009686141
 11
136.213084514
 21
168.1052236109
  0
LINE
  5
371
100
AcDbEntity
  8
0
100
AcDbLine
 62
7
  6
CONTINUOUS
 10
140.8117235382
 20
164.9392663567
 11
140.9469786742
 21
164.5435216307
  0
LINE
  5
372
100
AcDbEntity
  8
0
100
AcDbLine
 62
7
  6
CONTINUOUS
 10
132.6964780648
 20
165.0711812346
 11
132.5612237027
 21
165.5988407462
  0
LINE
  5
373
100
AcDbEntity
  8
0
100
AcDbLine
 62
7
  6
CONTINUOUS
 10
131.7496990779
 20
165.5988407462
 11
131.88495344
 21
164.9392663567
  0
LINE
  5
374
100
AcDbEntity
  8
0
100
AcDbLine
 62
7
  6
CONTINUOUS
 10
137.0246091387
 20
168.1052236109
 11
136.8893555505
 21
168.7647983699
  0
LINE
  5
375
100
AcDbEntity
  8
0
100
AcDbLine
 62
7
  6
CONTINUOUS
 10
130.5324121408
 20
167.7094789772
 11
130.5324121408
 21
168.2371388583
  0
LINE
  5
376
100
AcDbEntity
  8
0
100
AcDbLine
 62
7
  6
CONTINUOUS
 10
131.7496990779
 20
167.5775640993
 11
131.7496990779
 21
165.5988407462
  0
LINE
  5
377
100
AcDbEntity
  8
0
100
AcDbLine
 62
7
  6
CONTINUOUS
 10
132.5612237027
 20
165.5988407462
 11
132.5612237027
 21
167.5775640993
  0
LINE
  5
378
100
AcDbEntity
  8
0
100
AcDbLine
 62
7
  6
CONTINUOUS
 10
133.3533203141
 20
103.4620845674
 11
133.3533203141
 21
103.0024651597
  0
LINE
  5
379
100
AcDbEntity
  8
0
100
AcDbLine
 62
7
  6
CONTINUOUS
 10
134.9957975769
 20
166.9179897099
 11
134.9957975769
 21
166.1265004425
  0
LINE
  5
37A
100
AcDbEntity
  8
0
100
AcDbLine
 62
7
  6
CONTINUOUS
 10
136.213084514
 20
166.1265004425
 11
136.213084514
 21
165.0711812346
  0
LINE
  5
37B
100
AcDbEntity
  8
0
100
AcDbLine
 62
7
  6
CONTINUOUS
 10
137.0246091387
 20
164.9392663567
 11
137.0246091387
 21
166.9179897099
  0
LINE
  5
37C
100
AcDbEntity
  8
KONSTRUKTIONSELEMENTE
100
AcDbLine
 62
7
  6
CONTINUOUS
 10
137.3146020837
 20
139.2550769489
 11
137.3146020837
 21
141.7550769489
  0
LINE
  5
37D
100
AcDbEntity
  8
0
100
AcDbLine
 62
7
  6
CONTINUOUS
 10
138.1066424877
 20
168.7647983699
 11
138.1066424877
 21
167.7094789772
  0
LINE
  5
37E
100
AcDbEntity
  8
0
100
AcDbLine
 62
7
  6
CONTINUOUS
 10
138.9181671124
 20
168.632883492
 11
138.9181671124
 21
163.4882025152
  0
LINE
  5
37F
100
AcDbEntity
  8
0
100
AcDbLine
 62
7
  6
CONTINUOUS
 10
139.7296917371
 20
163.4882025152
 11
139.7296917371
 21
169.6882025152
  0
LINE
  5
380
100
AcDbEntity
  8
0
100
AcDbLine
 62
7
  6
CONTINUOUS
 10
131.88495344
 20
168.2371388583
 11
131.7496990779
 21
167.5775640993
  0
LINE
  5
381
100
AcDbEntity
  8
0
100
AcDbLine
 62
7
  6
CONTINUOUS
 10
132.5612237027
 20
167.5775640993
 11
132.6964780648
 21
168.1052236109
  0
LINE
  5
382
100
AcDbEntity
  8
0
100
AcDbLine
 62
7
  6
CONTINUOUS
 10
129.7208875161
 20
167.8413938551
 11
129.5856335409
 21
167.4456492214
  0
LINE
  5
383
100
AcDbEntity
  8
0
100
AcDbLine
 62
7
  6
CONTINUOUS
 10
97.9854895607
 20
163.883947195
 11
98.5021564738
 21
164.4116067528
  0
LINE
  5
384
100
AcDbEntity
  8
0
100
AcDbLine
 62
7
  6
CONTINUOUS
 10
104.1854895607
 20
163.883947195
 11
104.7021557347
 21
164.4116067528
  0
LINE
  5
385
100
AcDbEntity
  8
0
100
AcDbLine
 62
7
  6
CONTINUOUS
 10
97.7271564738
 20
164.675436601
 11
97.3396564738
 21
164.4116067528
  0
LINE
  5
386
100
AcDbEntity
  8
0
100
AcDbLine
 62
7
  6
CONTINUOUS
 10
92.0438230173
 20
166.5222450762
 11
92.5604895607
 21
166.786074832
  0
LINE
  5
387
100
AcDbEntity
  8
0
100
AcDbLine
 62
7
  6
CONTINUOUS
 10
145.6808712867
 20
165.4669258683
 11
145.5456176985
 21
165.9945855646
  0
LINE
  5
388
100
AcDbEntity
  8
0
100
AcDbLine
 62
7
  6
CONTINUOUS
 10
145.5456176985
 20
168.2371388583
 11
145.4103641103
 21
168.7647983699
  0
LINE
  5
389
100
AcDbEntity
  8
0
100
AcDbLine
 62
7
  6
CONTINUOUS
 10
142.9757902361
 20
166.9179897099
 11
142.9757902361
 21
166.3903301983
  0
LINE
  5
38A
100
AcDbEntity
  8
0
100
AcDbLine
 62
7
  6
CONTINUOUS
 10
144.8693466619
 20
168.2371388583
 11
144.8693466619
 21
167.973308733
  0
LINE
  5
38B
100
AcDbEntity
  8
0
100
AcDbLine
 62
7
  6
CONTINUOUS
 10
145.0046017979
 20
165.4669258683
 11
145.0046017979
 21
164.9392663567
  0
LINE
  5
38C
100
AcDbEntity
  8
0
100
AcDbLine
 62
7
  6
CONTINUOUS
 10
145.5456176985
 20
167.973308733
 11
145.5456176985
 21
168.2371388583
  0
LINE
  5
38D
100
AcDbEntity
  8
0
100
AcDbLine
 62
7
  6
CONTINUOUS
 10
145.6808712867
 20
164.9392663567
 11
145.6808712867
 21
165.4669258683
  0
LINE
  5
38E
100
AcDbEntity
  8
RUNDUNGEN
100
AcDbLine
 62
7
  6
CONTINUOUS
 10
149.8744528305
 20
41.8405570142
 11
149.8744528305
 21
35.8301493741
  0
LINE
  5
38F
100
AcDbEntity
  8
RUNDUNGEN
100
AcDbLine
 62
7
  6
CONTINUOUS
 10
152.8744528305
 20
127.0050769489
 11
152.8744528305
 21
169.7550769489
  0
LINE
  5
390
100
AcDbEntity
  8
0
100
AcDbLine
 62
7
  6
CONTINUOUS
 10
154.2478830393
 20
157.6163275485
 11
154.2478830393
 21
174.1001666881
  0
LINE
  5
391
100
AcDbEntity
  8
0
100
AcDbLine
 62
7
  6
CONTINUOUS
 10
136.8893555505
 20
164.4116067528
 11
137.0246091387
 21
164.9392663567
  0
LINE
  5
392
100
AcDbEntity
  8
0
100
AcDbLine
 62
7
  6
CONTINUOUS
 10
141.0822322624
 20
168.7647983699
 11
140.9469786742
 21
168.2371388583
  0
LINE
  5
393
100
AcDbEntity
  8
0
100
AcDbLine
 62
7
  6
CONTINUOUS
 10
145.4103641103
 20
167.4456492214
 11
145.5456176985
 21
167.973308733
  0
LINE
  5
394
100
AcDbEntity
  8
0
100
AcDbLine
 62
7
  6
CONTINUOUS
 10
130.3971577787
 20
167.3137343436
 11
130.5324121408
 21
167.7094789772
  0
LINE
  5
395
100
AcDbEntity
  8
0
100
AcDbLine
 62
7
  6
CONTINUOUS
 10
136.213084514
 20
165.0711812346
 11
136.0778301519
 21
164.675436601
  0
LINE
  5
396
100
AcDbEntity
  8
0
100
AcDbLine
 62
7
  6
CONTINUOUS
 10
132.1554613903
 20
168.7647983699
 11
131.88495344
 21
168.2371388583
  0
LINE
  5
397
100
AcDbEntity
  8
0
100
AcDbLine
 62
7
  6
CONTINUOUS
 10
132.6964780648
 20
168.1052236109
 11
132.966986015
 21
168.5009686141
  0
LINE
  5
398
100
AcDbEntity
  8
0
100
AcDbLine
 62
7
  6
CONTINUOUS
 10
129.9913958533
 20
166.786074832
 11
130.3971577787
 21
167.3137343436
  0
LINE
  5
399
100
AcDbEntity
  8
0
100
AcDbLine
 62
7
  6
CONTINUOUS
 10
103.9271557347
 20
164.675436601
 11
103.5396557347
 21
164.4116067528
  0
LINE
  5
39A
100
AcDbEntity
  8
0
100
AcDbLine
 62
7
  6
CONTINUOUS
 10
97.4688226477
 20
163.6201174046
 11
97.9854895607
 21
163.883947195
  0
LINE
  5
39B
100
AcDbEntity
  8
0
100
AcDbLine
 62
7
  6
CONTINUOUS
 10
103.6688233868
 20
163.6201174046
 11
104.1854895607
 21
163.883947195
  0
LINE
  5
39C
100
AcDbEntity
  8
0
100
AcDbLine
 62
7
  6
CONTINUOUS
 10
91.9146561042
 20
167.1818194657
 11
91.5271561042
 21
167.0499045878
  0
LINE
  5
39D
100
AcDbEntity
  8
0
100
AcDbLine
 62
7
  6
CONTINUOUS
 10
102.8744528305
 20
237.0815579688
 11
93.7195425697
 21
234.6285071576
  0
LINE
  5
39E
100
AcDbEntity
  8
0
100
AcDbLine
 62
7
  6
CONTINUOUS
 10
138.0293630913
 20
234.6285071576
 11
128.8744528305
 21
237.0815579688
  0
LINE
  5
39F
100
AcDbEntity
  8
0
100
AcDbLine
 62
7
  6
CONTINUOUS
 10
154.2478830393
 20
218.4099872096
 11
138.0293630913
 21
234.6285071576
  0
LINE
  5
3A0
100
AcDbEntity
  8
RUNDUNGEN
100
AcDbLine
 62
7
  6
CONTINUOUS
 10
159.8744528305
 20
39.7192366706
 11
159.8744528305
 21
51.8165660428
  0
LINE
  5
3A1
100
AcDbEntity
  8
0
100
AcDbLine
 62
7
  6
CONTINUOUS
 10
154.2478830393
 20
157.6163275485
 11
152.8744528305
 21
149.8272177748
  0
LINE
  5
3A2
100
AcDbEntity
  8
0
100
AcDbLine
 62
7
  6
CONTINUOUS
 10
154.2478830393
 20
174.1001666881
 11
160.1842733521
 21
196.2550769489
  0
LINE
  5
3A3
100
AcDbEntity
  8
0
100
AcDbLine
 62
7
  6
CONTINUOUS
 10
145.5456176985
 20
164.5435216307
 11
145.6808712867
 21
164.9392663567
  0
LINE
  5
3A4
100
AcDbEntity
  8
0
100
AcDbLine
 62
7
  6
CONTINUOUS
 10
144.8693466619
 20
167.973308733
 11
144.5988394856
 21
167.4456492214
  0
LINE
  5
3A5
100
AcDbEntity
  8
0
100
AcDbLine
 62
7
  6
CONTINUOUS
 10
145.0046017979
 20
164.9392663567
 11
144.8693466619
 21
164.675436601
  0
LINE
  5
3A6
100
AcDbEntity
  8
0
100
AcDbLine
 62
7
  6
CONTINUOUS
 10
141.623248163
 20
168.2371388583
 11
141.8937568872
 21
168.632883492
  0
LINE
  5
3A7
100
AcDbEntity
  8
0
100
AcDbLine
 62
7
  6
CONTINUOUS
 10
145.1398553861
 20
167.0499045878
 11
145.4103641103
 21
167.4456492214
  0
LINE
  5
3A8
100
AcDbEntity
  8
0
100
AcDbLine
 62
7
  6
CONTINUOUS
 10
145.2751089743
 20
164.147776997
 11
145.5456176985
 21
164.5435216307
  0
LINE
  5
3A9
100
AcDbEntity
  8
0
100
AcDbLine
 62
7
  6
CONTINUOUS
 10
138.9181671124
 20
169.6882025152
 11
138.1066424877
 21
168.7647983699
  0
LINE
  5
3AA
100
AcDbEntity
  8
0
100
AcDbLine
 62
7
  6
CONTINUOUS
 10
138.1066424877
 20
167.7094789772
 11
138.9181671124
 21
168.632883492
  0
LINE
  5
3AB
100
AcDbEntity
  8
0
100
AcDbLine
 62
7
  6
CONTINUOUS
 10
129.5856335409
 20
167.4456492214
 11
129.3151252037
 21
167.1818194657
  0
LINE
  5
3AC
100
AcDbEntity
  8
0
100
AcDbLine
 62
7
  6
CONTINUOUS
 10
132.6964780648
 20
169.2924578815
 11
132.1554613903
 21
168.7647983699
  0
LINE
  5
3AD
100
AcDbEntity
  8
0
100
AcDbLine
 62
7
  6
CONTINUOUS
 10
141.623248163
 20
169.2924578815
 11
141.0822322624
 21
168.7647983699
  0
LINE
  5
3AE
100
AcDbEntity
  8
0
100
AcDbLine
 62
7
  6
CONTINUOUS
 10
136.3483388761
 20
163.883947195
 11
136.8893555505
 21
164.4116067528
  0
LINE
  5
3AF
100
AcDbEntity
  8
0
100
AcDbLine
 62
7
  6
CONTINUOUS
 10
144.5988394856
 20
167.4456492214
 11
144.3283307614
 21
167.1818194657
  0
LINE
  5
3B0
100
AcDbEntity
  8
0
100
AcDbLine
 62
7
  6
CONTINUOUS
 10
144.5988394856
 20
166.6541599541
 11
145.1398553861
 21
167.0499045878
  0
LINE
  5
3B1
100
AcDbEntity
  8
0
100
AcDbLine
 62
7
  6
CONTINUOUS
 10
132.966986015
 20
168.5009686141
 11
133.3727483274
 21
168.7647983699
  0
LINE
  5
3B2
100
AcDbEntity
  8
0
100
AcDbLine
 62
7
  6
CONTINUOUS
 10
141.8937568872
 20
168.632883492
 11
142.2995191995
 21
168.8967132478
  0
LINE
  5
3B3
100
AcDbEntity
  8
0
100
AcDbLine
 62
7
  6
CONTINUOUS
 10
136.0778301519
 20
164.675436601
 11
135.6720678395
 21
164.4116067528
  0
LINE
  5
3B4
100
AcDbEntity
  8
RUNDUNGEN
100
AcDbLine
 62
7
  6
CONTINUOUS
 10
64.1297160333
 20
127.6519336836
 11
62.4914119447
 21
126.8407741082
  0
LINE
  5
3B5
100
AcDbEntity
  8
0
100
AcDbLine
 62
7
  6
CONTINUOUS
 10
133.2374939653
 20
169.5562876373
 11
132.6964780648
 21
169.2924578815
  0
LINE
  5
3B6
100
AcDbEntity
  8
0
100
AcDbLine
 62
7
  6
CONTINUOUS
 10
129.4503791788
 20
166.5222450762
 11
129.9913958533
 21
166.786074832
  0
LINE
  5
3B7
100
AcDbEntity
  8
0
100
AcDbLine
 62
7
  6
CONTINUOUS
 10
142.1642656114
 20
169.5562876373
 11
141.623248163
 21
169.2924578815
  0
LINE
  5
3B8
100
AcDbEntity
  8
0
100
AcDbLine
 62
7
  6
CONTINUOUS
 10
135.8073222016
 20
163.6201174046
 11
136.3483388761
 21
163.883947195
  0
LINE
  5
3B9
100
AcDbEntity
  8
0
100
AcDbLine
 62
7
  6
CONTINUOUS
 10
129.3151252037
 20
167.1818194657
 11
128.9093628913
 21
167.0499045878
  0
LINE
  5
3BA
100
AcDbEntity
  8
0
100
AcDbLine
 62
7
  6
CONTINUOUS
 10
144.3283307614
 20
167.1818194657
 11
143.5168061366
 21
166.9179897099
  0
LINE
  5
3BB
100
AcDbEntity
  8
0
100
AcDbLine
 62
7
  6
CONTINUOUS
 10
160.1842733521
 20
196.2550769489
 11
154.2478830393
 21
218.4099872096
  0
LINE
  5
3BC
100
AcDbEntity
  8
RUNDUNGEN
100
AcDbLine
 62
7
  6
CONTINUOUS
 10
173.3869490208
 20
120.5244651209
 11
173.3869490208
 21
124.0599990269
  0
LINE
  5
3BD
100
AcDbEntity
  8
0
100
AcDbLine
 62
7
  6
CONTINUOUS
 10
144.8693466619
 20
164.675436601
 11
144.5988394856
 21
164.4116067528
  0
LINE
  5
3BE
100
AcDbEntity
  8
0
100
AcDbLine
 62
7
  6
CONTINUOUS
 10
144.8693466619
 20
163.883947195
 11
145.2751089743
 21
164.147776997
  0
LINE
  5
3BF
100
AcDbEntity
  8
RUNDUNGEN
100
AcDbLine
 62
7
  6
CONTINUOUS
 10
64.1297160333
 20
124.1163997776
 11
62.4914119447
 21
123.3052402023
  0
LINE
  5
3C0
100
AcDbEntity
  8
0
100
AcDbLine
 62
7
  6
CONTINUOUS
 10
144.5988394856
 20
164.4116067528
 11
144.3283307614
 21
164.2796918749
  0
LINE
  5
3C1
100
AcDbEntity
  8
0
100
AcDbLine
 62
7
  6
CONTINUOUS
 10
144.3283307614
 20
163.6201174046
 11
144.8693466619
 21
163.883947195
  0
LINE
  5
3C2
100
AcDbEntity
  8
RUNDUNGEN
100
AcDbLine
 62
7
  6
CONTINUOUS
 10
152.8744528305
 20
127.0050769489
 11
146.8744528305
 21
117.2550769489
  0
LINE
  5
3C3
100
AcDbEntity
  8
RUNDUNGEN
100
AcDbLine
 62
7
  6
CONTINUOUS
 10
71.545422109
 20
115.7030234221
 11
67.2039162743
 21
113.5534505475
  0
LINE
  5
3C4
100
AcDbEntity
  8
RUNDUNGEN
100
AcDbLine
 62
7
  6
CONTINUOUS
 10
74.316264085
 20
109.9065576832
 11
78.6577699198
 21
112.0561305579
  0
LINE
  5
3C5
100
AcDbEntity
  8
RUNDUNGEN
100
AcDbLine
 62
7
  6
CONTINUOUS
 10
104.4029241035
 20
121.6632687523
 11
98.6688597935
 21
118.8242102386
  0
LINE
  5
3C6
100
AcDbEntity
  8
RUNDUNGEN
100
AcDbLine
 62
7
  6
CONTINUOUS
 10
74.316264085
 20
106.3710237773
 11
78.6577699198
 21
108.5205966519
  0
LINE
  5
3C7
100
AcDbEntity
  8
RUNDUNGEN
100
AcDbLine
 62
7
  6
CONTINUOUS
 10
91.9719322872
 20
73.4497682506
 11
72.9595405648
 21
54.2500447689
  0
LINE
  5
3C8
100
AcDbEntity
  8
RUNDUNGEN
100
AcDbLine
 62
7
  6
CONTINUOUS
 10
91.9719322872
 20
69.9142343447
 11
72.9595405648
 21
50.7145108629
  0
LINE
  5
3C9
100
AcDbEntity
  8
RUNDUNGEN
100
AcDbLine
 62
7
  6
CONTINUOUS
 10
152.5768845537
 20
117.8857480982
 11
162.8677677601
 21
128.2780288187
  0
LINE
  5
3CA
100
AcDbEntity
  8
RUNDUNGEN
100
AcDbLine
 62
7
  6
CONTINUOUS
 10
152.5768845537
 20
114.3502141923
 11
162.8677677601
 21
124.7424949127
  0
LINE
  5
3CB
100
AcDbEntity
  8
RUNDUNGEN
100
AcDbLine
 62
7
  6
CONTINUOUS
 10
102.0543569066
 20
48.0431231591
 11
109.3212364762
 21
55.3816043113
  0
LINE
  5
3CC
100
AcDbEntity
  8
RUNDUNGEN
100
AcDbLine
 62
7
  6
CONTINUOUS
 10
139.7769733739
 20
86.1374258516
 11
173.0252531093
 21
119.7133055456
  0
ARC
  5
3CD
100
AcDbEntity
  8
KONSTRUKTIONSELEMENTE
100
AcDbCircle
 62
7
  6
CONTINUOUS
 10
353.1059582082
 20
123.9002989709
 40
9.55
100
AcDbArc
 50
135.0
 51
209.8048644765
  0
ARC
  5
3CE
100
AcDbEntity
  8
KONSTRUKTIONSELEMENTE
100
AcDbCircle
 62
7
  6
CONTINUOUS
 10
353.1059582082
 20
123.9002989709
 40
9.55
100
AcDbArc
 50
240.1951355235
 51
315.0
  0
ARC
  5
3CF
100
AcDbEntity
  8
KONSTRUKTIONSELEMENTE
100
AcDbCircle
 62
7
  6
CONTINUOUS
 10
361.5205289044
 20
132.314869667
 40
9.55
100
AcDbArc
 50
315.0
 51
31.3702929546
  0
ARC
  5
3D0
100
AcDbEntity
  8
KONSTRUKTIONSELEMENTE
100
AcDbCircle
 62
7
  6
CONTINUOUS
 10
361.5205289044
 20
132.314869667
 40
9.55
100
AcDbArc
 50
58.6297070454
 51
135.0
  0
ARC
  5
3D1
100
AcDbEntity
  8
KONSTRUKTIONSELEMENTE
100
AcDbCircle
 62
7
  6
CONTINUOUS
 10
353.1059582082
 20
123.9002989709
 40
4.55
100
AcDbArc
 50
135.0
 51
191.6416672297
  0
ARC
  5
3D2
100
AcDbEntity
  8
KONSTRUKTIONSELEMENTE
100
AcDbCircle
 62
7
  6
CONTINUOUS
 10
353.1059582082
 20
123.9002989709
 40
4.55
100
AcDbArc
 50
258.3583327703
 51
315.0
  0
ARC
  5
3D3
100
AcDbEntity
  8
KONSTRUKTIONSELEMENTE
100
AcDbCircle
 62
7
  6
CONTINUOUS
 10
361.5205289044
 20
132.314869667
 40
4.55
100
AcDbArc
 50
315.0
 51
15.3477978529
  0
ARC
  5
3D4
100
AcDbEntity
  8
KONSTRUKTIONSELEMENTE
100
AcDbCircle
 62
7
  6
CONTINUOUS
 10
361.5205289044
 20
132.314869667
 40
4.55
100
AcDbArc
 50
74.6522021471
 51
135.0
  0
ARC
  5
3D5
100
AcDbEntity
  8
KONSTRUKTIONSELEMENTE
100
AcDbCircle
 62
7
  6
CONTINUOUS
 10
362.7933211105
 20
133.5876618731
 40
2.25
100
AcDbArc
 50
135.0
 51
315.0
  0
ARC
  5
3D6
100
AcDbEntity
  8
KONSTRUKTIONSELEMENTE
100
AcDbCircle
 62
7
  6
CONTINUOUS
 10
382.4155342884
 20
153.209875051
 40
8.0
100
AcDbArc
 50
135.0
 51
208.6357041722
  0
ARC
  5
3D7
100
AcDbEntity
  8
KONSTRUKTIONSELEMENTE
100
AcDbCircle
 62
7
  6
CONTINUOUS
 10
382.4155342884
 20
153.209875051
 40
8.0
100
AcDbArc
 50
241.3642958278
 51
315.0
  0
ARC
  5
3D8
100
AcDbEntity
  8
KONSTRUKTIONSELEMENTE
100
AcDbCircle
 62
7
  6
CONTINUOUS
 10
382.4155342884
 20
153.209875051
 40
3.5
100
AcDbArc
 50
135.0
 51
184.8461224921
  0
ARC
  5
3D9
100
AcDbEntity
  8
KONSTRUKTIONSELEMENTE
100
AcDbCircle
 62
7
  6
CONTINUOUS
 10
382.4155342884
 20
153.209875051
 40
3.5
100
AcDbArc
 50
265.1538775079
 51
315.0
  0
ARC
  5
3DA
100
AcDbEntity
  8
KONSTRUKTIONSELEMENTE
100
AcDbCircle
 62
7
  6
CONTINUOUS
 10
381.5316508119
 20
152.3259915746
 40
2.25
100
AcDbArc
 50
315.0
 51
135.0
  0
ARC
  5
3DB
100
AcDbEntity
  8
0
100
AcDbCircle
 62
7
  6
CONTINUOUS
 10
381.771628375
 20
184.9016460151
 40
98.6761507302
100
AcDbArc
 50
2.2609779608
 51
6.6069414076
  0
ARC
  5
3DC
100
AcDbEntity
  8
KONSTRUKTIONSELEMENTE
100
AcDbCircle
 62
7
  6
CONTINUOUS
 10
393.0221360062
 20
163.8164767688
 40
8.0
100
AcDbArc
 50
315.0
 51
28.6357041722
  0
ARC
  5
3DD
100
AcDbEntity
  8
KONSTRUKTIONSELEMENTE
100
AcDbCircle
 62
7
  6
CONTINUOUS
 10
393.0221360062
 20
163.8164767688
 40
8.0
100
AcDbArc
 50
61.3642958278
 51
135.0
  0
ARC
  5
3DE
100
AcDbEntity
  8
KONSTRUKTIONSELEMENTE
100
AcDbCircle
 62
7
  6
CONTINUOUS
 10
393.0221360062
 20
163.8164767688
 40
3.5
100
AcDbArc
 50
315.0
 51
4.8461224921
  0
ARC
  5
3DF
100
AcDbEntity
  8
KONSTRUKTIONSELEMENTE
100
AcDbCircle
 62
7
  6
CONTINUOUS
 10
393.0221360062
 20
163.8164767688
 40
3.5
100
AcDbArc
 50
85.1538775079
 51
135.0
  0
ARC
  5
3E0
100
AcDbEntity
  8
KONSTRUKTIONSELEMENTE
100
AcDbCircle
 62
7
  6
CONTINUOUS
 10
393.9060194827
 20
164.7003602453
 40
2.25
100
AcDbArc
 50
135.0
 51
315.0
  0
ARC
  5
3E1
100
AcDbEntity
  8
KONSTRUKTIONSELEMENTE
100
AcDbCircle
 62
7
  6
CONTINUOUS
 10
414.2706947809
 20
185.0650355435
 40
9.55
100
AcDbArc
 50
135.0
 51
211.3702929546
  0
ARC
  5
3E2
100
AcDbEntity
  8
KONSTRUKTIONSELEMENTE
100
AcDbCircle
 62
7
  6
CONTINUOUS
 10
414.2706947809
 20
185.0650355435
 40
9.55
100
AcDbArc
 50
238.6297070454
 51
315.0
  0
ARC
  5
3E3
100
AcDbEntity
  8
KONSTRUKTIONSELEMENTE
100
AcDbCircle
 62
7
  6
CONTINUOUS
 10
422.685265477
 20
193.4796062396
 40
9.55
100
AcDbArc
 50
315.0
 51
23.4834236623
  0
ARC
  5
3E4
100
AcDbEntity
  8
KONSTRUKTIONSELEMENTE
100
AcDbCircle
 62
7
  6
CONTINUOUS
 10
422.685265477
 20
193.4796062396
 40
9.55
100
AcDbArc
 50
66.5165763377
 51
135.0
  0
ARC
  5
3E5
100
AcDbEntity
  8
KONSTRUKTIONSELEMENTE
100
AcDbCircle
 62
7
  6
CONTINUOUS
 10
414.2706947809
 20
185.0650355435
 40
4.55
100
AcDbArc
 50
135.0
 51
195.3477978529
  0
ARC
  5
3E6
100
AcDbEntity
  8
KONSTRUKTIONSELEMENTE
100
AcDbCircle
 62
7
  6
CONTINUOUS
 10
414.2706947809
 20
185.0650355435
 40
4.55
100
AcDbArc
 50
254.6522021471
 51
315.0
  0
ARC
  5
3E7
100
AcDbEntity
  8
KONSTRUKTIONSELEMENTE
100
AcDbCircle
 62
7
  6
CONTINUOUS
 10
422.685265477
 20
193.4796062396
 40
4.55
100
AcDbArc
 50
315.0
 51
354.6813067117
  0
ARC
  5
3E8
100
AcDbEntity
  8
KONSTRUKTIONSELEMENTE
100
AcDbCircle
 62
7
  6
CONTINUOUS
 10
422.685265477
 20
193.4796062396
 40
4.55
100
AcDbArc
 50
95.3186932883
 51
135.0
  0
ARC
  5
3E9
100
AcDbEntity
  8
KONSTRUKTIONSELEMENTE
100
AcDbCircle
 62
7
  6
CONTINUOUS
 10
422.7206208161
 20
193.5149615787
 40
3.5
100
AcDbArc
 50
135.0
 51
315.0
  0
ARC
  5
3EA
100
AcDbEntity
  8
KONSTRUKTIONSELEMENTE
100
AcDbCircle
 62
7
  6
CONTINUOUS
 10
412.6443491841
 20
183.4386899468
 40
2.25
100
AcDbArc
 50
315.0
 51
135.0
  0
ARC
  5
3EB
100
AcDbEntity
  8
KONSTRUKTIONSELEMENTE
100
AcDbCircle
 62
7
  6
CONTINUOUS
 10
455.9546395318
 20
226.7489802944
 40
3.5
100
AcDbArc
 50
315.0
 51
135.0
  0
ARC
  5
3EC
100
AcDbEntity
  8
0
100
AcDbCircle
 62
7
  6
CONTINUOUS
 10
571.1498439975
 20
184.9016460151
 40
98.6761507302
100
AcDbArc
 50
173.3930585924
 51
177.7390220392
  0
ARC
  5
3ED
100
AcDbEntity
  8
0
100
AcDbCircle
 62
7
  6
CONTINUOUS
 10
475.1607361862
 20
135.4550769489
 40
18.2
100
AcDbArc
 50
180.0
 51
270.0
  0
ARC
  5
3EE
100
AcDbEntity
  8
RUNDUNGEN
100
AcDbCircle
 62
7
  6
CONTINUOUS
 10
477.7607361862
 20
135.4550769489
 40
18.2
100
AcDbArc
 50
270.0
 51
360.0
  0
ARC
  5
3EF
100
AcDbEntity
  8
RUNDUNGEN
100
AcDbCircle
 62
7
  6
CONTINUOUS
 10
477.7611372645
 20
135.4168781297
 40
18.1618011854
100
AcDbArc
 50
269.9987258299
 51
273.5541637674
  0
ARC
  5
3F0
100
AcDbEntity
  8
RUNDUNGEN
100
AcDbCircle
 62
7
  6
CONTINUOUS
 10
477.7663559248
 20
135.3225059769
 40
18.0672870399
100
AcDbArc
 50
273.5561987662
 51
274.0823722752
  0
ARC
  5
3F1
100
AcDbEntity
  8
RUNDUNGEN
100
AcDbCircle
 62
7
  6
CONTINUOUS
 10
477.7784631565
 20
135.1698541516
 40
17.9141606531
100
AcDbArc
 50
274.0785050125
 51
277.0820430932
  0
ARC
  5
3F2
100
AcDbEntity
  8
RUNDUNGEN
100
AcDbCircle
 62
7
  6
CONTINUOUS
 10
477.8024741067
 20
134.9659360549
 40
17.7088380512
100
AcDbArc
 50
277.0862924982
 51
277.6817854216
  0
CIRCLE
  5
3F3
100
AcDbEntity
  8
BEZUGSACHSEN
100
AcDbCircle
 62
7
  6
CONTINUOUS
 10
476.4607361862
 20
138.6550769489
 40
9.25
  0
ARC
  5
3F4
100
AcDbEntity
  8
0
100
AcDbCircle
 62
7
  6
CONTINUOUS
 10
468.4607361862
 20
171.7550769489
 40
6.0
100
AcDbArc
 50
96.8529514418
 51
179.9997541295
  0
ARC
  5
3F5
100
AcDbEntity
  8
RUNDUNGEN
100
AcDbCircle
 62
7
  6
CONTINUOUS
 10
484.4607361862
 20
171.7550769489
 40
6.0
100
AcDbArc
 50
0.0002458705
 51
83.1470485582
  0
ARC
  5
3F6
100
AcDbEntity
  8
0
100
AcDbCircle
 62
7
  6
CONTINUOUS
 10
476.4607361862
 20
247.2550769489
 40
58.5
100
AcDbArc
 50
279.346956501
 51
360.0
  0
ARC
  5
3F7
100
AcDbEntity
  8
0
100
AcDbCircle
 62
7
  6
CONTINUOUS
 10
476.4607361862
 20
247.2550769489
 40
58.5
100
AcDbArc
 50
228.430431428
 51
260.653043499
  0
ARC
  5
3F8
100
AcDbEntity
  8
0
100
AcDbCircle
 62
7
  6
CONTINUOUS
 10
476.4607361862
 20
247.2550769489
 40
58.5
100
AcDbArc
 50
180.0
 51
221.569568572
  0
ARC
  5
3F9
100
AcDbEntity
  8
0
100
AcDbCircle
 62
7
  6
CONTINUOUS
 10
476.4607361862
 20
322.2550769489
 40
58.5
100
AcDbArc
 50
0.0
 51
180.0
  0
ARC
  5
3FA
100
AcDbEntity
  8
0
100
AcDbCircle
 62
7
  6
CONTINUOUS
 10
476.4607361862
 20
247.2550769489
 40
32.5
100
AcDbArc
 50
287.0019807052
 51
360.0
  0
ARC
  5
3FB
100
AcDbEntity
  8
0
100
AcDbCircle
 62
7
  6
CONTINUOUS
 10
476.4607361862
 20
247.2550769489
 40
32.5
100
AcDbArc
 50
231.1828927725
 51
252.9980192948
  0
ARC
  5
3FC
100
AcDbEntity
  8
0
100
AcDbCircle
 62
7
  6
CONTINUOUS
 10
476.4607361862
 20
247.2550769489
 40
32.5
100
AcDbArc
 50
180.0
 51
218.8171072275
  0
ARC
  5
3FD
100
AcDbEntity
  8
0
100
AcDbCircle
 62
7
  6
CONTINUOUS
 10
476.4607361862
 20
322.2550769489
 40
32.5
100
AcDbArc
 50
0.0
 51
180.0
  0
ARC
  5
3FE
100
AcDbEntity
  8
BEZUGSACHSEN
100
AcDbCircle
 62
7
  6
CONTINUOUS
 10
476.4607361862
 20
224.2550769489
 40
9.5
100
AcDbArc
 50
0.0
 51
23.2527041394
  0
ARC
  5
3FF
100
AcDbEntity
  8
BEZUGSACHSEN
100
AcDbCircle
 62
7
  6
CONTINUOUS
 10
476.4607361862
 20
224.2550769489
 40
9.5
100
AcDbArc
 50
156.7472958606
 51
180.0
  0
ARC
  5
400
100
AcDbEntity
  8
KONSTRUKTIONSELEMENTE
100
AcDbCircle
 62
7
  6
CONTINUOUS
 10
115.8744528305
 20
78.1550769489
 40
46.8
100
AcDbArc
 50
56.6553646926
 51
80.9022287256
  0
ARC
  5
401
100
AcDbEntity
  8
KONSTRUKTIONSELEMENTE
100
AcDbCircle
 62
7
  6
CONTINUOUS
 10
115.8744528305
 20
78.1550769489
 40
46.8
100
AcDbArc
 50
99.0977712744
 51
123.3446353074
  0
ARC
  5
402
100
AcDbEntity
  8
BEZUGSACHSEN
100
AcDbCircle
 62
7
  6
CONTINUOUS
 10
115.8744528305
 20
196.2550769489
 40
18.5
100
AcDbArc
 50
134.6562818467
 51
45.3437181533
  0
ARC
  5
403
100
AcDbEntity
  8
0
100
AcDbCircle
 62
7
  6
CONTINUOUS
 10
115.8744528305
 20
367.7550769489
 40
13.0
100
AcDbArc
 50
0.0
 51
180.0
  0
ARC
  5
404
100
AcDbEntity
  8
0
100
AcDbCircle
 62
7
  6
CONTINUOUS
 10
115.8744528305
 20
201.7550769489
 40
13.0
100
AcDbArc
 50
180.0
 51
360.0
  0
ARC
  5
405
100
AcDbEntity
  8
KONSTRUKTIONSELEMENTE
100
AcDbCircle
 62
7
  6
CONTINUOUS
 10
115.731735968
 20
172.0244156497
 40
9.5600220347
100
AcDbArc
 50
250.2472929192
 51
257.2525711218
  0
ARC
  5
406
100
AcDbEntity
  8
KONSTRUKTIONSELEMENTE
100
AcDbCircle
 62
7
  6
CONTINUOUS
 10
116.0505450501
 20
171.9093977277
 40
9.4404839019
100
AcDbArc
 50
282.7159617125
 51
289.8017277657
  0
ARC
  5
407
100
AcDbEntity
  8
RUNDUNGEN
100
AcDbCircle
 62
7
  6
CONTINUOUS
 10
86.8744528305
 20
169.7550769489
 40
8.0
100
AcDbArc
 50
102.037384222
 51
180.0
  0
ARC
  5
408
100
AcDbEntity
  8
RUNDUNGEN
100
AcDbCircle
 62
7
  6
CONTINUOUS
 10
144.8744528305
 20
169.7550769489
 40
8.0
100
AcDbArc
 50
0.0
 51
77.962615778
  0
ARC
  5
409
100
AcDbEntity
  8
KONSTRUKTIONSELEMENTE
100
AcDbCircle
 62
7
  6
CONTINUOUS
 10
115.8744528305
 20
156.4550769489
 40
7.4
100
AcDbArc
 50
0.0000004677
 51
180.0
  0
ARC
  5
40A
100
AcDbEntity
  8
BEZUGSACHSEN
100
AcDbCircle
 62
7
  6
CONTINUOUS
 10
116.1381894987
 20
123.0661276254
 40
6.5895200384
100
AcDbArc
 50
289.870427744
 51
290.1415389211
  0
ARC
  5
40B
100
AcDbEntity
  8
BEZUGSACHSEN
100
AcDbCircle
 62
7
  6
CONTINUOUS
 10
115.6107161608
 20
123.0661276211
 40
6.5895200337
100
AcDbArc
 50
249.8584610789
 51
250.1295722562
  0
ARC
  5
40C
100
AcDbEntity
  8
RUNDUNGEN
100
AcDbCircle
 62
7
  6
CONTINUOUS
 10
86.5484638883
 20
171.2724388211
 40
6.4480177703
100
AcDbArc
 50
87.1020929239
 51
102.0162769368
  0
ARC
  5
40D
100
AcDbEntity
  8
RUNDUNGEN
100
AcDbCircle
 62
7
  6
CONTINUOUS
 10
145.2004427707
 20
171.2724489934
 40
6.4480076132
100
AcDbArc
 50
77.9837129179
 51
92.8957968452
  0
ARC
  5
40E
100
AcDbEntity
  8
RUNDUNGEN
100
AcDbCircle
 62
7
  6
CONTINUOUS
 10
77.1680948263
 20
115.0676531
 40
3.3598214098
100
AcDbArc
 50
296.3196901288
 51
302.1891466291
  0
CIRCLE
  5
40F
100
AcDbEntity
  8
BEZUGSACHSEN
100
AcDbCircle
 62
7
  6
CONTINUOUS
 10
91.2744528305
 20
138.6550769489
 40
3.0
  0
ARC
  5
410
100
AcDbEntity
  8
0
100
AcDbCircle
 62
7
  6
CONTINUOUS
 10
132.0760704582
 20
103.4471735993
 40
2.7679754318
100
AcDbArc
 50
350.5636876715
 51
355.3957076166
  0
ARC
  5
411
100
AcDbEntity
  8
KONSTRUKTIONSELEMENTE
100
AcDbCircle
 62
7
  6
CONTINUOUS
 10
115.8744528305
 20
116.8502989709
 40
2.5
100
AcDbArc
 50
180.0
 51
360.0
  0
ARC
  5
412
100
AcDbEntity
  8
KONSTRUKTIONSELEMENTE
100
AcDbCircle
 62
7
  6
CONTINUOUS
 10
115.8744528305
 20
178.0150355435
 40
2.5
100
AcDbArc
 50
358.1688338955
 51
360.0
  0
ARC
  5
413
100
AcDbEntity
  8
KONSTRUKTIONSELEMENTE
100
AcDbCircle
 62
7
  6
CONTINUOUS
 10
115.8744528305
 20
178.0150355435
 40
2.5
100
AcDbArc
 50
180.0
 51
181.8311661045
  0
ARC
  5
414
100
AcDbEntity
  8
0
100
AcDbCircle
 62
7
  6
CONTINUOUS
 10
101.785714143
 20
102.625880522
 40
0.5420477023
100
AcDbArc
 50
78.8903114983
 51
89.9692795104
  0
SPLINE
  5
415
100
AcDbEntity
  8
0
100
AcDbSpline
 62
7
  6
CONTINUOUS
 70
0
 71
3
 72
11
 73
7
 74
0
 42
0.0000001
 43
0.0000001
 44
0.0000000001
 40
0.0
 40
0.0
 40
0.0
 40
0.0
 40
0.2551771482
 40
0.5000000006
 40
0.7448228526
 40
1.0
 40
1.0
 40
1.0
 40
1.0
 10
473.1290180013
 20
240.5648974704
 30
0.0
 10
472.9238884489
 20
240.0875076295
 30
0.0
 10
472.5972642527
 20
239.1157471376
 30
0.0
 10
472.4230127399
 20
237.596702311
 30
0.0
 10
472.5972642551
 20
236.0776574867
 30
0.0
 10
472.9238884496
 20
235.1058969969
 30
0.0
 10
473.1290180013
 20
234.6285071576
 30
0.0
  0
SPLINE
  5
416
100
AcDbEntity
  8
0
100
AcDbSpline
 62
7
  6
CONTINUOUS
 70
0
 71
3
 72
11
 73
7
 74
0
 42
0.0000001
 43
0.0000001
 44
0.0000000001
 40
0.0
 40
0.0
 40
0.0
 40
0.0
 40
0.2551771482
 40
0.5000000006
 40
0.7448228526
 40
1.0
 40
1.0
 40
1.0
 40
1.0
 10
479.7924543711
 20
240.5648974704
 30
0.0
 10
479.9975839235
 20
240.0875076295
 30
0.0
 10
480.3242081197
 20
239.1157471376
 30
0.0
 10
480.4984596326
 20
237.596702311
 30
0.0
 10
480.3242081174
 20
236.0776574867
 30
0.0
 10
479.9975839228
 20
235.1058969969
 30
0.0
 10
479.7924543711
 20
234.6285071576
 30
0.0
  0
SPLINE
  5
417
100
AcDbEntity
  8
0
100
AcDbSpline
 62
7
  6
CONTINUOUS
 70
0
 71
3
 72
11
 73
7
 74
0
 42
0.0000001
 43
0.0000001
 44
0.0000000001
 40
0.0
 40
0.0
 40
0.0
 40
0.0
 40
0.2500294942
 40
0.5000000006
 40
0.7499705067
 40
1.0
 40
1.0
 40
1.0
 40
1.0
 10
479.7924543711
 20
218.4099872096
 30
0.0
 10
480.0041010062
 20
216.5717402516
 30
0.0
 10
480.3300393789
 20
212.8835351688
 30
0.0
 10
480.4967486421
 20
207.3325320683
 30
0.0
 10
480.3300393765
 20
201.7815289743
 30
0.0
 10
480.0041010054
 20
198.0933239006
 30
0.0
 10
479.7924543711
 20
196.2550769489
 30
0.0
  0
SPLINE
  5
418
100
AcDbEntity
  8
0
100
AcDbSpline
 62
7
  6
CONTINUOUS
 70
0
 71
3
 72
11
 73
7
 74
0
 42
0.0000001
 43
0.0000001
 44
0.0000000001
 40
0.0
 40
0.0
 40
0.0
 40
0.0
 40
0.250391743
 40
0.5000000006
 40
0.7496082578
 40
1.0
 40
1.0
 40
1.0
 40
1.0
 10
479.7924543711
 20
234.6285071576
 30
0.0
 10
480.0036035099
 20
233.2859801649
 30
0.0
 10
480.3296542792
 20
230.5887913094
 30
0.0
 10
480.4968603668
 20
226.5192471756
 30
0.0
 10
480.3296542768
 20
222.4497030467
 30
0.0
 10
480.0036035092
 20
219.7525141978
 30
0.0
 10
479.7924543711
 20
218.4099872096
 30
0.0
  0
SPLINE
  5
419
100
AcDbEntity
  8
RUNDUNGEN
100
AcDbSpline
 62
7
  6
CONTINUOUS
 70
0
 71
3
 72
21
 73
17
 74
0
 42
0.0000001
 43
0.0000001
 44
0.0000000001
 40
0.0
 40
0.0
 40
0.0
 40
0.0
 40
0.132757348
 40
0.2637166388
 40
0.391846545
 40
0.5160012262
 40
0.5763736596
 40
0.6354279202
 40
0.6932205647
 40
0.7501681365
 40
0.778798421
 40
0.8078638659
 40
0.8377367771
 40
0.8687097745
 40
0.9333685728
 40
1.0
 40
1.0
 40
1.0
 40
1.0
 10
480.1696346907
 20
117.4160216423
 30
0.0
 10
480.9282998688
 20
117.5183546794
 30
0.0
 10
482.4242488833
 20
117.819785987
 30
0.0
 10
484.5628306035
 20
118.57422513
 30
0.0
 10
486.5128692081
 20
119.6353814743
 30
0.0
 10
487.9155726974
 20
120.7945104691
 30
0.0
 10
488.8104175417
 20
121.8825969394
 30
0.0
 10
489.3334871528
 20
122.7664368472
 30
0.0
 10
489.6731053398
 20
123.7169096679
 30
0.0
 10
489.7482444376
 20
124.5542360048
 30
0.0
 10
489.6346464166
 20
125.2092693453
 30
0.0
 10
489.447755956
 20
125.6827735155
 30
0.0
 10
489.1488657742
 20
126.1124990592
 30
0.0
 10
488.6003223132
 20
126.5951359795
 30
0.0
 10
487.7051571956
 20
126.9472429746
 30
0.0
 10
486.9448194708
 20
127.0050769489
 30
0.0
 10
486.5605941396
 20
127.0050769489
 30
0.0
  0
LINE
  5
41A
100
AcDbEntity
  8
0
100
AcDbLine
 62
7
  6
CONTINUOUS
 10
468.4607361862
 20
159.2180982527
 11
462.4607361862
 21
161.1098909859
  0
SPLINE
  5
41B
100
AcDbEntity
  8
0
100
AcDbSpline
 62
7
  6
CONTINUOUS
 70
0
 71
3
 72
9
 73
5
 74
0
 42
0.0000001
 43
0.0000001
 44
0.0000000001
 40
0.0
 40
0.0
 40
0.0
 40
0.0
 40
0.4841561799
 40
1.0
 40
1.0
 40
1.0
 40
1.0
 10
467.7448066252
 20
177.712210896
 30
0.0
 10
467.8627218933
 20
177.7263819767
 30
0.0
 10
468.1123146335
 20
177.7168361111
 30
0.0
 10
468.3469127754
 20
177.6344499421
 30
0.0
 10
468.4607361862
 20
177.5791708271
 30
0.0
  0
LINE
  5
41C
100
AcDbEntity
  8
0
100
AcDbLine
 62
7
  6
CONTINUOUS
 10
456.9607361862
 20
153.2550769489
 11
462.9607361862
 21
151.3632842156
  0
SPLINE
  5
41D
100
AcDbEntity
  8
0
100
AcDbSpline
 62
7
  6
CONTINUOUS
 70
0
 71
3
 72
11
 73
7
 74
0
 42
0.0000001
 43
0.0000001
 44
0.0000000001
 40
0.0
 40
0.0
 40
0.0
 40
0.0
 40
0.2500294942
 40
0.5000000006
 40
0.7499705067
 40
1.0
 40
1.0
 40
1.0
 40
1.0
 10
473.1290180013
 20
218.4099872096
 30
0.0
 10
472.9173713663
 20
216.5717402516
 30
0.0
 10
472.5914329936
 20
212.8835351688
 30
0.0
 10
472.4247237303
 20
207.3325320683
 30
0.0
 10
472.591432996
 20
201.7815289743
 30
0.0
 10
472.917371367
 20
198.0933239006
 30
0.0
 10
473.1290180013
 20
196.2550769489
 30
0.0
  0
SPLINE
  5
41E
100
AcDbEntity
  8
0
100
AcDbSpline
 62
7
  6
CONTINUOUS
 70
0
 71
3
 72
11
 73
7
 74
0
 42
0.0000001
 43
0.0000001
 44
0.0000000001
 40
0.0
 40
0.0
 40
0.0
 40
0.0
 40
0.250391743
 40
0.5000000006
 40
0.7496082578
 40
1.0
 40
1.0
 40
1.0
 40
1.0
 10
473.1290180013
 20
234.6285071576
 30
0.0
 10
472.9178688626
 20
233.2859801649
 30
0.0
 10
472.5918180933
 20
230.5887913094
 30
0.0
 10
472.4246120057
 20
226.5192471756
 30
0.0
 10
472.5918180957
 20
222.4497030467
 30
0.0
 10
472.9178688633
 20
219.7525141978
 30
0.0
 10
473.1290180013
 20
218.4099872096
 30
0.0
  0
LINE
  5
41F
100
AcDbEntity
  8
RUNDUNGEN
100
AcDbLine
 62
7
  6
CONTINUOUS
 10
484.4607361862
 20
159.2180982527
 11
490.4607361862
 21
161.1098909859
  0
SPLINE
  5
420
100
AcDbEntity
  8
RUNDUNGEN
100
AcDbSpline
 62
7
  6
CONTINUOUS
 70
0
 71
3
 72
9
 73
5
 74
0
 42
0.0000001
 43
0.0000001
 44
0.0000000001
 40
0.0
 40
0.0
 40
0.0
 40
0.0
 40
0.4841561799
 40
1.0
 40
1.0
 40
1.0
 40
1.0
 10
485.1766657472
 20
177.712210896
 30
0.0
 10
485.0587504792
 20
177.7263819767
 30
0.0
 10
484.809157739
 20
177.7168361111
 30
0.0
 10
484.574559597
 20
177.6344499421
 30
0.0
 10
484.4607361862
 20
177.5791708271
 30
0.0
  0
LINE
  5
421
100
AcDbEntity
  8
RUNDUNGEN
100
AcDbLine
 62
7
  6
CONTINUOUS
 10
495.9607361862
 20
153.2550769489
 11
489.9607361862
 21
151.3632842156
  0
SPLINE
  5
422
100
AcDbEntity
  8
0
100
AcDbSpline
 62
7
  6
CONTINUOUS
 70
0
 71
3
 72
23
 73
19
 74
0
 42
0.0000001
 43
0.0000001
 44
0.0000000001
 40
0.0
 40
0.0
 40
0.0
 40
0.0
 40
0.1325302002
 40
0.2639698533
 40
0.3931458519
 40
0.4565468746
 40
0.5188786075
 40
0.5799622752
 40
0.6396390499
 40
0.6978304833
 40
0.754695653
 40
0.8111197531
 40
0.8401234276
 40
0.8701692631
 40
0.9014955719
 40
0.9338765407
 40
0.9668396335
 40
1.0
 40
1.0
 40
1.0
 40
1.0
 10
475.1607389985
 20
117.2550769489
 30
0.0
 10
474.2897590335
 20
117.2550768143
 30
0.0
 10
472.5521709915
 20
117.3793153899
 30
0.0
 10
470.0211656513
 20
117.9420810115
 30
0.0
 10
468.0326075051
 20
118.737689783
 30
0.0
 10
466.5807649586
 20
119.578649782
 30
0.0
 10
465.5884909568
 20
120.3063292313
 30
0.0
 10
464.7107913325
 20
121.1346254892
 30
0.0
 10
463.9792166332
 20
122.0619007865
 30
0.0
 10
463.4386185847
 20
123.0841510804
 30
0.0
 10
463.1542984728
 20
124.1880838733
 30
0.0
 10
463.2345460327
 20
125.1484938493
 30
0.0
 10
463.5605284952
 20
125.8427122883
 30
0.0
 10
463.9515898195
 20
126.2998197029
 30
0.0
 10
464.468578584
 20
126.6474648995
 30
0.0
 10
465.0680995451
 20
126.8712485278
 30
0.0
 10
465.7078735868
 20
126.9852455832
 30
0.0
 10
466.1429504339
 20
127.0050769489
 30
0.0
 10
466.3608782328
 20
127.0050769489
 30
0.0
  0
SPLINE
  5
423
100
AcDbEntity
  8
KONSTRUKTIONSELEMENTE
100
AcDbSpline
 62
7
  6
CONTINUOUS
 70
0
 71
3
 72
11
 73
7
 74
0
 42
0.0000001
 43
0.0000001
 44
0.0000000001
 40
0.0
 40
0.0
 40
0.0
 40
0.0
 40
0.2390759488
 40
0.4845199689
 40
0.7382329877
 40
1.0
 40
1.0
 40
1.0
 40
1.0
 10
108.4640646188
 20
150.6670993441
 30
0.0
 10
108.7002922882
 20
151.1292742919
 30
0.0
 10
109.3120999429
 20
152.0024689044
 30
0.0
 10
110.5337531891
 20
153.0602725441
 30
0.0
 10
111.9932440331
 20
153.8572905655
 30
0.0
 10
113.066102533
 20
154.2002098674
 30
0.0
 10
113.62034051
 20
154.3258937034
 30
0.0
  0
SPLINE
  5
424
100
AcDbEntity
  8
KONSTRUKTIONSELEMENTE
100
AcDbSpline
 62
7
  6
CONTINUOUS
 70
0
 71
3
 72
11
 73
7
 74
0
 42
0.0000001
 43
0.0000001
 44
0.0000000001
 40
0.0
 40
0.0
 40
0.0
 40
0.0
 40
0.2617931805
 40
0.5155111137
 40
0.7609431338
 40
1.0
 40
1.0
 40
1.0
 40
1.0
 10
118.1266236093
 20
154.3263249157
 30
0.0
 10
118.6811699575
 20
154.2006635173
 30
0.0
 10
119.7546151696
 20
153.8578016492
 30
0.0
 10
121.2148533467
 20
153.0605615015
 30
0.0
 10
122.4369356467
 20
152.0023090035
 30
0.0
 10
123.0489924688
 20
151.1288118547
 30
0.0
 10
123.2852345663
 20
150.6664457491
 30
0.0
  0
SPLINE
  5
425
100
AcDbEntity
  8
KONSTRUKTIONSELEMENTE
100
AcDbSpline
 62
7
  6
CONTINUOUS
 70
0
 71
3
 72
11
 73
7
 74
0
 42
0.0000001
 43
0.0000001
 44
0.0000000001
 40
0.0
 40
0.0
 40
0.0
 40
0.0
 40
0.3114703232
 40
0.4450990083
 40
0.6063354134
 40
1.0
 40
1.0
 40
1.0
 40
1.0
 10
112.3744528305
 20
148.2601275827
 30
0.0
 10
112.3744528305
 20
148.4572824292
 30
0.0
 10
112.5131633661
 20
148.7323773162
 30
0.0
 10
112.7645312126
 20
149.0187293105
 30
0.0
 10
113.092899887
 20
149.3085093168
 30
0.0
 10
113.3977019689
 20
149.4898917471
 30
0.0
 10
113.6224609422
 20
149.5974798781
 30
0.0
  0
SPLINE
  5
426
100
AcDbEntity
  8
KONSTRUKTIONSELEMENTE
100
AcDbSpline
 62
7
  6
CONTINUOUS
 70
0
 71
3
 72
11
 73
7
 74
0
 42
0.0000001
 43
0.0000001
 44
0.0000000001
 40
0.0
 40
0.0
 40
0.0
 40
0.0
 40
0.3936803283
 40
0.5549226436
 40
0.6885473432
 40
1.0
 40
1.0
 40
1.0
 40
1.0
 10
118.126202066
 20
149.5975918061
 30
0.0
 10
118.351009972
 20
149.4900019055
 30
0.0
 10
118.6558768806
 20
149.3085987878
 30
0.0
 10
118.9843046806
 20
149.0187795166
 30
0.0
 10
119.2357480573
 20
148.7324343703
 30
0.0
 10
119.3744528305
 20
148.4572988866
 30
0.0
 10
119.3744528305
 20
148.2601275827
 30
0.0
  0
SPLINE
  5
427
100
AcDbEntity
  8
KONSTRUKTIONSELEMENTE
100
AcDbSpline
 62
7
  6
CONTINUOUS
 70
0
 71
3
 72
13
 73
9
 74
0
 42
0.0000001
 43
0.0000001
 44
0.0000000001
 40
0.0
 40
0.0
 40
0.0
 40
0.0
 40
0.1195502014
 40
0.2395701547
 40
0.3607871076
 40
0.4836543024
 40
0.7361301415
 40
1.0
 40
1.0
 40
1.0
 40
1.0
 10
107.8787187314
 20
179.5816430629
 30
0.0
 10
107.892614259
 20
179.9217969124
 30
0.0
 10
107.9888118374
 20
180.6025840942
 30
0.0
 10
108.3306466267
 20
181.5777607063
 30
0.0
 10
108.8508951216
 20
182.4813104777
 30
0.0
 10
109.7624160224
 20
183.5703222436
 30
0.0
 10
111.2529505405
 20
184.6637222098
 30
0.0
 10
112.6428440187
 20
185.1932333121
 30
0.0
 10
113.3710284946
 20
185.3786092972
 30
0.0
  0
SPLINE
  5
428
100
AcDbEntity
  8
KONSTRUKTIONSELEMENTE
100
AcDbSpline
 62
7
  6
CONTINUOUS
 70
0
 71
3
 72
13
 73
9
 74
0
 42
0.0000001
 43
0.0000001
 44
0.0000000001
 40
0.0
 40
0.0
 40
0.0
 40
0.0
 40
0.2638733458
 40
0.5163326286
 40
0.639196195
 40
0.7603967287
 40
0.8804351347
 40
1.0
 40
1.0
 40
1.0
 40
1.0
 10
118.378780633
 20
185.3783621076
 30
0.0
 10
119.106877452
 20
185.1929228849
 30
0.0
 10
120.4965474254
 20
184.663386973
 30
0.0
 10
121.986809795
 20
183.5700160678
 30
0.0
 10
122.8980767277
 20
182.4811378394
 30
0.0
 10
123.4183588494
 20
181.5777370853
 30
0.0
 10
123.7600562413
 20
180.6025709414
 30
0.0
 10
123.8562796451
 20
179.9217727355
 30
0.0
 10
123.8701842896
 20
179.5816134154
 30
0.0
  0
SPLINE
  5
429
100
AcDbEntity
  8
KONSTRUKTIONSELEMENTE
100
AcDbSpline
 62
7
  6
CONTINUOUS
 70
0
 71
3
 72
12
 73
8
 74
0
 42
0.0000001
 43
0.0000001
 44
0.0000000001
 40
0.0
 40
0.0
 40
0.0
 40
0.0
 40
0.1282453638
 40
0.2146169864
 40
0.321985829
 40
0.6101725692
 40
1.0
 40
1.0
 40
1.0
 40
1.0
 10
112.3744528305
 20
179.3728259549
 30
0.0
 10
112.3744528305
 20
179.4420889648
 30
0.0
 10
112.3941158162
 20
179.5586328144
 30
0.0
 10
112.4608057099
 20
179.7196563383
 30
0.0
 10
112.5919706007
 20
179.9454675123
 30
0.0
 10
112.8832650611
 20
180.2604419557
 30
0.0
 10
113.1855624645
 20
180.4718091978
 30
0.0
 10
113.3680987655
 20
180.5767237942
 30
0.0
  0
SPLINE
  5
42A
100
AcDbEntity
  8
KONSTRUKTIONSELEMENTE
100
AcDbSpline
 62
7
  6
CONTINUOUS
 70
0
 71
3
 72
12
 73
8
 74
0
 42
0.0000001
 43
0.0000001
 44
0.0000000001
 40
0.0
 40
0.0
 40
0.0
 40
0.0
 40
0.3898396094
 40
0.6780156338
 40
0.7853729626
 40
0.8717632718
 40
1.0
 40
1.0
 40
1.0
 40
1.0
 10
118.3808984316
 20
180.5766713231
 30
0.0
 10
118.5634256751
 20
180.4717559136
 30
0.0
 10
118.8656734387
 20
180.2603665758
 30
0.0
 10
119.1569784149
 20
179.9454486583
 30
0.0
 10
119.2881165732
 20
179.7196401963
 30
0.0
 10
119.3547623803
 20
179.5586144619
 30
0.0
 10
119.3744528305
 20
179.4420796873
 30
0.0
 10
119.3744528305
 20
179.3728259549
 30
0.0
  0
SPLINE
  5
42B
100
AcDbEntity
  8
KONSTRUKTIONSELEMENTE
100
AcDbSpline
 62
7
  6
CONTINUOUS
 70
0
 71
3
 72
9
 73
5
 74
0
 42
0.0000001
 43
0.0000001
 44
0.0000000001
 40
0.0
 40
0.0
 40
0.0
 40
0.0
 40
0.4878890232
 40
1.0
 40
1.0
 40
1.0
 40
1.0
 10
134.3556058809
 20
195.4144167135
 30
0.0
 10
132.6582810988
 20
194.2335133383
 30
0.0
 10
128.8755809846
 20
192.2347203717
 30
0.0
 10
124.7745950111
 20
191.0550174221
 30
0.0
 10
122.6425613816
 20
190.6488943365
 30
0.0
  0
SPLINE
  5
42C
100
AcDbEntity
  8
KONSTRUKTIONSELEMENTE
100
AcDbSpline
 62
7
  6
CONTINUOUS
 70
0
 71
3
 72
9
 73
5
 74
0
 42
0.0000001
 43
0.0000001
 44
0.0000000001
 40
0.0
 40
0.0
 40
0.0
 40
0.0
 40
0.5121260224
 40
1.0
 40
1.0
 40
1.0
 40
1.0
 10
109.1278171408
 20
190.6448143194
 30
0.0
 10
106.9918483536
 20
191.0503278802
 30
0.0
 10
102.8832216342
 20
192.2299797219
 30
0.0
 10
99.0935801096
 20
194.2314688999
 30
0.0
 10
97.3934195795
 20
195.4143369166
 30
0.0
  0
SPLINE
  5
42D
100
AcDbEntity
  8
KONSTRUKTIONSELEMENTE
100
AcDbSpline
 62
7
  6
CONTINUOUS
 70
0
 71
3
 72
9
 73
5
 74
0
 42
0.0000001
 43
0.0000001
 44
0.0000000001
 40
0.0
 40
0.0
 40
0.0
 40
0.0
 40
0.2348418344
 40
1.0
 40
1.0
 40
1.0
 40
1.0
 10
132.9528640121
 20
203.392309791
 30
0.0
 10
132.6716572953
 20
203.0895556897
 30
0.0
 10
131.4171832584
 20
201.8535994376
 30
0.0
 10
129.9567756691
 20
200.8350367131
 30
0.0
 10
128.7831600438
 20
200.1753899072
 30
0.0
  0
SPLINE
  5
42E
100
AcDbEntity
  8
KONSTRUKTIONSELEMENTE
100
AcDbSpline
 62
7
  6
CONTINUOUS
 70
0
 71
3
 72
9
 73
5
 74
0
 42
0.0000001
 43
0.0000001
 44
0.0000000001
 40
0.0
 40
0.0
 40
0.0
 40
0.0
 40
0.2654819976
 40
1.0
 40
1.0
 40
1.0
 40
1.0
 10
102.9656213389
 20
200.1754539251
 30
0.0
 10
102.5584401038
 20
200.4043181081
 30
0.0
 10
101.0551680213
 20
201.3179723985
 30
0.0
 10
99.6751850693
 20
202.4457427903
 30
0.0
 10
98.7957216424
 20
203.3926516205
 30
0.0
  0
SPLINE
  5
42F
100
AcDbEntity
  8
0
100
AcDbSpline
 62
7
  6
CONTINUOUS
 70
0
 71
3
 72
12
 73
8
 74
0
 42
0.0000001
 43
0.0000001
 44
0.0000000001
 40
0.0
 40
0.0
 40
0.0
 40
0.0
 40
0.1089727213
 40
0.2201620805
 40
0.4554253
 40
0.7155329149
 40
1.0
 40
1.0
 40
1.0
 40
1.0
 10
134.8438777644
 20
102.9840803834
 30
0.0
 10
134.8438777644
 20
103.1709544189
 30
0.0
 10
134.8045810475
 20
103.5496287325
 30
0.0
 10
134.5683844347
 20
104.2988035885
 30
0.0
 10
133.9701273268
 20
105.178764096
 30
0.0
 10
132.8997731929
 20
106.0073073258
 30
0.0
 10
132.0321825529
 20
106.3794341374
 30
0.0
 10
131.5660086723
 20
106.5231498232
 30
0.0
  0
SPLINE
  5
430
100
AcDbEntity
  8
0
100
AcDbSpline
 62
7
  6
CONTINUOUS
 70
0
 71
3
 72
17
 73
13
 74
0
 42
0.0000001
 43
0.0000001
 44
0.0000000001
 40
0.0
 40
0.0
 40
0.0
 40
0.0
 40
0.0517809237
 40
0.1054811646
 40
0.2228479209
 40
0.3562855052
 40
0.5
 40
0.6437144948
 40
0.7771520791
 40
0.8945188354
 40
0.9482190763
 40
1.0
 40
1.0
 40
1.0
 40
1.0
 10
117.8485464666
 20
102.0325169136
 30
0.0
 10
117.8485464666
 20
101.9186576443
 30
0.0
 10
117.8816972127
 20
101.685549499
 30
0.0
 10
118.0797922992
 20
101.2318030153
 30
0.0
 10
118.5693151959
 20
100.7419730789
 30
0.0
 10
119.3729873003
 20
100.3810079904
 30
0.0
 10
120.301734451
 20
100.2547308399
 30
0.0
 10
121.2304816016
 20
100.3810079904
 30
0.0
 10
122.034153706
 20
100.7419730789
 30
0.0
 10
122.5236766028
 20
101.2318030153
 30
0.0
 10
122.7217716892
 20
101.685549499
 30
0.0
 10
122.7549224354
 20
101.9186576443
 30
0.0
 10
122.7549224354
 20
102.0325169136
 30
0.0
  0
SPLINE
  5
431
100
AcDbEntity
  8
0
100
AcDbSpline
 62
7
  6
CONTINUOUS
 70
0
 71
3
 72
12
 73
8
 74
0
 42
0.0000001
 43
0.0000001
 44
0.0000000001
 40
0.0
 40
0.0
 40
0.0
 40
0.0
 40
0.1035930223
 40
0.210949621
 40
0.4457011106
 40
0.7125563401
 40
1.0
 40
1.0
 40
1.0
 40
1.0
 10
114.719657632
 20
104.7373272368
 30
0.0
 10
114.7196395879
 20
104.857610534
 30
0.0
 10
114.6845748537
 20
105.1037843041
 30
0.0
 10
114.4751464272
 20
105.5828819062
 30
0.0
 10
113.9580905036
 20
106.1001262252
 30
0.0
 10
113.1099286715
 20
106.4813334367
 30
0.0
 10
112.4623012967
 20
106.569111764
 30
0.0
 10
112.1285464666
 20
106.569111764
 30
0.0
  0
SPLINE
  5
432
100
AcDbEntity
  8
0
100
AcDbSpline
 62
7
  6
CONTINUOUS
 70
0
 71
3
 72
9
 73
5
 74
0
 42
0.0000001
 43
0.0000001
 44
0.0000000001
 40
0.0
 40
0.0
 40
0.0
 40
0.0
 40
0.4402133985
 40
1.0
 40
1.0
 40
1.0
 40
1.0
 10
100.5185047747
 20
102.1291882849
 30
0.0
 10
100.5185047747
 20
102.0990553069
 30
0.0
 10
100.5649119008
 20
102.0334371728
 30
0.0
 10
100.6361869102
 20
102.018879627
 30
0.0
 10
100.6745047747
 20
102.018879627
 30
0.0
  0
SPLINE
  5
433
100
AcDbEntity
  8
0
100
AcDbSpline
 62
7
  6
CONTINUOUS
 70
0
 71
3
 72
9
 73
5
 74
0
 42
0.0000001
 43
0.0000001
 44
0.0000000001
 40
0.0
 40
0.0
 40
0.0
 40
0.0
 40
0.4402133985
 40
1.0
 40
1.0
 40
1.0
 40
1.0
 10
101.5910047747
 20
102.1843426138
 30
0.0
 10
101.5910047747
 20
102.2144755918
 30
0.0
 10
101.5445976485
 20
102.280093726
 30
0.0
 10
101.4733226391
 20
102.2946512717
 30
0.0
 10
101.4350047747
 20
102.2946512717
 30
0.0
  0
SPLINE
  5
434
100
AcDbEntity
  8
0
100
AcDbSpline
 62
7
  6
CONTINUOUS
 70
0
 71
3
 72
9
 73
5
 74
0
 42
0.0000001
 43
0.0000001
 44
0.0000000001
 40
0.0
 40
0.0
 40
0.0
 40
0.0
 40
0.4402133985
 40
1.0
 40
1.0
 40
1.0
 40
1.0
 10
101.5910047747
 20
104.9420590605
 30
0.0
 10
101.5910047747
 20
104.9721920384
 30
0.0
 10
101.5445976485
 20
105.0378101726
 30
0.0
 10
101.4733226391
 20
105.0523677183
 30
0.0
 10
101.4350047747
 20
105.0523677183
 30
0.0
  0
SPLINE
  5
435
100
AcDbEntity
  8
0
100
AcDbSpline
 62
7
  6
CONTINUOUS
 70
0
 71
3
 72
11
 73
7
 74
0
 42
0.0000001
 43
0.0000001
 44
0.0000000001
 40
0.0
 40
0.0
 40
0.0
 40
0.0
 40
0.2094668498
 40
0.4446559298
 40
0.7120302568
 40
1.0
 40
1.0
 40
1.0
 40
1.0
 10
99.4460047747
 20
103.5356236727
 30
0.0
 10
99.4460047747
 20
103.4990805755
 30
0.0
 10
99.4697368766
 20
103.4205879447
 30
0.0
 10
99.5606155267
 20
103.3307018112
 30
0.0
 10
99.6882722639
 20
103.2729866183
 30
0.0
 10
99.7857662461
 20
103.259852028
 30
0.0
 10
99.8360047747
 20
103.259852028
 30
0.0
  0
SPLINE
  5
436
100
AcDbEntity
  8
0
100
AcDbSpline
 62
7
  6
CONTINUOUS
 70
0
 71
3
 72
11
 73
7
 74
0
 42
0.0000001
 43
0.0000001
 44
0.0000000001
 40
0.0
 40
0.0
 40
0.0
 40
0.0
 40
0.2094668498
 40
0.4446559298
 40
0.7120302568
 40
1.0
 40
1.0
 40
1.0
 40
1.0
 10
99.4460047747
 20
100.7779072261
 30
0.0
 10
99.4460047747
 20
100.7413641289
 30
0.0
 10
99.4697368766
 20
100.662871498
 30
0.0
 10
99.5606155267
 20
100.5729853645
 30
0.0
 10
99.6882722639
 20
100.5152701716
 30
0.0
 10
99.7857662461
 20
100.5021355814
 30
0.0
 10
99.8360047747
 20
100.5021355814
 30
0.0
  0
SPLINE
  5
437
100
AcDbEntity
  8
0
100
AcDbSpline
 62
7
  6
CONTINUOUS
 70
0
 71
3
 72
9
 73
5
 74
0
 42
0.0000001
 43
0.0000001
 44
0.0000000001
 40
0.0
 40
0.0
 40
0.0
 40
0.0
 40
0.2432035461
 40
1.0
 40
1.0
 40
1.0
 40
1.0
 10
104.7110047747
 20
106.0175684746
 30
0.0
 10
104.7110047747
 20
106.0392103763
 30
0.0
 10
104.7036050425
 20
106.1282002771
 30
0.0
 10
104.6653639128
 20
106.2133280936
 30
0.0
 10
104.6259912097
 20
106.2679643776
 30
0.0
  0
SPLINE
  5
438
100
AcDbEntity
  8
0
100
AcDbSpline
 62
7
  6
CONTINUOUS
 70
0
 71
3
 72
9
 73
5
 74
0
 42
0.0000001
 43
0.0000001
 44
0.0000000001
 40
0.0
 40
0.0
 40
0.0
 40
0.0
 40
0.4654299385
 40
1.0
 40
1.0
 40
1.0
 40
1.0
 10
104.6259912097
 20
106.2679643776
 30
0.0
 10
104.5554724853
 20
106.3658210334
 30
0.0
 10
104.3311595886
 20
106.5225006376
 30
0.0
 10
104.0695412508
 20
106.569111764
 30
0.0
 10
103.9310047747
 20
106.569111764
 30
0.0
  0
SPLINE
  5
439
100
AcDbEntity
  8
RUNDUNGEN
100
AcDbSpline
 62
7
  6
CONTINUOUS
 70
0
 71
3
 72
11
 73
7
 74
0
 42
0.0000001
 43
0.0000001
 44
0.0000000001
 40
0.0
 40
0.0
 40
0.0
 40
0.0
 40
0.2256934588
 40
0.4632957354
 40
0.7206235605
 40
1.0
 40
1.0
 40
1.0
 40
1.0
 10
73.4847537305
 20
108.7778313877
 30
0.0
 10
73.4848235353
 20
108.8885980765
 30
0.0
 10
73.5251023741
 20
109.1175705754
 30
0.0
 10
73.6975676131
 20
109.4323132052
 30
0.0
 10
73.9676699792
 20
109.7053786931
 30
0.0
 10
74.1933872409
 20
109.845718716
 30
0.0
 10
74.316264085
 20
109.9065576832
 30
0.0
  0
SPLINE
  5
43A
100
AcDbEntity
  8
RUNDUNGEN
100
AcDbSpline
 62
7
  6
CONTINUOUS
 70
0
 71
3
 72
9
 73
5
 74
0
 42
0.0000001
 43
0.0000001
 44
0.0000000001
 40
0.0
 40
0.0
 40
0.0
 40
0.0
 40
0.4805181646
 40
1.0
 40
1.0
 40
1.0
 40
1.0
 10
73.4847520502
 20
105.2422426379
 30
0.0
 10
73.4846720791
 20
105.1006902078
 30
0.0
 10
73.5519381217
 20
104.8033291745
 30
0.0
 10
73.7297145348
 20
104.5593867313
 30
0.0
 10
73.8373916496
 20
104.4506486589
 30
0.0
  0
SPLINE
  5
43B
100
AcDbEntity
  8
RUNDUNGEN
100
AcDbSpline
 62
7
  6
CONTINUOUS
 70
0
 71
3
 72
11
 73
7
 74
0
 42
0.0000001
 43
0.0000001
 44
0.0000000001
 40
0.0
 40
0.0
 40
0.0
 40
0.0
 40
0.2256920307
 40
0.4632775486
 40
0.7205987639
 40
1.0
 40
1.0
 40
1.0
 40
1.0
 10
59.932873488
 20
123.3646349741
 30
0.0
 10
59.932807202
 20
123.7056866913
 30
0.0
 10
60.0561414563
 20
124.4108011267
 30
0.0
 10
60.5866201452
 20
125.380213335
 30
0.0
 10
61.4180456178
 20
126.2212452546
 30
0.0
 10
62.1130370341
 20
126.6534325555
 30
0.0
 10
62.4914119447
 20
126.8407741082
 30
0.0
  0
SPLINE
  5
43C
100
AcDbEntity
  8
RUNDUNGEN
100
AcDbSpline
 62
7
  6
CONTINUOUS
 70
0
 71
3
 72
10
 73
6
 74
0
 42
0.0000001
 43
0.0000001
 44
0.0000000001
 40
0.0
 40
0.0
 40
0.0
 40
0.0
 40
0.2382861743
 40
0.4819054048
 40
1.0
 40
1.0
 40
1.0
 40
1.0
 10
59.932873488
 20
119.8291010682
 30
0.0
 10
59.9329155338
 20
119.612769006
 30
0.0
 10
59.9812046983
 20
119.1737560044
 30
0.0
 10
60.2696859677
 20
118.3075272485
 30
0.0
 10
60.6869974878
 20
117.7306154967
 30
0.0
 10
61.0179582971
 20
117.3963936842
 30
0.0
  0
SPLINE
  5
43D
100
AcDbEntity
  8
RUNDUNGEN
100
AcDbSpline
 62
7
  6
CONTINUOUS
 70
0
 71
3
 72
11
 73
7
 74
0
 42
0.0000001
 43
0.0000001
 44
0.0000000001
 40
0.0
 40
0.0
 40
0.0
 40
0.0
 40
0.2377805525
 40
0.4809056656
 40
0.7339193662
 40
1.0
 40
1.0
 40
1.0
 40
1.0
 10
136.1600142596
 20
78.0258306864
 30
0.0
 10
136.1600142847
 20
78.7471353739
 30
0.0
 10
136.3200272967
 20
80.2106159464
 30
0.0
 10
137.0295202546
 20
82.3369237716
 30
0.0
 10
138.1867818831
 20
84.3544052702
 30
0.0
 10
139.2090350919
 20
85.5638915942
 30
0.0
 10
139.7769733739
 20
86.1374258516
 30
0.0
  0
SPLINE
  5
43E
100
AcDbEntity
  8
RUNDUNGEN
100
AcDbSpline
 62
7
  6
CONTINUOUS
 70
0
 71
3
 72
10
 73
6
 74
0
 42
0.0000001
 43
0.0000001
 44
0.0000000001
 40
0.0
 40
0.0
 40
0.0
 40
0.0
 40
0.2382962376
 40
0.4830925252
 40
1.0
 40
1.0
 40
1.0
 40
1.0
 10
136.3171056676
 20
79.7923715829
 30
0.0
 10
136.4191510642
 20
79.2199267402
 30
0.0
 10
136.7263888743
 20
78.0748954118
 30
0.0
 10
137.7342234934
 20
75.8442033062
 30
0.0
 10
138.8894746199
 20
74.3460116542
 30
0.0
 10
139.7769733739
 20
73.4497682506
 30
0.0
  0
SPLINE
  5
43F
100
AcDbEntity
  8
RUNDUNGEN
100
AcDbSpline
 62
7
  6
CONTINUOUS
 70
0
 71
3
 72
10
 73
6
 74
0
 42
0.0000001
 43
0.0000001
 44
0.0000000001
 40
0.0
 40
0.0
 40
0.0
 40
0.0
 40
0.2382825872
 40
0.4819247859
 40
1.0
 40
1.0
 40
1.0
 40
1.0
 10
71.8744528305
 20
51.8165660428
 30
0.0
 10
71.8744528305
 20
52.0329559467
 30
0.0
 10
71.9225971437
 20
52.4721299553
 30
0.0
 10
72.2111094031
 20
53.33863357
 30
0.0
 10
72.6284986719
 20
53.9157410739
 30
0.0
 10
72.9595405648
 20
54.2500447689
 30
0.0
  0
SPLINE
  5
440
100
AcDbEntity
  8
BEZUGSACHSEN
100
AcDbSpline
 62
7
  6
CONTINUOUS
 70
0
 71
3
 72
9
 73
5
 74
0
 42
0.0000001
 43
0.0000001
 44
0.0000000001
 40
0.0
 40
0.0
 40
0.0
 40
0.0
 40
0.4744816413
 40
1.0
 40
1.0
 40
1.0
 40
1.0
 10
110.9772781698
 20
118.5615338059
 30
0.0
 10
111.2491090326
 20
118.1856196005
 30
0.0
 10
111.9752786036
 20
117.5010080031
 30
0.0
 10
112.8593008151
 20
117.0565132152
 30
0.0
 10
113.3416779393
 20
116.8795906395
 30
0.0
  0
SPLINE
  5
441
100
AcDbEntity
  8
BEZUGSACHSEN
100
AcDbSpline
 62
7
  6
CONTINUOUS
 70
0
 71
3
 72
9
 73
5
 74
0
 42
0.0000001
 43
0.0000001
 44
0.0000000001
 40
0.0
 40
0.0
 40
0.0
 40
0.0
 40
0.5255183587
 40
1.0
 40
1.0
 40
1.0
 40
1.0
 10
118.4072277217
 20
116.8795906395
 30
0.0
 10
118.889604846
 20
117.0565132152
 30
0.0
 10
119.7736270574
 20
117.5010080031
 30
0.0
 10
120.4997966285
 20
118.1856196005
 30
0.0
 10
120.7716274912
 20
118.5615338059
 30
0.0
  0
SPLINE
  5
442
100
AcDbEntity
  8
BEZUGSACHSEN
100
AcDbSpline
 62
7
  6
CONTINUOUS
 70
0
 71
3
 72
11
 73
7
 74
0
 42
0.0000001
 43
0.0000001
 44
0.0000000001
 40
0.0
 40
0.0
 40
0.0
 40
0.0
 40
0.2211899434
 40
0.4572145773
 40
0.7166495597
 40
1.0
 40
1.0
 40
1.0
 40
1.0
 10
121.3744528305
 20
116.7962238668
 30
0.0
 10
121.3744528305
 20
117.1543588843
 30
0.0
 10
121.2232758366
 20
117.9011367154
 30
0.0
 10
120.5861836172
 20
118.8960865657
 30
0.0
 10
119.6089532134
 20
119.717221868
 30
0.0
 10
118.8093955566
 20
120.103120593
 30
0.0
 10
118.3779290808
 20
120.2590582983
 30
0.0
  0
SPLINE
  5
443
100
AcDbEntity
  8
BEZUGSACHSEN
100
AcDbSpline
 62
7
  6
CONTINUOUS
 70
0
 71
3
 72
11
 73
7
 74
0
 42
0.0000001
 43
0.0000001
 44
0.0000000001
 40
0.0
 40
0.0
 40
0.0
 40
0.0
 40
0.2833504403
 40
0.5427854227
 40
0.7788100566
 40
1.0
 40
1.0
 40
1.0
 40
1.0
 10
113.3709765802
 20
120.2590582983
 30
0.0
 10
112.9395101045
 20
120.103120593
 30
0.0
 10
112.1399524476
 20
119.717221868
 30
0.0
 10
111.1627220439
 20
118.8960865657
 30
0.0
 10
110.5256298245
 20
117.9011367154
 30
0.0
 10
110.3744528305
 20
117.1543588843
 30
0.0
 10
110.3744528305
 20
116.7962238668
 30
0.0
  0
SPLINE
  5
444
100
AcDbEntity
  8
RUNDUNGEN
100
AcDbSpline
 62
7
  6
CONTINUOUS
 70
0
 71
3
 72
10
 73
6
 74
0
 42
0.0000001
 43
0.0000001
 44
0.0000000001
 40
0.0
 40
0.0
 40
0.0
 40
0.0
 40
0.518075049
 40
0.7617173212
 40
1.0
 40
1.0
 40
1.0
 40
1.0
 10
158.7893650963
 20
54.2500447689
 30
0.0
 10
159.1204068841
 20
53.9157411799
 30
0.0
 10
159.5377961301
 20
53.3386337811
 30
0.0
 10
159.8263084704
 20
52.4721301894
 30
0.0
 10
159.8744528305
 20
52.0329560302
 30
0.0
 10
159.8744528305
 20
51.8165660428
 30
0.0
  0
SPLINE
  5
445
100
AcDbEntity
  8
RUNDUNGEN
100
AcDbSpline
 62
7
  6
CONTINUOUS
 70
0
 71
3
 72
11
 73
7
 74
0
 42
0.0000001
 43
0.0000001
 44
0.0000000001
 40
0.0
 40
0.0
 40
0.0
 40
0.0
 40
0.2793755178
 40
0.5367190517
 40
0.7743209251
 40
1.0
 40
1.0
 40
1.0
 40
1.0
 10
172.5341018935
 20
125.2184549575
 30
0.0
 10
172.6601311805
 20
125.1560551481
 30
0.0
 10
172.8916454687
 20
125.0121090986
 30
0.0
 10
173.1686828884
 20
124.732029928
 30
0.0
 10
173.3455621069
 20
124.4092042678
 30
0.0
 10
173.3868668224
 20
124.1743632967
 30
0.0
 10
173.3869345493
 20
124.0607617182
 30
0.0
  0
SPLINE
  5
446
100
AcDbEntity
  8
RUNDUNGEN
100
AcDbSpline
 62
7
  6
CONTINUOUS
 70
0
 71
3
 72
11
 73
7
 74
0
 42
0.0000001
 43
0.0000001
 44
0.0000000001
 40
0.0
 40
0.0
 40
0.0
 40
0.0
 40
0.2297148893
 40
0.4842569791
 40
0.747560889
 40
1.0
 40
1.0
 40
1.0
 40
1.0
 10
162.8677677601
 20
128.2780288187
 30
0.0
 10
163.0274262821
 20
128.4392604784
 30
0.0
 10
163.4400715986
 20
128.705493595
 30
0.0
 10
164.1632971852
 20
128.8953442345
 30
0.0
 10
164.9328781874
 20
128.8845637545
 30
0.0
 10
165.4297624905
 20
128.7359661286
 30
0.0
 10
165.6532247214
 20
128.625325174
 30
0.0
  0
SPLINE
  5
447
100
AcDbEntity
  8
0
100
AcDbSpline
 62
7
  6
CONTINUOUS
 70
0
 71
3
 72
9
 73
5
 74
0
 42
0.0000001
 43
0.0000001
 44
0.0000000001
 40
0.0
 40
0.0
 40
0.0
 40
0.0
 40
0.2469303797
 40
1.0
 40
1.0
 40
1.0
 40
1.0
 10
123.280951289
 20
126.7509117173
 30
0.0
 10
122.885704049
 20
126.8623274106
 30
0.0
 10
121.2743211746
 20
127.2747623847
 30
0.0
 10
119.6242341472
 20
127.5339337284
 30
0.0
 10
118.376817734
 20
127.6452222969
 30
0.0
  0
SPLINE
  5
448
100
AcDbEntity
  8
0
100
AcDbSpline
 62
7
  6
CONTINUOUS
 70
0
 71
3
 72
9
 73
5
 74
0
 42
0.0000001
 43
0.0000001
 44
0.0000000001
 40
0.0
 40
0.0
 40
0.0
 40
0.0
 40
0.2528805792
 40
1.0
 40
1.0
 40
1.0
 40
1.0
 10
113.3720879271
 20
127.6452222969
 30
0.0
 10
112.9532114418
 20
127.6078521261
 30
0.0
 10
111.3003963495
 20
127.4227975051
 30
0.0
 10
109.6638093748
 20
127.0880096163
 30
0.0
 10
108.4679543721
 20
126.7509117173
 30
0.0
  0
SPLINE
  5
449
100
AcDbEntity
  8
RUNDUNGEN
100
AcDbSpline
 62
7
  6
CONTINUOUS
 70
0
 71
3
 72
11
 73
7
 74
0
 42
0.0000001
 43
0.0000001
 44
0.0000000001
 40
0.0
 40
0.0
 40
0.0
 40
0.0
 40
0.2402188342
 40
0.4905226221
 40
0.7457150937
 40
1.0
 40
1.0
 40
1.0
 40
1.0
 10
64.1297160333
 20
127.6519336836
 30
0.0
 10
65.2131671699
 20
128.1883736339
 30
0.0
 10
67.5308723825
 20
129.0796664791
 30
0.0
 10
71.2199780715
 20
129.8447843886
 30
0.0
 10
75.0527238362
 20
130.043618487
 30
0.0
 10
77.6160863877
 20
129.7894661735
 30
0.0
 10
78.8757930701
 20
129.5637285439
 30
0.0
  0
SPLINE
  5
44A
100
AcDbEntity
  8
0
100
AcDbSpline
 62
7
  6
CONTINUOUS
 70
0
 71
3
 72
11
 73
7
 74
0
 42
0.0000001
 43
0.0000001
 44
0.0000000001
 40
0.0
 40
0.0
 40
0.0
 40
0.0
 40
0.2880052506
 40
0.5553344723
 40
0.7905070702
 40
1.0
 40
1.0
 40
1.0
 40
1.0
 10
97.6910047747
 20
106.569111764
 30
0.0
 10
97.5905160324
 20
106.569111764
 30
0.0
 10
97.3955213376
 20
106.5428626197
 30
0.0
 10
97.1402622523
 20
106.4273640799
 30
0.0
 10
96.9584583177
 20
106.247663592
 30
0.0
 10
96.9110047747
 20
106.0906632568
 30
0.0
 10
96.9110047747
 20
106.0175684746
 30
0.0
  0
SPLINE
  5
44B
100
AcDbEntity
  8
0
100
AcDbSpline
 62
7
  6
CONTINUOUS
 70
0
 71
3
 72
11
 73
7
 74
0
 42
0.0000001
 43
0.0000001
 44
0.0000000001
 40
0.0
 40
0.0
 40
0.0
 40
0.0
 40
0.2879697432
 40
0.5553440702
 40
0.7905331502
 40
1.0
 40
1.0
 40
1.0
 40
1.0
 10
101.7860047747
 20
103.259852028
 30
0.0
 10
101.8362433032
 20
103.259852028
 30
0.0
 10
101.9337372855
 20
103.2729866183
 30
0.0
 10
102.0613940227
 20
103.3307018112
 30
0.0
 10
102.1522726728
 20
103.4205879447
 30
0.0
 10
102.1760047747
 20
103.4990805755
 30
0.0
 10
102.1760047747
 20
103.5356236727
 30
0.0
  0
SPLINE
  5
44C
100
AcDbEntity
  8
0
100
AcDbSpline
 62
7
  6
CONTINUOUS
 70
0
 71
3
 72
11
 73
7
 74
0
 42
0.0000001
 43
0.0000001
 44
0.0000000001
 40
0.0
 40
0.0
 40
0.0
 40
0.0
 40
0.2879697432
 40
0.5553440702
 40
0.7905331502
 40
1.0
 40
1.0
 40
1.0
 40
1.0
 10
101.7860047747
 20
100.5021355814
 30
0.0
 10
101.8362433032
 20
100.5021355814
 30
0.0
 10
101.9337372855
 20
100.5152701716
 30
0.0
 10
102.0613940227
 20
100.5729853645
 30
0.0
 10
102.1522726728
 20
100.662871498
 30
0.0
 10
102.1760047747
 20
100.7413641289
 30
0.0
 10
102.1760047747
 20
100.7779072261
 30
0.0
  0
SPLINE
  5
44D
100
AcDbEntity
  8
0
100
AcDbSpline
 62
7
  6
CONTINUOUS
 70
0
 71
3
 72
9
 73
5
 74
0
 42
0.0000001
 43
0.0000001
 44
0.0000000001
 40
0.0
 40
0.0
 40
0.0
 40
0.0
 40
0.5597866015
 40
1.0
 40
1.0
 40
1.0
 40
1.0
 10
100.1870047747
 20
105.0523677183
 30
0.0
 10
100.1486869102
 20
105.0523677183
 30
0.0
 10
100.0774119008
 20
105.0378101726
 30
0.0
 10
100.0310047747
 20
104.9721920384
 30
0.0
 10
100.0310047747
 20
104.9420590605
 30
0.0
  0
SPLINE
  5
44E
100
AcDbEntity
  8
0
100
AcDbSpline
 62
7
  6
CONTINUOUS
 70
0
 71
3
 72
9
 73
5
 74
0
 42
0.0000001
 43
0.0000001
 44
0.0000000001
 40
0.0
 40
0.0
 40
0.0
 40
0.0
 40
0.5597866015
 40
1.0
 40
1.0
 40
1.0
 40
1.0
 10
100.1870047747
 20
102.2946512717
 30
0.0
 10
100.1486869102
 20
102.2946512717
 30
0.0
 10
100.0774119008
 20
102.280093726
 30
0.0
 10
100.0310047747
 20
102.2144755918
 30
0.0
 10
100.0310047747
 20
102.1843426138
 30
0.0
  0
SPLINE
  5
44F
100
AcDbEntity
  8
0
100
AcDbSpline
 62
7
  6
CONTINUOUS
 70
0
 71
3
 72
9
 73
5
 74
0
 42
0.0000001
 43
0.0000001
 44
0.0000000001
 40
0.0
 40
0.0
 40
0.0
 40
0.0
 40
0.5597866015
 40
1.0
 40
1.0
 40
1.0
 40
1.0
 10
100.9475047747
 20
102.018879627
 30
0.0
 10
100.9858226391
 20
102.018879627
 30
0.0
 10
101.0570976485
 20
102.0334371728
 30
0.0
 10
101.1035047747
 20
102.0990553069
 30
0.0
 10
101.1035047747
 20
102.1291882849
 30
0.0
  0
SPLINE
  5
450
100
AcDbEntity
  8
0
100
AcDbSpline
 62
7
  6
CONTINUOUS
 70
0
 71
3
 72
11
 73
7
 74
0
 42
0.0000001
 43
0.0000001
 44
0.0000000001
 40
0.0
 40
0.0
 40
0.0
 40
0.0
 40
0.2880001164
 40
0.5553425139
 40
0.7905343079
 40
1.0
 40
1.0
 40
1.0
 40
1.0
 10
112.1285464666
 20
103.7412266808
 30
0.0
 10
112.3099532045
 20
103.7412266808
 30
0.0
 10
112.6619635871
 20
103.7886442067
 30
0.0
 10
113.1228450315
 20
103.9970667612
 30
0.0
 10
113.4509827949
 20
104.3215643109
 30
0.0
 10
113.5366388787
 20
104.6049764205
 30
0.0
 10
113.5366388787
 20
104.7369155613
 30
0.0
  0
SPLINE
  5
451
100
AcDbEntity
  8
0
100
AcDbSpline
 62
7
  6
CONTINUOUS
 70
0
 71
3
 72
9
 73
5
 74
0
 42
0.0000001
 43
0.0000001
 44
0.0000000001
 40
0.0
 40
0.0
 40
0.0
 40
0.0
 40
0.2457811574
 40
1.0
 40
1.0
 40
1.0
 40
1.0
 10
131.5660086723
 20
106.5231498232
 30
0.0
 10
131.5412873961
 20
106.5307710892
 30
0.0
 10
131.4394985118
 20
106.5577668426
 30
0.0
 10
131.3336639806
 20
106.569111764
 30
0.0
 10
131.2542796233
 20
106.569111764
 30
0.0
  0
SPLINE
  5
452
100
AcDbEntity
  8
0
100
AcDbSpline
 62
7
  6
CONTINUOUS
 70
0
 71
3
 72
11
 73
7
 74
0
 42
0.0000001
 43
0.0000001
 44
0.0000000001
 40
0.0
 40
0.0
 40
0.0
 40
0.0
 40
0.2779817175
 40
0.5346952233
 40
0.772857858
 40
1.0
 40
1.0
 40
1.0
 40
1.0
 10
131.5187458382
 20
100.3751134905
 30
0.0
 10
131.7921422293
 20
100.523157827
 30
0.0
 10
132.2930490452
 20
100.8592772879
 30
0.0
 10
132.8882990301
 20
101.4981560411
 30
0.0
 10
133.2658773665
 20
102.2245460585
 30
0.0
 10
133.3532969259
 20
102.7484199727
 30
0.0
 10
133.3532969259
 20
103.0024651597
 30
0.0
  0
SPLINE
  5
453
100
AcDbEntity
  8
0
100
AcDbSpline
 62
7
  6
CONTINUOUS
 70
0
 71
3
 72
9
 73
5
 74
0
 42
0.0000001
 43
0.0000001
 44
0.0000000001
 40
0.0
 40
0.0
 40
0.0
 40
0.0
 40
0.2591205677
 40
1.0
 40
1.0
 40
1.0
 40
1.0
 10
131.2816270446
 20
100.3182878183
 30
0.0
 10
131.3028037141
 20
100.3182878183
 30
0.0
 10
131.3843833781
 20
100.3229616691
 30
0.0
 10
131.4655023377
 20
100.3462820978
 30
0.0
 10
131.5187458382
 20
100.3751134905
 30
0.0
  0
SPLINE
  5
454
100
AcDbEntity
  8
RUNDUNGEN
100
AcDbSpline
 62
7
  6
CONTINUOUS
 70
0
 71
3
 72
11
 73
7
 74
0
 42
0.0000001
 43
0.0000001
 44
0.0000000001
 40
0.0
 40
0.0
 40
0.0
 40
0.0
 40
0.287975155
 40
0.5553539353
 40
0.7905396327
 40
1.0
 40
1.0
 40
1.0
 40
1.0
 10
81.3744528305
 20
35.4765959835
 30
0.0
 10
81.4388624248
 20
35.4765959835
 30
0.0
 10
81.563856962
 20
35.493436038
 30
0.0
 10
81.7275203197
 20
35.5674318157
 30
0.0
 10
81.844029207
 20
35.6826711837
 30
0.0
 10
81.8744528305
 20
35.7833006893
 30
0.0
 10
81.8744528305
 20
35.8301493741
 30
0.0
  0
SPLINE
  5
455
100
AcDbEntity
  8
RUNDUNGEN
100
AcDbSpline
 62
7
  6
CONTINUOUS
 70
0
 71
3
 72
13
 73
9
 74
0
 42
0.0000001
 43
0.0000001
 44
0.0000000001
 40
0.0
 40
0.0
 40
0.0
 40
0.0
 40
0.1034546064
 40
0.2106689685
 40
0.3244963058
 40
0.4464318167
 40
0.7129512659
 40
1.0
 40
1.0
 40
1.0
 40
1.0
 10
71.8744528305
 20
39.7192366706
 30
0.0
 10
71.8744528305
 20
39.4406774949
 30
0.0
 10
71.955291591
 20
38.8705424782
 30
0.0
 10
72.3090376698
 20
38.0615405632
 30
0.0
 10
72.8764835545
 20
37.3226775243
 30
0.0
 10
73.9136573831
 20
36.4418581392
 30
0.0
 10
75.6034262683
 20
35.6778487644
 30
0.0
 10
77.1015528939
 20
35.4765959835
 30
0.0
 10
77.8744528305
 20
35.4765959835
 30
0.0
  0
SPLINE
  5
456
100
AcDbEntity
  8
RUNDUNGEN
100
AcDbSpline
 62
7
  6
CONTINUOUS
 70
0
 71
3
 72
11
 73
7
 74
0
 42
0.0000001
 43
0.0000001
 44
0.0000000001
 40
0.0
 40
0.0
 40
0.0
 40
0.0
 40
0.2297023479
 40
0.4842340123
 40
0.7475494683
 40
1.0
 40
1.0
 40
1.0
 40
1.0
 10
64.488095737
 20
113.8920644939
 30
0.0
 10
64.6437543047
 20
113.7348722006
 30
0.0
 10
65.0460597457
 20
113.4753018254
 30
0.0
 10
65.7511905661
 20
113.290188329
 30
0.0
 10
66.5015450319
 20
113.3006850936
 30
0.0
 10
66.9860307317
 20
113.4455707311
 30
0.0
 10
67.2039162743
 20
113.5534505475
 30
0.0
  0
SPLINE
  5
457
100
AcDbEntity
  8
RUNDUNGEN
100
AcDbSpline
 62
7
  6
CONTINUOUS
 70
0
 71
3
 72
9
 73
5
 74
0
 42
0.0000001
 43
0.0000001
 44
0.0000000001
 40
0.0
 40
0.0
 40
0.0
 40
0.0
 40
0.5194816466
 40
1.0
 40
1.0
 40
1.0
 40
1.0
 10
173.0252531093
 20
119.7133055456
 30
0.0
 10
173.1357006258
 20
119.8248413169
 30
0.0
 10
173.3180491071
 20
120.0750635612
 30
0.0
 10
173.3870278819
 20
120.3800822804
 30
0.0
 10
173.3869328967
 20
120.525276785
 30
0.0
  0
SPLINE
  5
458
100
AcDbEntity
  8
RUNDUNGEN
100
AcDbSpline
 62
7
  6
CONTINUOUS
 70
0
 71
3
 72
13
 73
9
 74
0
 42
0.0000001
 43
0.0000001
 44
0.0000000001
 40
0.0
 40
0.0
 40
0.0
 40
0.0
 40
0.2870489714
 40
0.5535683803
 40
0.6755038887
 40
0.7893312167
 40
0.8965454657
 40
1.0
 40
1.0
 40
1.0
 40
1.0
 10
153.8744528305
 20
35.4765959835
 30
0.0
 10
154.6473534056
 20
35.4765959835
 30
0.0
 10
156.1454805989
 20
35.6778489671
 30
0.0
 10
157.8352497444
 20
36.4418590455
 30
0.0
 10
158.8724232188
 20
37.3226786477
 30
0.0
 10
159.4398685607
 20
38.061541675
 30
0.0
 10
159.7936142467
 20
38.8705431656
 30
0.0
 10
159.8744528305
 20
39.4406776893
 30
0.0
 10
159.8744528305
 20
39.7192366706
 30
0.0
  0
SPLINE
  5
459
100
AcDbEntity
  8
RUNDUNGEN
100
AcDbSpline
 62
7
  6
CONTINUOUS
 70
0
 71
3
 72
11
 73
7
 74
0
 42
0.0000001
 43
0.0000001
 44
0.0000000001
 40
0.0
 40
0.0
 40
0.0
 40
0.0
 40
0.2094711443
 40
0.4446658249
 40
0.7120384825
 40
1.0
 40
1.0
 40
1.0
 40
1.0
 10
149.8744528305
 20
35.8301493741
 30
0.0
 10
149.8744528305
 20
35.7832982949
 30
0.0
 10
149.9048802684
 20
35.6826645824
 30
0.0
 10
150.0213940943
 20
35.5674260486
 30
0.0
 10
150.1850562695
 20
35.4934340941
 30
0.0
 10
150.3100463086
 20
35.4765959835
 30
0.0
 10
150.3744528305
 20
35.4765959835
 30
0.0
  0
SPLINE
  5
45A
100
AcDbEntity
  8
RUNDUNGEN
100
AcDbSpline
 62
7
  6
CONTINUOUS
 70
0
 71
3
 72
10
 73
6
 74
0
 42
0.0000001
 43
0.0000001
 44
0.0000000001
 40
0.0
 40
0.0
 40
0.0
 40
0.0
 40
0.47201694
 40
0.7322443513
 40
1.0
 40
1.0
 40
1.0
 40
1.0
 10
129.6945487545
 20
48.0431231591
 30
0.0
 10
130.3356847654
 20
47.3956699452
 30
0.0
 10
131.6096587164
 20
46.6579729023
 30
0.0
 10
133.4794826139
 20
46.1695937341
 30
0.0
 10
134.5021617495
 20
46.0831977013
 30
0.0
 10
135.0190370424
 20
46.0831977013
 30
0.0
  0
SPLINE
  5
45B
100
AcDbEntity
  8
RUNDUNGEN
100
AcDbSpline
 62
7
  6
CONTINUOUS
 70
0
 71
3
 72
10
 73
6
 74
0
 42
0.0000001
 43
0.0000001
 44
0.0000000001
 40
0.0
 40
0.0
 40
0.0
 40
0.0
 40
0.2677558652
 40
0.5279833681
 40
1.0
 40
1.0
 40
1.0
 40
1.0
 10
96.7298686187
 20
46.0831977013
 30
0.0
 10
97.2467443322
 20
46.0831977013
 30
0.0
 10
98.2694240749
 20
46.169593842
 30
0.0
 10
100.139247906
 20
46.6579733722
 30
0.0
 10
101.4132213107
 20
47.3956703644
 30
0.0
 10
102.0543569066
 20
48.0431231591
 30
0.0
  0
SPLINE
  5
45C
100
AcDbEntity
  8
RUNDUNGEN
100
AcDbSpline
 62
7
  6
CONTINUOUS
 70
0
 71
3
 72
13
 73
9
 74
0
 42
0.0000001
 43
0.0000001
 44
0.0000000001
 40
0.0
 40
0.0
 40
0.0
 40
0.0
 40
0.1034546064
 40
0.2106689685
 40
0.3244963058
 40
0.4464318167
 40
0.7129512659
 40
1.0
 40
1.0
 40
1.0
 40
1.0
 10
81.8744528305
 20
41.8405570142
 30
0.0
 10
81.8744528305
 20
42.1191161899
 30
0.0
 10
81.955291591
 20
42.6892512066
 30
0.0
 10
82.3090376698
 20
43.4982531215
 30
0.0
 10
82.8764835545
 20
44.2371161604
 30
0.0
 10
83.9136573831
 20
45.1179355455
 30
0.0
 10
85.6034262683
 20
45.8819449203
 30
0.0
 10
87.1015528939
 20
46.0831977013
 30
0.0
 10
87.8744528305
 20
46.0831977013
 30
0.0
  0
SPLINE
  5
45D
100
AcDbEntity
  8
RUNDUNGEN
100
AcDbSpline
 62
7
  6
CONTINUOUS
 70
0
 71
3
 72
13
 73
9
 74
0
 42
0.0000001
 43
0.0000001
 44
0.0000000001
 40
0.0
 40
0.0
 40
0.0
 40
0.0
 40
0.2870489714
 40
0.5535683803
 40
0.6755038887
 40
0.7893312167
 40
0.8965454657
 40
1.0
 40
1.0
 40
1.0
 40
1.0
 10
143.8744528305
 20
46.0831977013
 30
0.0
 10
144.6473534056
 20
46.0831977013
 30
0.0
 10
146.1454805989
 20
45.8819447177
 30
0.0
 10
147.8352497444
 20
45.1179346393
 30
0.0
 10
148.8724232188
 20
44.237115037
 30
0.0
 10
149.4398685607
 20
43.4982520098
 30
0.0
 10
149.7936142467
 20
42.6892505192
 30
0.0
 10
149.8744528305
 20
42.1191159955
 30
0.0
 10
149.8744528305
 20
41.8405570142
 30
0.0
  0
SPLINE
  5
45E
100
AcDbEntity
  8
RUNDUNGEN
100
AcDbSpline
 62
7
  6
CONTINUOUS
 70
0
 71
3
 72
13
 73
9
 74
0
 42
0.0000001
 43
0.0000001
 44
0.0000000001
 40
0.0
 40
0.0
 40
0.0
 40
0.0
 40
0.2360077347
 40
0.3661261322
 40
0.5000000765
 40
0.633874052
 40
0.7639924192
 40
1.0
 40
1.0
 40
1.0
 40
1.0
 10
109.3212364762
 20
55.3816043113
 30
0.0
 10
110.1103244679
 20
56.1784672975
 30
0.0
 10
111.6780049496
 20
57.0864364608
 30
0.0
 10
113.9801881436
 20
57.6874633376
 30
0.0
 10
115.8744541058
 20
57.8477553397
 30
0.0
 10
117.7687198916
 20
57.6874629507
 30
0.0
 10
120.0709022652
 20
57.08643576
 30
0.0
 10
121.6385817077
 20
56.1784667779
 30
0.0
 10
122.4276691848
 20
55.3816043113
 30
0.0
  0
SPLINE
  5
45F
100
AcDbEntity
  8
RUNDUNGEN
100
AcDbSpline
 62
7
  6
CONTINUOUS
 70
0
 71
3
 72
10
 73
6
 74
0
 42
0.0000001
 43
0.0000001
 44
0.0000000001
 40
0.0
 40
0.0
 40
0.0
 40
0.0
 40
0.5169074801
 40
0.7617037573
 40
1.0
 40
1.0
 40
1.0
 40
1.0
 10
91.9719322872
 20
73.4497682506
 30
0.0
 10
92.8594354213
 20
74.3460160775
 30
0.0
 10
94.014691536
 20
75.8442161076
 30
0.0
 10
95.0225266317
 20
78.0749213391
 30
0.0
 10
95.3297624947
 20
79.2199593078
 30
0.0
 10
95.431806354
 20
79.7924073462
 30
0.0
  0
SPLINE
  5
460
100
AcDbEntity
  8
RUNDUNGEN
100
AcDbSpline
 62
7
  6
CONTINUOUS
 70
0
 71
3
 72
11
 73
7
 74
0
 42
0.0000001
 43
0.0000001
 44
0.0000000001
 40
0.0
 40
0.0
 40
0.0
 40
0.0
 40
0.2660806569
 40
0.5190943725
 40
0.7622194677
 40
1.0
 40
1.0
 40
1.0
 40
1.0
 10
91.9719322872
 20
86.1374258516
 30
0.0
 10
92.5398706914
 20
85.5638914707
 30
0.0
 10
93.5621240725
 20
84.3544048694
 30
0.0
 10
94.7193857927
 20
82.3369230029
 30
0.0
 10
95.4288786138
 20
80.2106148906
 30
0.0
 10
95.5888914264
 20
78.7471342289
 30
0.0
 10
95.5888914014
 20
78.0258295099
 30
0.0
  0
SPLINE
  5
461
100
AcDbEntity
  8
RUNDUNGEN
100
AcDbSpline
 62
7
  6
CONTINUOUS
 70
0
 71
3
 72
11
 73
7
 74
0
 42
0.0000001
 43
0.0000001
 44
0.0000000001
 40
0.0
 40
0.0
 40
0.0
 40
0.0
 40
0.2524507309
 40
0.5157647478
 40
0.7702968692
 40
1.0
 40
1.0
 40
1.0
 40
1.0
 10
71.545422109
 20
115.7030234221
 30
0.0
 10
71.9085649709
 20
115.8828232601
 30
0.0
 10
72.7160393312
 20
116.1242984619
 30
0.0
 10
73.966628572
 20
116.1417940315
 30
0.0
 10
75.1418468335
 20
115.8332731728
 30
0.0
 10
75.8123578377
 20
115.4006548963
 30
0.0
 10
76.0717896711
 20
115.1386668447
 30
0.0
  0
SPLINE
  5
462
100
AcDbEntity
  8
RUNDUNGEN
100
AcDbSpline
 62
7
  6
CONTINUOUS
 70
0
 71
3
 72
9
 73
5
 74
0
 42
0.0000001
 43
0.0000001
 44
0.0000000001
 40
0.0
 40
0.0
 40
0.0
 40
0.0
 40
0.5194813996
 40
1.0
 40
1.0
 40
1.0
 40
1.0
 10
79.4558906456
 20
111.7212218492
 30
0.0
 10
79.6353563326
 20
111.5399878617
 30
0.0
 10
79.931655355
 20
111.1334063803
 30
0.0
 10
80.0437617883
 20
110.6377912339
 30
0.0
 10
80.0436233702
 20
110.4018650745
 30
0.0
  0
SPLINE
  5
463
100
AcDbEntity
  8
RUNDUNGEN
100
AcDbSpline
 62
7
  6
CONTINUOUS
 70
0
 71
3
 72
12
 73
8
 74
0
 42
0.0000001
 43
0.0000001
 44
0.0000000001
 40
0.0
 40
0.0
 40
0.0
 40
0.0
 40
0.2522592557
 40
0.5153839514
 40
0.6451804355
 40
0.7704554139
 40
1.0
 40
1.0
 40
1.0
 40
1.0
 10
144.2205136699
 20
116.8438590322
 30
0.0
 10
144.8908962956
 20
116.511938182
 30
0.0
 10
146.3811194499
 20
116.0663649222
 30
0.0
 10
148.3179752798
 20
116.0383888007
 30
0.0
 10
149.8314630805
 20
116.3348225201
 30
0.0
 10
151.1881031779
 20
116.8149901615
 30
0.0
 10
152.0979257447
 20
117.402070041
 30
0.0
 10
152.5768845537
 20
117.8857480982
 30
0.0
  0
SPLINE
  5
464
100
AcDbEntity
  8
0
100
AcDbSpline
 62
7
  6
CONTINUOUS
 70
0
 71
3
 72
9
 73
5
 74
0
 42
0.0000001
 43
0.0000001
 44
0.0000000001
 40
0.0
 40
0.0
 40
0.0
 40
0.0
 40
0.4402133985
 40
1.0
 40
1.0
 40
1.0
 40
1.0
 10
101.1035047747
 20
103.8389724818
 30
0.0
 10
101.1035047747
 20
103.8691054598
 30
0.0
 10
101.0570976485
 20
103.9347235939
 30
0.0
 10
100.9858226391
 20
103.9492811397
 30
0.0
 10
100.9475047747
 20
103.9492811397
 30
0.0
  0
SPLINE
  5
465
100
AcDbEntity
  8
0
100
AcDbSpline
 62
7
  6
CONTINUOUS
 70
0
 71
3
 72
11
 73
7
 74
0
 42
0.0000001
 43
0.0000001
 44
0.0000000001
 40
0.0
 40
0.0
 40
0.0
 40
0.0
 40
0.2094656921
 40
0.4446574861
 40
0.7119998836
 40
1.0
 40
1.0
 40
1.0
 40
1.0
 10
113.5366388787
 20
104.7369155613
 30
0.0
 10
113.5366388787
 20
104.8688547021
 30
0.0
 10
113.4509827949
 20
105.1522668118
 30
0.0
 10
113.1228450315
 20
105.4767643615
 30
0.0
 10
112.6619635871
 20
105.685186916
 30
0.0
 10
112.3099532045
 20
105.7326044418
 30
0.0
 10
112.1285464666
 20
105.7326044418
 30
0.0
  0
SPLINE
  5
466
100
AcDbEntity
  8
0
100
AcDbSpline
 62
7
  6
CONTINUOUS
 70
0
 71
3
 72
9
 73
5
 74
0
 42
0.0000001
 43
0.0000001
 44
0.0000000001
 40
0.0
 40
0.0
 40
0.0
 40
0.0
 40
0.4402133985
 40
1.0
 40
1.0
 40
1.0
 40
1.0
 10
100.0310047747
 20
103.7838181529
 30
0.0
 10
100.0310047747
 20
103.7536851749
 30
0.0
 10
100.0774119008
 20
103.6880670408
 30
0.0
 10
100.1486869102
 20
103.673509495
 30
0.0
 10
100.1870047747
 20
103.673509495
 30
0.0
  0
SPLINE
  5
467
100
AcDbEntity
  8
0
100
AcDbSpline
 62
7
  6
CONTINUOUS
 70
0
 71
3
 72
11
 73
7
 74
0
 42
0.0000001
 43
0.0000001
 44
0.0000000001
 40
0.0
 40
0.0
 40
0.0
 40
0.0
 40
0.2094929298
 40
0.4446655277
 40
0.7119947494
 40
1.0
 40
1.0
 40
1.0
 40
1.0
 10
96.9110047747
 20
99.9505922921
 30
0.0
 10
96.9110047747
 20
99.87749751
 30
0.0
 10
96.9584583177
 20
99.7204971748
 30
0.0
 10
97.1402622523
 20
99.5407966868
 30
0.0
 10
97.3955213376
 20
99.4252981471
 30
0.0
 10
97.5905160324
 20
99.3990490027
 30
0.0
 10
97.6910047747
 20
99.3990490027
 30
0.0
  0
SPLINE
  5
468
100
AcDbEntity
  8
0
100
AcDbSpline
 62
7
  6
CONTINUOUS
 70
0
 71
3
 72
11
 73
7
 74
0
 42
0.0000001
 43
0.0000001
 44
0.0000000001
 40
0.0
 40
0.0
 40
0.0
 40
0.0
 40
0.2094668498
 40
0.4446559298
 40
0.7120302568
 40
1.0
 40
1.0
 40
1.0
 40
1.0
 10
102.1760047747
 20
102.432537094
 30
0.0
 10
102.1760047747
 20
102.4690801912
 30
0.0
 10
102.1522726728
 20
102.5475728221
 30
0.0
 10
102.0613940227
 20
102.6374589556
 30
0.0
 10
101.9337372855
 20
102.6951741485
 30
0.0
 10
101.8362433032
 20
102.7083087387
 30
0.0
 10
101.7860047747
 20
102.7083087387
 30
0.0
  0
SPLINE
  5
469
100
AcDbEntity
  8
0
100
AcDbSpline
 62
7
  6
CONTINUOUS
 70
0
 71
3
 72
9
 73
5
 74
0
 42
0.0000001
 43
0.0000001
 44
0.0000000001
 40
0.0
 40
0.0
 40
0.0
 40
0.0
 40
0.2445376398
 40
1.0
 40
1.0
 40
1.0
 40
1.0
 10
96.9110047747
 20
100.4102116998
 30
0.0
 10
96.9110047747
 20
100.3922187602
 30
0.0
 10
96.9161727167
 20
100.3186637532
 30
0.0
 10
96.9423144928
 20
100.247127048
 30
0.0
 10
96.9703787393
 20
100.1991452208
 30
0.0
  0
SPLINE
  5
46A
100
AcDbEntity
  8
0
100
AcDbSpline
 62
7
  6
CONTINUOUS
 70
0
 71
3
 72
9
 73
5
 74
0
 42
0.0000001
 43
0.0000001
 44
0.0000000001
 40
0.0
 40
0.0
 40
0.0
 40
0.0
 40
0.461013727
 40
1.0
 40
1.0
 40
1.0
 40
1.0
 10
96.9703787393
 20
100.1991452208
 30
0.0
 10
97.0341846723
 20
100.0900553419
 30
0.0
 10
97.2660504968
 20
99.9105380693
 30
0.0
 10
97.5432502591
 20
99.8586684105
 30
0.0
 10
97.6910047747
 20
99.8586684105
 30
0.0
  0
SPLINE
  5
46B
100
AcDbEntity
  8
0
100
AcDbSpline
 62
7
  6
CONTINUOUS
 70
0
 71
3
 72
11
 73
7
 74
0
 42
0.0000001
 43
0.0000001
 44
0.0000000001
 40
0.0
 40
0.0
 40
0.0
 40
0.0
 40
0.2880052506
 40
0.5553344723
 40
0.7905070702
 40
1.0
 40
1.0
 40
1.0
 40
1.0
 10
103.9310047747
 20
99.3990490027
 30
0.0
 10
104.031493517
 20
99.3990490027
 30
0.0
 10
104.2264882117
 20
99.4252981471
 30
0.0
 10
104.481747297
 20
99.5407966868
 30
0.0
 10
104.6635512316
 20
99.7204971748
 30
0.0
 10
104.7110047747
 20
99.87749751
 30
0.0
 10
104.7110047747
 20
99.9505922921
 30
0.0
  0
SPLINE
  5
46C
100
AcDbEntity
  8
RUNDUNGEN
100
AcDbSpline
 62
7
  6
CONTINUOUS
 70
0
 71
3
 72
11
 73
7
 74
0
 42
0.0000001
 43
0.0000001
 44
0.0000000001
 40
0.0
 40
0.0
 40
0.0
 40
0.0
 40
0.2377805525
 40
0.4809056656
 40
0.7339193662
 40
1.0
 40
1.0
 40
1.0
 40
1.0
 10
95.5888914014
 20
78.0258295099
 30
0.0
 10
95.5888913764
 20
77.3045248225
 30
0.0
 10
95.4288783643
 20
75.8410442499
 30
0.0
 10
94.7193854065
 20
73.7147364247
 30
0.0
 10
93.5621237779
 20
71.6972549262
 30
0.0
 10
92.5398705692
 20
70.4877686022
 30
0.0
 10
91.9719322872
 20
69.9142343447
 30
0.0
  0
SPLINE
  5
46D
100
AcDbEntity
  8
0
100
AcDbSpline
 62
7
  6
CONTINUOUS
 70
0
 71
3
 72
11
 73
7
 74
0
 42
0.0000001
 43
0.0000001
 44
0.0000000001
 40
0.0
 40
0.0
 40
0.0
 40
0.0
 40
0.2879697432
 40
0.5553440702
 40
0.7905331502
 40
1.0
 40
1.0
 40
1.0
 40
1.0
 10
99.8360047747
 20
102.7083087387
 30
0.0
 10
99.7857662461
 20
102.7083087387
 30
0.0
 10
99.6882722639
 20
102.6951741485
 30
0.0
 10
99.5606155267
 20
102.6374589556
 30
0.0
 10
99.4697368766
 20
102.5475728221
 30
0.0
 10
99.4460047747
 20
102.4690801912
 30
0.0
 10
99.4460047747
 20
102.432537094
 30
0.0
  0
SPLINE
  5
46E
100
AcDbEntity
  8
0
100
AcDbSpline
 62
7
  6
CONTINUOUS
 70
0
 71
3
 72
11
 73
7
 74
0
 42
0.0000001
 43
0.0000001
 44
0.0000000001
 40
0.0
 40
0.0
 40
0.0
 40
0.0
 40
0.2879697432
 40
0.5553440702
 40
0.7905331502
 40
1.0
 40
1.0
 40
1.0
 40
1.0
 10
99.8360047747
 20
105.4660251853
 30
0.0
 10
99.7857662461
 20
105.4660251853
 30
0.0
 10
99.6882722639
 20
105.4528905951
 30
0.0
 10
99.5606155267
 20
105.3951754022
 30
0.0
 10
99.4697368766
 20
105.3052892687
 30
0.0
 10
99.4460047747
 20
105.2267966378
 30
0.0
 10
99.4460047747
 20
105.1902535407
 30
0.0
  0
SPLINE
  5
46F
100
AcDbEntity
  8
0
100
AcDbSpline
 62
7
  6
CONTINUOUS
 70
0
 71
3
 72
9
 73
5
 74
0
 42
0.0000001
 43
0.0000001
 44
0.0000000001
 40
0.0
 40
0.0
 40
0.0
 40
0.0
 40
0.5597866015
 40
1.0
 40
1.0
 40
1.0
 40
1.0
 10
100.6745047747
 20
103.9492811397
 30
0.0
 10
100.6361869102
 20
103.9492811397
 30
0.0
 10
100.5649119008
 20
103.9347235939
 30
0.0
 10
100.5185047747
 20
103.8691054598
 30
0.0
 10
100.5185047747
 20
103.8389724818
 30
0.0
  0
SPLINE
  5
470
100
AcDbEntity
  8
0
100
AcDbSpline
 62
7
  6
CONTINUOUS
 70
0
 71
3
 72
9
 73
5
 74
0
 42
0.0000001
 43
0.0000001
 44
0.0000000001
 40
0.0
 40
0.0
 40
0.0
 40
0.0
 40
0.5597866015
 40
1.0
 40
1.0
 40
1.0
 40
1.0
 10
101.4350047747
 20
103.673509495
 30
0.0
 10
101.4733226391
 20
103.673509495
 30
0.0
 10
101.5445976485
 20
103.6880670408
 30
0.0
 10
101.5910047747
 20
103.7536851749
 30
0.0
 10
101.5910047747
 20
103.7838181529
 30
0.0
  0
SPLINE
  5
471
100
AcDbEntity
  8
0
100
AcDbSpline
 62
7
  6
CONTINUOUS
 70
0
 71
3
 72
9
 73
5
 74
0
 42
0.0000001
 43
0.0000001
 44
0.0000000001
 40
0.0
 40
0.0
 40
0.0
 40
0.0
 40
0.5597866015
 40
1.0
 40
1.0
 40
1.0
 40
1.0
 10
101.4350047747
 20
100.9157930484
 30
0.0
 10
101.4733226391
 20
100.9157930484
 30
0.0
 10
101.5445976485
 20
100.9303505941
 30
0.0
 10
101.5910047747
 20
100.9959687283
 30
0.0
 10
101.5910047747
 20
101.0261017063
 30
0.0
  0
SPLINE
  5
472
100
AcDbEntity
  8
RUNDUNGEN
100
AcDbSpline
 62
7
  6
CONTINUOUS
 70
0
 71
3
 72
10
 73
6
 74
0
 42
0.0000001
 43
0.0000001
 44
0.0000000001
 40
0.0
 40
0.0
 40
0.0
 40
0.0
 40
0.2382826788
 40
0.481924951
 40
1.0
 40
1.0
 40
1.0
 40
1.0
 10
159.8744528305
 20
48.2810321369
 30
0.0
 10
159.8744528305
 20
48.4974221243
 30
0.0
 10
159.8263084704
 20
48.9365962835
 30
0.0
 10
159.5377961301
 20
49.8030998752
 30
0.0
 10
159.1204068841
 20
50.380207274
 30
0.0
 10
158.7893650963
 20
50.7145108629
 30
0.0
  0
SPLINE
  5
473
100
AcDbEntity
  8
0
100
AcDbSpline
 62
7
  6
CONTINUOUS
 70
0
 71
3
 72
11
 73
7
 74
0
 42
0.0000001
 43
0.0000001
 44
0.0000000001
 40
0.0
 40
0.0
 40
0.0
 40
0.0
 40
0.2865059912
 40
0.5484241175
 40
0.7833822346
 40
1.0
 40
1.0
 40
1.0
 40
1.0
 10
112.9373395413
 20
102.9962634404
 30
0.0
 10
113.1858785764
 20
103.0540052051
 30
0.0
 10
113.651841189
 20
103.2183006383
 30
0.0
 10
114.2345817072
 20
103.618965532
 30
0.0
 10
114.6247311444
 20
104.138059175
 30
0.0
 10
114.7196865721
 20
104.544410425
 30
0.0
 10
114.719657632
 20
104.7373272368
 30
0.0
  0
SPLINE
  5
474
100
AcDbEntity
  8
0
100
AcDbSpline
 62
7
  6
CONTINUOUS
 70
0
 71
3
 72
9
 73
5
 74
0
 42
0.0000001
 43
0.0000001
 44
0.0000000001
 40
0.0
 40
0.0
 40
0.0
 40
0.0
 40
0.2536121958
 40
1.0
 40
1.0
 40
1.0
 40
1.0
 10
131.2542796233
 20
99.3990490027
 30
0.0
 10
131.2809720906
 20
99.3990490027
 30
0.0
 10
131.3861717739
 20
99.402862387
 30
0.0
 10
131.4909384214
 20
99.4218677066
 30
0.0
 10
131.5660086723
 20
99.4450109435
 30
0.0
  0
SPLINE
  5
475
100
AcDbEntity
  8
0
100
AcDbSpline
 62
7
  6
CONTINUOUS
 70
0
 71
3
 72
12
 73
8
 74
0
 42
0.0000001
 43
0.0000001
 44
0.0000000001
 40
0.0
 40
0.0
 40
0.0
 40
0.0
 40
0.2844670851
 40
0.5445747
 40
0.7798379195
 40
0.8910272787
 40
1.0
 40
1.0
 40
1.0
 40
1.0
 10
131.5660086723
 20
99.4450109435
 30
0.0
 10
132.0321825529
 20
99.5887266293
 30
0.0
 10
132.8997731929
 20
99.9608534409
 30
0.0
 10
133.9701273268
 20
100.7893966707
 30
0.0
 10
134.5683844347
 20
101.6693571782
 30
0.0
 10
134.8045810475
 20
102.4185320342
 30
0.0
 10
134.8438777644
 20
102.7972063479
 30
0.0
 10
134.8438777644
 20
102.9840803834
 30
0.0
  0
SPLINE
  5
476
100
AcDbEntity
  8
0
100
AcDbSpline
 62
7
  6
CONTINUOUS
 70
0
 71
3
 72
9
 73
5
 74
0
 42
0.0000001
 43
0.0000001
 44
0.0000000001
 40
0.0
 40
0.0
 40
0.0
 40
0.0
 40
0.239729366
 40
1.0
 40
1.0
 40
1.0
 40
1.0
 10
131.5187458382
 20
105.6298168288
 30
0.0
 10
131.5015125084
 20
105.639148689
 30
0.0
 10
131.4268511678
 20
105.6728606058
 30
0.0
 10
131.3437787272
 20
105.6866425011
 30
0.0
 10
131.2816270446
 20
105.6866425011
 30
0.0
  0
SPLINE
  5
477
100
AcDbEntity
  8
RUNDUNGEN
100
AcDbSpline
 62
7
  6
CONTINUOUS
 70
0
 71
3
 72
11
 73
7
 74
0
 42
0.0000001
 43
0.0000001
 44
0.0000000001
 40
0.0
 40
0.0
 40
0.0
 40
0.0
 40
0.2256941123
 40
0.4632959297
 40
0.7206237644
 40
1.0
 40
1.0
 40
1.0
 40
1.0
 10
173.3869328967
 20
120.525276785
 30
0.0
 10
173.3868585768
 20
120.6388822058
 30
0.0
 10
173.3455426252
 20
120.8737211566
 30
0.0
 10
173.1686539277
 20
121.1965266591
 30
0.0
 10
172.8916286897
 20
121.4765873039
 30
0.0
 10
172.6601273741
 20
121.6205231268
 30
0.0
 10
172.5341018935
 20
121.6829210516
 30
0.0
  0
SPLINE
  5
478
100
AcDbEntity
  8
RUNDUNGEN
100
AcDbSpline
 62
7
  6
CONTINUOUS
 70
0
 71
3
 72
10
 73
6
 74
0
 42
0.0000001
 43
0.0000001
 44
0.0000000001
 40
0.0
 40
0.0
 40
0.0
 40
0.0
 40
0.5180752141
 40
0.7617174128
 40
1.0
 40
1.0
 40
1.0
 40
1.0
 10
72.9595405648
 20
50.7145108629
 30
0.0
 10
72.6284986719
 20
50.380207168
 30
0.0
 10
72.2111094031
 20
49.803099664
 30
0.0
 10
71.9225971437
 20
48.9365960494
 30
0.0
 10
71.8744528305
 20
48.4974220407
 30
0.0
 10
71.8744528305
 20
48.2810321369
 30
0.0
  0
SPLINE
  5
479
100
AcDbEntity
  8
RUNDUNGEN
100
AcDbSpline
 62
7
  6
CONTINUOUS
 70
0
 71
3
 72
11
 73
7
 74
0
 42
0.0000001
 43
0.0000001
 44
0.0000000001
 40
0.0
 40
0.0
 40
0.0
 40
0.0
 40
0.2793752682
 40
0.5367194959
 40
0.7743217448
 40
1.0
 40
1.0
 40
1.0
 40
1.0
 10
74.316264085
 20
106.3710237773
 30
0.0
 10
74.1933831424
 20
106.3101827808
 30
0.0
 10
73.9676521341
 20
106.1698319245
 30
0.0
 10
73.6975367927
 20
105.8967466238
 30
0.0
 10
73.5250813204
 20
105.5819817511
 30
0.0
 10
73.4848146268
 20
105.353006028
 30
0.0
 10
73.4847520502
 20
105.2422426379
 30
0.0
  0
SPLINE
  5
47A
100
AcDbEntity
  8
0
100
AcDbSpline
 62
7
  6
CONTINUOUS
 70
0
 71
3
 72
9
 73
5
 74
0
 42
0.0000001
 43
0.0000001
 44
0.0000000001
 40
0.0
 40
0.0
 40
0.0
 40
0.0
 40
0.4402133985
 40
1.0
 40
1.0
 40
1.0
 40
1.0
 10
100.0310047747
 20
104.2434375607
 30
0.0
 10
100.0310047747
 20
104.2133045827
 30
0.0
 10
100.0774119008
 20
104.1476864485
 30
0.0
 10
100.1486869102
 20
104.1331289028
 30
0.0
 10
100.1870047747
 20
104.1331289028
 30
0.0
  0
SPLINE
  5
47B
100
AcDbEntity
  8
0
100
AcDbSpline
 62
7
  6
CONTINUOUS
 70
0
 71
3
 72
11
 73
7
 74
0
 42
0.0000001
 43
0.0000001
 44
0.0000000001
 40
0.0
 40
0.0
 40
0.0
 40
0.0
 40
0.2094668498
 40
0.4446559298
 40
0.7120302568
 40
1.0
 40
1.0
 40
1.0
 40
1.0
 10
102.1760047747
 20
105.1902535407
 30
0.0
 10
102.1760047747
 20
105.2267966378
 30
0.0
 10
102.1522726728
 20
105.3052892687
 30
0.0
 10
102.0613940227
 20
105.3951754022
 30
0.0
 10
101.9337372855
 20
105.4528905951
 30
0.0
 10
101.8362433032
 20
105.4660251853
 30
0.0
 10
101.7860047747
 20
105.4660251853
 30
0.0
  0
SPLINE
  5
47C
100
AcDbEntity
  8
BEZUGSACHSEN
100
AcDbSpline
 62
7
  6
CONTINUOUS
 70
0
 71
3
 72
19
 73
15
 74
0
 42
0.0000001
 43
0.0000001
 44
0.0000000001
 40
0.0
 40
0.0
 40
0.0
 40
0.0
 40
0.0517263209
 40
0.1053355973
 40
0.1622490903
 40
0.223216447
 40
0.356475981
 40
0.5
 40
0.643524019
 40
0.776783553
 40
0.8377509097
 40
0.8946644027
 40
0.9482736791
 40
1.0
 40
1.0
 40
1.0
 40
1.0
 10
110.3744528305
 20
116.7962238668
 30
0.0
 10
110.3744528305
 20
116.540883341
 30
0.0
 10
110.4485739856
 20
116.0182598988
 30
0.0
 10
110.7728068842
 20
115.2766577563
 30
0.0
 10
111.2930226793
 20
114.5993848365
 30
0.0
 10
112.2436301464
 20
113.7919602905
 30
0.0
 10
113.7936051716
 20
113.0916388576
 30
0.0
 10
115.8744528305
 20
112.8114941514
 30
0.0
 10
117.9553004895
 20
113.0916388576
 30
0.0
 10
119.5052755147
 20
113.7919602905
 30
0.0
 10
120.4558829817
 20
114.5993848365
 30
0.0
 10
120.9760987768
 20
115.2766577563
 30
0.0
 10
121.3003316755
 20
116.0182598988
 30
0.0
 10
121.3744528305
 20
116.540883341
 30
0.0
 10
121.3744528305
 20
116.7962238668
 30
0.0
  0
SPLINE
  5
47D
100
AcDbEntity
  8
RUNDUNGEN
100
AcDbSpline
 62
7
  6
CONTINUOUS
 70
0
 71
3
 72
11
 73
7
 74
0
 42
0.0000001
 43
0.0000001
 44
0.0000000001
 40
0.0
 40
0.0
 40
0.0
 40
0.0
 40
0.2794012361
 40
0.5367224514
 40
0.7743079693
 40
1.0
 40
1.0
 40
1.0
 40
1.0
 10
62.4914119447
 20
123.3052402023
 30
0.0
 10
62.1130370341
 20
123.1178986496
 30
0.0
 10
61.4180456178
 20
122.6857113487
 30
0.0
 10
60.5866201452
 20
121.8446794291
 30
0.0
 10
60.0561414563
 20
120.8752672208
 30
0.0
 10
59.932807202
 20
120.1701527854
 30
0.0
 10
59.932873488
 20
119.8291010682
 30
0.0
  0
SPLINE
  5
47E
100
AcDbEntity
  8
RUNDUNGEN
100
AcDbSpline
 62
7
  6
CONTINUOUS
 70
0
 71
3
 72
11
 73
7
 74
0
 42
0.0000001
 43
0.0000001
 44
0.0000000001
 40
0.0
 40
0.0
 40
0.0
 40
0.0
 40
0.2535100251
 40
0.508820443
 40
0.7595688614
 40
1.0
 40
1.0
 40
1.0
 40
1.0
 10
79.5683104927
 20
125.8936567549
 30
0.0
 10
78.2613933951
 20
126.1674798368
 30
0.0
 10
75.5881283068
 20
126.4990881033
 30
0.0
 10
71.5736696994
 20
126.3612109214
 30
0.0
 10
67.698826629
 20
125.6023086762
 30
0.0
 10
65.2646291514
 20
124.6783196613
 30
0.0
 10
64.1297160333
 20
124.1163997776
 30
0.0
  0
SPLINE
  5
47F
100
AcDbEntity
  8
0
100
AcDbSpline
 62
7
  6
CONTINUOUS
 70
0
 71
3
 72
9
 73
5
 74
0
 42
0.0000001
 43
0.0000001
 44
0.0000000001
 40
0.0
 40
0.0
 40
0.0
 40
0.0
 40
0.2415905642
 40
1.0
 40
1.0
 40
1.0
 40
1.0
 10
127.3459815575
 20
121.6632687523
 30
0.0
 10
126.6728584815
 20
121.9965464584
 30
0.0
 10
123.8155992547
 20
123.2304876948
 30
0.0
 10
120.7254052284
 20
123.900158568
 30
0.0
 10
118.376817734
 20
124.1096883909
 30
0.0
  0
SPLINE
  5
480
100
AcDbEntity
  8
0
100
AcDbSpline
 62
7
  6
CONTINUOUS
 70
0
 71
3
 72
9
 73
5
 74
0
 42
0.0000001
 43
0.0000001
 44
0.0000000001
 40
0.0
 40
0.0
 40
0.0
 40
0.0
 40
0.2578604761
 40
1.0
 40
1.0
 40
1.0
 40
1.0
 10
113.3720879271
 20
124.1096883909
 30
0.0
 10
112.5736737944
 20
124.0384576736
 30
0.0
 10
109.4919568056
 20
123.6301299124
 30
0.0
 10
106.4704001741
 20
122.6869206025
 30
0.0
 10
104.4029241035
 20
121.6632687523
 30
0.0
  0
SPLINE
  5
481
100
AcDbEntity
  8
RUNDUNGEN
100
AcDbSpline
 62
7
  6
CONTINUOUS
 70
0
 71
3
 72
11
 73
7
 74
0
 42
0.0000001
 43
0.0000001
 44
0.0000000001
 40
0.0
 40
0.0
 40
0.0
 40
0.0
 40
0.2524504617
 40
0.5157648241
 40
0.7702974184
 40
1.0
 40
1.0
 40
1.0
 40
1.0
 10
165.6532247214
 20
125.0897912681
 30
0.0
 10
165.42975243
 20
125.2004372038
 30
0.0
 10
164.9328451491
 20
125.3490376039
 30
0.0
 10
164.1632511672
 20
125.3598039449
 30
0.0
 10
163.440039725
 20
125.1699445991
 30
0.0
 10
163.027417737
 20
124.9037179432
 30
0.0
 10
162.8677677601
 20
124.7424949127
 30
0.0
  0
SPLINE
  5
482
100
AcDbEntity
  8
0
100
AcDbSpline
 62
7
  6
CONTINUOUS
 70
0
 71
3
 72
11
 73
7
 74
0
 42
0.0000001
 43
0.0000001
 44
0.0000000001
 40
0.0
 40
0.0
 40
0.0
 40
0.0
 40
0.227142142
 40
0.4653047767
 40
0.7220182825
 40
1.0
 40
1.0
 40
1.0
 40
1.0
 10
133.3532969259
 20
103.0024651597
 30
0.0
 10
133.3532969259
 20
103.2565103467
 30
0.0
 10
133.2658773665
 20
103.7803842609
 30
0.0
 10
132.8882990301
 20
104.5067742782
 30
0.0
 10
132.2930490452
 20
105.1456530314
 30
0.0
 10
131.7921422293
 20
105.4817724923
 30
0.0
 10
131.5187458382
 20
105.6298168288
 30
0.0
  0
SPLINE
  5
483
100
AcDbEntity
  8
0
100
AcDbSpline
 62
7
  6
CONTINUOUS
 70
0
 71
3
 72
9
 73
5
 74
0
 42
0.0000001
 43
0.0000001
 44
0.0000000001
 40
0.0
 40
0.0
 40
0.0
 40
0.0
 40
0.2536121958
 40
1.0
 40
1.0
 40
1.0
 40
1.0
 10
131.2542796233
 20
99.8586684105
 30
0.0
 10
131.2809720906
 20
99.8586684105
 30
0.0
 10
131.3861717739
 20
99.8624817948
 30
0.0
 10
131.4909384214
 20
99.8814871143
 30
0.0
 10
131.5660086723
 20
99.9046303513
 30
0.0
  0
SPLINE
  5
484
100
AcDbEntity
  8
0
100
AcDbSpline
 62
7
  6
CONTINUOUS
 70
0
 71
3
 72
19
 73
15
 74
0
 42
0.0000001
 43
0.0000001
 44
0.0000000001
 40
0.0
 40
0.0
 40
0.0
 40
0.0
 40
0.0517234907
 40
0.1053372095
 40
0.1622487312
 40
0.2232163938
 40
0.3564752704
 40
0.5
 40
0.6435247296
 40
0.7767836062
 40
0.8377512688
 40
0.8946627905
 40
0.9482765093
 40
1.0
 40
1.0
 40
1.0
 40
1.0
 10
116.6005464666
 20
102.0325169136
 30
0.0
 10
116.6005464666
 20
101.8606968763
 30
0.0
 10
116.6504456012
 20
101.5090012914
 30
0.0
 10
116.8686042527
 20
101.0099321688
 30
0.0
 10
117.2187178559
 20
100.5541824204
 30
0.0
 10
117.8583954333
 20
100.0108191146
 30
0.0
 10
118.9014443738
 20
99.5395423711
 30
0.0
 10
120.301734451
 20
99.350998955
 30
0.0
 10
121.7020245282
 20
99.5395423711
 30
0.0
 10
122.7450734687
 20
100.0108191146
 30
0.0
 10
123.3847510461
 20
100.5541824204
 30
0.0
 10
123.7348646493
 20
101.0099321688
 30
0.0
 10
123.9530233008
 20
101.5090012914
 30
0.0
 10
124.0029224354
 20
101.8606968763
 30
0.0
 10
124.0029224354
 20
102.0325169136
 30
0.0
  0
SPLINE
  5
485
100
AcDbEntity
  8
0
100
AcDbSpline
 62
7
  6
CONTINUOUS
 70
0
 71
3
 72
9
 73
5
 74
0
 42
0.0000001
 43
0.0000001
 44
0.0000000001
 40
0.0
 40
0.0
 40
0.0
 40
0.0
 40
0.4402133985
 40
1.0
 40
1.0
 40
1.0
 40
1.0
 10
100.0310047747
 20
101.0261017063
 30
0.0
 10
100.0310047747
 20
100.9959687283
 30
0.0
 10
100.0774119008
 20
100.9303505941
 30
0.0
 10
100.1486869102
 20
100.9157930484
 30
0.0
 10
100.1870047747
 20
100.9157930484
 30
0.0
  0
SPLINE
  5
486
100
AcDbEntity
  8
0
100
AcDbSpline
 62
7
  6
CONTINUOUS
 70
0
 71
3
 72
11
 73
7
 74
0
 42
0.0000001
 43
0.0000001
 44
0.0000000001
 40
0.0
 40
0.0
 40
0.0
 40
0.0
 40
0.2816347582
 40
0.5420479832
 40
0.7798483853
 40
1.0
 40
1.0
 40
1.0
 40
1.0
 10
131.5660086723
 20
99.9046303513
 30
0.0
 10
131.9870463704
 20
100.034431106
 30
0.0
 10
132.7765187044
 20
100.3633948648
 30
0.0
 10
133.7787169927
 20
101.0799584465
 30
0.0
 10
134.4966535404
 20
101.9649825654
 30
0.0
 10
134.750159949
 20
102.6536083718
 30
0.0
 10
134.8065908988
 20
102.9933607363
 30
0.0
  0
SPLINE
  5
487
100
AcDbEntity
  8
0
100
AcDbSpline
 62
7
  6
CONTINUOUS
 70
0
 71
3
 72
9
 73
5
 74
0
 42
0.0000001
 43
0.0000001
 44
0.0000000001
 40
0.0
 40
0.0
 40
0.0
 40
0.0
 40
0.2591205677
 40
1.0
 40
1.0
 40
1.0
 40
1.0
 10
131.2816270446
 20
106.1462619088
 30
0.0
 10
131.3028037141
 20
106.1462619088
 30
0.0
 10
131.3843833781
 20
106.141588058
 30
0.0
 10
131.4655023377
 20
106.1182676293
 30
0.0
 10
131.5187458382
 20
106.0894362366
 30
0.0
  0
SPLINE
  5
488
100
AcDbEntity
  8
0
100
AcDbSpline
 62
7
  6
CONTINUOUS
 70
0
 71
3
 72
11
 73
7
 74
0
 42
0.0000001
 43
0.0000001
 44
0.0000000001
 40
0.0
 40
0.0
 40
0.0
 40
0.0
 40
0.2779697373
 40
0.5346991835
 40
0.7728568778
 40
1.0
 40
1.0
 40
1.0
 40
1.0
 10
131.5187458382
 20
106.0894362366
 30
0.0
 10
131.7921314262
 20
105.9413977499
 30
0.0
 10
132.2930322458
 20
105.6052640517
 30
0.0
 10
132.8883217749
 20
104.9664155867
 30
0.0
 10
133.2658857171
 20
104.2399989579
 30
0.0
 10
133.3533203141
 20
103.716131761
 30
0.0
 10
133.3533203141
 20
103.4620845674
 30
0.0
  0
SPLINE
  5
489
100
AcDbEntity
  8
0
100
AcDbSpline
 62
7
  6
CONTINUOUS
 70
0
 71
3
 72
9
 73
5
 74
0
 42
0.0000001
 43
0.0000001
 44
0.0000000001
 40
0.0
 40
0.0
 40
0.0
 40
0.0
 40
0.4402133985
 40
1.0
 40
1.0
 40
1.0
 40
1.0
 10
100.0310047747
 20
101.485721114
 30
0.0
 10
100.0310047747
 20
101.455588136
 30
0.0
 10
100.0774119008
 20
101.3899700019
 30
0.0
 10
100.1486869102
 20
101.3754124562
 30
0.0
 10
100.1870047747
 20
101.3754124562
 30
0.0
  0
SPLINE
  5
48A
100
AcDbEntity
  8
0
100
AcDbSpline
 62
7
  6
CONTINUOUS
 70
0
 71
3
 72
19
 73
15
 74
0
 42
0.0000001
 43
0.0000001
 44
0.0000000001
 40
0.0
 40
0.0
 40
0.0
 40
0.0
 40
0.051855061
 40
0.1061589371
 40
0.1638754827
 40
0.2253669227
 40
0.3583203672
 40
0.5
 40
0.6416796328
 40
0.7746330773
 40
0.8361245173
 40
0.8938410629
 40
0.948144939
 40
1.0
 40
1.0
 40
1.0
 40
1.0
 10
116.6279985248
 20
102.1744069194
 30
0.0
 10
116.6555076954
 20
102.0154145709
 30
0.0
 10
116.7542370407
 20
101.6960166191
 30
0.0
 10
117.0174308563
 20
101.2545656386
 30
0.0
 10
117.3870178355
 20
100.856062191
 30
0.0
 10
118.0201378818
 20
100.3864611478
 30
0.0
 10
119.0030700571
 20
99.9819432279
 30
0.0
 10
120.301734451
 20
99.8198672217
 30
0.0
 10
121.6003988449
 20
99.9819432279
 30
0.0
 10
122.5833310202
 20
100.3864611478
 30
0.0
 10
123.2164510665
 20
100.856062191
 30
0.0
 10
123.5860380457
 20
101.2545656386
 30
0.0
 10
123.8492318613
 20
101.6960166191
 30
0.0
 10
123.9479612066
 20
102.0154145709
 30
0.0
 10
123.9754703772
 20
102.1744069194
 30
0.0
  0
SPLINE
  5
48B
100
AcDbEntity
  8
0
100
AcDbSpline
 62
7
  6
CONTINUOUS
 70
0
 71
3
 72
11
 73
7
 74
0
 42
0.0000001
 43
0.0000001
 44
0.0000000001
 40
0.0
 40
0.0
 40
0.0
 40
0.0
 40
0.2782911642
 40
0.539206302
 40
0.7792454761
 40
1.0
 40
1.0
 40
1.0
 40
1.0
 10
112.9373395413
 20
103.4558828482
 30
0.0
 10
113.1350058534
 20
103.5018056211
 30
0.0
 10
113.511228246
 20
103.6252480292
 30
0.0
 10
114.0086014088
 20
103.9089432604
 30
0.0
 10
114.3967651636
 20
104.2722764581
 30
0.0
 10
114.5715884043
 20
104.5665560045
 30
0.0
 10
114.6292456175
 20
104.7168508492
 30
0.0
  0
SPLINE
  5
48C
100
AcDbEntity
  8
0
100
AcDbSpline
 62
7
  6
CONTINUOUS
 70
0
 71
3
 72
8
 73
4
 74
0
 42
0.0000001
 43
0.0000001
 44
0.0000000001
 40
0.0
 40
0.0
 40
0.0
 40
0.0
 40
1.0
 40
1.0
 40
1.0
 40
1.0
 10
114.6292456175
 20
104.7168508492
 30
0.0
 10
114.6590754536
 20
104.794608173
 30
0.0
 10
114.6822035964
 20
104.8753331221
 30
0.0
 10
114.6974622771
 20
104.957206153
 30
0.0
  0
SPLINE
  5
48D
100
AcDbEntity
  8
0
100
AcDbSpline
 62
7
  6
CONTINUOUS
 70
0
 71
3
 72
11
 73
7
 74
0
 42
0.0000001
 43
0.0000001
 44
0.0000000001
 40
0.0
 40
0.0
 40
0.0
 40
0.0
 40
0.2880066977
 40
0.5553334191
 40
0.790532629
 40
1.0
 40
1.0
 40
1.0
 40
1.0
 10
112.1285464666
 20
106.1922238496
 30
0.0
 10
112.3099566591
 20
106.1922238496
 30
0.0
 10
112.6619661191
 20
106.1448248097
 30
0.0
 10
113.1228233968
 20
105.936352899
 30
0.0
 10
113.4509600957
 20
105.6118827778
 30
0.0
 10
113.5366631853
 20
105.328474665
 30
0.0
 10
113.5366631853
 20
105.1965349691
 30
0.0
  0
SPLINE
  5
48E
100
AcDbEntity
  8
0
100
AcDbSpline
 62
7
  6
CONTINUOUS
 70
0
 71
3
 72
9
 73
5
 74
0
 42
0.0000001
 43
0.0000001
 44
0.0000000001
 40
0.0
 40
0.0
 40
0.0
 40
0.0
 40
0.5597866015
 40
1.0
 40
1.0
 40
1.0
 40
1.0
 10
101.4350047747
 20
101.3754124562
 30
0.0
 10
101.4733226391
 20
101.3754124562
 30
0.0
 10
101.5445976485
 20
101.3899700019
 30
0.0
 10
101.5910047747
 20
101.455588136
 30
0.0
 10
101.5910047747
 20
101.485721114
 30
0.0
  0
SPLINE
  5
48F
100
AcDbEntity
  8
0
100
AcDbSpline
 62
7
  6
CONTINUOUS
 70
0
 71
3
 72
9
 73
5
 74
0
 42
0.0000001
 43
0.0000001
 44
0.0000000001
 40
0.0
 40
0.0
 40
0.0
 40
0.0
 40
0.4402133985
 40
1.0
 40
1.0
 40
1.0
 40
1.0
 10
100.5185047747
 20
104.2985918896
 30
0.0
 10
100.5185047747
 20
104.3287248676
 30
0.0
 10
100.5649119008
 20
104.3943430017
 30
0.0
 10
100.6361869102
 20
104.4089005475
 30
0.0
 10
100.6745047747
 20
104.4089005475
 30
0.0
  0
SPLINE
  5
490
100
AcDbEntity
  8
RUNDUNGEN
100
AcDbSpline
 62
7
  6
CONTINUOUS
 70
0
 71
3
 72
11
 73
7
 74
0
 42
0.0000001
 43
0.0000001
 44
0.0000000001
 40
0.0
 40
0.0
 40
0.0
 40
0.0
 40
0.2256778953
 40
0.4632795617
 40
0.7206246471
 40
1.0
 40
1.0
 40
1.0
 40
1.0
 10
80.0436233702
 20
110.4018650745
 30
0.0
 10
80.0435150635
 20
110.2172622066
 30
0.0
 10
79.9763981994
 20
109.8356435354
 30
0.0
 10
79.688971592
 20
109.3110455717
 30
0.0
 10
79.2387828095
 20
108.8559119222
 30
0.0
 10
78.8625687955
 20
108.6219969782
 30
0.0
 10
78.6577699198
 20
108.5205966519
 30
0.0
  0
SPLINE
  5
491
100
AcDbEntity
  8
0
100
AcDbSpline
 62
7
  6
CONTINUOUS
 70
0
 71
3
 72
9
 73
5
 74
0
 42
0.0000001
 43
0.0000001
 44
0.0000000001
 40
0.0
 40
0.0
 40
0.0
 40
0.0
 40
0.5597866015
 40
1.0
 40
1.0
 40
1.0
 40
1.0
 10
100.9475047747
 20
104.4089005475
 30
0.0
 10
100.9858226391
 20
104.4089005475
 30
0.0
 10
101.0570976485
 20
104.3943430017
 30
0.0
 10
101.1035047747
 20
104.3287248676
 30
0.0
 10
101.1035047747
 20
104.2985918896
 30
0.0
  0
SPLINE
  5
492
100
AcDbEntity
  8
0
100
AcDbSpline
 62
7
  6
CONTINUOUS
 70
0
 71
3
 72
9
 73
5
 74
0
 42
0.0000001
 43
0.0000001
 44
0.0000000001
 40
0.0
 40
0.0
 40
0.0
 40
0.0
 40
0.5597866015
 40
1.0
 40
1.0
 40
1.0
 40
1.0
 10
101.4350047747
 20
104.1331289028
 30
0.0
 10
101.4733226391
 20
104.1331289028
 30
0.0
 10
101.5445976485
 20
104.1476864485
 30
0.0
 10
101.5910047747
 20
104.2133045827
 30
0.0
 10
101.5910047747
 20
104.2434375607
 30
0.0
  0
SPLINE
  5
493
100
AcDbEntity
  8
0
100
AcDbSpline
 62
7
  6
CONTINUOUS
 70
0
 71
3
 72
11
 73
7
 74
0
 42
0.0000001
 43
0.0000001
 44
0.0000000001
 40
0.0
 40
0.0
 40
0.0
 40
0.0
 40
0.2876567391
 40
0.555407049
 40
0.7907201247
 40
1.0
 40
1.0
 40
1.0
 40
1.0
 10
101.7860047747
 20
105.9256445931
 30
0.0
 10
101.8361814274
 20
105.9256445931
 30
0.0
 10
101.933599802
 20
105.9123108441
 30
0.0
 10
102.0614950212
 20
105.854963601
 30
0.0
 10
102.1520711398
 20
105.7647457408
 30
0.0
 10
102.1760047747
 20
105.6863781374
 30
0.0
 10
102.1760047747
 20
105.6498729484
 30
0.0
  0
SPLINE
  5
494
100
AcDbEntity
  8
0
100
AcDbSpline
 62
7
  6
CONTINUOUS
 70
0
 71
3
 72
8
 73
4
 74
0
 42
0.0000001
 43
0.0000001
 44
0.0000000001
 40
0.0
 40
0.0
 40
0.0
 40
0.0
 40
1.0
 40
1.0
 40
1.0
 40
1.0
 10
101.8901601746
 20
103.1577703021
 30
0.0
 10
101.9211397182
 20
103.1516895607
 30
0.0
 10
101.951755916
 20
103.1428650088
 30
0.0
 10
101.9810047747
 20
103.1309817517
 30
0.0
  0
SPLINE
  5
495
100
AcDbEntity
  8
0
100
AcDbSpline
 62
7
  6
CONTINUOUS
 70
0
 71
3
 72
9
 73
5
 74
0
 42
0.0000001
 43
0.0000001
 44
0.0000000001
 40
0.0
 40
0.0
 40
0.0
 40
0.0
 40
0.5424756321
 40
1.0
 40
1.0
 40
1.0
 40
1.0
 10
101.9810047747
 20
103.1309817517
 30
0.0
 10
102.0349962586
 20
103.1090460348
 30
0.0
 10
102.1302083051
 20
103.0493316765
 30
0.0
 10
102.1760047747
 20
102.9413077109
 30
0.0
 10
102.1760047747
 20
102.8921565018
 30
0.0
  0
SPLINE
  5
496
100
AcDbEntity
  8
0
100
AcDbSpline
 62
7
  6
CONTINUOUS
 70
0
 71
3
 72
9
 73
5
 74
0
 42
0.0000001
 43
0.0000001
 44
0.0000000001
 40
0.0
 40
0.0
 40
0.0
 40
0.0
 40
0.4575243679
 40
1.0
 40
1.0
 40
1.0
 40
1.0
 10
99.4460047747
 20
102.8921565018
 30
0.0
 10
99.4460047747
 20
102.9413077109
 30
0.0
 10
99.4918012443
 20
103.0493316765
 30
0.0
 10
99.5870132908
 20
103.1090460348
 30
0.0
 10
99.6410047747
 20
103.1309817517
 30
0.0
  0
SPLINE
  5
497
100
AcDbEntity
  8
0
100
AcDbSpline
 62
7
  6
CONTINUOUS
 70
0
 71
3
 72
9
 73
5
 74
0
 42
0.0000001
 43
0.0000001
 44
0.0000000001
 40
0.0
 40
0.0
 40
0.0
 40
0.0
 40
0.2441493338
 40
1.0
 40
1.0
 40
1.0
 40
1.0
 10
99.6410047747
 20
103.1309817517
 30
0.0
 10
99.6560204989
 20
103.137082356
 30
0.0
 10
99.7188639009
 20
103.1586685778
 30
0.0
 10
99.785828122
 20
103.1679281465
 30
0.0
 10
99.8360047747
 20
103.1679281465
 30
0.0
  0
SPLINE
  5
498
100
AcDbEntity
  8
0
100
AcDbSpline
 62
7
  6
CONTINUOUS
 70
0
 71
3
 72
11
 73
7
 74
0
 42
0.0000001
 43
0.0000001
 44
0.0000000001
 40
0.0
 40
0.0
 40
0.0
 40
0.0
 40
0.2092798753
 40
0.444592951
 40
0.7123432609
 40
1.0
 40
1.0
 40
1.0
 40
1.0
 10
99.4460047747
 20
105.6498729484
 30
0.0
 10
99.4460047747
 20
105.6863781374
 30
0.0
 10
99.4699384096
 20
105.7647457408
 30
0.0
 10
99.5605145281
 20
105.854963601
 30
0.0
 10
99.6884097473
 20
105.9123108441
 30
0.0
 10
99.785828122
 20
105.9256445931
 30
0.0
 10
99.8360047747
 20
105.9256445931
 30
0.0
  0
SPLINE
  5
499
100
AcDbEntity
  8
0
100
AcDbSpline
 62
7
  6
CONTINUOUS
 70
0
 71
3
 72
9
 73
5
 74
0
 42
0.0000001
 43
0.0000001
 44
0.0000000001
 40
0.0
 40
0.0
 40
0.0
 40
0.0
 40
0.538986273
 40
1.0
 40
1.0
 40
1.0
 40
1.0
 10
103.9310047747
 20
99.8586684105
 30
0.0
 10
104.0787592902
 20
99.8586684105
 30
0.0
 10
104.3559590526
 20
99.9105380693
 30
0.0
 10
104.5878248771
 20
100.0900553419
 30
0.0
 10
104.65163081
 20
100.1991452208
 30
0.0
  0
SPLINE
  5
49A
100
AcDbEntity
  8
0
100
AcDbSpline
 62
7
  6
CONTINUOUS
 70
0
 71
3
 72
9
 73
5
 74
0
 42
0.0000001
 43
0.0000001
 44
0.0000000001
 40
0.0
 40
0.0
 40
0.0
 40
0.0
 40
0.2592261758
 40
1.0
 40
1.0
 40
1.0
 40
1.0
 10
104.65163081
 20
100.1991452208
 30
0.0
 10
104.6612584846
 20
100.215605788
 30
0.0
 10
104.6945688209
 20
100.281228238
 30
0.0
 10
104.7110047747
 20
100.3557182847
 30
0.0
 10
104.7110047747
 20
100.4102116998
 30
0.0
  0
SPLINE
  5
49B
100
AcDbEntity
  8
RUNDUNGEN
100
AcDbSpline
 62
7
  6
CONTINUOUS
 70
0
 71
3
 72
11
 73
7
 74
0
 42
0.0000001
 43
0.0000001
 44
0.0000000001
 40
0.0
 40
0.0
 40
0.0
 40
0.0
 40
0.2426329583
 40
0.4964574449
 40
0.7521607222
 40
1.0
 40
1.0
 40
1.0
 40
1.0
 10
98.6688597935
 20
118.8242102386
 30
0.0
 10
98.1965263356
 20
118.5903477892
 30
0.0
 10
97.1697819042
 20
118.2280898069
 30
0.0
 10
95.5404987781
 20
118.0087570167
 30
0.0
 10
93.8883220808
 20
118.1083467372
 30
0.0
 10
92.8219379401
 20
118.3918017176
 30
0.0
 10
92.3206271409
 20
118.5880855914
 30
0.0
  0
SPLINE
  5
49C
100
AcDbEntity
  8
RUNDUNGEN
100
AcDbSpline
 62
7
  6
CONTINUOUS
 70
0
 71
3
 72
11
 73
7
 74
0
 42
0.0000001
 43
0.0000001
 44
0.0000000001
 40
0.0
 40
0.0
 40
0.0
 40
0.0
 40
0.2660806569
 40
0.5190943725
 40
0.7622194677
 40
1.0
 40
1.0
 40
1.0
 40
1.0
 10
139.7769733739
 20
69.9142343447
 30
0.0
 10
139.2090349696
 20
70.4877687256
 30
0.0
 10
138.1867815886
 20
71.6972553269
 30
0.0
 10
137.0295198683
 20
73.7147371934
 30
0.0
 10
136.3200270472
 20
75.8410453057
 30
0.0
 10
136.1600142346
 20
77.3045259675
 30
0.0
 10
136.1600142596
 20
78.0258306864
 30
0.0
  0
SPLINE
  5
49D
100
AcDbEntity
  8
RUNDUNGEN
100
AcDbSpline
 62
7
  6
CONTINUOUS
 70
0
 71
3
 72
12
 73
8
 74
0
 42
0.0000001
 43
0.0000001
 44
0.0000000001
 40
0.0
 40
0.0
 40
0.0
 40
0.0
 40
0.229548752
 40
0.354824285
 40
0.4846199281
 40
0.7477427284
 40
1.0
 40
1.0
 40
1.0
 40
1.0
 10
152.5768845537
 20
114.3502141923
 30
0.0
 10
152.0979170587
 20
113.8665273634
 30
0.0
 10
151.1880797497
 20
113.2794418648
 30
0.0
 10
149.831425904
 20
112.7992788829
 30
0.0
 10
148.3179432823
 20
112.502853198
 30
0.0
 10
146.3811020506
 20
112.5308355129
 30
0.0
 10
144.8908910138
 20
112.9764068912
 30
0.0
 10
144.2205136699
 20
113.3083251263
 30
0.0
  0
SPLINE
  5
49E
100
AcDbEntity
  8
KONSTRUKTIONSELEMENTE
100
AcDbSpline
 62
7
  6
CONTINUOUS
 70
0
 71
3
 72
17
 73
13
 74
0
 42
0.0000001
 43
0.0000001
 44
0.0000000001
 40
0.0
 40
0.0
 40
0.0
 40
0.0
 40
0.0624638097
 40
0.1249406755
 40
0.1874340255
 40
0.2499425023
 40
0.3748543343
 40
0.4998427565
 40
0.6248624935
 40
0.7498984145
 40
0.8749446668
 40
1.0
 40
1.0
 40
1.0
 40
1.0
 10
94.4343035773
 20
141.7550769489
 30
0.0
 10
94.4343035773
 20
142.1486794912
 30
0.0
 10
94.5219177068
 20
142.9384248868
 30
0.0
 10
94.8923330055
 20
144.067052031
 30
0.0
 10
95.4507379531
 20
145.1136206077
 30
0.0
 10
96.3798595476
 20
146.389776185
 30
0.0
 10
97.7935149061
 20
147.7778194815
 30
0.0
 10
99.7124475566
 20
149.1655076478
 30
0.0
 10
101.7772066242
 20
150.3241757176
 30
0.0
 10
103.9419325048
 20
151.2808021789
 30
0.0
 10
106.1787737852
 20
152.05267014
 30
0.0
 10
107.7052806387
 20
152.4511885666
 30
0.0
 10
108.4744528305
 20
152.6224592775
 30
0.0
  0
SPLINE
  5
49F
100
AcDbEntity
  8
KONSTRUKTIONSELEMENTE
100
AcDbSpline
 62
7
  6
CONTINUOUS
 70
0
 71
3
 72
9
 73
5
 74
0
 42
0.0000001
 43
0.0000001
 44
0.0000000001
 40
0.0
 40
0.0
 40
0.0
 40
0.0
 40
0.5000902521
 40
1.0
 40
1.0
 40
1.0
 40
1.0
 10
93.7370692286
 20
135.4550769489
 30
0.0
 10
93.954016675
 20
136.0640223093
 30
0.0
 10
94.3066246581
 20
137.3135037122
 30
0.0
 10
94.4343035773
 20
138.6088733906
 30
0.0
 10
94.4343035773
 20
139.2550769489
 30
0.0
  0
SPLINE
  5
4A0
100
AcDbEntity
  8
KONSTRUKTIONSELEMENTE
100
AcDbSpline
 62
7
  6
CONTINUOUS
 70
0
 71
3
 72
9
 73
5
 74
0
 42
0.0000001
 43
0.0000001
 44
0.0000000001
 40
0.0
 40
0.0
 40
0.0
 40
0.0
 40
0.4999097479
 40
1.0
 40
1.0
 40
1.0
 40
1.0
 10
137.3146020837
 20
139.2550769489
 30
0.0
 10
137.3146020837
 20
138.6088733906
 30
0.0
 10
137.4422810029
 20
137.3135037122
 30
0.0
 10
137.794888986
 20
136.0640223093
 30
0.0
 10
138.0118364324
 20
135.4550769489
 30
0.0
  0
SPLINE
  5
4A1
100
AcDbEntity
  8
KONSTRUKTIONSELEMENTE
100
AcDbSpline
 62
7
  6
CONTINUOUS
 70
0
 71
3
 72
17
 73
13
 74
0
 42
0.0000001
 43
0.0000001
 44
0.0000000001
 40
0.0
 40
0.0
 40
0.0
 40
0.0
 40
0.1250568593
 40
0.2501051864
 40
0.3751435224
 40
0.500166049
 40
0.6251563467
 40
0.7500655835
 40
0.8125727468
 40
0.8750648179
 40
0.9375392982
 40
1.0
 40
1.0
 40
1.0
 40
1.0
 10
123.2744528305
 20
152.6224592775
 30
0.0
 10
124.0436344425
 20
152.451186469
 30
0.0
 10
125.5701633083
 20
152.0526615881
 30
0.0
 10
127.8070382529
 20
151.2807750672
 30
0.0
 10
129.9718070659
 20
150.3241312724
 30
0.0
 10
132.0365951058
 20
149.1654218919
 30
0.0
 10
133.9555236075
 20
147.777705968
 30
0.0
 10
135.3691555634
 20
146.3896558454
 30
0.0
 10
136.2982336062
 20
145.1135092018
 30
0.0
 10
136.8566126274
 20
144.0669625101
 30
0.0
 10
137.2269970993
 20
142.9383703
 30
0.0
 10
137.3146020837
 20
142.1486599241
 30
0.0
 10
137.3146020837
 20
141.7550769489
 30
0.0
  0
SPLINE
  5
4A2
100
AcDbEntity
  8
RUNDUNGEN
100
AcDbSpline
 62
7
  6
CONTINUOUS
 70
0
 71
3
 72
10
 73
6
 74
0
 42
0.0000001
 43
0.0000001
 44
0.0000000001
 40
0.0
 40
0.0
 40
0.0
 40
0.0
 40
0.4906979984
 40
0.7439106322
 40
1.0
 40
1.0
 40
1.0
 40
1.0
 10
102.4177390116
 20
177.7550769489
 30
0.0
 10
101.2082405098
 20
177.7550769489
 30
0.0
 10
99.3755163894
 20
177.6746491983
 30
0.0
 10
96.9125102989
 20
177.5830547772
 30
0.0
 10
95.6570718198
 20
177.5645519682
 30
0.0
 10
95.0258491376
 20
177.5645519682
 30
0.0
  0
SPLINE
  5
4A3
100
AcDbEntity
  8
RUNDUNGEN
100
AcDbSpline
 62
7
  6
CONTINUOUS
 70
0
 71
3
 72
17
 73
13
 74
0
 42
0.0000001
 43
0.0000001
 44
0.0000000001
 40
0.0
 40
0.0
 40
0.0
 40
0.0
 40
0.0276647326
 40
0.0575349468
 40
0.0913022043
 40
0.1300915712
 40
0.2248637921
 40
0.343640902
 40
0.4848999831
 40
0.6450698933
 40
0.8189329156
 40
1.0
 40
1.0
 40
1.0
 40
1.0
 10
152.8744528305
 20
159.2180982527
 30
0.0
 10
152.8744528305
 20
159.2791547279
 30
0.0
 10
152.8541603895
 20
159.406802518
 30
0.0
 10
152.7665563231
 20
159.5906222014
 30
0.0
 10
152.6246279276
 20
159.7685231091
 30
0.0
 10
152.3466081096
 20
160.0136681229
 30
0.0
 10
151.8585540222
 20
160.2916808253
 30
0.0
 10
151.1250197545
 20
160.5699509636
 30
0.0
 10
150.2254044061
 20
160.8018501807
 30
0.0
 10
149.1901038511
 20
160.9766183382
 30
0.0
 10
148.0576405071
 20
161.0854210187
 30
0.0
 10
147.2740705723
 20
161.1098909859
 30
0.0
 10
146.8744528305
 20
161.1098909859
 30
0.0
  0
SPLINE
  5
4A4
100
AcDbEntity
  8
KONSTRUKTIONSELEMENTE
100
AcDbSpline
 62
7
  6
CONTINUOUS
 70
0
 71
3
 72
24
 73
20
 74
0
 42
0.0000001
 43
0.0000001
 44
0.0000000001
 40
0.0
 40
0.0
 40
0.0
 40
0.0
 40
0.1921951008
 40
0.3778459574
 40
0.5499861603
 40
0.6287921382
 40
0.7016334782
 40
0.7677252977
 40
0.8263610973
 40
0.8769167603
 40
0.9188803311
 40
0.9365217123
 40
0.9518907133
 40
0.964973902
 40
0.9757901137
 40
0.9843980817
 40
0.9909521934
 40
0.9958486586
 40
1.0
 40
1.0
 40
1.0
 40
1.0
 10
93.7370692286
 20
135.4550769489
 30
0.0
 10
93.3331722361
 20
134.3213867219
 30
0.0
 10
92.5975103595
 20
132.0714823188
 30
0.0
 10
91.6716529641
 20
128.753489529
 30
0.0
 10
91.0379158074
 20
126.0933391198
 30
0.0
 10
90.623917772
 20
124.1084628676
 30
0.0
 10
90.3708530059
 20
122.7686203924
 30
0.0
 10
90.1659221827
 20
121.5484817937
 30
0.0
 10
90.0090524737
 20
120.4620311623
 30
0.0
 10
89.9001696795
 20
119.5216866868
 30
0.0
 10
89.8459390282
 20
118.8337271081
 30
0.0
 10
89.8296510919
 20
118.3644572158
 30
0.0
 10
89.8301986247
 20
118.0757507373
 30
0.0
 10
89.842635684
 20
117.8300279862
 30
0.0
 10
89.8668048808
 20
117.6277337139
 30
0.0
 10
89.9026846971
 20
117.4685067384
 30
0.0
 10
89.9503958597
 20
117.351673923
 30
0.0
 10
90.0140935266
 20
117.2733829895
 30
0.0
 10
90.07192788
 20
117.2550769489
 30
0.0
 10
90.0979227915
 20
117.2550769489
 30
0.0
  0
SPLINE
  5
4A5
100
AcDbEntity
  8
KONSTRUKTIONSELEMENTE
100
AcDbSpline
 62
7
  6
CONTINUOUS
 70
0
 71
3
 72
24
 73
20
 74
0
 42
0.0000001
 43
0.0000001
 44
0.0000000001
 40
0.0
 40
0.0
 40
0.0
 40
0.0
 40
0.0041513414
 40
0.0090478066
 40
0.0156019183
 40
0.0242098863
 40
0.035026098
 40
0.0481092867
 40
0.0634782877
 40
0.0811196689
 40
0.1230832397
 40
0.1736389027
 40
0.2322747023
 40
0.2983665218
 40
0.3712078618
 40
0.4500138397
 40
0.6221540426
 40
0.8078048992
 40
1.0
 40
1.0
 40
1.0
 40
1.0
 10
141.6509828695
 20
117.2550769489
 30
0.0
 10
141.676977781
 20
117.2550769489
 30
0.0
 10
141.7348121344
 20
117.2733829895
 30
0.0
 10
141.7985098013
 20
117.351673923
 30
0.0
 10
141.846220964
 20
117.4685067384
 30
0.0
 10
141.8821007802
 20
117.6277337139
 30
0.0
 10
141.906269977
 20
117.8300279862
 30
0.0
 10
141.9187070363
 20
118.0757507373
 30
0.0
 10
141.9192545692
 20
118.3644572158
 30
0.0
 10
141.9029666328
 20
118.8337271081
 30
0.0
 10
141.8487359815
 20
119.5216866868
 30
0.0
 10
141.7398531874
 20
120.4620311623
 30
0.0
 10
141.5829834783
 20
121.5484817937
 30
0.0
 10
141.3780526551
 20
122.7686203924
 30
0.0
 10
141.1249878891
 20
124.1084628676
 30
0.0
 10
140.7109898536
 20
126.0933391198
 30
0.0
 10
140.077252697
 20
128.753489529
 30
0.0
 10
139.1513953016
 20
132.0714823188
 30
0.0
 10
138.4157334249
 20
134.3213867219
 30
0.0
 10
138.0118364324
 20
135.4550769489
 30
0.0
  0
SPLINE
  5
4A6
100
AcDbEntity
  8
RUNDUNGEN
100
AcDbSpline
 62
7
  6
CONTINUOUS
 70
0
 71
3
 72
9
 73
5
 74
0
 42
0.0000001
 43
0.0000001
 44
0.0000000001
 40
0.0
 40
0.0
 40
0.0
 40
0.0
 40
0.5098814585
 40
1.0
 40
1.0
 40
1.0
 40
1.0
 10
90.7381509086
 20
177.5645519682
 30
0.0
 10
90.0859641174
 20
177.5645519789
 30
0.0
 10
88.8067763357
 20
177.5993859763
 30
0.0
 10
87.530129986
 20
177.6785992457
 30
0.0
 10
86.9040445653
 20
177.7107063637
 30
0.0
  0
SPLINE
  5
4A7
100
AcDbEntity
  8
RUNDUNGEN
100
AcDbSpline
 62
7
  6
CONTINUOUS
 70
0
 71
3
 72
17
 73
13
 74
0
 42
0.0000001
 43
0.0000001
 44
0.0000000001
 40
0.0
 40
0.0
 40
0.0
 40
0.0
 40
0.0276647326
 40
0.0575349468
 40
0.0913022043
 40
0.1300915712
 40
0.2248637921
 40
0.343640902
 40
0.4848999831
 40
0.6450698933
 40
0.8189329156
 40
1.0
 40
1.0
 40
1.0
 40
1.0
 10
152.8744528305
 20
151.3632842156
 30
0.0
 10
152.8744528305
 20
151.4243406908
 30
0.0
 10
152.8541603895
 20
151.551988481
 30
0.0
 10
152.7665563231
 20
151.7358081643
 30
0.0
 10
152.6246279276
 20
151.913709072
 30
0.0
 10
152.3466081096
 20
152.1588540858
 30
0.0
 10
151.8585540222
 20
152.4368667882
 30
0.0
 10
151.1250197545
 20
152.7151369265
 30
0.0
 10
150.2254044061
 20
152.9470361437
 30
0.0
 10
149.1901038511
 20
153.1218043011
 30
0.0
 10
148.0576405071
 20
153.2306069816
 30
0.0
 10
147.2740705723
 20
153.2550769489
 30
0.0
 10
146.8744528305
 20
153.2550769489
 30
0.0
  0
SPLINE
  5
4A8
100
AcDbEntity
  8
RUNDUNGEN
100
AcDbSpline
 62
7
  6
CONTINUOUS
 70
0
 71
3
 72
9
 73
5
 74
0
 42
0.0000001
 43
0.0000001
 44
0.0000000001
 40
0.0
 40
0.0
 40
0.0
 40
0.0
 40
0.4901185419
 40
1.0
 40
1.0
 40
1.0
 40
1.0
 10
144.8448609677
 20
177.7107063571
 30
0.0
 10
144.2187754651
 20
177.6785992338
 30
0.0
 10
142.9421289496
 20
177.5993859536
 30
0.0
 10
141.662941001
 20
177.5645519682
 30
0.0
 10
141.0107541256
 20
177.5645519682
 30
0.0
  0
SPLINE
  5
4A9
100
AcDbEntity
  8
RUNDUNGEN
100
AcDbSpline
 62
7
  6
CONTINUOUS
 70
0
 71
3
 72
17
 73
13
 74
0
 42
0.0000001
 43
0.0000001
 44
0.0000000001
 40
0.0
 40
0.0
 40
0.0
 40
0.0
 40
0.1810670844
 40
0.3549301067
 40
0.5151000169
 40
0.656359098
 40
0.7751362079
 40
0.8699084288
 40
0.9086977957
 40
0.9424650532
 40
0.9723352674
 40
1.0
 40
1.0
 40
1.0
 40
1.0
 10
84.8744528305
 20
153.2550769489
 30
0.0
 10
84.4748350887
 20
153.2550769489
 30
0.0
 10
83.6912651539
 20
153.2306069816
 30
0.0
 10
82.5588018099
 20
153.1218043011
 30
0.0
 10
81.5235012549
 20
152.9470361437
 30
0.0
 10
80.6238859066
 20
152.7151369265
 30
0.0
 10
79.8903516389
 20
152.4368667882
 30
0.0
 10
79.4022975514
 20
152.1588540858
 30
0.0
 10
79.1242777335
 20
151.913709072
 30
0.0
 10
78.9823493379
 20
151.7358081643
 30
0.0
 10
78.8947452716
 20
151.551988481
 30
0.0
 10
78.8744528305
 20
151.4243406908
 30
0.0
 10
78.8744528305
 20
151.3632842156
 30
0.0
  0
SPLINE
  5
4AA
100
AcDbEntity
  8
RUNDUNGEN
100
AcDbSpline
 62
7
  6
CONTINUOUS
 70
0
 71
3
 72
17
 73
13
 74
0
 42
0.0000001
 43
0.0000001
 44
0.0000000001
 40
0.0
 40
0.0
 40
0.0
 40
0.0
 40
0.0276647326
 40
0.0575349468
 40
0.0913022043
 40
0.1300915712
 40
0.2248637921
 40
0.343640902
 40
0.4848999831
 40
0.6450698933
 40
0.8189329156
 40
1.0
 40
1.0
 40
1.0
 40
1.0
 10
78.8744528305
 20
159.2180982527
 30
0.0
 10
78.8744528305
 20
159.2791547279
 30
0.0
 10
78.8947452716
 20
159.406802518
 30
0.0
 10
78.9823493379
 20
159.5906222014
 30
0.0
 10
79.1242777335
 20
159.7685231091
 30
0.0
 10
79.4022975514
 20
160.0136681229
 30
0.0
 10
79.8903516389
 20
160.2916808253
 30
0.0
 10
80.6238859066
 20
160.5699509636
 30
0.0
 10
81.5235012549
 20
160.8018501807
 30
0.0
 10
82.5588018099
 20
160.9766183382
 30
0.0
 10
83.6912651539
 20
161.0854210187
 30
0.0
 10
84.4748350887
 20
161.1098909859
 30
0.0
 10
84.8744528305
 20
161.1098909859
 30
0.0
  0
SPLINE
  5
4AB
100
AcDbEntity
  8
RUNDUNGEN
100
AcDbSpline
 62
7
  6
CONTINUOUS
 70
0
 71
3
 72
10
 73
6
 74
0
 42
0.0000001
 43
0.0000001
 44
0.0000000001
 40
0.0
 40
0.0
 40
0.0
 40
0.0
 40
0.2560891884
 40
0.5093019317
 40
1.0
 40
1.0
 40
1.0
 40
1.0
 10
136.7230565235
 20
177.5645519682
 30
0.0
 10
136.0918336875
 20
177.5645519682
 30
0.0
 10
134.836394195
 20
177.583054798
 30
0.0
 10
132.3733857811
 20
177.6746493897
 30
0.0
 10
130.5406594797
 20
177.7550769489
 30
0.0
 10
129.3311596635
 20
177.7550769489
 30
0.0
  0
ELLIPSE
  5
4AC
100
AcDbEntity
  8
0
100
AcDbEllipse
 62
7
  6
CONTINUOUS
 10
468.3385270076
 20
169.7550769489
 30
0.0
 11
-0.7255286101
 21
7.994185694
 31
0.0
 40
0.4203155586
 41
-1.6089244346
 42
-0.2482200958
  0
ELLIPSE
  5
4AD
100
AcDbEntity
  8
RUNDUNGEN
100
AcDbEllipse
 62
7
  6
CONTINUOUS
 10
484.5829453648
 20
169.7550769489
 30
0.0
 11
0.7255286101
 21
7.994185694
 31
0.0
 40
0.4203155586
 41
0.2482200958
 42
1.6089244346
  0
ELLIPSE
  5
4AE
100
AcDbEntity
  8
RUNDUNGEN
100
AcDbEllipse
 62
7
  6
CONTINUOUS
 10
86.2329987908
 20
171.7550769489
 30
0.0
 11
14.2165593702
 21
-0.5423133308
 31
0.0
 40
0.4203155586
 41
1.5396153878
 42
1.5416988386
  0
ELLIPSE
  5
4AF
100
AcDbEntity
  8
RUNDUNGEN
100
AcDbEllipse
 62
7
  6
CONTINUOUS
 10
145.5159068702
 20
171.7550769489
 30
0.0
 11
14.2165593702
 21
0.5423133308
 31
0.0
 40
0.4203155586
 41
1.5998770104
 42
1.6019772748
  0
ENDSEC
  0
SECTION
  2
OBJECTS
  0
DICTIONARY
  5
C
100
AcDbDictionary
280
0
281
1
  3
ACAD_GROUP
350
D
  3
ACAD_MLINESTYLE
350
17
  3
ACAD_LAYOUT
350
1A
  3
ACAD_PLOTSETTINGS
350
19
  3
ACAD_PLOTSTYLENAME
350
E
  0
DICTIONARY
  5
D
102
{ACAD_REACTORS
330
C
102
}
100
AcDbDictionary
280
0
281
1
  0
ACDBDICTIONARYWDFLT
  5
E
102
{ACAD_REACTORS
330
C
102
}
100
AcDbDictionary
281
1
  3
Normal
350
F
100
AcDbDictionaryWithDefault
340
F
  0
DICTIONARY
  5
17
102
{ACAD_REACTORS
330
C
102
}
100
AcDbDictionary
280
0
281
1
  3
Standard
350
18
  0
DICTIONARY
  5
19
102
{ACAD_REACTORS
330
C
102
}
100
AcDbDictionary
281
1
  0
DICTIONARY
  5
1A
102
{ACAD_REACTORS
330
C
102
}
100
AcDbDictionary
281
1
  3
Model
350
4B0
  3
Layout1
350
4B1
  0
ACDBPLACEHOLDER
  5
F
102
{ACAD_REACTORS
330
E
102
}
  0
MLINESTYLE
  5
18
102
{ACAD_REACTORS
330
17
102
}
100
AcDbMlineStyle
  2
STANDARD
 70
0
  3

 62
256
 51
90.0
 52
90.0
 71
2
 49
0.5
 62
256
  6
BYLAYER
 49
-0.5
 62
256
  6
BYLAYER
  0
LAYOUT
  5
4B0
102
{ACAD_REACTORS
330
1A
102
}
100
AcDbPlotSettings
  1

  2
none_device
  4
ISO_A2_(594.00_x_420.00_MM)
  6

 40
0.0
 41
0.0
 42
0.0
 43
0.0
 44
594.0
 45
420.0
 46
0.0
 47
0.0
 48
0.0
 49
0.0
140
0.0
141
0.0
142
1.0
143
1.0
 70
1024
 72
1
 73
0
 74
0
  7

 75
0
147
1.0
148
0.0
149
0.0
100
AcDbLayout
  1
Model
 70
0
 71
0
 10
0.0
 20
0.0
 11
594.0
 21
420.0
 12
0.0
 22
0.0
 32
0.0
 14
0.0
 24
0.0
 34
0.0
 15
0.0
 25
0.0
 35
0.0
146
0.0
 13
0.0
 23
0.0
 33
0.0
 16
1.0
 26
0.0
 36
0.0
 17
0.0
 27
1.0
 37
0.0
 76
0
330
20A
345
0
346
0
  0
LAYOUT
  5
4B1
102
{ACAD_REACTORS
330
1A
102
}
100
AcDbPlotSettings
  1

  2
none_device
  4
ISO_A2_(594.00_x_420.00_MM)
  6

 40
0.0
 41
0.0
 42
0.0
 43
0.0
 44
594.0
 45
420.0
 46
0.0
 47
0.0
 48
0.0
 49
0.0
140
0.0
141
0.0
142
1.0
143
1.0
 70
0
 72
1
 73
0
 74
0
  7

 75
0
147
1.0
148
0.0
149
0.0
100
AcDbLayout
  1
Layout1
 70
0
 71
1
 10
0.0
 20
0.0
 11
594.0
 21
420.0
 12
0.0
 22
0.0
 32
0.0
 14
0.0
 24
0.0
 34
0.0
 15
0.0
 25
0.0
 35
0.0
146
0.0
 13
0.0
 23
0.0
 33
0.0
 16
1.0
 26
0.0
 36
0.0
 17
0.0
 27
1.0
 37
0.0
 76
0
330
20B
345
0
346
0
  0
ENDSEC
  0
EOF
