999
DXF file: IBK-RG-1-10_7903043_M34546-P-3.dxf
999
Pro/ENGINEER 2010140 by Parametric Technology Corporation
  0
SECTION
  2
HEADER
  9
$ACADVER
  1
AC1015
  9
$DWGCODEPAGE
  3
ANSI_1252
  9
$EXTMAX
 10
594.0
 20
420.0
 30
0.0
  9
$EXTMIN
 10
0.0
 20
0.0
 30
0.0
  9
$LIMMIN
 10
0.0
 20
0.0
  9
$LIMMAX
 10
594.0
 20
420.0
  9
$VIEWCTR
 10
297.0
 20
210.0
  9
$VIEWSIZE
 40
420.0
  9
$CLAYER
  8
0
  9
$LTSCALE
 40
32.67
  9
$CELTYPE
  6
BYLAYER
  9
$DIMSCALE
 40
1.0
  9
$DIMASZ
 40
3.5
  9
$DIMEXO
 40
3.7125
  9
$DIMDLI
 40
22.572
  9
$DIMEXE
 40
10.692
  9
$DIMCEN
 40
5.346
  9
$DIMLFAC
 40
1.0
  9
$DIMBLK
  1
_FILLED
  9
$DIMTXT
 40
3.5
  9
$DIMTOL
 70
1
  9
$DIMLIM
 70
0
  9
$DIMTFAC
 40
1.0
  9
$DIMTP
 40
0.005
  9
$DIMTM
 40
0.005
  9
$PDMODE
 70
3
  9
$PDSIZE
 40
0.3125
  9
$HANDSEED
  5
4AE
  9
$TILEMODE
 70
1
  9
$MEASUREMENT
 70
1
  9
$INSUNITS
 70
4
  0
ENDSEC
  0
SECTION
  2
CLASSES
  0
CLASS
  1
ACDBDICTIONARYWDFLT
  2
AcDbDictionaryWithDefault
  3
AutoCAD 2000
 90
0
280
0
281
0
  0
CLASS
  1
ACDBPLACEHOLDER
  2
AcDbPlaceHolder
  3
AutoCAD 2000
 90
0
280
0
281
0
  0
CLASS
  1
LAYOUT
  2
AcDbLayout
  3
AutoCAD 2000
 90
0
280
0
281
0
  0
ENDSEC
  0
SECTION
  2
TABLES
  0
TABLE
  2
VPORT
  5
8
100
AcDbSymbolTable
 70
2
  0
VPORT
  5
1F4
100
AcDbSymbolTableRecord
100
AcDbViewportTableRecord
  2
*ACTIVE
 70
0
 10
0.0
 20
0.0
 11
1.0
 21
1.0
 12
297.0
 22
210.0
 13
0.0
 23
0.0
 14
1.0
 24
1.0
 15
0.0
 25
0.0
 16
0.0
 26
0.0
 36
1.0
 17
0.0
 27
0.0
 37
0.0
 40
420.0
 41
1.4142857143
 42
50.0
 43
0.0
 44
0.0
 50
0.0
 51
0.0
 71
0
 72
100
 73
1
 74
1
 75
0
 76
0
 77
0
 78
0
  0
ENDTAB
  0
TABLE
  2
LTYPE
  5
5
100
AcDbSymbolTable
 70
6
  0
LTYPE
  5
14
100
AcDbSymbolTableRecord
100
AcDbLinetypeTableRecord
  2
BYBLOCK
 70
0
  3

 72
65
 73
0
 40
0.0
  0
LTYPE
  5
15
100
AcDbSymbolTableRecord
100
AcDbLinetypeTableRecord
  2
BYLAYER
 70
0
  3

 72
65
 73
0
 40
0.0
  0
LTYPE
  5
16
100
AcDbSymbolTableRecord
100
AcDbLinetypeTableRecord
  2
CONTINUOUS
 70
64
  3
Solid line
 72
65
 73
0
 40
0.0
  0
LTYPE
  5
1F5
100
AcDbSymbolTableRecord
100
AcDbLinetypeTableRecord
  2
CENTER
 70
64
  3
____ _ ____ _ ____ _ ____ _ ____ _ ____ _ ____
 72
65
 73
4
 40
0.6
 49
0.375
 74
0
 49
-0.075
 74
0
 49
0.075
 74
0
 49
-0.075
 74
0
  0
LTYPE
  5
1F6
100
AcDbSymbolTableRecord
100
AcDbLinetypeTableRecord
  2
HIDDEN
 70
64
  3
- - - - - - - - - - - - - - - - - - - -
 72
65
 73
2
 40
0.2
 49
0.1
 74
0
 49
-0.1
 74
0
  0
LTYPE
  5
1F7
100
AcDbSymbolTableRecord
100
AcDbLinetypeTableRecord
  2
PHANTOM
 70
64
  3
_____ _ _ _____ _ _ _____ _ _ _____
 72
65
 73
6
 40
0.8
 49
0.45
 74
0
 49
-0.05
 74
0
 49
0.1
 74
0
 49
-0.05
 74
0
 49
0.1
 74
0
 49
-0.05
 74
0
  0
LTYPE
  5
1F8
100
AcDbSymbolTableRecord
100
AcDbLinetypeTableRecord
  2
DOT
 70
64
  3
. . . . . . . . . . . . . . . . . . . .
 72
65
 73
2
 40
0.2
 49
0.1
 74
0
 49
-0.1
 74
0
  0
LTYPE
  5
1F9
100
AcDbSymbolTableRecord
100
AcDbLinetypeTableRecord
  2
DASHED
 70
64
  3
- - - - - - - - - - - - - - - - - - - -
 72
65
 73
2
 40
0.2
 49
0.1
 74
0
 49
-0.1
 74
0
  0
ENDTAB
  0
TABLE
  2
LAYER
  5
2
100
AcDbSymbolTable
 70
36
  0
LAYER
  5
10
100
AcDbSymbolTableRecord
100
AcDbLayerTableRecord
  2
0
 70
0
 62
7
  6
CONTINUOUS
370
-3
390
F
  0
LAYER
  5
1FA
100
AcDbSymbolTableRecord
100
AcDbLayerTableRecord
  2
DEFAULT_1
 70
0
 62
7
  6
CENTER
370
-3
390
F
  0
LAYER
  5
1FB
100
AcDbSymbolTableRecord
100
AcDbLayerTableRecord
  2
DEFAULT_2
 70
0
 62
8
  6
HIDDEN
370
-3
390
F
  0
LAYER
  5
1FC
100
AcDbSymbolTableRecord
100
AcDbLayerTableRecord
  2
DEFAULT_3
 70
0
 62
7
  6
PHANTOM
370
-3
390
F
  0
LAYER
  5
1FD
100
AcDbSymbolTableRecord
100
AcDbLayerTableRecord
  2
BEZUGSACHSEN
 70
0
 62
7
  6
CONTINUOUS
370
-3
390
F
  0
LAYER
  5
1FE
100
AcDbSymbolTableRecord
100
AcDbLayerTableRecord
  2
BEZUGSEBENEN
 70
0
 62
7
  6
CONTINUOUS
370
-3
390
F
  0
LAYER
  5
1FF
100
AcDbSymbolTableRecord
100
AcDbLayerTableRecord
  2
BG_STARTBEZUEGE
 70
0
 62
7
  6
CONTINUOUS
370
-3
390
F
  0
LAYER
  5
200
100
AcDbSymbolTableRecord
100
AcDbLayerTableRecord
  2
FASEN
 70
0
 62
7
  6
CONTINUOUS
370
-3
390
F
  0
LAYER
  5
201
100
AcDbSymbolTableRecord
100
AcDbLayerTableRecord
  2
HILFEN
 70
0
 62
7
  6
CONTINUOUS
370
-3
390
F
  0
LAYER
  5
202
100
AcDbSymbolTableRecord
100
AcDbLayerTableRecord
  2
KONSTRUKTIONSELEMENTE
 70
0
 62
7
  6
CONTINUOUS
370
-3
390
F
  0
LAYER
  5
203
100
AcDbSymbolTableRecord
100
AcDbLayerTableRecord
  2
NORM
 70
0
 62
7
  6
CONTINUOUS
370
-3
390
F
  0
LAYER
  5
204
100
AcDbSymbolTableRecord
100
AcDbLayerTableRecord
  2
PLATZIERUNG
 70
0
 62
7
  6
CONTINUOUS
370
-3
390
F
  0
LAYER
  5
205
100
AcDbSymbolTableRecord
100
AcDbLayerTableRecord
  2
RUNDUNGEN
 70
0
 62
7
  6
CONTINUOUS
370
-3
390
F
  0
LAYER
  5
206
100
AcDbSymbolTableRecord
100
AcDbLayerTableRecord
  2
TEIL_STARTBEZUEGE
 70
0
 62
7
  6
CONTINUOUS
370
-3
390
F
  0
LAYER
  5
207
100
AcDbSymbolTableRecord
100
AcDbLayerTableRecord
  2
T_STARTBEZUEGE
 70
0
 62
7
  6
CONTINUOUS
370
-3
390
F
  0
ENDTAB
  0
TABLE
  2
STYLE
  5
3
100
AcDbSymbolTable
 70
1
  0
STYLE
  5
11
100
AcDbSymbolTableRecord
100
AcDbTextStyleTableRecord
  2
STANDARD
 70
0
 40
0.0
 41
0.7
 50
0.0
 71
0
 42
0.2
  3
txt
  4

  0
STYLE
  5
208
100
AcDbSymbolTableRecord
100
AcDbTextStyleTableRecord
  2
TEXTSTYLE_1
 70
0
 40
0.0
 41
0.8
 50
0.0
 71
0
 42
0.2
  3
gdt
  4

  0
ENDTAB
  0
TABLE
  2
VIEW
  5
6
100
AcDbSymbolTable
 70
0
  0
ENDTAB
  0
TABLE
  2
UCS
  5
7
100
AcDbSymbolTable
 70
0
  0
ENDTAB
  0
TABLE
  2
APPID
  5
9
100
AcDbSymbolTable
 70
1
  0
APPID
  5
209
100
AcDbSymbolTableRecord
100
AcDbRegAppTableRecord
  2
ACAD
 70
0
  0
ENDTAB
  0
TABLE
  2
BLOCK_RECORD
  5
1
100
AcDbSymbolTable
 70
0
  0
BLOCK_RECORD
  5
20A
100
AcDbSymbolTableRecord
100
AcDbBlockTableRecord
  2
*Model_Space
  0
BLOCK_RECORD
  5
20B
100
AcDbSymbolTableRecord
100
AcDbBlockTableRecord
  2
*Paper_Space
  0
ENDTAB
  0
TABLE
  2
DIMSTYLE
  5
A
100
AcDbSymbolTable
 70
1
100
AcDbDimStyleTable
 71
0
  0
DIMSTYLE
105
20C
100
AcDbSymbolTableRecord
100
AcDbDimStyleTableRecord
  2
STANDARD
 70
0
  3

  4

 40
1.0
 41
3.5
 42
0.0625
 43
0.38
 44
0.18
 45
0.0
 46
0.0
 47
0.005
 48
0.005
140
3.5
141
0.09
142
0.0
143
25.4
144
1.0
145
0.0
146
1.0
147
0.09
 71
1.0
 72
0.0
 73
0
 74
0
 75
0
 76
0
 77
1
 78
8
170
0
171
2
172
0
173
0
174
0
175
0
176
0
177
0
178
5
270
2
271
3
272
3
273
2
274
2
275
0
280
0
281
0
282
0
283
1
284
8
285
0
286
0
287
3
288
0
340
11
  0
ENDTAB
  0
ENDSEC
  0
SECTION
  2
BLOCKS
  0
BLOCK
  5
20
100
AcDbEntity
  8
0
100
AcDbBlockBegin
  2
*Model_Space
 70
0
 10
0.0
 20
0.0
 30
0.0
  3
*Model_Space
  1

  0
ENDBLK
  5
21
100
AcDbEntity
  8
0
100
AcDbBlockEnd
  0
BLOCK
  5
1C
100
AcDbEntity
  8
0
100
AcDbBlockBegin
  2
*Paper_Space
 70
0
 10
0.0
 20
0.0
 30
0.0
  3
*Paper_Space
  1

  0
ENDBLK
  5
1D
100
AcDbEntity
  8
0
100
AcDbBlockEnd
  0
ENDSEC
  0
SECTION
  2
ENTITIES
  0
MTEXT
  5
20D
100
AcDbEntity
  8
0
100
AcDbMText
 62
5
  6
CONTINUOUS
  7
STANDARD
 71
1
 72
1
 10
439.1160428974
 20
272.3101193273
 30
0.0
 11
0.0
 21
1.0
 31
0.0
 44
0.9
  1
RUD
 40
7.5
 41
20.0
  0
MTEXT
  5
20E
100
AcDbEntity
  8
0
100
AcDbMText
 62
5
  6
CONTINUOUS
  7
STANDARD
 71
1
 72
1
 10
511.5823182398
 20
253.172401148
 30
0.0
 11
0.0
 21
1.0
 31
0.0
 44
0.9
  1
IBK-RG 1-10
 40
7.5
 41
60.8928571429
  0
MTEXT
  5
20F
100
AcDbEntity
  8
0
100
AcDbMText
 62
5
  6
CONTINUOUS
  7
STANDARD
 71
1
 72
1
 10
121.432612782
 20
241.867419945
 30
0.0
 11
0.0
 21
1.0
 31
0.0
 44
0.9
  1
RUD IBK-RG 1-10
 40
7.5
 41
85.3571428571
  0
LINE
  5
210
100
AcDbEntity
  8
0
100
AcDbLine
 62
7
  6
CONTINUOUS
 10
0.0
 20
0.0
 11
0.0
 21
420.0
  0
LINE
  5
211
100
AcDbEntity
  8
0
100
AcDbLine
 62
7
  6
CONTINUOUS
 10
0.0
 20
0.0
 11
594.0
 21
0.0
  0
LINE
  5
212
100
AcDbEntity
  8
0
100
AcDbLine
 62
7
  6
CONTINUOUS
 10
0.0
 20
420.0
 11
594.0
 21
420.0
  0
LINE
  5
213
100
AcDbEntity
  8
0
100
AcDbLine
 62
7
  6
CONTINUOUS
 10
594.0
 20
0.0
 11
594.0
 21
420.0
  0
LINE
  5
214
100
AcDbEntity
  8
RUNDUNGEN
100
AcDbLine
 62
7
  6
CONTINUOUS
 10
300.4835684777
 20
67.9437552721
 11
296.9480345717
 21
71.4792891781
  0
LINE
  5
215
100
AcDbEntity
  8
RUNDUNGEN
100
AcDbLine
 62
7
  6
CONTINUOUS
 10
356.6039056317
 20
131.135160238
 11
360.1394395376
 21
127.5996263321
  0
LINE
  5
216
100
AcDbEntity
  8
RUNDUNGEN
100
AcDbLine
 62
7
  6
CONTINUOUS
 10
370.3181778465
 20
137.778364641
 11
366.7826439406
 21
141.3138985469
  0
LINE
  5
217
100
AcDbEntity
  8
RUNDUNGEN
100
AcDbLine
 62
7
  6
CONTINUOUS
 10
366.9281518295
 20
141.4594064358
 11
370.4636857354
 21
137.9238725299
  0
LINE
  5
218
100
AcDbEntity
  8
KONSTRUKTIONSELEMENTE
100
AcDbLine
 62
7
  6
CONTINUOUS
 10
365.6788137031
 20
143.1092061123
 11
362.1432797971
 21
146.6447400182
  0
LINE
  5
219
100
AcDbEntity
  8
KONSTRUKTIONSELEMENTE
100
AcDbLine
 62
7
  6
CONTINUOUS
 10
366.0323670937
 20
143.4627595029
 11
362.4968331877
 21
146.9982934088
  0
LINE
  5
21A
100
AcDbEntity
  8
0
100
AcDbLine
 62
7
  6
CONTINUOUS
 10
478.4815841179
 20
147.8773048183
 11
480.2815841179
 21
147.8773048183
  0
LINE
  5
21B
100
AcDbEntity
  8
0
100
AcDbLine
 62
7
  6
CONTINUOUS
 10
471.5554925117
 20
155.3750548183
 11
487.2076757241
 21
155.3750548183
  0
LINE
  5
21C
100
AcDbEntity
  8
0
100
AcDbLine
 62
7
  6
CONTINUOUS
 10
476.8823341179
 20
174.6509067329
 11
481.8808341179
 21
174.6509067329
  0
LINE
  5
21D
100
AcDbEntity
  8
0
100
AcDbLine
 62
7
  6
CONTINUOUS
 10
481.8808341179
 20
182.2718014828
 11
476.8823341179
 21
182.2718014828
  0
LINE
  5
21E
100
AcDbEntity
  8
0
100
AcDbLine
 62
7
  6
CONTINUOUS
 10
475.6628278511
 20
192.6570192738
 11
483.1003403846
 21
192.6570192738
  0
LINE
  5
21F
100
AcDbEntity
  8
0
100
AcDbLine
 62
7
  6
CONTINUOUS
 10
476.4598026026
 20
210.1273048183
 11
482.3033656331
 21
210.1273048183
  0
LINE
  5
220
100
AcDbEntity
  8
KONSTRUKTIONSELEMENTE
100
AcDbLine
 62
7
  6
CONTINUOUS
 10
427.6920784131
 20
212.1935386342
 11
423.6615697604
 21
208.1630299814
  0
LINE
  5
221
100
AcDbEntity
  8
KONSTRUKTIONSELEMENTE
100
AcDbLine
 62
7
  6
CONTINUOUS
 10
423.3080163698
 20
207.8094765908
 11
419.277507717
 21
203.7789679381
  0
LINE
  5
222
100
AcDbEntity
  8
KONSTRUKTIONSELEMENTE
100
AcDbLine
 62
7
  6
CONTINUOUS
 10
366.5273418405
 20
151.0288020616
 11
362.4968331877
 21
146.9982934088
  0
LINE
  5
223
100
AcDbEntity
  8
KONSTRUKTIONSELEMENTE
100
AcDbLine
 62
7
  6
CONTINUOUS
 10
362.1432797971
 20
146.6447400182
 11
358.1127711444
 21
142.6142313654
  0
LINE
  5
224
100
AcDbEntity
  8
0
100
AcDbLine
 62
7
  6
CONTINUOUS
 10
476.4598026026
 20
227.5975903627
 11
482.3033656331
 21
227.5975903627
  0
LINE
  5
225
100
AcDbEntity
  8
KONSTRUKTIONSELEMENTE
100
AcDbLine
 62
7
  6
CONTINUOUS
 10
426.8435502757
 20
204.2739426849
 11
423.3080163698
 21
207.8094765908
  0
LINE
  5
226
100
AcDbEntity
  8
KONSTRUKTIONSELEMENTE
100
AcDbLine
 62
7
  6
CONTINUOUS
 10
427.1971036663
 20
204.6274960755
 11
423.6615697604
 21
208.1630299814
  0
LINE
  5
227
100
AcDbEntity
  8
0
100
AcDbLine
 62
7
  6
CONTINUOUS
 10
432.3815841179
 20
250.3773048183
 11
432.3815841179
 21
315.3773048183
  0
LINE
  5
228
100
AcDbEntity
  8
KONSTRUKTIONSELEMENTE
100
AcDbLine
 62
7
  6
CONTINUOUS
 10
399.1249644532
 20
181.4343936526
 11
388.5183627354
 21
170.8277919348
  0
LINE
  5
229
100
AcDbEntity
  8
KONSTRUKTIONSELEMENTE
100
AcDbLine
 62
7
  6
CONTINUOUS
 10
431.2276123191
 20
208.6580047283
 11
427.1971036663
 21
204.6274960755
  0
LINE
  5
22A
100
AcDbEntity
  8
KONSTRUKTIONSELEMENTE
100
AcDbLine
 62
7
  6
CONTINUOUS
 10
426.8435502757
 20
204.2739426849
 11
422.8130416229
 21
200.2434340321
  0
LINE
  5
22B
100
AcDbEntity
  8
KONSTRUKTIONSELEMENTE
100
AcDbLine
 62
7
  6
CONTINUOUS
 10
370.0628757464
 20
147.4932681556
 11
366.0323670937
 21
143.4627595029
  0
LINE
  5
22C
100
AcDbEntity
  8
KONSTRUKTIONSELEMENTE
100
AcDbLine
 62
7
  6
CONTINUOUS
 10
365.6788137031
 20
143.1092061123
 11
361.6483050503
 21
139.0786974595
  0
LINE
  5
22D
100
AcDbEntity
  8
KONSTRUKTIONSELEMENTE
100
AcDbLine
 62
7
  6
CONTINUOUS
 10
402.3069449685
 20
178.2524131372
 11
391.7003432507
 21
167.6458114194
  0
LINE
  5
22E
100
AcDbEntity
  8
KONSTRUKTIONSELEMENTE
100
AcDbLine
 62
7
  6
CONTINUOUS
 10
432.7125365595
 20
207.9508979471
 11
461.654404461
 21
236.8927658485
  0
LINE
  5
22F
100
AcDbEntity
  8
RUNDUNGEN
100
AcDbLine
 62
7
  6
CONTINUOUS
 10
296.9480345717
 20
71.4792891781
 11
366.9280197809
 21
141.4592743872
  0
LINE
  5
230
100
AcDbEntity
  8
KONSTRUKTIONSELEMENTE
100
AcDbLine
 62
7
  6
CONTINUOUS
 10
372.9620135493
 20
147.139714765
 11
391.6706985245
 21
165.8483997402
  0
LINE
  5
231
100
AcDbEntity
  8
KONSTRUKTIONSELEMENTE
100
AcDbLine
 62
7
  6
CONTINUOUS
 10
404.0747119215
 20
178.2524131372
 11
422.7833968967
 21
196.9610981124
  0
LINE
  5
232
100
AcDbEntity
  8
KONSTRUKTIONSELEMENTE
100
AcDbLine
 62
7
  6
CONTINUOUS
 10
376.1439940646
 20
143.9577342497
 11
394.8526790398
 21
162.6664192249
  0
LINE
  5
233
100
AcDbEntity
  8
KONSTRUKTIONSELEMENTE
100
AcDbLine
 62
7
  6
CONTINUOUS
 10
407.2566924368
 20
175.0704326219
 11
425.965377412
 21
193.7791175971
  0
LINE
  5
234
100
AcDbEntity
  8
RUNDUNGEN
100
AcDbLine
 62
7
  6
CONTINUOUS
 10
300.4835684777
 20
67.9437552721
 11
370.4635351579
 21
137.9237219524
  0
LINE
  5
235
100
AcDbEntity
  8
KONSTRUKTIONSELEMENTE
100
AcDbLine
 62
7
  6
CONTINUOUS
 10
437.0046873739
 20
203.7577673872
 11
465.8970451481
 21
232.6501251614
  0
LINE
  5
236
100
AcDbEntity
  8
KONSTRUKTIONSELEMENTE
100
AcDbLine
 62
7
  6
CONTINUOUS
 10
396.650090719
 20
162.6960639511
 11
407.2566924368
 21
173.3026656689
  0
LINE
  5
237
100
AcDbEntity
  8
0
100
AcDbLine
 62
7
  6
CONTINUOUS
 10
476.4598026026
 20
240.3867270039
 11
482.3033656331
 21
240.3867270039
  0
LINE
  5
238
100
AcDbEntity
  8
KONSTRUKTIONSELEMENTE
100
AcDbLine
 62
7
  6
CONTINUOUS
 10
368.0829767591
 20
132.6440257507
 11
376.4975474552
 21
141.0585964468
  0
LINE
  5
239
100
AcDbEntity
  8
KONSTRUKTIONSELEMENTE
100
AcDbLine
 62
7
  6
CONTINUOUS
 10
429.2477133317
 20
193.8087623233
 11
437.6622840278
 21
202.2233330195
  0
LINE
  5
23A
100
AcDbEntity
  8
KONSTRUKTIONSELEMENTE
100
AcDbLine
 62
7
  6
CONTINUOUS
 10
399.8320712344
 20
159.5140834358
 11
410.4386729522
 21
170.1206851536
  0
LINE
  5
23B
100
AcDbEntity
  8
KONSTRUKTIONSELEMENTE
100
AcDbLine
 62
7
  6
CONTINUOUS
 10
371.618510665
 20
129.1084918448
 11
380.0330813611
 21
137.5230625409
  0
LINE
  5
23C
100
AcDbEntity
  8
KONSTRUKTIONSELEMENTE
100
AcDbLine
 62
7
  6
CONTINUOUS
 10
432.7832472377
 20
190.2732284174
 11
441.1978179338
 21
198.6877991135
  0
LINE
  5
23D
100
AcDbEntity
  8
0
100
AcDbLine
 62
7
  6
CONTINUOUS
 10
482.3033656331
 20
245.0678759071
 11
476.4598026026
 21
245.0678759071
  0
LINE
  5
23E
100
AcDbEntity
  8
0
100
AcDbLine
 62
7
  6
CONTINUOUS
 10
454.3815841179
 20
250.3773048183
 11
454.3815841179
 21
315.3773048183
  0
LINE
  5
23F
100
AcDbEntity
  8
0
100
AcDbLine
 62
7
  6
CONTINUOUS
 10
472.2896988066
 20
237.0793532691
 11
476.4598026026
 21
245.0678759071
  0
LINE
  5
240
100
AcDbEntity
  8
RUNDUNGEN
100
AcDbLine
 62
7
  6
CONTINUOUS
 10
494.2815841179
 20
172.8773048183
 11
490.8815841179
 21
178.766277564
  0
LINE
  5
241
100
AcDbEntity
  8
0
100
AcDbLine
 62
7
  6
CONTINUOUS
 10
464.4815841179
 20
161.8773048183
 11
464.4815841179
 21
172.8773048183
  0
LINE
  5
242
100
AcDbEntity
  8
0
100
AcDbLine
 62
7
  6
CONTINUOUS
 10
467.8815841179
 20
190.3773048183
 11
467.8815841179
 21
178.766277564
  0
LINE
  5
243
100
AcDbEntity
  8
0
100
AcDbLine
 62
7
  6
CONTINUOUS
 10
471.3815841179
 20
204.8968773883
 11
471.3815841179
 21
194.764787012
  0
LINE
  5
244
100
AcDbEntity
  8
BEZUGSACHSEN
100
AcDbLine
 62
7
  6
CONTINUOUS
 10
471.3815841179
 20
204.8971928048
 11
471.3815841179
 21
233.3773048183
  0
LINE
  5
245
100
AcDbEntity
  8
0
100
AcDbLine
 62
7
  6
CONTINUOUS
 10
476.8823341179
 20
174.6509067329
 11
475.2704826554
 21
188.3773048183
  0
LINE
  5
246
100
AcDbEntity
  8
0
100
AcDbLine
 62
7
  6
CONTINUOUS
 10
476.8823341179
 20
182.2718014828
 11
475.6628278511
 21
192.6570192738
  0
LINE
  5
247
100
AcDbEntity
  8
0
100
AcDbLine
 62
7
  6
CONTINUOUS
 10
482.9141190054
 20
202.5305790141
 11
483.1003403846
 21
192.6570192738
  0
LINE
  5
248
100
AcDbEntity
  8
0
100
AcDbLine
 62
7
  6
CONTINUOUS
 10
476.8823341179
 20
182.2718014828
 11
476.8823341179
 21
174.6509067329
  0
LINE
  5
249
100
AcDbEntity
  8
0
100
AcDbLine
 62
7
  6
CONTINUOUS
 10
481.8808341179
 20
182.2718014828
 11
481.8808341179
 21
174.6509067329
  0
LINE
  5
24A
100
AcDbEntity
  8
RUNDUNGEN
100
AcDbLine
 62
7
  6
CONTINUOUS
 10
487.3815841179
 20
204.8968773883
 11
487.3815841179
 21
194.764787012
  0
LINE
  5
24B
100
AcDbEntity
  8
BEZUGSACHSEN
100
AcDbLine
 62
7
  6
CONTINUOUS
 10
487.3815841179
 20
204.8971928048
 11
487.3815841179
 21
233.3773048183
  0
LINE
  5
24C
100
AcDbEntity
  8
0
100
AcDbLine
 62
7
  6
CONTINUOUS
 10
475.8490492303
 20
202.5305790141
 11
475.6628278511
 21
192.6570192738
  0
LINE
  5
24D
100
AcDbEntity
  8
0
100
AcDbLine
 62
7
  6
CONTINUOUS
 10
481.8808341179
 20
182.2718014828
 11
483.1003403846
 21
192.6570192738
  0
LINE
  5
24E
100
AcDbEntity
  8
RUNDUNGEN
100
AcDbLine
 62
7
  6
CONTINUOUS
 10
481.8808341179
 20
174.6509067329
 11
483.4926855803
 21
188.3773048183
  0
LINE
  5
24F
100
AcDbEntity
  8
0
100
AcDbLine
 62
7
  6
CONTINUOUS
 10
464.4815841179
 20
172.8773048183
 11
467.8815841179
 21
178.766277564
  0
LINE
  5
250
100
AcDbEntity
  8
RUNDUNGEN
100
AcDbLine
 62
7
  6
CONTINUOUS
 10
490.8815841179
 20
190.3773048183
 11
490.8815841179
 21
178.766277564
  0
LINE
  5
251
100
AcDbEntity
  8
RUNDUNGEN
100
AcDbLine
 62
7
  6
CONTINUOUS
 10
494.2815841179
 20
161.8773048183
 11
494.2815841179
 21
172.8773048183
  0
LINE
  5
252
100
AcDbEntity
  8
KONSTRUKTIONSELEMENTE
100
AcDbLine
 62
7
  6
CONTINUOUS
 10
482.3033656331
 20
245.0678759071
 11
486.4734694291
 21
237.0793532691
  0
LINE
  5
253
100
AcDbEntity
  8
0
100
AcDbLine
 62
7
  6
CONTINUOUS
 10
504.3815841179
 20
315.3773048183
 11
504.3815841179
 21
250.3773048183
  0
LINE
  5
254
100
AcDbEntity
  8
0
100
AcDbLine
 62
7
  6
CONTINUOUS
 10
526.3815841179
 20
315.3773048183
 11
526.3815841179
 21
250.3773048183
  0
LINE
  5
255
100
AcDbEntity
  8
RUNDUNGEN
100
AcDbLine
 62
7
  6
CONTINUOUS
 10
96.6622366957
 20
67.9437552721
 11
99.0122366957
 21
67.9437552721
  0
LINE
  5
256
100
AcDbEntity
  8
RUNDUNGEN
100
AcDbLine
 62
7
  6
CONTINUOUS
 10
152.3122366957
 20
67.9437552721
 11
154.6622366957
 21
67.9437552721
  0
LINE
  5
257
100
AcDbEntity
  8
RUNDUNGEN
100
AcDbLine
 62
7
  6
CONTINUOUS
 10
104.5122366957
 20
76.4290366464
 11
111.3742706035
 21
76.4290366464
  0
LINE
  5
258
100
AcDbEntity
  8
RUNDUNGEN
100
AcDbLine
 62
7
  6
CONTINUOUS
 10
139.9502027878
 20
76.4290366464
 11
146.8122366957
 21
76.4290366464
  0
LINE
  5
259
100
AcDbEntity
  8
0
100
AcDbLine
 62
7
  6
CONTINUOUS
 10
111.6749689604
 20
117.4412299552
 11
116.4749689604
 21
117.4412299552
  0
LINE
  5
25A
100
AcDbEntity
  8
0
100
AcDbLine
 62
7
  6
CONTINUOUS
 10
119.0207702619
 20
117.4412299552
 11
119.9807702619
 21
117.4412299552
  0
LINE
  5
25B
100
AcDbEntity
  8
0
100
AcDbLine
 62
7
  6
CONTINUOUS
 10
124.5537241788
 20
117.4412299552
 11
125.6622366957
 21
117.4412299552
  0
LINE
  5
25C
100
AcDbEntity
  8
0
100
AcDbLine
 62
7
  6
CONTINUOUS
 10
134.0149056225
 20
117.4412299552
 11
137.4928726901
 21
117.4412299552
  0
LINE
  5
25D
100
AcDbEntity
  8
0
100
AcDbLine
 62
7
  6
CONTINUOUS
 10
111.6749689604
 20
117.7947833458
 11
116.4749689604
 21
117.7947833458
  0
LINE
  5
25E
100
AcDbEntity
  8
0
100
AcDbLine
 62
7
  6
CONTINUOUS
 10
119.0207702619
 20
117.7947833458
 11
119.9807702619
 21
117.7947833458
  0
LINE
  5
25F
100
AcDbEntity
  8
0
100
AcDbLine
 62
7
  6
CONTINUOUS
 10
124.5537241788
 20
117.7947833458
 11
125.3735615611
 21
117.7947833458
  0
LINE
  5
260
100
AcDbEntity
  8
0
100
AcDbLine
 62
7
  6
CONTINUOUS
 10
134.0149056225
 20
117.7947833458
 11
137.4928726901
 21
117.7947833458
  0
LINE
  5
261
100
AcDbEntity
  8
0
100
AcDbLine
 62
7
  6
CONTINUOUS
 10
137.513909168
 20
118.1483367364
 11
134.9749056225
 21
118.1483367364
  0
LINE
  5
262
100
AcDbEntity
  8
0
100
AcDbLine
 62
7
  6
CONTINUOUS
 10
114.8249689604
 20
118.2897580926
 11
113.3249689604
 21
118.2897580926
  0
LINE
  5
263
100
AcDbEntity
  8
0
100
AcDbLine
 62
7
  6
CONTINUOUS
 10
113.5949689604
 20
118.6079561442
 11
114.5549689604
 21
118.6079561442
  0
LINE
  5
264
100
AcDbEntity
  8
0
100
AcDbLine
 62
7
  6
CONTINUOUS
 10
113.5949689604
 20
118.9615095347
 11
114.5549689604
 21
118.9615095347
  0
LINE
  5
265
100
AcDbEntity
  8
0
100
AcDbLine
 62
7
  6
CONTINUOUS
 10
114.1799689604
 20
119.4564842816
 11
113.9699689604
 21
119.4564842816
  0
LINE
  5
266
100
AcDbEntity
  8
0
100
AcDbLine
 62
7
  6
CONTINUOUS
 10
114.5549689604
 20
119.6686163159
 11
114.2999689604
 21
119.6686163159
  0
LINE
  5
267
100
AcDbEntity
  8
0
100
AcDbLine
 62
7
  6
CONTINUOUS
 10
113.8499689604
 20
119.6686163159
 11
113.5949689604
 21
119.6686163159
  0
LINE
  5
268
100
AcDbEntity
  8
0
100
AcDbLine
 62
7
  6
CONTINUOUS
 10
113.3249689604
 20
119.9868143675
 11
113.8499689604
 21
119.9868143675
  0
LINE
  5
269
100
AcDbEntity
  8
0
100
AcDbLine
 62
7
  6
CONTINUOUS
 10
114.2999689604
 20
119.9868143675
 11
114.8249689604
 21
119.9868143675
  0
LINE
  5
26A
100
AcDbEntity
  8
0
100
AcDbLine
 62
7
  6
CONTINUOUS
 10
119.9807702619
 20
120.1025441207
 11
122.3807702619
 21
120.1025441207
  0
LINE
  5
26B
100
AcDbEntity
  8
0
100
AcDbLine
 62
7
  6
CONTINUOUS
 10
113.3249689604
 20
120.3403677581
 11
113.8499689604
 21
120.3403677581
  0
LINE
  5
26C
100
AcDbEntity
  8
0
100
AcDbLine
 62
7
  6
CONTINUOUS
 10
114.2999689604
 20
120.3403677581
 11
114.8249689604
 21
120.3403677581
  0
LINE
  5
26D
100
AcDbEntity
  8
0
100
AcDbLine
 62
7
  6
CONTINUOUS
 10
114.8249689604
 20
120.4110784362
 11
114.2999689604
 21
120.4110784362
  0
LINE
  5
26E
100
AcDbEntity
  8
0
100
AcDbLine
 62
7
  6
CONTINUOUS
 10
113.8499689604
 20
120.4110784362
 11
113.3249689604
 21
120.4110784362
  0
LINE
  5
26F
100
AcDbEntity
  8
0
100
AcDbLine
 62
7
  6
CONTINUOUS
 10
119.9807702619
 20
120.4560975113
 11
122.3807702619
 21
120.4560975113
  0
LINE
  5
270
100
AcDbEntity
  8
0
100
AcDbLine
 62
7
  6
CONTINUOUS
 10
113.5949689604
 20
120.7292764877
 11
113.8499689604
 21
120.7292764877
  0
LINE
  5
271
100
AcDbEntity
  8
0
100
AcDbLine
 62
7
  6
CONTINUOUS
 10
114.2999689604
 20
120.7292764877
 11
114.5549689604
 21
120.7292764877
  0
LINE
  5
272
100
AcDbEntity
  8
0
100
AcDbLine
 62
7
  6
CONTINUOUS
 10
122.7807702619
 20
120.7813666307
 11
119.9807702619
 21
120.7813666307
  0
LINE
  5
273
100
AcDbEntity
  8
0
100
AcDbLine
 62
7
  6
CONTINUOUS
 10
113.9699689604
 20
120.9414085221
 11
114.1799689604
 21
120.9414085221
  0
LINE
  5
274
100
AcDbEntity
  8
0
100
AcDbLine
 62
7
  6
CONTINUOUS
 10
113.5949689604
 20
121.0828298783
 11
113.8499689604
 21
121.0828298783
  0
LINE
  5
275
100
AcDbEntity
  8
0
100
AcDbLine
 62
7
  6
CONTINUOUS
 10
114.2999689604
 20
121.0828298783
 11
114.5549689604
 21
121.0828298783
  0
LINE
  5
276
100
AcDbEntity
  8
0
100
AcDbLine
 62
7
  6
CONTINUOUS
 10
113.9699689604
 20
121.2949619127
 11
114.1799689604
 21
121.2949619127
  0
LINE
  5
277
100
AcDbEntity
  8
0
100
AcDbLine
 62
7
  6
CONTINUOUS
 10
134.9749056225
 20
121.6838706423
 11
134.0149056225
 21
121.6838706423
  0
LINE
  5
278
100
AcDbEntity
  8
0
100
AcDbLine
 62
7
  6
CONTINUOUS
 10
119.9807702619
 20
121.7192259814
 11
119.0207702619
 21
121.7192259814
  0
LINE
  5
279
100
AcDbEntity
  8
0
100
AcDbLine
 62
7
  6
CONTINUOUS
 10
114.5549689604
 20
121.7899366595
 11
113.5949689604
 21
121.7899366595
  0
LINE
  5
27A
100
AcDbEntity
  8
0
100
AcDbLine
 62
7
  6
CONTINUOUS
 10
113.3249689604
 20
122.108134711
 11
114.8249689604
 21
122.108134711
  0
LINE
  5
27B
100
AcDbEntity
  8
0
100
AcDbLine
 62
7
  6
CONTINUOUS
 10
134.0149056225
 20
122.2778403385
 11
137.513909168
 21
122.2778403385
  0
LINE
  5
27C
100
AcDbEntity
  8
0
100
AcDbLine
 62
7
  6
CONTINUOUS
 10
119.0207702619
 20
122.3131956776
 11
122.7807702619
 21
122.3131956776
  0
LINE
  5
27D
100
AcDbEntity
  8
0
100
AcDbLine
 62
7
  6
CONTINUOUS
 10
113.3249689604
 20
122.4616881016
 11
114.8249689604
 21
122.4616881016
  0
LINE
  5
27E
100
AcDbEntity
  8
0
100
AcDbLine
 62
7
  6
CONTINUOUS
 10
134.0149056225
 20
122.6313937291
 11
137.513909168
 21
122.6313937291
  0
LINE
  5
27F
100
AcDbEntity
  8
0
100
AcDbLine
 62
7
  6
CONTINUOUS
 10
119.0207702619
 20
122.6667490682
 11
122.7807702619
 21
122.6667490682
  0
LINE
  5
280
100
AcDbEntity
  8
0
100
AcDbLine
 62
7
  6
CONTINUOUS
 10
137.4928726901
 20
122.9566628484
 11
134.0149056225
 21
122.9566628484
  0
LINE
  5
281
100
AcDbEntity
  8
0
100
AcDbLine
 62
7
  6
CONTINUOUS
 10
131.9149056225
 20
122.9566628484
 11
130.9549056225
 21
122.9566628484
  0
LINE
  5
282
100
AcDbEntity
  8
0
100
AcDbLine
 62
7
  6
CONTINUOUS
 10
127.1807702619
 20
122.9566628484
 11
126.2207702619
 21
122.9566628484
  0
LINE
  5
283
100
AcDbEntity
  8
0
100
AcDbLine
 62
7
  6
CONTINUOUS
 10
122.7807702619
 20
122.9566628484
 11
119.0207702619
 21
122.9566628484
  0
LINE
  5
284
100
AcDbEntity
  8
0
100
AcDbLine
 62
7
  6
CONTINUOUS
 10
116.4749689604
 20
122.9566628484
 11
111.6749689604
 21
122.9566628484
  0
LINE
  5
285
100
AcDbEntity
  8
RUNDUNGEN
100
AcDbLine
 62
7
  6
CONTINUOUS
 10
83.6470779916
 20
130.6584426664
 11
86.2281719552
 21
128.0519168223
  0
LINE
  5
286
100
AcDbEntity
  8
RUNDUNGEN
100
AcDbLine
 62
7
  6
CONTINUOUS
 10
93.4552350532
 20
120.7536444591
 11
107.430152641
 21
106.6410300504
  0
LINE
  5
287
100
AcDbEntity
  8
RUNDUNGEN
100
AcDbLine
 62
7
  6
CONTINUOUS
 10
130.5771489614
 20
83.2659631322
 11
135.8544425664
 21
77.9366716139
  0
LINE
  5
288
100
AcDbEntity
  8
RUNDUNGEN
100
AcDbLine
 62
7
  6
CONTINUOUS
 10
97.7141456622
 20
126.3151946218
 11
95.0756940549
 21
128.9796432624
  0
LINE
  5
289
100
AcDbEntity
  8
RUNDUNGEN
100
AcDbLine
 62
7
  6
CONTINUOUS
 10
158.7579969171
 20
79.4635063697
 11
143.8943207504
 21
94.4736364202
  0
LINE
  5
28A
100
AcDbEntity
  8
RUNDUNGEN
100
AcDbLine
 62
7
  6
CONTINUOUS
 10
105.9991875258
 20
132.7421557018
 11
105.1923068046
 21
133.5569867318
  0
LINE
  5
28B
100
AcDbEntity
  8
KONSTRUKTIONSELEMENTE
100
AcDbLine
 62
7
  6
CONTINUOUS
 10
149.5482366957
 20
147.8773048183
 11
144.8211900453
 21
147.8773048183
  0
LINE
  5
28C
100
AcDbEntity
  8
0
100
AcDbLine
 62
7
  6
CONTINUOUS
 10
144.8211900453
 20
147.8773048183
 11
144.7837082569
 21
147.8773048183
  0
LINE
  5
28D
100
AcDbEntity
  8
0
100
AcDbLine
 62
7
  6
CONTINUOUS
 10
106.5407651344
 20
147.8773048183
 11
106.503283346
 21
147.8773048183
  0
LINE
  5
28E
100
AcDbEntity
  8
KONSTRUKTIONSELEMENTE
100
AcDbLine
 62
7
  6
CONTINUOUS
 10
106.503283346
 20
147.8773048183
 11
101.7762366957
 21
147.8773048183
  0
LINE
  5
28F
100
AcDbEntity
  8
RUNDUNGEN
100
AcDbLine
 62
7
  6
CONTINUOUS
 10
145.0786902255
 20
128.5481605545
 11
134.2658832409
 21
133.9018137518
  0
LINE
  5
290
100
AcDbEntity
  8
RUNDUNGEN
100
AcDbLine
 62
7
  6
CONTINUOUS
 10
134.2658832409
 20
137.4373476578
 11
145.0786902255
 21
132.0836944605
  0
LINE
  5
291
100
AcDbEntity
  8
RUNDUNGEN
100
AcDbLine
 62
7
  6
CONTINUOUS
 10
158.7579969171
 20
82.9990402756
 11
143.8943207504
 21
98.0091703261
  0
LINE
  5
292
100
AcDbEntity
  8
RUNDUNGEN
100
AcDbLine
 62
7
  6
CONTINUOUS
 10
105.9991875258
 20
136.2776896077
 11
105.1923068046
 21
137.0925206377
  0
LINE
  5
293
100
AcDbEntity
  8
0
100
AcDbLine
 62
7
  6
CONTINUOUS
 10
122.3807702619
 20
120.1025441207
 11
124.5537241788
 21
117.4412299552
  0
LINE
  5
294
100
AcDbEntity
  8
0
100
AcDbLine
 62
7
  6
CONTINUOUS
 10
122.3807702619
 20
120.4560975113
 11
124.5537241788
 21
117.7947833458
  0
LINE
  5
295
100
AcDbEntity
  8
0
100
AcDbLine
 62
7
  6
CONTINUOUS
 10
125.6622366957
 20
117.4412299552
 11
123.4029187809
 21
120.2083179842
  0
LINE
  5
296
100
AcDbEntity
  8
BEZUGSACHSEN
100
AcDbLine
 62
7
  6
CONTINUOUS
 10
119.4122366957
 20
158.3217298183
 11
131.9122366957
 21
158.3217298183
  0
LINE
  5
297
100
AcDbEntity
  8
BEZUGSACHSEN
100
AcDbLine
 62
7
  6
CONTINUOUS
 10
119.4122366957
 20
162.0634032852
 11
131.9122366957
 21
162.0634032852
  0
LINE
  5
298
100
AcDbEntity
  8
RUNDUNGEN
100
AcDbLine
 62
7
  6
CONTINUOUS
 10
169.316549515
 20
134.1629521746
 11
162.1080115253
 21
137.7320543061
  0
LINE
  5
299
100
AcDbEntity
  8
RUNDUNGEN
100
AcDbLine
 62
7
  6
CONTINUOUS
 10
169.316549515
 20
137.6984860805
 11
162.1080115253
 21
141.267588212
  0
LINE
  5
29A
100
AcDbEntity
  8
RUNDUNGEN
100
AcDbLine
 62
7
  6
CONTINUOUS
 10
101.7762366957
 20
147.8773048183
 11
97.1622366957
 21
155.3750548183
  0
LINE
  5
29B
100
AcDbEntity
  8
RUNDUNGEN
100
AcDbLine
 62
7
  6
CONTINUOUS
 10
82.7428382131
 20
132.6863416047
 11
82.7428382131
 21
136.2218755107
  0
LINE
  5
29C
100
AcDbEntity
  8
BEZUGSACHSEN
100
AcDbLine
 62
7
  6
CONTINUOUS
 10
119.4122366957
 20
168.6912063513
 11
131.9122366957
 21
168.6912063513
  0
LINE
  5
29D
100
AcDbEntity
  8
BEZUGSACHSEN
100
AcDbLine
 62
7
  6
CONTINUOUS
 10
119.4122366957
 20
172.4328798183
 11
131.9122366957
 21
172.4328798183
  0
LINE
  5
29E
100
AcDbEntity
  8
RUNDUNGEN
100
AcDbLine
 62
7
  6
CONTINUOUS
 10
101.6622366957
 20
172.8773048183
 11
112.5481456171
 21
172.8773048183
  0
LINE
  5
29F
100
AcDbEntity
  8
RUNDUNGEN
100
AcDbLine
 62
7
  6
CONTINUOUS
 10
138.7763277743
 20
172.8773048183
 11
149.6622366957
 21
172.8773048183
  0
LINE
  5
2A0
100
AcDbEntity
  8
RUNDUNGEN
100
AcDbLine
 62
7
  6
CONTINUOUS
 10
91.6622366957
 20
71.4792891781
 11
91.6622366957
 21
80.9711413373
  0
LINE
  5
2A1
100
AcDbEntity
  8
RUNDUNGEN
100
AcDbLine
 62
7
  6
CONTINUOUS
 10
93.1839631197
 20
121.3620141406
 11
93.1839631197
 21
124.8975480465
  0
LINE
  5
2A2
100
AcDbEntity
  8
0
100
AcDbLine
 62
7
  6
CONTINUOUS
 10
95.40281451
 20
182.2718014828
 11
95.40281451
 21
192.6570192738
  0
LINE
  5
2A3
100
AcDbEntity
  8
0
100
AcDbLine
 62
7
  6
CONTINUOUS
 10
95.40281451
 20
227.5975903627
 11
90.7216656068
 21
210.1273048183
  0
LINE
  5
2A4
100
AcDbEntity
  8
0
100
AcDbLine
 62
7
  6
CONTINUOUS
 10
108.1919511512
 20
240.3867270039
 11
95.40281451
 21
227.5975903627
  0
LINE
  5
2A5
100
AcDbEntity
  8
0
100
AcDbLine
 62
7
  6
CONTINUOUS
 10
140.8866026376
 20
184.6161762375
 11
140.4705614101
 21
184.5147336964
  0
LINE
  5
2A6
100
AcDbEntity
  8
0
100
AcDbLine
 62
7
  6
CONTINUOUS
 10
139.1184259328
 20
187.9637805911
 11
139.5344677554
 21
188.0652231322
  0
LINE
  5
2A7
100
AcDbEntity
  8
0
100
AcDbLine
 62
7
  6
CONTINUOUS
 10
147.2312376063
 20
184.5147336964
 11
146.7111851792
 21
184.4132911553
  0
LINE
  5
2A8
100
AcDbEntity
  8
0
100
AcDbLine
 62
7
  6
CONTINUOUS
 10
140.4705614101
 20
183.9060783788
 11
140.990613242
 21
184.0075209287
  0
LINE
  5
2A9
100
AcDbEntity
  8
0
100
AcDbLine
 62
7
  6
CONTINUOUS
 10
146.1911339423
 20
188.0652231322
 11
146.7111851792
 21
188.1666656733
  0
LINE
  5
2AA
100
AcDbEntity
  8
0
100
AcDbLine
 62
7
  6
CONTINUOUS
 10
146.7111851792
 20
183.9060783788
 11
147.3352476156
 21
184.0075209287
  0
LINE
  5
2AB
100
AcDbEntity
  8
0
100
AcDbLine
 62
7
  6
CONTINUOUS
 10
146.7111851792
 20
188.6738783788
 11
146.0871227427
 21
188.5724358377
  0
LINE
  5
2AC
100
AcDbEntity
  8
RUNDUNGEN
100
AcDbLine
 62
7
  6
CONTINUOUS
 10
149.6622366957
 20
178.766277564
 11
131.9030377242
 21
178.766277564
  0
LINE
  5
2AD
100
AcDbEntity
  8
RUNDUNGEN
100
AcDbLine
 62
7
  6
CONTINUOUS
 10
119.4214356671
 20
178.766277564
 11
101.6622366957
 21
178.766277564
  0
LINE
  5
2AE
100
AcDbEntity
  8
0
100
AcDbLine
 62
7
  6
CONTINUOUS
 10
104.4559364412
 20
183.9060783788
 11
105.0519114412
 21
183.9060783788
  0
LINE
  5
2AF
100
AcDbEntity
  8
0
100
AcDbLine
 62
7
  6
CONTINUOUS
 10
107.5351405131
 20
183.9060783788
 11
108.2304448693
 21
183.9060783788
  0
LINE
  5
2B0
100
AcDbEntity
  8
0
100
AcDbLine
 62
7
  6
CONTINUOUS
 10
110.6143445851
 20
183.9060783788
 11
111.0116614412
 21
183.9060783788
  0
LINE
  5
2B1
100
AcDbEntity
  8
0
100
AcDbLine
 62
7
  6
CONTINUOUS
 10
113.3955614412
 20
183.9060783788
 11
115.7794614412
 21
183.9060783788
  0
LINE
  5
2B2
100
AcDbEntity
  8
0
100
AcDbLine
 62
7
  6
CONTINUOUS
 10
131.6296766957
 20
183.9060783788
 11
132.2537391321
 21
183.9060783788
  0
LINE
  5
2B3
100
AcDbEntity
  8
0
100
AcDbLine
 62
7
  6
CONTINUOUS
 10
133.0858223311
 20
183.9060783788
 11
133.7098847675
 21
183.9060783788
  0
LINE
  5
2B4
100
AcDbEntity
  8
0
100
AcDbLine
 62
7
  6
CONTINUOUS
 10
136.3101449689
 20
183.9060783788
 11
137.0382180097
 21
183.9060783788
  0
LINE
  5
2B5
100
AcDbEntity
  8
0
100
AcDbLine
 62
7
  6
CONTINUOUS
 10
139.5344677554
 20
183.9060783788
 11
140.4705614101
 21
183.9060783788
  0
LINE
  5
2B6
100
AcDbEntity
  8
0
100
AcDbLine
 62
7
  6
CONTINUOUS
 10
143.3828529784
 20
183.9060783788
 11
144.0069154149
 21
183.9060783788
  0
LINE
  5
2B7
100
AcDbEntity
  8
0
100
AcDbLine
 62
7
  6
CONTINUOUS
 10
140.4705614101
 20
184.5147336964
 11
139.5344677554
 21
184.5147336964
  0
LINE
  5
2B8
100
AcDbEntity
  8
0
100
AcDbLine
 62
7
  6
CONTINUOUS
 10
115.7794614412
 20
184.5147336964
 11
113.9915364412
 21
184.5147336964
  0
LINE
  5
2B9
100
AcDbEntity
  8
0
100
AcDbLine
 62
7
  6
CONTINUOUS
 10
111.0116614412
 20
184.5147336964
 11
110.6143445851
 21
184.5147336964
  0
LINE
  5
2BA
100
AcDbEntity
  8
0
100
AcDbLine
 62
7
  6
CONTINUOUS
 10
110.1176989412
 20
184.0075209287
 11
110.6143445851
 21
183.9060783788
  0
LINE
  5
2BB
100
AcDbEntity
  8
0
100
AcDbLine
 62
7
  6
CONTINUOUS
 10
107.3364823693
 20
188.5724358377
 11
106.8398364412
 21
188.6738783788
  0
LINE
  5
2BC
100
AcDbEntity
  8
0
100
AcDbLine
 62
7
  6
CONTINUOUS
 10
110.6143445851
 20
184.5147336964
 11
110.2170282973
 21
184.6161762375
  0
LINE
  5
2BD
100
AcDbEntity
  8
0
100
AcDbLine
 62
7
  6
CONTINUOUS
 10
106.9391655131
 20
188.1666656733
 11
107.2371530131
 21
188.0652231322
  0
LINE
  5
2BE
100
AcDbEntity
  8
0
100
AcDbLine
 62
7
  6
CONTINUOUS
 10
109.7203820851
 20
184.2104060376
 11
110.1176989412
 21
184.0075209287
  0
LINE
  5
2BF
100
AcDbEntity
  8
0
100
AcDbLine
 62
7
  6
CONTINUOUS
 10
110.2170282973
 20
184.6161762375
 11
109.9190407973
 21
184.8190613907
  0
LINE
  5
2C0
100
AcDbEntity
  8
0
100
AcDbLine
 62
7
  6
CONTINUOUS
 10
107.7337989412
 20
188.2681082144
 11
107.3364823693
 21
188.5724358377
  0
LINE
  5
2C1
100
AcDbEntity
  8
0
100
AcDbLine
 62
7
  6
CONTINUOUS
 10
109.3230657973
 20
184.6161762375
 11
109.7203820851
 21
184.2104060376
  0
LINE
  5
2C2
100
AcDbEntity
  8
0
100
AcDbLine
 62
7
  6
CONTINUOUS
 10
107.2371530131
 20
188.0652231322
 11
107.4358114412
 21
187.86233805
  0
LINE
  5
2C3
100
AcDbEntity
  8
0
100
AcDbLine
 62
7
  6
CONTINUOUS
 10
108.0317864412
 20
187.86233805
 11
107.7337989412
 21
188.2681082144
  0
LINE
  5
2C4
100
AcDbEntity
  8
0
100
AcDbLine
 62
7
  6
CONTINUOUS
 10
109.9190407973
 20
184.8190613907
 11
109.7203820851
 21
185.123389014
  0
LINE
  5
2C5
100
AcDbEntity
  8
0
100
AcDbLine
 62
7
  6
CONTINUOUS
 10
90.7216656068
 20
210.1273048183
 11
95.40281451
 21
192.6570192738
  0
LINE
  5
2C6
100
AcDbEntity
  8
0
100
AcDbLine
 62
7
  6
CONTINUOUS
 10
95.40281451
 20
182.2718014828
 11
97.1622366957
 21
174.6509067329
  0
LINE
  5
2C7
100
AcDbEntity
  8
RUNDUNGEN
100
AcDbLine
 62
7
  6
CONTINUOUS
 10
97.1622366957
 20
155.3750548183
 11
97.1622366957
 21
188.3773048183
  0
LINE
  5
2C8
100
AcDbEntity
  8
RUNDUNGEN
100
AcDbLine
 62
7
  6
CONTINUOUS
 10
99.5122366957
 20
68.2973086627
 11
99.5122366957
 21
72.8935027404
  0
LINE
  5
2C9
100
AcDbEntity
  8
0
100
AcDbLine
 62
7
  6
CONTINUOUS
 10
104.4559364412
 20
188.6738783788
 11
104.4559364412
 21
183.9060783788
  0
LINE
  5
2CA
100
AcDbEntity
  8
0
100
AcDbLine
 62
7
  6
CONTINUOUS
 10
105.0519114412
 20
183.9060783788
 11
105.0519114412
 21
186.036372026
  0
LINE
  5
2CB
100
AcDbEntity
  8
0
100
AcDbLine
 62
7
  6
CONTINUOUS
 10
105.0519114412
 20
186.6450272726
 11
105.0519114412
 21
188.1666656733
  0
LINE
  5
2CC
100
AcDbEntity
  8
0
100
AcDbLine
 62
7
  6
CONTINUOUS
 10
116.176777729
 20
184.6161762375
 11
115.7794614412
 21
184.5147336964
  0
LINE
  5
2CD
100
AcDbEntity
  8
0
100
AcDbLine
 62
7
  6
CONTINUOUS
 10
111.4089782973
 20
184.6161762375
 11
111.0116614412
 21
184.5147336964
  0
LINE
  5
2CE
100
AcDbEntity
  8
0
100
AcDbLine
 62
7
  6
CONTINUOUS
 10
115.7794614412
 20
183.9060783788
 11
116.2761076535
 21
184.0075209287
  0
LINE
  5
2CF
100
AcDbEntity
  8
0
100
AcDbLine
 62
7
  6
CONTINUOUS
 10
111.0116614412
 20
183.9060783788
 11
111.5083070851
 21
184.0075209287
  0
LINE
  5
2D0
100
AcDbEntity
  8
0
100
AcDbLine
 62
7
  6
CONTINUOUS
 10
139.5344677554
 20
188.6738783788
 11
139.0144153283
 21
188.5724358377
  0
LINE
  5
2D1
100
AcDbEntity
  8
0
100
AcDbLine
 62
7
  6
CONTINUOUS
 10
140.3665508056
 20
185.9349294849
 11
141.3026444602
 21
185.9349294849
  0
LINE
  5
2D2
100
AcDbEntity
  8
0
100
AcDbLine
 62
7
  6
CONTINUOUS
 10
105.0519114412
 20
186.036372026
 11
106.7405072272
 21
186.036372026
  0
LINE
  5
2D3
100
AcDbEntity
  8
0
100
AcDbLine
 62
7
  6
CONTINUOUS
 10
133.7098847675
 20
186.036372026
 11
135.4780616211
 21
186.036372026
  0
LINE
  5
2D4
100
AcDbEntity
  8
0
100
AcDbLine
 62
7
  6
CONTINUOUS
 10
141.9267068967
 20
186.5435847315
 11
140.3665508056
 21
186.5435847315
  0
LINE
  5
2D5
100
AcDbEntity
  8
0
100
AcDbLine
 62
7
  6
CONTINUOUS
 10
135.6860825324
 20
186.6450272726
 11
133.7098847675
 21
186.6450272726
  0
LINE
  5
2D6
100
AcDbEntity
  8
0
100
AcDbLine
 62
7
  6
CONTINUOUS
 10
106.9391655131
 20
186.6450272726
 11
105.0519114412
 21
186.6450272726
  0
LINE
  5
2D7
100
AcDbEntity
  8
0
100
AcDbLine
 62
7
  6
CONTINUOUS
 10
141.3026444602
 20
187.4565676014
 11
141.9267068967
 21
187.4565676014
  0
LINE
  5
2D8
100
AcDbEntity
  8
0
100
AcDbLine
 62
7
  6
CONTINUOUS
 10
113.9915364412
 20
188.0652231322
 11
115.7794614412
 21
188.0652231322
  0
LINE
  5
2D9
100
AcDbEntity
  8
0
100
AcDbLine
 62
7
  6
CONTINUOUS
 10
139.5344677554
 20
188.0652231322
 11
140.4705614101
 21
188.0652231322
  0
LINE
  5
2DA
100
AcDbEntity
  8
0
100
AcDbLine
 62
7
  6
CONTINUOUS
 10
105.0519114412
 20
188.1666656733
 11
106.9391655131
 21
188.1666656733
  0
LINE
  5
2DB
100
AcDbEntity
  8
0
100
AcDbLine
 62
7
  6
CONTINUOUS
 10
133.7098847675
 20
188.1666656733
 11
135.6860825324
 21
188.1666656733
  0
LINE
  5
2DC
100
AcDbEntity
  8
0
100
AcDbLine
 62
7
  6
CONTINUOUS
 10
144.0069154149
 20
188.6738783788
 11
143.3828529784
 21
188.6738783788
  0
LINE
  5
2DD
100
AcDbEntity
  8
0
100
AcDbLine
 62
7
  6
CONTINUOUS
 10
140.4705614101
 20
188.6738783788
 11
139.5344677554
 21
188.6738783788
  0
LINE
  5
2DE
100
AcDbEntity
  8
0
100
AcDbLine
 62
7
  6
CONTINUOUS
 10
135.5820722255
 20
188.6738783788
 11
133.0858223311
 21
188.6738783788
  0
LINE
  5
2DF
100
AcDbEntity
  8
0
100
AcDbLine
 62
7
  6
CONTINUOUS
 10
132.2537391321
 20
188.6738783788
 11
131.6296766957
 21
188.6738783788
  0
LINE
  5
2E0
100
AcDbEntity
  8
0
100
AcDbLine
 62
7
  6
CONTINUOUS
 10
115.7794614412
 20
188.6738783788
 11
113.3955614412
 21
188.6738783788
  0
LINE
  5
2E1
100
AcDbEntity
  8
0
100
AcDbLine
 62
7
  6
CONTINUOUS
 10
112.6009282973
 20
188.6738783788
 11
112.0049532973
 21
188.6738783788
  0
LINE
  5
2E2
100
AcDbEntity
  8
0
100
AcDbLine
 62
7
  6
CONTINUOUS
 10
109.6210532973
 20
188.6738783788
 11
109.0250780131
 21
188.6738783788
  0
LINE
  5
2E3
100
AcDbEntity
  8
0
100
AcDbLine
 62
7
  6
CONTINUOUS
 10
106.8398364412
 20
188.6738783788
 11
104.4559364412
 21
188.6738783788
  0
LINE
  5
2E4
100
AcDbEntity
  8
RUNDUNGEN
100
AcDbLine
 62
7
  6
CONTINUOUS
 10
145.9770905048
 20
194.764787012
 11
143.1137565908
 21
194.764787012
  0
LINE
  5
2E5
100
AcDbEntity
  8
RUNDUNGEN
100
AcDbLine
 62
7
  6
CONTINUOUS
 10
108.2107168005
 20
194.764787012
 11
105.3473826564
 21
194.764787012
  0
LINE
  5
2E6
100
AcDbEntity
  8
RUNDUNGEN
100
AcDbLine
 62
7
  6
CONTINUOUS
 10
113.7078954591
 20
194.8773048183
 11
137.6165779323
 21
194.8773048183
  0
LINE
  5
2E7
100
AcDbEntity
  8
0
100
AcDbLine
 62
7
  6
CONTINUOUS
 10
146.0871227427
 20
184.0075209287
 11
146.7111851792
 21
183.9060783788
  0
LINE
  5
2E8
100
AcDbEntity
  8
0
100
AcDbLine
 62
7
  6
CONTINUOUS
 10
147.3352476156
 20
188.5724358377
 11
146.7111851792
 21
188.6738783788
  0
LINE
  5
2E9
100
AcDbEntity
  8
0
100
AcDbLine
 62
7
  6
CONTINUOUS
 10
139.0144153283
 20
184.0075209287
 11
139.5344677554
 21
183.9060783788
  0
LINE
  5
2EA
100
AcDbEntity
  8
0
100
AcDbLine
 62
7
  6
CONTINUOUS
 10
146.7111851792
 20
184.4132911553
 11
146.1911339423
 21
184.5147336964
  0
LINE
  5
2EB
100
AcDbEntity
  8
0
100
AcDbLine
 62
7
  6
CONTINUOUS
 10
136.1021240575
 20
188.5724358377
 11
135.5820722255
 21
188.6738783788
  0
LINE
  5
2EC
100
AcDbEntity
  8
0
100
AcDbLine
 62
7
  6
CONTINUOUS
 10
140.990613242
 20
188.5724358377
 11
140.4705614101
 21
188.6738783788
  0
LINE
  5
2ED
100
AcDbEntity
  8
0
100
AcDbLine
 62
7
  6
CONTINUOUS
 10
146.7111851792
 20
188.1666656733
 11
147.2312376063
 21
188.0652231322
  0
LINE
  5
2EE
100
AcDbEntity
  8
0
100
AcDbLine
 62
7
  6
CONTINUOUS
 10
116.2761076535
 20
188.5724358377
 11
115.7794614412
 21
188.6738783788
  0
LINE
  5
2EF
100
AcDbEntity
  8
0
100
AcDbLine
 62
7
  6
CONTINUOUS
 10
139.5344677554
 20
184.5147336964
 11
139.1184259328
 21
184.6161762375
  0
LINE
  5
2F0
100
AcDbEntity
  8
0
100
AcDbLine
 62
7
  6
CONTINUOUS
 10
140.4705614101
 20
188.0652231322
 11
140.8866026376
 21
187.9637805911
  0
LINE
  5
2F1
100
AcDbEntity
  8
0
100
AcDbLine
 62
7
  6
CONTINUOUS
 10
115.7794614412
 20
188.0652231322
 11
116.176777729
 21
187.9637805911
  0
LINE
  5
2F2
100
AcDbEntity
  8
0
100
AcDbLine
 62
7
  6
CONTINUOUS
 10
135.6860825324
 20
188.1666656733
 11
135.9981137506
 21
188.0652231322
  0
LINE
  5
2F3
100
AcDbEntity
  8
0
100
AcDbLine
 62
7
  6
CONTINUOUS
 10
138.5983741008
 20
184.2104060376
 11
139.0144153283
 21
184.0075209287
  0
LINE
  5
2F4
100
AcDbEntity
  8
0
100
AcDbLine
 62
7
  6
CONTINUOUS
 10
116.6734239412
 20
188.3695507555
 11
116.2761076535
 21
188.5724358377
  0
LINE
  5
2F5
100
AcDbEntity
  8
0
100
AcDbLine
 62
7
  6
CONTINUOUS
 10
116.176777729
 20
187.9637805911
 11
116.474765229
 21
187.7608955089
  0
LINE
  5
2F6
100
AcDbEntity
  8
0
100
AcDbLine
 62
7
  6
CONTINUOUS
 10
117.070740229
 20
187.9637805911
 11
116.6734239412
 21
188.3695507555
  0
LINE
  5
2F7
100
AcDbEntity
  8
0
100
AcDbLine
 62
7
  6
CONTINUOUS
 10
116.474765229
 20
187.7608955089
 11
116.6734239412
 21
187.4565676014
  0
LINE
  5
2F8
100
AcDbEntity
  8
0
100
AcDbLine
 62
7
  6
CONTINUOUS
 10
109.1244073693
 20
185.0219464729
 11
109.3230657973
 21
184.6161762375
  0
LINE
  5
2F9
100
AcDbEntity
  8
0
100
AcDbLine
 62
7
  6
CONTINUOUS
 10
117.2693989412
 20
187.5580104267
 11
117.070740229
 21
187.9637805911
  0
LINE
  5
2FA
100
AcDbEntity
  8
0
100
AcDbLine
 62
7
  6
CONTINUOUS
 10
108.2304448693
 20
183.9060783788
 11
107.3364823693
 21
186.2392571082
  0
LINE
  5
2FB
100
AcDbEntity
  8
0
100
AcDbLine
 62
7
  6
CONTINUOUS
 10
106.7405072272
 20
186.036372026
 11
107.5351405131
 21
183.9060783788
  0
LINE
  5
2FC
100
AcDbEntity
  8
0
100
AcDbLine
 62
7
  6
CONTINUOUS
 10
107.4358114412
 20
187.86233805
 11
107.5351405131
 21
187.5580104267
  0
LINE
  5
2FD
100
AcDbEntity
  8
0
100
AcDbLine
 62
7
  6
CONTINUOUS
 10
108.1311155131
 20
187.5580104267
 11
108.0317864412
 21
187.86233805
  0
LINE
  5
2FE
100
AcDbEntity
  8
0
100
AcDbLine
 62
7
  6
CONTINUOUS
 10
109.7203820851
 20
185.123389014
 11
109.6210532973
 21
185.5291591784
  0
LINE
  5
2FF
100
AcDbEntity
  8
0
100
AcDbLine
 62
7
  6
CONTINUOUS
 10
109.0250780131
 20
185.5291591784
 11
109.1244073693
 21
185.0219464729
  0
LINE
  5
300
100
AcDbEntity
  8
0
100
AcDbLine
 62
7
  6
CONTINUOUS
 10
107.5351405131
 20
187.5580104267
 11
107.5351405131
 21
187.2536825192
  0
LINE
  5
301
100
AcDbEntity
  8
0
100
AcDbLine
 62
7
  6
CONTINUOUS
 10
108.1311155131
 20
187.1522399781
 11
108.1311155131
 21
187.5580104267
  0
LINE
  5
302
100
AcDbEntity
  8
0
100
AcDbLine
 62
7
  6
CONTINUOUS
 10
109.0250780131
 20
188.6738783788
 11
109.0250780131
 21
185.5291591784
  0
LINE
  5
303
100
AcDbEntity
  8
0
100
AcDbLine
 62
7
  6
CONTINUOUS
 10
109.6210532973
 20
185.5291591784
 11
109.6210532973
 21
188.6738783788
  0
LINE
  5
304
100
AcDbEntity
  8
KONSTRUKTIONSELEMENTE
100
AcDbLine
 62
7
  6
CONTINUOUS
 10
110.8267764736
 20
165.0773048183
 11
110.8267764736
 21
169.2403048183
  0
LINE
  5
305
100
AcDbEntity
  8
0
100
AcDbLine
 62
7
  6
CONTINUOUS
 10
111.0749689604
 20
122.5323987797
 11
111.0749689604
 21
117.8654940239
  0
LINE
  5
306
100
AcDbEntity
  8
0
100
AcDbLine
 62
7
  6
CONTINUOUS
 10
112.0049532973
 20
188.6738783788
 11
112.0049532973
 21
185.5291591784
  0
LINE
  5
307
100
AcDbEntity
  8
0
100
AcDbLine
 62
7
  6
CONTINUOUS
 10
112.6009282973
 20
185.5291591784
 11
112.6009282973
 21
188.6738783788
  0
LINE
  5
308
100
AcDbEntity
  8
0
100
AcDbLine
 62
7
  6
CONTINUOUS
 10
113.0249689604
 20
118.501890127
 11
113.0249689604
 21
120.1282357237
  0
LINE
  5
309
100
AcDbEntity
  8
0
100
AcDbLine
 62
7
  6
CONTINUOUS
 10
113.0249689604
 20
120.6232104705
 11
113.0249689604
 21
122.2495560673
  0
LINE
  5
30A
100
AcDbEntity
  8
0
100
AcDbLine
 62
7
  6
CONTINUOUS
 10
113.3955614412
 20
188.6738783788
 11
113.3955614412
 21
183.9060783788
  0
LINE
  5
30B
100
AcDbEntity
  8
0
100
AcDbLine
 62
7
  6
CONTINUOUS
 10
113.4749689604
 20
121.7050838457
 11
113.4749689604
 21
120.8141293015
  0
LINE
  5
30C
100
AcDbEntity
  8
0
100
AcDbLine
 62
7
  6
CONTINUOUS
 10
113.4749689604
 20
119.5837635022
 11
113.4749689604
 21
118.6928089579
  0
LINE
  5
30D
100
AcDbEntity
  8
0
100
AcDbLine
 62
7
  6
CONTINUOUS
 10
113.8499689604
 20
119.5413370953
 11
113.8499689604
 21
119.6686163159
  0
LINE
  5
30E
100
AcDbEntity
  8
0
100
AcDbLine
 62
7
  6
CONTINUOUS
 10
113.8499689604
 20
119.9868143675
 11
113.8499689604
 21
120.4110784362
  0
LINE
  5
30F
100
AcDbEntity
  8
0
100
AcDbLine
 62
7
  6
CONTINUOUS
 10
113.8499689604
 20
120.7292764877
 11
113.8499689604
 21
121.2101090989
  0
LINE
  5
310
100
AcDbEntity
  8
0
100
AcDbLine
 62
7
  6
CONTINUOUS
 10
113.9915364412
 20
184.5147336964
 11
113.9915364412
 21
188.0652231322
  0
LINE
  5
311
100
AcDbEntity
  8
0
100
AcDbLine
 62
7
  6
CONTINUOUS
 10
114.2999689604
 20
120.4110784362
 11
114.2999689604
 21
119.9868143675
  0
LINE
  5
312
100
AcDbEntity
  8
0
100
AcDbLine
 62
7
  6
CONTINUOUS
 10
114.2999689604
 20
121.2101090989
 11
114.2999689604
 21
120.7292764877
  0
LINE
  5
313
100
AcDbEntity
  8
0
100
AcDbLine
 62
7
  6
CONTINUOUS
 10
114.2999689604
 20
119.6686163159
 11
114.2999689604
 21
119.5413370953
  0
LINE
  5
314
100
AcDbEntity
  8
0
100
AcDbLine
 62
7
  6
CONTINUOUS
 10
114.6622366957
 20
351.3773048183
 11
114.6622366957
 21
214.3773048183
  0
LINE
  5
315
100
AcDbEntity
  8
0
100
AcDbLine
 62
7
  6
CONTINUOUS
 10
114.6749689604
 20
118.6928089579
 11
114.6749689604
 21
119.5837635022
  0
LINE
  5
316
100
AcDbEntity
  8
0
100
AcDbLine
 62
7
  6
CONTINUOUS
 10
114.6749689604
 20
120.8141293015
 11
114.6749689604
 21
121.7050838457
  0
LINE
  5
317
100
AcDbEntity
  8
0
100
AcDbLine
 62
7
  6
CONTINUOUS
 10
115.1249689604
 20
122.2495560673
 11
115.1249689604
 21
120.6232104705
  0
LINE
  5
318
100
AcDbEntity
  8
0
100
AcDbLine
 62
7
  6
CONTINUOUS
 10
115.1249689604
 20
120.1282357237
 11
115.1249689604
 21
118.501890127
  0
LINE
  5
319
100
AcDbEntity
  8
0
100
AcDbLine
 62
7
  6
CONTINUOUS
 10
116.772752729
 20
187.050797437
 11
116.772752729
 21
185.5291591784
  0
LINE
  5
31A
100
AcDbEntity
  8
0
100
AcDbLine
 62
7
  6
CONTINUOUS
 10
117.0749689604
 20
117.8654940239
 11
117.0749689604
 21
122.5323987797
  0
LINE
  5
31B
100
AcDbEntity
  8
0
100
AcDbLine
 62
7
  6
CONTINUOUS
 10
117.368727729
 20
185.5291591784
 11
117.368727729
 21
187.050797437
  0
LINE
  5
31C
100
AcDbEntity
  8
0
100
AcDbLine
 62
7
  6
CONTINUOUS
 10
107.5351405131
 20
187.2536825192
 11
107.4358114412
 21
186.9493548959
  0
LINE
  5
31D
100
AcDbEntity
  8
0
100
AcDbLine
 62
7
  6
CONTINUOUS
 10
141.4066550647
 20
188.3695507555
 11
140.990613242
 21
188.5724358377
  0
LINE
  5
31E
100
AcDbEntity
  8
0
100
AcDbLine
 62
7
  6
CONTINUOUS
 10
145.5670715059
 20
184.3118485787
 11
146.0871227427
 21
184.0075209287
  0
LINE
  5
31F
100
AcDbEntity
  8
0
100
AcDbLine
 62
7
  6
CONTINUOUS
 10
147.8553000427
 20
188.2681082144
 11
147.3352476156
 21
188.5724358377
  0
LINE
  5
320
100
AcDbEntity
  8
0
100
AcDbLine
 62
7
  6
CONTINUOUS
 10
139.1184259328
 20
184.6161762375
 11
138.8063947145
 21
184.8190613907
  0
LINE
  5
321
100
AcDbEntity
  8
0
100
AcDbLine
 62
7
  6
CONTINUOUS
 10
140.8866026376
 20
187.9637805911
 11
141.1986338558
 21
187.7608955089
  0
LINE
  5
322
100
AcDbEntity
  8
0
100
AcDbLine
 62
7
  6
CONTINUOUS
 10
146.1911339423
 20
184.5147336964
 11
145.8791027241
 21
184.7176187786
  0
LINE
  5
323
100
AcDbEntity
  8
0
100
AcDbLine
 62
7
  6
CONTINUOUS
 10
147.2312376063
 20
188.0652231322
 11
147.5432688245
 21
187.86233805
  0
LINE
  5
324
100
AcDbEntity
  8
0
100
AcDbLine
 62
7
  6
CONTINUOUS
 10
136.5181658802
 20
188.2681082144
 11
136.1021240575
 21
188.5724358377
  0
LINE
  5
325
100
AcDbEntity
  8
0
100
AcDbLine
 62
7
  6
CONTINUOUS
 10
138.1823322781
 20
184.6161762375
 11
138.5983741008
 21
184.2104060376
  0
LINE
  5
326
100
AcDbEntity
  8
0
100
AcDbLine
 62
7
  6
CONTINUOUS
 10
135.9981137506
 20
188.0652231322
 11
136.206134662
 21
187.86233805
  0
LINE
  5
327
100
AcDbEntity
  8
0
100
AcDbLine
 62
7
  6
CONTINUOUS
 10
116.6734239412
 20
187.4565676014
 11
116.772752729
 21
187.050797437
  0
LINE
  5
328
100
AcDbEntity
  8
0
100
AcDbLine
 62
7
  6
CONTINUOUS
 10
117.368727729
 20
187.050797437
 11
117.2693989412
 21
187.5580104267
  0
LINE
  5
329
100
AcDbEntity
  8
KONSTRUKTIONSELEMENTE
100
AcDbLine
 62
7
  6
CONTINUOUS
 10
117.6622366957
 20
149.6145884992
 11
117.6622366957
 21
152.4588790469
  0
LINE
  5
32A
100
AcDbEntity
  8
0
100
AcDbLine
 62
7
  6
CONTINUOUS
 10
119.0207702619
 20
122.9566628484
 11
119.0207702619
 21
122.3131956776
  0
LINE
  5
32B
100
AcDbEntity
  8
0
100
AcDbLine
 62
7
  6
CONTINUOUS
 10
119.0207702619
 20
121.7192259814
 11
119.0207702619
 21
117.4412299552
  0
LINE
  5
32C
100
AcDbEntity
  8
0
100
AcDbLine
 62
7
  6
CONTINUOUS
 10
119.4122366957
 20
165.0773048183
 11
119.4122366957
 21
152.8306667383
  0
LINE
  5
32D
100
AcDbEntity
  8
KONSTRUKTIONSELEMENTE
100
AcDbLine
 62
7
  6
CONTINUOUS
 10
119.4122366957
 20
165.0773048183
 11
119.4122366957
 21
178.4273048183
  0
LINE
  5
32E
100
AcDbEntity
  8
0
100
AcDbLine
 62
7
  6
CONTINUOUS
 10
119.9807702619
 20
117.4412299552
 11
119.9807702619
 21
120.4560975113
  0
LINE
  5
32F
100
AcDbEntity
  8
0
100
AcDbLine
 62
7
  6
CONTINUOUS
 10
119.9807702619
 20
120.7813666307
 11
119.9807702619
 21
121.7192259814
  0
LINE
  5
330
100
AcDbEntity
  8
KONSTRUKTIONSELEMENTE
100
AcDbLine
 62
7
  6
CONTINUOUS
 10
122.1622366957
 20
149.6145884992
 11
122.1622366957
 21
158.3217298183
  0
LINE
  5
331
100
AcDbEntity
  8
KONSTRUKTIONSELEMENTE
100
AcDbLine
 62
7
  6
CONTINUOUS
 10
122.1622366957
 20
180.7272868714
 11
122.1622366957
 21
183.5985635343
  0
LINE
  5
332
100
AcDbEntity
  8
0
100
AcDbLine
 62
7
  6
CONTINUOUS
 10
122.3807702619
 20
120.1025441207
 11
122.3807702619
 21
120.4560975113
  0
LINE
  5
333
100
AcDbEntity
  8
KONSTRUKTIONSELEMENTE
100
AcDbLine
 62
7
  6
CONTINUOUS
 10
123.1622366957
 20
128.8113616051
 11
123.1622366957
 21
151.2656185739
  0
LINE
  5
334
100
AcDbEntity
  8
KONSTRUKTIONSELEMENTE
100
AcDbLine
 62
7
  6
CONTINUOUS
 10
123.1622366957
 20
195.0878081085
 11
123.1622366957
 21
203.6677297426
  0
LINE
  5
335
100
AcDbEntity
  8
0
100
AcDbLine
 62
7
  6
CONTINUOUS
 10
123.4029187809
 20
120.2083179842
 11
123.4029187809
 21
120.5618713748
  0
LINE
  5
336
100
AcDbEntity
  8
KONSTRUKTIONSELEMENTE
100
AcDbLine
 62
7
  6
CONTINUOUS
 10
123.4122366957
 20
172.4328798183
 11
123.4122366957
 21
181.478347356
  0
LINE
  5
337
100
AcDbEntity
  8
0
100
AcDbLine
 62
7
  6
CONTINUOUS
 10
123.8639369686
 20
121.9008345447
 11
123.8639369686
 21
121.5472811541
  0
LINE
  5
338
100
AcDbEntity
  8
0
100
AcDbLine
 62
7
  6
CONTINUOUS
 10
124.5537241788
 20
117.4412299552
 11
124.5537241788
 21
117.7947833458
  0
LINE
  5
339
100
AcDbEntity
  8
0
100
AcDbLine
 62
7
  6
CONTINUOUS
 10
126.2207702619
 20
122.9566628484
 11
126.2207702619
 21
119.466974502
  0
LINE
  5
33A
100
AcDbEntity
  8
0
100
AcDbLine
 62
7
  6
CONTINUOUS
 10
127.1807702619
 20
119.466974502
 11
127.1807702619
 21
122.9566628484
  0
LINE
  5
33B
100
AcDbEntity
  8
0
100
AcDbLine
 62
7
  6
CONTINUOUS
 10
112.5015989412
 20
185.0219464729
 11
112.6009282973
 21
185.5291591784
  0
LINE
  5
33C
100
AcDbEntity
  8
0
100
AcDbLine
 62
7
  6
CONTINUOUS
 10
117.2693989412
 20
185.0219464729
 11
117.368727729
 21
185.5291591784
  0
LINE
  5
33D
100
AcDbEntity
  8
0
100
AcDbLine
 62
7
  6
CONTINUOUS
 10
112.0049532973
 20
185.5291591784
 11
111.9056239412
 21
185.123389014
  0
LINE
  5
33E
100
AcDbEntity
  8
0
100
AcDbLine
 62
7
  6
CONTINUOUS
 10
116.772752729
 20
185.5291591784
 11
116.6734239412
 21
185.123389014
  0
LINE
  5
33F
100
AcDbEntity
  8
0
100
AcDbLine
 62
7
  6
CONTINUOUS
 10
108.0317864412
 20
186.8479123548
 11
108.1311155131
 21
187.1522399781
  0
LINE
  5
340
100
AcDbEntity
  8
0
100
AcDbLine
 62
7
  6
CONTINUOUS
 10
112.3029407973
 20
184.6161762375
 11
112.5015989412
 21
185.0219464729
  0
LINE
  5
341
100
AcDbEntity
  8
0
100
AcDbLine
 62
7
  6
CONTINUOUS
 10
141.8226968874
 20
187.9637805911
 11
141.4066550647
 21
188.3695507555
  0
LINE
  5
342
100
AcDbEntity
  8
0
100
AcDbLine
 62
7
  6
CONTINUOUS
 10
145.2550402877
 20
184.6161762375
 11
145.5670715059
 21
184.3118485787
  0
LINE
  5
343
100
AcDbEntity
  8
0
100
AcDbLine
 62
7
  6
CONTINUOUS
 10
148.1673312609
 20
187.9637805911
 11
147.8553000427
 21
188.2681082144
  0
LINE
  5
344
100
AcDbEntity
  8
0
100
AcDbLine
 62
7
  6
CONTINUOUS
 10
136.8301968008
 20
187.86233805
 11
136.5181658802
 21
188.2681082144
  0
LINE
  5
345
100
AcDbEntity
  8
0
100
AcDbLine
 62
7
  6
CONTINUOUS
 10
138.8063947145
 20
184.8190613907
 11
138.5983741008
 21
185.123389014
  0
LINE
  5
346
100
AcDbEntity
  8
0
100
AcDbLine
 62
7
  6
CONTINUOUS
 10
145.8791027241
 20
184.7176187786
 11
145.4630603063
 21
185.3262740962
  0
LINE
  5
347
100
AcDbEntity
  8
0
100
AcDbLine
 62
7
  6
CONTINUOUS
 10
137.9743116644
 20
185.0219464729
 11
138.1823322781
 21
184.6161762375
  0
LINE
  5
348
100
AcDbEntity
  8
0
100
AcDbLine
 62
7
  6
CONTINUOUS
 10
137.0382180097
 20
183.9060783788
 11
136.1021240575
 21
186.2392571082
  0
LINE
  5
349
100
AcDbEntity
  8
0
100
AcDbLine
 62
7
  6
CONTINUOUS
 10
135.4780616211
 20
186.036372026
 11
136.3101449689
 21
183.9060783788
  0
LINE
  5
34A
100
AcDbEntity
  8
0
100
AcDbLine
 62
7
  6
CONTINUOUS
 10
136.206134662
 20
187.86233805
 11
136.3101449689
 21
187.5580104267
  0
LINE
  5
34B
100
AcDbEntity
  8
0
100
AcDbLine
 62
7
  6
CONTINUOUS
 10
136.9342074053
 20
187.5580104267
 11
136.8301968008
 21
187.86233805
  0
LINE
  5
34C
100
AcDbEntity
  8
KONSTRUKTIONSELEMENTE
100
AcDbLine
 62
7
  6
CONTINUOUS
 10
127.9122366957
 20
172.4328798183
 11
127.9122366957
 21
181.478347356
  0
LINE
  5
34D
100
AcDbEntity
  8
KONSTRUKTIONSELEMENTE
100
AcDbLine
 62
7
  6
CONTINUOUS
 10
128.1622366957
 20
128.8113616051
 11
128.1622366957
 21
151.2656185739
  0
LINE
  5
34E
100
AcDbEntity
  8
KONSTRUKTIONSELEMENTE
100
AcDbLine
 62
7
  6
CONTINUOUS
 10
128.1622366957
 20
195.0878081085
 11
128.1622366957
 21
203.6677297426
  0
LINE
  5
34F
100
AcDbEntity
  8
KONSTRUKTIONSELEMENTE
100
AcDbLine
 62
7
  6
CONTINUOUS
 10
129.1622366957
 20
183.5985635343
 11
129.1622366957
 21
180.7272868714
  0
LINE
  5
350
100
AcDbEntity
  8
KONSTRUKTIONSELEMENTE
100
AcDbLine
 62
7
  6
CONTINUOUS
 10
129.1622366957
 20
158.3217298183
 11
129.1622366957
 21
149.6145884992
  0
LINE
  5
351
100
AcDbEntity
  8
0
100
AcDbLine
 62
7
  6
CONTINUOUS
 10
130.9549056225
 20
122.9566628484
 11
130.9549056225
 21
119.466974502
  0
LINE
  5
352
100
AcDbEntity
  8
0
100
AcDbLine
 62
7
  6
CONTINUOUS
 10
131.6296766957
 20
188.6738783788
 11
131.6296766957
 21
183.9060783788
  0
LINE
  5
353
100
AcDbEntity
  8
0
100
AcDbLine
 62
7
  6
CONTINUOUS
 10
131.9122366957
 20
152.8306667383
 11
131.9122366957
 21
165.0773048183
  0
LINE
  5
354
100
AcDbEntity
  8
KONSTRUKTIONSELEMENTE
100
AcDbLine
 62
7
  6
CONTINUOUS
 10
131.9122366957
 20
165.0773048183
 11
131.9122366957
 21
178.4273048183
  0
LINE
  5
355
100
AcDbEntity
  8
0
100
AcDbLine
 62
7
  6
CONTINUOUS
 10
131.9149056225
 20
119.466974502
 11
131.9149056225
 21
122.9566628484
  0
LINE
  5
356
100
AcDbEntity
  8
0
100
AcDbLine
 62
7
  6
CONTINUOUS
 10
132.2537391321
 20
183.9060783788
 11
132.2537391321
 21
188.6738783788
  0
LINE
  5
357
100
AcDbEntity
  8
0
100
AcDbLine
 62
7
  6
CONTINUOUS
 10
133.0858223311
 20
188.6738783788
 11
133.0858223311
 21
183.9060783788
  0
LINE
  5
358
100
AcDbEntity
  8
KONSTRUKTIONSELEMENTE
100
AcDbLine
 62
7
  6
CONTINUOUS
 10
133.6622366957
 20
152.4588790469
 11
133.6622366957
 21
149.6145884992
  0
LINE
  5
359
100
AcDbEntity
  8
0
100
AcDbLine
 62
7
  6
CONTINUOUS
 10
133.7098847675
 20
183.9060783788
 11
133.7098847675
 21
186.036372026
  0
LINE
  5
35A
100
AcDbEntity
  8
0
100
AcDbLine
 62
7
  6
CONTINUOUS
 10
133.7098847675
 20
186.6450272726
 11
133.7098847675
 21
188.1666656733
  0
LINE
  5
35B
100
AcDbEntity
  8
0
100
AcDbLine
 62
7
  6
CONTINUOUS
 10
134.0149056225
 20
122.9566628484
 11
134.0149056225
 21
122.2778403385
  0
LINE
  5
35C
100
AcDbEntity
  8
0
100
AcDbLine
 62
7
  6
CONTINUOUS
 10
134.0149056225
 20
121.6838706423
 11
134.0149056225
 21
117.4412299552
  0
LINE
  5
35D
100
AcDbEntity
  8
0
100
AcDbLine
 62
7
  6
CONTINUOUS
 10
134.9749056225
 20
118.1483367364
 11
134.9749056225
 21
121.6838706423
  0
LINE
  5
35E
100
AcDbEntity
  8
0
100
AcDbLine
 62
7
  6
CONTINUOUS
 10
136.3101449689
 20
187.5580104267
 11
136.3101449689
 21
187.2536825192
  0
LINE
  5
35F
100
AcDbEntity
  8
0
100
AcDbLine
 62
7
  6
CONTINUOUS
 10
136.6622366957
 20
351.3773048183
 11
136.6622366957
 21
214.3773048183
  0
LINE
  5
360
100
AcDbEntity
  8
0
100
AcDbLine
 62
7
  6
CONTINUOUS
 10
136.9342074053
 20
187.1522399781
 11
136.9342074053
 21
187.5580104267
  0
LINE
  5
361
100
AcDbEntity
  8
0
100
AcDbLine
 62
7
  6
CONTINUOUS
 10
137.8703010599
 20
187.050797437
 11
137.8703010599
 21
185.5291591784
  0
LINE
  5
362
100
AcDbEntity
  8
0
100
AcDbLine
 62
7
  6
CONTINUOUS
 10
117.070740229
 20
184.6161762375
 11
117.2693989412
 21
185.0219464729
  0
LINE
  5
363
100
AcDbEntity
  8
0
100
AcDbLine
 62
7
  6
CONTINUOUS
 10
111.9056239412
 20
185.123389014
 11
111.7069657973
 21
184.8190613907
  0
LINE
  5
364
100
AcDbEntity
  8
0
100
AcDbLine
 62
7
  6
CONTINUOUS
 10
116.6734239412
 20
185.123389014
 11
116.474765229
 21
184.8190613907
  0
LINE
  5
365
100
AcDbEntity
  8
0
100
AcDbLine
 62
7
  6
CONTINUOUS
 10
107.7337989412
 20
186.4421421904
 11
108.0317864412
 21
186.8479123548
  0
LINE
  5
366
100
AcDbEntity
  8
0
100
AcDbLine
 62
7
  6
CONTINUOUS
 10
107.4358114412
 20
186.9493548959
 11
107.2371530131
 21
186.7464698137
  0
LINE
  5
367
100
AcDbEntity
  8
0
100
AcDbLine
 62
7
  6
CONTINUOUS
 10
111.9056239412
 20
184.2104060376
 11
112.3029407973
 21
184.6161762375
  0
LINE
  5
368
100
AcDbEntity
  8
0
100
AcDbLine
 62
7
  6
CONTINUOUS
 10
147.5432688245
 20
187.86233805
 11
147.959310052
 21
187.2536825192
  0
LINE
  5
369
100
AcDbEntity
  8
0
100
AcDbLine
 62
7
  6
CONTINUOUS
 10
145.0470190788
 20
185.0219464729
 11
145.2550402877
 21
184.6161762375
  0
LINE
  5
36A
100
AcDbEntity
  8
0
100
AcDbLine
 62
7
  6
CONTINUOUS
 10
148.3753524698
 20
187.5580104267
 11
148.1673312609
 21
187.9637805911
  0
LINE
  5
36B
100
AcDbEntity
  8
0
100
AcDbLine
 62
7
  6
CONTINUOUS
 10
141.1986338558
 20
187.7608955089
 11
141.3026444602
 21
187.4565676014
  0
LINE
  5
36C
100
AcDbEntity
  8
0
100
AcDbLine
 62
7
  6
CONTINUOUS
 10
144.9430090695
 20
185.3262740962
 11
145.0470190788
 21
185.0219464729
  0
LINE
  5
36D
100
AcDbEntity
  8
0
100
AcDbLine
 62
7
  6
CONTINUOUS
 10
138.5983741008
 20
185.123389014
 11
138.4943634963
 21
185.5291591784
  0
LINE
  5
36E
100
AcDbEntity
  8
0
100
AcDbLine
 62
7
  6
CONTINUOUS
 10
137.8703010599
 20
185.5291591784
 11
137.9743116644
 21
185.0219464729
  0
LINE
  5
36F
100
AcDbEntity
  8
0
100
AcDbLine
 62
7
  6
CONTINUOUS
 10
141.9267068967
 20
187.4565676014
 11
141.8226968874
 21
187.9637805911
  0
LINE
  5
370
100
AcDbEntity
  8
0
100
AcDbLine
 62
7
  6
CONTINUOUS
 10
138.4943634963
 20
185.5291591784
 11
138.4943634963
 21
187.050797437
  0
LINE
  5
371
100
AcDbEntity
  8
0
100
AcDbLine
 62
7
  6
CONTINUOUS
 10
139.1075193754
 20
120.566641928
 11
139.1075193754
 21
120.2130885374
  0
LINE
  5
372
100
AcDbEntity
  8
0
100
AcDbLine
 62
7
  6
CONTINUOUS
 10
140.3665508056
 20
186.5435847315
 11
140.3665508056
 21
185.9349294849
  0
LINE
  5
373
100
AcDbEntity
  8
KONSTRUKTIONSELEMENTE
100
AcDbLine
 62
7
  6
CONTINUOUS
 10
140.4976969177
 20
165.0773048183
 11
140.4976969177
 21
169.2403048183
  0
LINE
  5
374
100
AcDbEntity
  8
0
100
AcDbLine
 62
7
  6
CONTINUOUS
 10
141.3026444602
 20
185.9349294849
 11
141.3026444602
 21
185.123389014
  0
LINE
  5
375
100
AcDbEntity
  8
0
100
AcDbLine
 62
7
  6
CONTINUOUS
 10
141.9267068967
 20
185.0219464729
 11
141.9267068967
 21
186.5435847315
  0
LINE
  5
376
100
AcDbEntity
  8
0
100
AcDbLine
 62
7
  6
CONTINUOUS
 10
142.758790542
 20
187.9637805911
 11
142.758790542
 21
187.1522399781
  0
LINE
  5
377
100
AcDbEntity
  8
0
100
AcDbLine
 62
7
  6
CONTINUOUS
 10
143.3828529784
 20
187.86233805
 11
143.3828529784
 21
183.9060783788
  0
LINE
  5
378
100
AcDbEntity
  8
0
100
AcDbLine
 62
7
  6
CONTINUOUS
 10
144.0069154149
 20
183.9060783788
 11
144.0069154149
 21
188.6738783788
  0
LINE
  5
379
100
AcDbEntity
  8
0
100
AcDbLine
 62
7
  6
CONTINUOUS
 10
144.8389978699
 20
186.7464698137
 11
144.8389978699
 21
185.8334869438
  0
LINE
  5
37A
100
AcDbEntity
  8
0
100
AcDbLine
 62
7
  6
CONTINUOUS
 10
145.359050297
 20
185.9349294849
 11
145.359050297
 21
186.6450272726
  0
LINE
  5
37B
100
AcDbEntity
  8
0
100
AcDbLine
 62
7
  6
CONTINUOUS
 10
148.0633212516
 20
186.6450272726
 11
148.0633212516
 21
185.9349294849
  0
LINE
  5
37C
100
AcDbEntity
  8
0
100
AcDbLine
 62
7
  6
CONTINUOUS
 10
137.9743116644
 20
187.5580104267
 11
137.8703010599
 21
187.050797437
  0
LINE
  5
37D
100
AcDbEntity
  8
0
100
AcDbLine
 62
7
  6
CONTINUOUS
 10
138.4943634963
 20
187.050797437
 11
138.5983741008
 21
187.4565676014
  0
LINE
  5
37E
100
AcDbEntity
  8
0
100
AcDbLine
 62
7
  6
CONTINUOUS
 10
136.3101449689
 20
187.2536825192
 11
136.206134662
 21
186.9493548959
  0
LINE
  5
37F
100
AcDbEntity
  8
0
100
AcDbLine
 62
7
  6
CONTINUOUS
 10
136.8301968008
 20
186.8479123548
 11
136.9342074053
 21
187.1522399781
  0
LINE
  5
380
100
AcDbEntity
  8
0
100
AcDbLine
 62
7
  6
CONTINUOUS
 10
116.6734239412
 20
184.2104060376
 11
117.070740229
 21
184.6161762375
  0
LINE
  5
381
100
AcDbEntity
  8
0
100
AcDbLine
 62
7
  6
CONTINUOUS
 10
111.7069657973
 20
184.8190613907
 11
111.4089782973
 21
184.6161762375
  0
LINE
  5
382
100
AcDbEntity
  8
0
100
AcDbLine
 62
7
  6
CONTINUOUS
 10
116.474765229
 20
184.8190613907
 11
116.176777729
 21
184.6161762375
  0
LINE
  5
383
100
AcDbEntity
  8
0
100
AcDbLine
 62
7
  6
CONTINUOUS
 10
107.3364823693
 20
186.2392571082
 11
107.7337989412
 21
186.4421421904
  0
LINE
  5
384
100
AcDbEntity
  8
0
100
AcDbLine
 62
7
  6
CONTINUOUS
 10
111.5083070851
 20
184.0075209287
 11
111.9056239412
 21
184.2104060376
  0
LINE
  5
385
100
AcDbEntity
  8
0
100
AcDbLine
 62
7
  6
CONTINUOUS
 10
107.2371530131
 20
186.7464698137
 11
106.9391655131
 21
186.6450272726
  0
LINE
  5
386
100
AcDbEntity
  8
0
100
AcDbLine
 62
7
  6
CONTINUOUS
 10
148.4793624791
 20
187.2536825192
 11
148.3753524698
 21
187.5580104267
  0
LINE
  5
387
100
AcDbEntity
  8
0
100
AcDbLine
 62
7
  6
CONTINUOUS
 10
144.8389978699
 20
185.8334869438
 11
144.9430090695
 21
185.3262740962
  0
LINE
  5
388
100
AcDbEntity
  8
0
100
AcDbLine
 62
7
  6
CONTINUOUS
 10
148.5833724884
 20
186.7464698137
 11
148.4793624791
 21
187.2536825192
  0
LINE
  5
389
100
AcDbEntity
  8
0
100
AcDbLine
 62
7
  6
CONTINUOUS
 10
147.959310052
 20
187.2536825192
 11
148.0633212516
 21
186.6450272726
  0
LINE
  5
38A
100
AcDbEntity
  8
0
100
AcDbLine
 62
7
  6
CONTINUOUS
 10
145.4630603063
 20
185.3262740962
 11
145.359050297
 21
185.9349294849
  0
LINE
  5
38B
100
AcDbEntity
  8
0
100
AcDbLine
 62
7
  6
CONTINUOUS
 10
148.5833724884
 20
185.8334869438
 11
148.5833724884
 21
186.7464698137
  0
LINE
  5
38C
100
AcDbEntity
  8
RUNDUNGEN
100
AcDbLine
 62
7
  6
CONTINUOUS
 10
151.8122366957
 20
72.8935027404
 11
151.8122366957
 21
68.2973086627
  0
LINE
  5
38D
100
AcDbEntity
  8
RUNDUNGEN
100
AcDbLine
 62
7
  6
CONTINUOUS
 10
154.1622366957
 20
155.3750548183
 11
154.1622366957
 21
188.3773048183
  0
LINE
  5
38E
100
AcDbEntity
  8
0
100
AcDbLine
 62
7
  6
CONTINUOUS
 10
155.9216588813
 20
182.2718014828
 11
155.9216588813
 21
192.6570192738
  0
LINE
  5
38F
100
AcDbEntity
  8
0
100
AcDbLine
 62
7
  6
CONTINUOUS
 10
145.359050297
 20
186.6450272726
 11
145.4630603063
 21
187.2536825192
  0
LINE
  5
390
100
AcDbEntity
  8
0
100
AcDbLine
 62
7
  6
CONTINUOUS
 10
148.0633212516
 20
185.9349294849
 11
147.959310052
 21
185.3262740962
  0
LINE
  5
391
100
AcDbEntity
  8
0
100
AcDbLine
 62
7
  6
CONTINUOUS
 10
144.9430090695
 20
187.2536825192
 11
144.8389978699
 21
186.7464698137
  0
LINE
  5
392
100
AcDbEntity
  8
0
100
AcDbLine
 62
7
  6
CONTINUOUS
 10
148.4793624791
 20
185.3262740962
 11
148.5833724884
 21
185.8334869438
  0
LINE
  5
393
100
AcDbEntity
  8
0
100
AcDbLine
 62
7
  6
CONTINUOUS
 10
141.8226968874
 20
184.6161762375
 11
141.9267068967
 21
185.0219464729
  0
LINE
  5
394
100
AcDbEntity
  8
0
100
AcDbLine
 62
7
  6
CONTINUOUS
 10
141.3026444602
 20
185.123389014
 11
141.1986338558
 21
184.8190613907
  0
LINE
  5
395
100
AcDbEntity
  8
0
100
AcDbLine
 62
7
  6
CONTINUOUS
 10
145.0470190788
 20
187.5580104267
 11
144.9430090695
 21
187.2536825192
  0
LINE
  5
396
100
AcDbEntity
  8
0
100
AcDbLine
 62
7
  6
CONTINUOUS
 10
148.3753524698
 20
185.0219464729
 11
148.4793624791
 21
185.3262740962
  0
LINE
  5
397
100
AcDbEntity
  8
0
100
AcDbLine
 62
7
  6
CONTINUOUS
 10
138.1823322781
 20
187.9637805911
 11
137.9743116644
 21
187.5580104267
  0
LINE
  5
398
100
AcDbEntity
  8
0
100
AcDbLine
 62
7
  6
CONTINUOUS
 10
145.2550402877
 20
187.9637805911
 11
145.0470190788
 21
187.5580104267
  0
LINE
  5
399
100
AcDbEntity
  8
0
100
AcDbLine
 62
7
  6
CONTINUOUS
 10
138.5983741008
 20
187.4565676014
 11
138.8063947145
 21
187.7608955089
  0
LINE
  5
39A
100
AcDbEntity
  8
0
100
AcDbLine
 62
7
  6
CONTINUOUS
 10
145.4630603063
 20
187.2536825192
 11
145.8791027241
 21
187.86233805
  0
LINE
  5
39B
100
AcDbEntity
  8
0
100
AcDbLine
 62
7
  6
CONTINUOUS
 10
136.5181658802
 20
186.4421421904
 11
136.8301968008
 21
186.8479123548
  0
LINE
  5
39C
100
AcDbEntity
  8
0
100
AcDbLine
 62
7
  6
CONTINUOUS
 10
143.3828529784
 20
188.6738783788
 11
142.758790542
 21
187.9637805911
  0
LINE
  5
39D
100
AcDbEntity
  8
0
100
AcDbLine
 62
7
  6
CONTINUOUS
 10
142.758790542
 20
187.1522399781
 11
143.3828529784
 21
187.86233805
  0
LINE
  5
39E
100
AcDbEntity
  8
0
100
AcDbLine
 62
7
  6
CONTINUOUS
 10
136.206134662
 20
186.9493548959
 11
135.9981137506
 21
186.7464698137
  0
LINE
  5
39F
100
AcDbEntity
  8
0
100
AcDbLine
 62
7
  6
CONTINUOUS
 10
138.5983741008
 20
188.3695507555
 11
138.1823322781
 21
187.9637805911
  0
LINE
  5
3A0
100
AcDbEntity
  8
0
100
AcDbLine
 62
7
  6
CONTINUOUS
 10
138.8063947145
 20
187.7608955089
 11
139.1184259328
 21
187.9637805911
  0
LINE
  5
3A1
100
AcDbEntity
  8
0
100
AcDbLine
 62
7
  6
CONTINUOUS
 10
116.2761076535
 20
184.0075209287
 11
116.6734239412
 21
184.2104060376
  0
LINE
  5
3A2
100
AcDbEntity
  8
0
100
AcDbLine
 62
7
  6
CONTINUOUS
 10
139.0144153283
 20
188.5724358377
 11
138.5983741008
 21
188.3695507555
  0
LINE
  5
3A3
100
AcDbEntity
  8
0
100
AcDbLine
 62
7
  6
CONTINUOUS
 10
136.1021240575
 20
186.2392571082
 11
136.5181658802
 21
186.4421421904
  0
LINE
  5
3A4
100
AcDbEntity
  8
0
100
AcDbLine
 62
7
  6
CONTINUOUS
 10
135.9981137506
 20
186.7464698137
 11
135.6860825324
 21
186.6450272726
  0
LINE
  5
3A5
100
AcDbEntity
  8
0
100
AcDbLine
 62
7
  6
CONTINUOUS
 10
114.6622366957
 20
242.1204347904
 11
108.1919511512
 21
240.3867270039
  0
LINE
  5
3A6
100
AcDbEntity
  8
0
100
AcDbLine
 62
7
  6
CONTINUOUS
 10
143.1325222401
 20
240.3867270039
 11
136.6622366957
 21
242.1204347904
  0
LINE
  5
3A7
100
AcDbEntity
  8
0
100
AcDbLine
 62
7
  6
CONTINUOUS
 10
155.9216588813
 20
227.5975903627
 11
143.1325222401
 21
240.3867270039
  0
LINE
  5
3A8
100
AcDbEntity
  8
0
100
AcDbLine
 62
7
  6
CONTINUOUS
 10
160.6028077845
 20
210.1273048183
 11
155.9216588813
 21
227.5975903627
  0
LINE
  5
3A9
100
AcDbEntity
  8
RUNDUNGEN
100
AcDbLine
 62
7
  6
CONTINUOUS
 10
159.6622366957
 20
71.4792891781
 11
159.6622366957
 21
80.9711413373
  0
LINE
  5
3AA
100
AcDbEntity
  8
0
100
AcDbLine
 62
7
  6
CONTINUOUS
 10
155.9216588813
 20
182.2718014828
 11
154.1622366957
 21
174.6509067329
  0
LINE
  5
3AB
100
AcDbEntity
  8
0
100
AcDbLine
 62
7
  6
CONTINUOUS
 10
155.9216588813
 20
192.6570192738
 11
160.6028077845
 21
210.1273048183
  0
LINE
  5
3AC
100
AcDbEntity
  8
0
100
AcDbLine
 62
7
  6
CONTINUOUS
 10
148.1673312609
 20
184.6161762375
 11
148.3753524698
 21
185.0219464729
  0
LINE
  5
3AD
100
AcDbEntity
  8
0
100
AcDbLine
 62
7
  6
CONTINUOUS
 10
147.959310052
 20
185.3262740962
 11
147.5432688245
 21
184.7176187786
  0
LINE
  5
3AE
100
AcDbEntity
  8
0
100
AcDbLine
 62
7
  6
CONTINUOUS
 10
145.5670715059
 20
188.2681082144
 11
145.2550402877
 21
187.9637805911
  0
LINE
  5
3AF
100
AcDbEntity
  8
0
100
AcDbLine
 62
7
  6
CONTINUOUS
 10
141.4066550647
 20
184.2104060376
 11
141.8226968874
 21
184.6161762375
  0
LINE
  5
3B0
100
AcDbEntity
  8
0
100
AcDbLine
 62
7
  6
CONTINUOUS
 10
147.8553000427
 20
184.3118485787
 11
148.1673312609
 21
184.6161762375
  0
LINE
  5
3B1
100
AcDbEntity
  8
0
100
AcDbLine
 62
7
  6
CONTINUOUS
 10
141.1986338558
 20
184.8190613907
 11
140.8866026376
 21
184.6161762375
  0
LINE
  5
3B2
100
AcDbEntity
  8
0
100
AcDbLine
 62
7
  6
CONTINUOUS
 10
145.8791027241
 20
187.86233805
 11
146.1911339423
 21
188.0652231322
  0
LINE
  5
3B3
100
AcDbEntity
  8
0
100
AcDbLine
 62
7
  6
CONTINUOUS
 10
147.5432688245
 20
184.7176187786
 11
147.2312376063
 21
184.5147336964
  0
LINE
  5
3B4
100
AcDbEntity
  8
0
100
AcDbLine
 62
7
  6
CONTINUOUS
 10
146.0871227427
 20
188.5724358377
 11
145.5670715059
 21
188.2681082144
  0
LINE
  5
3B5
100
AcDbEntity
  8
0
100
AcDbLine
 62
7
  6
CONTINUOUS
 10
147.3352476156
 20
184.0075209287
 11
147.8553000427
 21
184.3118485787
  0
LINE
  5
3B6
100
AcDbEntity
  8
0
100
AcDbLine
 62
7
  6
CONTINUOUS
 10
140.990613242
 20
184.0075209287
 11
141.4066550647
 21
184.2104060376
  0
LINE
  5
3B7
100
AcDbEntity
  8
RUNDUNGEN
100
AcDbLine
 62
7
  6
CONTINUOUS
 10
169.9561848605
 20
133.2941102266
 11
169.9561848605
 21
136.8296441325
  0
LINE
  5
3B8
100
AcDbEntity
  8
RUNDUNGEN
100
AcDbLine
 62
7
  6
CONTINUOUS
 10
85.6941080756
 20
139.523595125
 11
84.8749560313
 21
139.1180153374
  0
LINE
  5
3B9
100
AcDbEntity
  8
RUNDUNGEN
100
AcDbLine
 62
7
  6
CONTINUOUS
 10
149.5482366957
 20
147.8773048183
 11
154.1622366957
 21
155.3750548183
  0
LINE
  5
3BA
100
AcDbEntity
  8
RUNDUNGEN
100
AcDbLine
 62
7
  6
CONTINUOUS
 10
85.6941080756
 20
135.9880612191
 11
84.8749560313
 21
135.5824814314
  0
LINE
  5
3BB
100
AcDbEntity
  8
RUNDUNGEN
100
AcDbLine
 62
7
  6
CONTINUOUS
 10
91.5938728533
 20
129.4137637065
 11
88.3172646762
 21
127.7914445558
  0
LINE
  5
3BC
100
AcDbEntity
  8
RUNDUNGEN
100
AcDbLine
 62
7
  6
CONTINUOUS
 10
107.430152641
 20
98.0091703261
 11
92.5664764742
 21
82.9990402756
  0
LINE
  5
3BD
100
AcDbEntity
  8
RUNDUNGEN
100
AcDbLine
 62
7
  6
CONTINUOUS
 10
107.430152641
 20
94.4736364202
 11
92.5664764742
 21
79.4635063697
  0
LINE
  5
3BE
100
AcDbEntity
  8
RUNDUNGEN
100
AcDbLine
 62
7
  6
CONTINUOUS
 10
117.0585901504
 20
137.4373476578
 11
112.962829929
 21
135.4094487194
  0
LINE
  5
3BF
100
AcDbEntity
  8
RUNDUNGEN
100
AcDbLine
 62
7
  6
CONTINUOUS
 10
93.8235984652
 20
125.7663899945
 11
96.7988552011
 21
127.239503568
  0
LINE
  5
3C0
100
AcDbEntity
  8
RUNDUNGEN
100
AcDbLine
 62
7
  6
CONTINUOUS
 10
117.0585901504
 20
133.9018137518
 11
112.962829929
 21
131.8739148135
  0
LINE
  5
3C1
100
AcDbEntity
  8
RUNDUNGEN
100
AcDbLine
 62
7
  6
CONTINUOUS
 10
93.8235984652
 20
122.2308560886
 11
97.1002066423
 21
123.8531752393
  0
LINE
  5
3C2
100
AcDbEntity
  8
RUNDUNGEN
100
AcDbLine
 62
7
  6
CONTINUOUS
 10
152.0423326287
 20
132.9519353488
 11
160.0189188043
 21
141.0071159455
  0
LINE
  5
3C3
100
AcDbEntity
  8
RUNDUNGEN
100
AcDbLine
 62
7
  6
CONTINUOUS
 10
152.0423326287
 20
129.4164014429
 11
160.0189188043
 21
137.4715820396
  0
LINE
  5
3C4
100
AcDbEntity
  8
RUNDUNGEN
100
AcDbLine
 62
7
  6
CONTINUOUS
 10
115.470030825
 20
77.9366716139
 11
120.7473244299
 21
83.2659631322
  0
LINE
  5
3C5
100
AcDbEntity
  8
RUNDUNGEN
100
AcDbLine
 62
7
  6
CONTINUOUS
 10
143.8943207504
 20
106.6410300504
 11
169.6849129269
 21
132.6857405451
  0
ARC
  5
3C6
100
AcDbEntity
  8
KONSTRUKTIONSELEMENTE
100
AcDbCircle
 62
7
  6
CONTINUOUS
 10
364.8656409047
 20
135.8613616051
 40
9.55
100
AcDbArc
 50
135.0
 51
209.765603909
  0
ARC
  5
3C7
100
AcDbEntity
  8
KONSTRUKTIONSELEMENTE
100
AcDbCircle
 62
7
  6
CONTINUOUS
 10
364.8656409047
 20
135.8613616051
 40
9.55
100
AcDbArc
 50
240.234041784
 51
315.0
  0
ARC
  5
3C8
100
AcDbEntity
  8
KONSTRUKTIONSELEMENTE
100
AcDbCircle
 62
7
  6
CONTINUOUS
 10
373.2802116008
 20
144.2759323012
 40
9.55
100
AcDbArc
 50
315.0
 51
31.3702929546
  0
ARC
  5
3C9
100
AcDbEntity
  8
KONSTRUKTIONSELEMENTE
100
AcDbCircle
 62
7
  6
CONTINUOUS
 10
373.2802116008
 20
144.2759323012
 40
9.55
100
AcDbArc
 50
58.6297070454
 51
135.0
  0
ARC
  5
3CA
100
AcDbEntity
  8
KONSTRUKTIONSELEMENTE
100
AcDbCircle
 62
7
  6
CONTINUOUS
 10
364.8656409047
 20
135.8613616051
 40
4.55
100
AcDbArc
 50
135.0
 51
191.6416672297
  0
ARC
  5
3CB
100
AcDbEntity
  8
KONSTRUKTIONSELEMENTE
100
AcDbCircle
 62
7
  6
CONTINUOUS
 10
364.8656409047
 20
135.8613616051
 40
4.55
100
AcDbArc
 50
258.3583327703
 51
315.0
  0
ARC
  5
3CC
100
AcDbEntity
  8
KONSTRUKTIONSELEMENTE
100
AcDbCircle
 62
7
  6
CONTINUOUS
 10
373.2802116008
 20
144.2759323012
 40
4.55
100
AcDbArc
 50
315.0
 51
15.3477978529
  0
ARC
  5
3CD
100
AcDbEntity
  8
KONSTRUKTIONSELEMENTE
100
AcDbCircle
 62
7
  6
CONTINUOUS
 10
373.2802116008
 20
144.2759323012
 40
4.55
100
AcDbArc
 50
74.6522021471
 51
135.0
  0
ARC
  5
3CE
100
AcDbEntity
  8
KONSTRUKTIONSELEMENTE
100
AcDbCircle
 62
7
  6
CONTINUOUS
 10
374.5530038069
 20
145.5487245074
 40
2.25
100
AcDbArc
 50
135.0
 51
315.0
  0
ARC
  5
3CF
100
AcDbEntity
  8
KONSTRUKTIONSELEMENTE
100
AcDbCircle
 62
7
  6
CONTINUOUS
 10
394.1752169849
 20
165.1709376853
 40
8.0
100
AcDbArc
 50
135.0
 51
208.6357041722
  0
ARC
  5
3D0
100
AcDbEntity
  8
KONSTRUKTIONSELEMENTE
100
AcDbCircle
 62
7
  6
CONTINUOUS
 10
394.1752169849
 20
165.1709376853
 40
8.0
100
AcDbArc
 50
241.3642958278
 51
315.0
  0
ARC
  5
3D1
100
AcDbEntity
  8
KONSTRUKTIONSELEMENTE
100
AcDbCircle
 62
7
  6
CONTINUOUS
 10
394.1752169849
 20
165.1709376853
 40
3.5
100
AcDbArc
 50
135.0
 51
184.8461224921
  0
ARC
  5
3D2
100
AcDbEntity
  8
KONSTRUKTIONSELEMENTE
100
AcDbCircle
 62
7
  6
CONTINUOUS
 10
394.1752169849
 20
165.1709376853
 40
3.5
100
AcDbArc
 50
265.1538775079
 51
315.0
  0
ARC
  5
3D3
100
AcDbEntity
  8
KONSTRUKTIONSELEMENTE
100
AcDbCircle
 62
7
  6
CONTINUOUS
 10
393.2913335084
 20
164.2870542088
 40
2.25
100
AcDbArc
 50
315.0
 51
135.0
  0
ARC
  5
3D4
100
AcDbEntity
  8
KONSTRUKTIONSELEMENTE
100
AcDbCircle
 62
7
  6
CONTINUOUS
 10
426.0303774773
 20
197.0260981777
 40
9.55
100
AcDbArc
 50
135.0
 51
211.3702929546
  0
ARC
  5
3D5
100
AcDbEntity
  8
KONSTRUKTIONSELEMENTE
100
AcDbCircle
 62
7
  6
CONTINUOUS
 10
426.0303774773
 20
197.0260981777
 40
9.55
100
AcDbArc
 50
238.6297070454
 51
315.0
  0
ARC
  5
3D6
100
AcDbEntity
  8
KONSTRUKTIONSELEMENTE
100
AcDbCircle
 62
7
  6
CONTINUOUS
 10
404.7818187027
 20
175.7775394031
 40
8.0
100
AcDbArc
 50
315.0
 51
28.6357041722
  0
ARC
  5
3D7
100
AcDbEntity
  8
KONSTRUKTIONSELEMENTE
100
AcDbCircle
 62
7
  6
CONTINUOUS
 10
404.7818187027
 20
175.7775394031
 40
8.0
100
AcDbArc
 50
61.3642958278
 51
135.0
  0
ARC
  5
3D8
100
AcDbEntity
  8
KONSTRUKTIONSELEMENTE
100
AcDbCircle
 62
7
  6
CONTINUOUS
 10
426.0303774773
 20
197.0260981777
 40
4.55
100
AcDbArc
 50
135.0
 51
195.3477978529
  0
ARC
  5
3D9
100
AcDbEntity
  8
KONSTRUKTIONSELEMENTE
100
AcDbCircle
 62
7
  6
CONTINUOUS
 10
426.0303774773
 20
197.0260981777
 40
4.55
100
AcDbArc
 50
254.6522021471
 51
315.0
  0
ARC
  5
3DA
100
AcDbEntity
  8
KONSTRUKTIONSELEMENTE
100
AcDbCircle
 62
7
  6
CONTINUOUS
 10
404.7818187027
 20
175.7775394031
 40
3.5
100
AcDbArc
 50
315.0
 51
4.8461224921
  0
ARC
  5
3DB
100
AcDbEntity
  8
KONSTRUKTIONSELEMENTE
100
AcDbCircle
 62
7
  6
CONTINUOUS
 10
404.7818187027
 20
175.7775394031
 40
3.5
100
AcDbArc
 50
85.1538775079
 51
135.0
  0
ARC
  5
3DC
100
AcDbEntity
  8
KONSTRUKTIONSELEMENTE
100
AcDbCircle
 62
7
  6
CONTINUOUS
 10
424.4040318806
 20
195.399752581
 40
2.25
100
AcDbArc
 50
315.0
 51
135.0
  0
ARC
  5
3DD
100
AcDbEntity
  8
KONSTRUKTIONSELEMENTE
100
AcDbCircle
 62
7
  6
CONTINUOUS
 10
405.6657021792
 20
176.6614228796
 40
2.25
100
AcDbArc
 50
135.0
 51
315.0
  0
ARC
  5
3DE
100
AcDbEntity
  8
RUNDUNGEN
100
AcDbCircle
 62
7
  6
CONTINUOUS
 10
480.2815841179
 20
161.8773048183
 40
14.0
100
AcDbArc
 50
270.0
 51
360.0
  0
ARC
  5
3DF
100
AcDbEntity
  8
0
100
AcDbCircle
 62
7
  6
CONTINUOUS
 10
478.4815841179
 20
161.8773048183
 40
14.0
100
AcDbArc
 50
180.0
 51
270.0
  0
ARC
  5
3E0
100
AcDbEntity
  8
RUNDUNGEN
100
AcDbCircle
 62
7
  6
CONTINUOUS
 10
480.396169394
 20
161.1980541796
 40
13.3111588225
100
AcDbArc
 50
279.3184628496
 51
283.0949802542
  0
ARC
  5
3E1
100
AcDbEntity
  8
RUNDUNGEN
100
AcDbCircle
 62
7
  6
CONTINUOUS
 10
480.5202261598
 20
160.661187319
 40
12.7601457272
100
AcDbArc
 50
283.0985948427
 51
286.0825768171
  0
ARC
  5
3E2
100
AcDbEntity
  8
RUNDUNGEN
100
AcDbCircle
 62
7
  6
CONTINUOUS
 10
480.6108293674
 20
160.3391230648
 40
12.4255870237
100
AcDbArc
 50
286.0925447849
 51
286.7730624488
  0
ARC
  5
3E3
100
AcDbEntity
  8
KONSTRUKTIONSELEMENTE
100
AcDbCircle
 62
7
  6
CONTINUOUS
 10
434.4449481735
 20
205.4406688739
 40
9.55
100
AcDbArc
 50
315.0
 51
26.6609039942
  0
ARC
  5
3E4
100
AcDbEntity
  8
KONSTRUKTIONSELEMENTE
100
AcDbCircle
 62
7
  6
CONTINUOUS
 10
434.4449481735
 20
205.4406688739
 40
9.55
100
AcDbArc
 50
63.3390960058
 51
135.0
  0
CIRCLE
  5
3E5
100
AcDbEntity
  8
BEZUGSACHSEN
100
AcDbCircle
 62
7
  6
CONTINUOUS
 10
479.3815841179
 20
165.3773048183
 40
7.11325
  0
ARC
  5
3E6
100
AcDbEntity
  8
KONSTRUKTIONSELEMENTE
100
AcDbCircle
 62
7
  6
CONTINUOUS
 10
434.4449481735
 20
205.4406688739
 40
4.55
100
AcDbArc
 50
315.0
 51
3.7275989874
  0
ARC
  5
3E7
100
AcDbEntity
  8
KONSTRUKTIONSELEMENTE
100
AcDbCircle
 62
7
  6
CONTINUOUS
 10
434.4449481735
 20
205.4406688739
 40
4.55
100
AcDbArc
 50
86.2724010126
 51
135.0
  0
ARC
  5
3E8
100
AcDbEntity
  8
0
100
AcDbCircle
 62
7
  6
CONTINUOUS
 10
472.3815841179
 20
190.3773048183
 40
4.5
100
AcDbArc
 50
100.6460472925
 51
180.0
  0
ARC
  5
3E9
100
AcDbEntity
  8
RUNDUNGEN
100
AcDbCircle
 62
7
  6
CONTINUOUS
 10
486.3815841179
 20
190.3773048183
 40
4.5
100
AcDbArc
 50
0.0
 51
79.3539527075
  0
ARC
  5
3EA
100
AcDbEntity
  8
KONSTRUKTIONSELEMENTE
100
AcDbCircle
 62
7
  6
CONTINUOUS
 10
434.8338569031
 20
205.8295776035
 40
3.0
100
AcDbArc
 50
135.0
 51
315.0
  0
ARC
  5
3EB
100
AcDbEntity
  8
RUNDUNGEN
100
AcDbCircle
 62
7
  6
CONTINUOUS
 10
487.5493006574
 20
192.7208963568
 40
2.1137820273
100
AcDbArc
 50
120.5946035821
 51
123.533879228
  0
ARC
  5
3EC
100
AcDbEntity
  8
0
100
AcDbCircle
 62
7
  6
CONTINUOUS
 10
471.2138675783
 20
192.7208963568
 40
2.1137820273
100
AcDbArc
 50
56.466120772
 51
59.4053964179
  0
ARC
  5
3ED
100
AcDbEntity
  8
0
100
AcDbCircle
 62
7
  6
CONTINUOUS
 10
479.3815841179
 20
250.3773048183
 40
47.0
100
AcDbArc
 50
279.8038890157
 51
360.0
  0
ARC
  5
3EE
100
AcDbEntity
  8
0
100
AcDbCircle
 62
7
  6
CONTINUOUS
 10
479.3815841179
 20
250.3773048183
 40
47.0
100
AcDbArc
 50
228.6614522173
 51
260.1961109843
  0
ARC
  5
3EF
100
AcDbEntity
  8
0
100
AcDbCircle
 62
7
  6
CONTINUOUS
 10
479.3815841179
 20
250.3773048183
 40
47.0
100
AcDbArc
 50
180.0
 51
221.3385477827
  0
ARC
  5
3F0
100
AcDbEntity
  8
0
100
AcDbCircle
 62
7
  6
CONTINUOUS
 10
479.3815841179
 20
315.3773048183
 40
47.0
100
AcDbArc
 50
0.0
 51
180.0
  0
ARC
  5
3F1
100
AcDbEntity
  8
0
100
AcDbCircle
 62
7
  6
CONTINUOUS
 10
479.3815841179
 20
250.3773048183
 40
25.0
100
AcDbArc
 50
288.6689300215
 51
360.0
  0
ARC
  5
3F2
100
AcDbEntity
  8
0
100
AcDbCircle
 62
7
  6
CONTINUOUS
 10
479.3815841179
 20
250.3773048183
 40
25.0
100
AcDbArc
 50
231.895521053
 51
251.3310699785
  0
ARC
  5
3F3
100
AcDbEntity
  8
0
100
AcDbCircle
 62
7
  6
CONTINUOUS
 10
479.3815841179
 20
250.3773048183
 40
25.0
100
AcDbArc
 50
180.0
 51
218.104478947
  0
ARC
  5
3F4
100
AcDbEntity
  8
0
100
AcDbCircle
 62
7
  6
CONTINUOUS
 10
479.3815841179
 20
315.3773048183
 40
25.0
100
AcDbArc
 50
0.0
 51
180.0
  0
ARC
  5
3F5
100
AcDbEntity
  8
BEZUGSACHSEN
100
AcDbCircle
 62
7
  6
CONTINUOUS
 10
479.3815841179
 20
233.3773048183
 40
8.0
100
AcDbArc
 50
0.0
 51
27.5650942734
  0
ARC
  5
3F6
100
AcDbEntity
  8
BEZUGSACHSEN
100
AcDbCircle
 62
7
  6
CONTINUOUS
 10
479.3815841179
 20
233.3773048183
 40
8.0
100
AcDbArc
 50
152.4349057266
 51
180.0
  0
ARC
  5
3F7
100
AcDbEntity
  8
KONSTRUKTIONSELEMENTE
100
AcDbCircle
 62
7
  6
CONTINUOUS
 10
463.8252349318
 20
234.8209556322
 40
3.0
100
AcDbArc
 50
315.0
 51
135.0
  0
ARC
  5
3F8
100
AcDbEntity
  8
KONSTRUKTIONSELEMENTE
100
AcDbCircle
 62
7
  6
CONTINUOUS
 10
125.6622366957
 20
117.3881048183
 40
35.9892
100
AcDbArc
 50
57.8980709415
 51
79.9991254185
  0
ARC
  5
3F9
100
AcDbEntity
  8
KONSTRUKTIONSELEMENTE
100
AcDbCircle
 62
7
  6
CONTINUOUS
 10
125.6622366957
 20
117.3881048183
 40
35.9892
100
AcDbArc
 50
100.0008745815
 51
122.1019290585
  0
ARC
  5
3FA
100
AcDbEntity
  8
BEZUGSACHSEN
100
AcDbCircle
 62
7
  6
CONTINUOUS
 10
125.6622366957
 20
210.1273048183
 40
15.25
100
AcDbArc
 50
136.1992889705
 51
43.8007110295
  0
ARC
  5
3FB
100
AcDbEntity
  8
0
100
AcDbCircle
 62
7
  6
CONTINUOUS
 10
125.6622366957
 20
351.3773048183
 40
11.0
100
AcDbArc
 50
0.0
 51
180.0
  0
ARC
  5
3FC
100
AcDbEntity
  8
0
100
AcDbCircle
 62
7
  6
CONTINUOUS
 10
125.6622366957
 20
214.3773048183
 40
11.0
100
AcDbArc
 50
180.0
 51
360.0
  0
ARC
  5
3FD
100
AcDbEntity
  8
RUNDUNGEN
100
AcDbCircle
 62
7
  6
CONTINUOUS
 10
103.6622366957
 20
188.3773048183
 40
6.5
100
AcDbArc
 50
110.0629909694
 51
180.0
  0
ARC
  5
3FE
100
AcDbEntity
  8
RUNDUNGEN
100
AcDbCircle
 62
7
  6
CONTINUOUS
 10
147.6622366957
 20
188.3773048183
 40
6.5
100
AcDbArc
 50
0.0
 51
69.9370090306
  0
ARC
  5
3FF
100
AcDbEntity
  8
KONSTRUKTIONSELEMENTE
100
AcDbCircle
 62
7
  6
CONTINUOUS
 10
125.6622366957
 20
178.4273048183
 40
6.25
100
AcDbArc
 50
0.0
 51
180.0
  0
ARC
  5
400
100
AcDbEntity
  8
RUNDUNGEN
100
AcDbCircle
 62
7
  6
CONTINUOUS
 10
148.2879277061
 20
190.0906503752
 40
4.6759818436
100
AcDbArc
 50
69.9364356741
 51
72.1051908959
  0
ARC
  5
401
100
AcDbEntity
  8
RUNDUNGEN
100
AcDbCircle
 62
7
  6
CONTINUOUS
 10
103.0365456852
 20
190.0906503752
 40
4.6759818436
100
AcDbArc
 50
107.8948091041
 51
110.063564326
  0
ARC
  5
402
100
AcDbEntity
  8
KONSTRUKTIONSELEMENTE
100
AcDbCircle
 62
7
  6
CONTINUOUS
 10
125.6622366957
 20
128.8113616051
 40
2.5
100
AcDbArc
 50
180.0
 51
360.0
  0
ARC
  5
403
100
AcDbEntity
  8
KONSTRUKTIONSELEMENTE
100
AcDbCircle
 62
7
  6
CONTINUOUS
 10
125.6622366957
 20
151.3259323012
 40
2.5
100
AcDbArc
 50
0.0
 51
180.0
  0
CIRCLE
  5
404
100
AcDbEntity
  8
BEZUGSACHSEN
100
AcDbCircle
 62
7
  6
CONTINUOUS
 10
107.5622366957
 20
165.3773048183
 40
2.5
  0
ARC
  5
405
100
AcDbEntity
  8
KONSTRUKTIONSELEMENTE
100
AcDbCircle
 62
7
  6
CONTINUOUS
 10
125.6622366957
 20
159.4209376853
 40
2.25
100
AcDbArc
 50
209.2743903904
 51
330.7256096096
  0
ARC
  5
406
100
AcDbEntity
  8
KONSTRUKTIONSELEMENTE
100
AcDbCircle
 62
7
  6
CONTINUOUS
 10
125.6622366957
 20
181.5275394031
 40
2.25
100
AcDbArc
 50
0.0
 51
180.0
  0
ARC
  5
407
100
AcDbEntity
  8
0
100
AcDbCircle
 62
7
  6
CONTINUOUS
 10
138.1250194862
 20
120.5551719525
 40
2.1292118706
100
AcDbArc
 50
350.5636876715
 51
355.3957076166
  0
ARC
  5
408
100
AcDbEntity
  8
0
100
AcDbCircle
 62
7
  6
CONTINUOUS
 10
114.8247453976
 20
119.923408047
 40
0.416959771
100
AcDbArc
 50
78.8903114983
 51
89.9692795105
  0
LINE
  5
409
100
AcDbEntity
  8
0
100
AcDbLine
 62
7
  6
CONTINUOUS
 10
472.3815841179
 20
177.5605061981
 11
467.8815841179
 21
178.766277564
  0
SPLINE
  5
40A
100
AcDbEntity
  8
0
100
AcDbSpline
 62
7
  6
CONTINUOUS
 70
0
 71
3
 72
11
 73
7
 74
0
 42
0.0000001
 43
0.0000001
 44
0.0000000001
 40
0.0
 40
0.0
 40
0.0
 40
0.0
 40
0.161833372
 40
0.3784314992
 40
0.6572361095
 40
1.0
 40
1.0
 40
1.0
 40
1.0
 10
471.550248477
 20
194.7998471925
 30
0.0
 10
471.5924075672
 20
194.807772126
 30
0.0
 10
471.6947976044
 20
194.8028025243
 30
0.0
 10
471.8627447095
 20
194.755009712
 30
0.0
 10
472.0669476165
 20
194.6660631146
 30
0.0
 10
472.2114724527
 20
194.5866317527
 30
0.0
 10
472.2896988066
 20
194.5404187191
 30
0.0
  0
SPLINE
  5
40B
100
AcDbEntity
  8
0
100
AcDbSpline
 62
7
  6
CONTINUOUS
 70
0
 71
3
 72
11
 73
7
 74
0
 42
0.0000001
 43
0.0000001
 44
0.0000000001
 40
0.0
 40
0.0
 40
0.0
 40
0.0
 40
0.2505755997
 40
0.5000000009
 40
0.7494244022
 40
1.0
 40
1.0
 40
1.0
 40
1.0
 10
482.3033656331
 20
240.3867270039
 30
0.0
 10
482.5050142059
 20
239.3313599571
 30
0.0
 10
482.8175233608
 20
237.2067767178
 30
0.0
 10
482.9784016006
 20
233.9921586714
 30
0.0
 10
482.8175233641
 20
230.7775406326
 30
0.0
 10
482.5050142044
 20
228.6529574014
 30
0.0
 10
482.3033656331
 20
227.5975903627
 30
0.0
  0
LINE
  5
40C
100
AcDbEntity
  8
0
100
AcDbLine
 62
7
  6
CONTINUOUS
 10
464.4815841179
 20
172.8773048183
 11
468.9815841179
 21
171.6715334523
  0
SPLINE
  5
40D
100
AcDbEntity
  8
RUNDUNGEN
100
AcDbSpline
 62
7
  6
CONTINUOUS
 70
0
 71
3
 72
20
 73
16
 74
0
 42
0.0000001
 43
0.0000001
 44
0.0000000001
 40
0.0
 40
0.0
 40
0.0
 40
0.0
 40
0.1321914336
 40
0.2619814012
 40
0.3885490045
 40
0.5110516027
 40
0.6289250872
 40
0.6866691061
 40
0.7442876134
 40
0.773639457
 40
0.8036553112
 40
0.8345958089
 40
0.8665551653
 40
0.9325737164
 40
1.0
 40
1.0
 40
1.0
 40
1.0
 10
484.1966261736
 20
148.4421791654
 30
0.0
 10
484.6699390027
 20
148.5848432842
 30
0.0
 10
485.5922841496
 20
148.9242182482
 30
0.0
 10
486.8803101975
 20
149.6069979317
 30
0.0
 10
488.0179975059
 20
150.4639979489
 30
0.0
 10
488.939901663
 20
151.4931138501
 30
0.0
 10
489.453682997
 20
152.5082805
 30
0.0
 10
489.5994279604
 20
153.3753534987
 30
0.0
 10
489.5433122126
 20
153.9234043813
 30
0.0
 10
489.3862072275
 20
154.3342701009
 30
0.0
 10
489.2049479434
 20
154.6220536428
 30
0.0
 10
488.9611302192
 20
154.8731947825
 30
0.0
 10
488.5592246243
 20
155.1450434985
 30
0.0
 10
487.960336391
 20
155.3401481506
 30
0.0
 10
487.4598246016
 20
155.3750548183
 30
0.0
 10
487.2076757241
 20
155.3750548183
 30
0.0
  0
SPLINE
  5
40E
100
AcDbEntity
  8
0
100
AcDbSpline
 62
7
  6
CONTINUOUS
 70
0
 71
3
 72
11
 73
7
 74
0
 42
0.0000001
 43
0.0000001
 44
0.0000000001
 40
0.0
 40
0.0
 40
0.0
 40
0.0
 40
0.2574351421
 40
0.5000000008
 40
0.7425648595
 40
1.0
 40
1.0
 40
1.0
 40
1.0
 10
476.4598026026
 20
245.0678759071
 30
0.0
 10
476.2660369905
 20
244.6966858709
 30
0.0
 10
475.9533707333
 20
243.9377273066
 30
0.0
 10
475.7824911232
 20
242.7273014514
 30
0.0
 10
475.9533707303
 20
241.5168755975
 30
0.0
 10
476.2660369917
 20
240.7579170377
 30
0.0
 10
476.4598026026
 20
240.3867270039
 30
0.0
  0
SPLINE
  5
40F
100
AcDbEntity
  8
0
100
AcDbSpline
 62
7
  6
CONTINUOUS
 70
0
 71
3
 72
9
 73
5
 74
0
 42
0.0000001
 43
0.0000001
 44
0.0000000001
 40
0.0
 40
0.0
 40
0.0
 40
0.0
 40
0.2501237335
 40
1.0
 40
1.0
 40
1.0
 40
1.0
 10
476.4598026026
 20
210.1273048183
 30
0.0
 10
476.3717526473
 20
209.4978040094
 30
0.0
 10
476.0544591486
 20
206.9763684684
 30
0.0
 10
475.884984166
 20
204.4358690282
 30
0.0
 10
475.8490492303
 20
202.5305790141
 30
0.0
  0
SPLINE
  5
410
100
AcDbEntity
  8
0
100
AcDbSpline
 62
7
  6
CONTINUOUS
 70
0
 71
3
 72
11
 73
7
 74
0
 42
0.0000001
 43
0.0000001
 44
0.0000000001
 40
0.0
 40
0.0
 40
0.0
 40
0.0
 40
0.2500438599
 40
0.5000000009
 40
0.7499561421
 40
1.0
 40
1.0
 40
1.0
 40
1.0
 10
476.4598026026
 20
227.5975903627
 30
0.0
 10
476.2574626457
 20
226.1509892127
 30
0.0
 10
475.9450979958
 20
223.2442924978
 30
0.0
 10
475.7849258786
 20
218.8624475741
 30
0.0
 10
475.9450979924
 20
214.4806026613
 30
0.0
 10
476.2574626472
 20
211.5739059571
 30
0.0
 10
476.4598026026
 20
210.1273048183
 30
0.0
  0
SPLINE
  5
411
100
AcDbEntity
  8
0
100
AcDbSpline
 62
7
  6
CONTINUOUS
 70
0
 71
3
 72
11
 73
7
 74
0
 42
0.0000001
 43
0.0000001
 44
0.0000000001
 40
0.0
 40
0.0
 40
0.0
 40
0.0
 40
0.2505755997
 40
0.5000000009
 40
0.7494244022
 40
1.0
 40
1.0
 40
1.0
 40
1.0
 10
476.4598026026
 20
240.3867270039
 30
0.0
 10
476.2581540298
 20
239.3313599571
 30
0.0
 10
475.9456448749
 20
237.2067767178
 30
0.0
 10
475.7847666351
 20
233.9921586714
 30
0.0
 10
475.9456448716
 20
230.7775406326
 30
0.0
 10
476.2581540313
 20
228.6529574014
 30
0.0
 10
476.4598026026
 20
227.5975903627
 30
0.0
  0
SPLINE
  5
412
100
AcDbEntity
  8
0
100
AcDbSpline
 62
7
  6
CONTINUOUS
 70
0
 71
3
 72
11
 73
7
 74
0
 42
0.0000001
 43
0.0000001
 44
0.0000000001
 40
0.0
 40
0.0
 40
0.0
 40
0.0
 40
0.2574351421
 40
0.5000000008
 40
0.7425648595
 40
1.0
 40
1.0
 40
1.0
 40
1.0
 10
482.3033656331
 20
245.0678759071
 30
0.0
 10
482.4971312452
 20
244.6966858709
 30
0.0
 10
482.8097975024
 20
243.9377273066
 30
0.0
 10
482.9806771125
 20
242.7273014514
 30
0.0
 10
482.8097975054
 20
241.5168755975
 30
0.0
 10
482.497131244
 20
240.7579170377
 30
0.0
 10
482.3033656331
 20
240.3867270039
 30
0.0
  0
SPLINE
  5
413
100
AcDbEntity
  8
0
100
AcDbSpline
 62
7
  6
CONTINUOUS
 70
0
 71
3
 72
9
 73
5
 74
0
 42
0.0000001
 43
0.0000001
 44
0.0000000001
 40
0.0
 40
0.0
 40
0.0
 40
0.0
 40
0.2501237335
 40
1.0
 40
1.0
 40
1.0
 40
1.0
 10
482.3033656331
 20
210.1273048183
 30
0.0
 10
482.3914155884
 20
209.4978040094
 30
0.0
 10
482.7087090871
 20
206.9763684684
 30
0.0
 10
482.8781840698
 20
204.4358690282
 30
0.0
 10
482.9141190054
 20
202.5305790141
 30
0.0
  0
SPLINE
  5
414
100
AcDbEntity
  8
0
100
AcDbSpline
 62
7
  6
CONTINUOUS
 70
0
 71
3
 72
11
 73
7
 74
0
 42
0.0000001
 43
0.0000001
 44
0.0000000001
 40
0.0
 40
0.0
 40
0.0
 40
0.0
 40
0.2500438599
 40
0.5000000009
 40
0.7499561421
 40
1.0
 40
1.0
 40
1.0
 40
1.0
 10
482.3033656331
 20
227.5975903627
 30
0.0
 10
482.50570559
 20
226.1509892127
 30
0.0
 10
482.8180702399
 20
223.2442924978
 30
0.0
 10
482.9782423571
 20
218.8624475741
 30
0.0
 10
482.8180702433
 20
214.4806026613
 30
0.0
 10
482.5057055885
 20
211.5739059571
 30
0.0
 10
482.3033656331
 20
210.1273048183
 30
0.0
  0
LINE
  5
415
100
AcDbEntity
  8
RUNDUNGEN
100
AcDbLine
 62
7
  6
CONTINUOUS
 10
486.3815841179
 20
177.5605061981
 11
490.8815841179
 21
178.766277564
  0
SPLINE
  5
416
100
AcDbEntity
  8
RUNDUNGEN
100
AcDbSpline
 62
7
  6
CONTINUOUS
 70
0
 71
3
 72
11
 73
7
 74
0
 42
0.0000001
 43
0.0000001
 44
0.0000000001
 40
0.0
 40
0.0
 40
0.0
 40
0.0
 40
0.161833372
 40
0.3784314992
 40
0.6572361095
 40
1.0
 40
1.0
 40
1.0
 40
1.0
 10
487.2129197587
 20
194.7998471925
 30
0.0
 10
487.1707606686
 20
194.807772126
 30
0.0
 10
487.0683706314
 20
194.8028025243
 30
0.0
 10
486.9004235262
 20
194.755009712
 30
0.0
 10
486.6962206192
 20
194.6660631146
 30
0.0
 10
486.551695783
 20
194.5866317527
 30
0.0
 10
486.4734694291
 20
194.5404187191
 30
0.0
  0
LINE
  5
417
100
AcDbEntity
  8
RUNDUNGEN
100
AcDbLine
 62
7
  6
CONTINUOUS
 10
494.2815841179
 20
172.8773048183
 11
489.7815841179
 21
171.6715334523
  0
SPLINE
  5
418
100
AcDbEntity
  8
0
100
AcDbSpline
 62
7
  6
CONTINUOUS
 70
0
 71
3
 72
21
 73
17
 74
0
 42
0.0000001
 43
0.0000001
 44
0.0000000001
 40
0.0
 40
0.0
 40
0.0
 40
0.0
 40
0.1327174837
 40
0.2635367153
 40
0.3914901348
 40
0.515489269
 40
0.5758134505
 40
0.6348559655
 40
0.6926848659
 40
0.7497240308
 40
0.7784144956
 40
0.8075442607
 40
0.8374774893
 40
0.8685013971
 40
0.9332558374
 40
1.0
 40
1.0
 40
1.0
 40
1.0
 10
476.2116318501
 20
148.0625548617
 30
0.0
 10
475.6481460482
 20
148.1551432739
 30
0.0
 10
474.5393019866
 20
148.4096263658
 30
0.0
 10
472.9590635481
 20
149.0097647464
 30
0.0
 10
471.5231794094
 20
149.8312696675
 30
0.0
 10
470.4946611976
 20
150.7147098117
 30
0.0
 10
469.8415721742
 20
151.5371308732
 30
0.0
 10
469.4617030235
 20
152.2024736674
 30
0.0
 10
469.2179045409
 20
152.9154580896
 30
0.0
 10
469.1685811847
 20
153.5413816474
 30
0.0
 10
469.2571534579
 20
154.0303388818
 30
0.0
 10
469.3985167471
 20
154.3836615167
 30
0.0
 10
469.6224233457
 20
154.7045056138
 30
0.0
 10
470.0319064407
 20
155.0656259808
 30
0.0
 10
470.6999717344
 20
155.3309434891
 30
0.0
 10
471.2683132115
 20
155.3750548183
 30
0.0
 10
471.5554925117
 20
155.3750548183
 30
0.0
  0
SPLINE
  5
419
100
AcDbEntity
  8
KONSTRUKTIONSELEMENTE
100
AcDbSpline
 62
7
  6
CONTINUOUS
 70
0
 71
3
 72
12
 73
8
 74
0
 42
0.0000001
 43
0.0000001
 44
0.0000000001
 40
0.0
 40
0.0
 40
0.0
 40
0.0
 40
0.1282453638
 40
0.2146169864
 40
0.321985829
 40
0.6101725692
 40
1.0
 40
1.0
 40
1.0
 40
1.0
 10
129.1622366957
 20
149.6145884992
 30
0.0
 10
129.1622366957
 20
149.5453254894
 30
0.0
 10
129.14257371
 20
149.4287816397
 30
0.0
 10
129.0758838163
 20
149.2677581158
 30
0.0
 10
128.9447189255
 20
149.0419469418
 30
0.0
 10
128.6534244651
 20
148.7269724985
 30
0.0
 10
128.3511270617
 20
148.5156052564
 30
0.0
 10
128.1685907607
 20
148.4106906599
 30
0.0
  0
SPLINE
  5
41A
100
AcDbEntity
  8
KONSTRUKTIONSELEMENTE
100
AcDbSpline
 62
7
  6
CONTINUOUS
 70
0
 71
3
 72
12
 73
8
 74
0
 42
0.0000001
 43
0.0000001
 44
0.0000000001
 40
0.0
 40
0.0
 40
0.0
 40
0.0
 40
0.3898396094
 40
0.6780156338
 40
0.7853729626
 40
0.8717632718
 40
1.0
 40
1.0
 40
1.0
 40
1.0
 10
123.1557910946
 20
148.4107431311
 30
0.0
 10
122.9732638511
 20
148.5156585406
 30
0.0
 10
122.6710160874
 20
148.7270478783
 30
0.0
 10
122.3797111113
 20
149.0419657959
 30
0.0
 10
122.248572953
 20
149.2677742578
 30
0.0
 10
122.1819271459
 20
149.4287999922
 30
0.0
 10
122.1622366957
 20
149.5453347668
 30
0.0
 10
122.1622366957
 20
149.6145884992
 30
0.0
  0
SPLINE
  5
41B
100
AcDbEntity
  8
KONSTRUKTIONSELEMENTE
100
AcDbSpline
 62
7
  6
CONTINUOUS
 70
0
 71
3
 72
13
 73
9
 74
0
 42
0.0000001
 43
0.0000001
 44
0.0000000001
 40
0.0
 40
0.0
 40
0.0
 40
0.0
 40
0.1197290731
 40
0.2397365246
 40
0.3609040964
 40
0.4836831257
 40
0.7359942557
 40
1.0
 40
1.0
 40
1.0
 40
1.0
 10
133.6622366957
 20
149.6145884992
 30
0.0
 10
133.6622366957
 20
149.2653747971
 30
0.0
 10
133.5901330739
 20
148.5640337611
 30
0.0
 10
133.2718477391
 20
147.5538155129
 30
0.0
 10
132.7624641974
 20
146.6152372943
 30
0.0
 10
131.8506636689
 20
145.4824627876
 30
0.0
 10
130.3347724033
 20
144.3453193715
 30
0.0
 10
128.9118855532
 20
143.7987736475
 30
0.0
 10
128.1656610316
 20
143.6088051569
 30
0.0
  0
SPLINE
  5
41C
100
AcDbEntity
  8
KONSTRUKTIONSELEMENTE
100
AcDbSpline
 62
7
  6
CONTINUOUS
 70
0
 71
3
 72
13
 73
9
 74
0
 42
0.0000001
 43
0.0000001
 44
0.0000000001
 40
0.0
 40
0.0
 40
0.0
 40
0.0
 40
0.2640112835
 40
0.5163080567
 40
0.6390830379
 40
0.7602378991
 40
0.8802701562
 40
1.0
 40
1.0
 40
1.0
 40
1.0
 10
123.1579088932
 20
143.6090523465
 30
0.0
 10
122.4117690708
 20
143.7990869478
 30
0.0
 10
120.9890926295
 20
144.345653579
 30
0.0
 10
119.4735025623
 20
145.4827989199
 30
0.0
 10
118.5619122849
 20
146.6154144285
 30
0.0
 10
118.0525213691
 20
147.5538917151
 30
0.0
 10
117.73438465
 20
148.5640798182
 30
0.0
 10
117.6622366957
 20
149.2654097017
 30
0.0
 10
117.6622366957
 20
149.6145884992
 30
0.0
  0
SPLINE
  5
41D
100
AcDbEntity
  8
KONSTRUKTIONSELEMENTE
100
AcDbSpline
 62
7
  6
CONTINUOUS
 70
0
 71
3
 72
9
 73
5
 74
0
 42
0.0000001
 43
0.0000001
 44
0.0000000001
 40
0.0
 40
0.0
 40
0.0
 40
0.0
 40
0.4919437895
 40
1.0
 40
1.0
 40
1.0
 40
1.0
 10
120.1365373827
 20
195.9290496869
 30
0.0
 10
120.5766306664
 20
196.258167761
 30
0.0
 10
121.5478473115
 20
196.8284728193
 30
0.0
 10
122.6088096653
 20
197.1996561873
 30
0.0
 10
123.1588123597
 20
197.3396719314
 30
0.0
  0
SPLINE
  5
41E
100
AcDbEntity
  8
KONSTRUKTIONSELEMENTE
100
AcDbSpline
 62
7
  6
CONTINUOUS
 70
0
 71
3
 72
9
 73
5
 74
0
 42
0.0000001
 43
0.0000001
 44
0.0000000001
 40
0.0
 40
0.0
 40
0.0
 40
0.0
 40
0.5080799476
 40
1.0
 40
1.0
 40
1.0
 40
1.0
 10
128.1665644982
 20
197.3394247419
 30
0.0
 10
128.7170032318
 20
197.1992333164
 30
0.0
 10
129.7787405496
 20
196.8275992969
 30
0.0
 10
130.7505281074
 20
196.2565009056
 30
0.0
 10
131.1907781024
 20
195.9269264349
 30
0.0
  0
SPLINE
  5
41F
100
AcDbEntity
  8
KONSTRUKTIONSELEMENTE
100
AcDbSpline
 62
7
  6
CONTINUOUS
 70
0
 71
3
 72
11
 73
7
 74
0
 42
0.0000001
 43
0.0000001
 44
0.0000000001
 40
0.0
 40
0.0
 40
0.0
 40
0.0
 40
0.3114703232
 40
0.4450990083
 40
0.6063354134
 40
1.0
 40
1.0
 40
1.0
 40
1.0
 10
129.1622366957
 20
180.7272868714
 30
0.0
 10
129.1622366957
 20
180.5301320249
 30
0.0
 10
129.02352616
 20
180.255037138
 30
0.0
 10
128.7721583136
 20
179.9686851436
 30
0.0
 10
128.4437896392
 20
179.6789051374
 30
0.0
 10
128.1389875573
 20
179.4975227071
 30
0.0
 10
127.914228584
 20
179.3899345761
 30
0.0
  0
SPLINE
  5
420
100
AcDbEntity
  8
KONSTRUKTIONSELEMENTE
100
AcDbSpline
 62
7
  6
CONTINUOUS
 70
0
 71
3
 72
11
 73
7
 74
0
 42
0.0000001
 43
0.0000001
 44
0.0000000001
 40
0.0
 40
0.0
 40
0.0
 40
0.0
 40
0.3936803283
 40
0.5549226436
 40
0.6885473432
 40
1.0
 40
1.0
 40
1.0
 40
1.0
 10
123.4104874602
 20
179.389822648
 30
0.0
 10
123.1856795542
 20
179.4974125487
 30
0.0
 10
122.8808126456
 20
179.6788156664
 30
0.0
 10
122.5523848456
 20
179.9686349376
 30
0.0
 10
122.3009414689
 20
180.2549800838
 30
0.0
 10
122.1622366957
 20
180.5301155675
 30
0.0
 10
122.1622366957
 20
180.7272868714
 30
0.0
  0
SPLINE
  5
421
100
AcDbEntity
  8
KONSTRUKTIONSELEMENTE
100
AcDbSpline
 62
7
  6
CONTINUOUS
 70
0
 71
3
 72
9
 73
5
 74
0
 42
0.0000001
 43
0.0000001
 44
0.0000000001
 40
0.0
 40
0.0
 40
0.0
 40
0.0
 40
0.4887193927
 40
1.0
 40
1.0
 40
1.0
 40
1.0
 10
131.9228871937
 20
176.7638127909
 30
0.0
 10
131.3938803915
 20
176.240395496
 30
0.0
 10
130.1277848869
 20
175.3474844709
 30
0.0
 10
128.675612835
 20
174.8336980342
 30
0.0
 10
127.9163490162
 20
174.6615207507
 30
0.0
  0
SPLINE
  5
422
100
AcDbEntity
  8
KONSTRUKTIONSELEMENTE
100
AcDbSpline
 62
7
  6
CONTINUOUS
 70
0
 71
3
 72
9
 73
5
 74
0
 42
0.0000001
 43
0.0000001
 44
0.0000000001
 40
0.0
 40
0.0
 40
0.0
 40
0.0
 40
0.5112935852
 40
1.0
 40
1.0
 40
1.0
 40
1.0
 10
123.4100659169
 20
174.6610895384
 30
0.0
 10
122.6511845648
 20
174.8330536894
 30
0.0
 10
121.1997121331
 20
175.3461014512
 30
0.0
 10
119.933896416
 20
176.2378182884
 30
0.0
 10
119.4048593353
 20
176.760578866
 30
0.0
  0
SPLINE
  5
423
100
AcDbEntity
  8
KONSTRUKTIONSELEMENTE
100
AcDbSpline
 62
7
  6
CONTINUOUS
 70
0
 71
3
 72
9
 73
5
 74
0
 42
0.0000001
 43
0.0000001
 44
0.0000000001
 40
0.0
 40
0.0
 40
0.0
 40
0.0
 40
0.4883932588
 40
1.0
 40
1.0
 40
1.0
 40
1.0
 10
140.5379752132
 20
206.7414084486
 30
0.0
 10
138.7221458637
 20
205.6434290002
 30
0.0
 10
134.6895358076
 20
203.8959710248
 30
0.0
 10
130.3802178374
 20
203.1020918244
 30
0.0
 10
128.1642308777
 20
202.9277135787
 30
0.0
  0
SPLINE
  5
424
100
AcDbEntity
  8
KONSTRUKTIONSELEMENTE
100
AcDbSpline
 62
7
  6
CONTINUOUS
 70
0
 71
3
 72
9
 73
5
 74
0
 42
0.0000001
 43
0.0000001
 44
0.0000000001
 40
0.0
 40
0.0
 40
0.0
 40
0.0
 40
0.5116009649
 40
1.0
 40
1.0
 40
1.0
 40
1.0
 10
123.1609160455
 20
202.9276532461
 30
0.0
 10
120.9458479049
 20
203.1018975407
 30
0.0
 10
116.6382682602
 20
203.8952244227
 30
0.0
 10
112.6070254923
 20
205.6412119376
 30
0.0
 10
110.791635897
 20
206.7383039655
 30
0.0
  0
SPLINE
  5
425
100
AcDbEntity
  8
KONSTRUKTIONSELEMENTE
100
AcDbSpline
 62
7
  6
CONTINUOUS
 70
0
 71
3
 72
9
 73
5
 74
0
 42
0.0000001
 43
0.0000001
 44
0.0000000001
 40
0.0
 40
0.0
 40
0.0
 40
0.0
 40
0.2342381365
 40
1.0
 40
1.0
 40
1.0
 40
1.0
 10
140.368689419
 20
214.1680180591
 30
0.0
 10
140.0878635223
 20
213.8815423245
 30
0.0
 10
138.8309515953
 20
212.7156593017
 30
0.0
 10
137.367789006
 20
211.7820868951
 30
0.0
 10
136.1961303623
 20
211.1928870684
 30
0.0
  0
SPLINE
  5
426
100
AcDbEntity
  8
KONSTRUKTIONSELEMENTE
100
AcDbSpline
 62
7
  6
CONTINUOUS
 70
0
 71
3
 72
9
 73
5
 74
0
 42
0.0000001
 43
0.0000001
 44
0.0000000001
 40
0.0
 40
0.0
 40
0.0
 40
0.0
 40
0.2660085388
 40
1.0
 40
1.0
 40
1.0
 40
1.0
 10
115.1272347577
 20
211.1934390671
 30
0.0
 10
114.7203676958
 20
211.3980731253
 30
0.0
 10
113.2197560004
 20
212.2215984596
 30
0.0
 10
111.8352573609
 20
213.2708108902
 30
0.0
 10
110.9555787623
 20
214.1682239561
 30
0.0
  0
SPLINE
  5
427
100
AcDbEntity
  8
0
100
AcDbSpline
 62
7
  6
CONTINUOUS
 70
0
 71
3
 72
12
 73
8
 74
0
 42
0.0000001
 43
0.0000001
 44
0.0000000001
 40
0.0
 40
0.0
 40
0.0
 40
0.0
 40
0.1089727213
 40
0.2201620805
 40
0.4554253
 40
0.7155329149
 40
1.0
 40
1.0
 40
1.0
 40
1.0
 10
140.2541020294
 20
120.1989464018
 30
0.0
 10
140.2541020294
 20
120.3426956599
 30
0.0
 10
140.2238737856
 20
120.6339835935
 30
0.0
 10
140.0421840835
 20
121.2102719443
 30
0.0
 10
139.5819863082
 20
121.8871646423
 30
0.0
 10
138.7586369744
 20
122.5245055883
 30
0.0
 10
138.091259559
 20
122.8107569818
 30
0.0
 10
137.7326642662
 20
122.9213075094
 30
0.0
  0
SPLINE
  5
428
100
AcDbEntity
  8
0
100
AcDbSpline
 62
7
  6
CONTINUOUS
 70
0
 71
3
 72
17
 73
13
 74
0
 42
0.0000001
 43
0.0000001
 44
0.0000000001
 40
0.0
 40
0.0
 40
0.0
 40
0.0
 40
0.0517809237
 40
0.1054811646
 40
0.2228479209
 40
0.3562855052
 40
0.5
 40
0.6437144948
 40
0.7771520791
 40
0.8945188354
 40
0.9482190763
 40
1.0
 40
1.0
 40
1.0
 40
1.0
 10
127.1807702619
 20
119.466974502
 30
0.0
 10
127.1807702619
 20
119.3793904487
 30
0.0
 10
127.2062708358
 20
119.2000764908
 30
0.0
 10
127.3586516716
 20
118.8510407341
 30
0.0
 10
127.735207746
 20
118.4742484753
 30
0.0
 10
128.3534170571
 20
118.1965830226
 30
0.0
 10
129.0678379422
 20
118.099446753
 30
0.0
 10
129.7822588273
 20
118.1965830226
 30
0.0
 10
130.4004681384
 20
118.4742484753
 30
0.0
 10
130.7770242128
 20
118.8510407341
 30
0.0
 10
130.9294050485
 20
119.2000764908
 30
0.0
 10
130.9549056225
 20
119.3793904487
 30
0.0
 10
130.9549056225
 20
119.466974502
 30
0.0
  0
SPLINE
  5
429
100
AcDbEntity
  8
0
100
AcDbSpline
 62
7
  6
CONTINUOUS
 70
0
 71
3
 72
12
 73
8
 74
0
 42
0.0000001
 43
0.0000001
 44
0.0000000001
 40
0.0
 40
0.0
 40
0.0
 40
0.0
 40
0.1035930223
 40
0.210949621
 40
0.4457011106
 40
0.7125563401
 40
1.0
 40
1.0
 40
1.0
 40
1.0
 10
124.7739326968
 20
121.5475978275
 30
0.0
 10
124.7739188168
 20
121.6401234408
 30
0.0
 10
124.7469459443
 20
121.8294878793
 30
0.0
 10
124.5858471547
 20
122.1980244963
 30
0.0
 10
124.1881118288
 20
122.5959047417
 30
0.0
 10
123.5356796503
 20
122.8891410582
 30
0.0
 10
123.0375047466
 20
122.9566628484
 30
0.0
 10
122.7807702619
 20
122.9566628484
 30
0.0
  0
SPLINE
  5
42A
100
AcDbEntity
  8
0
100
AcDbSpline
 62
7
  6
CONTINUOUS
 70
0
 71
3
 72
9
 73
5
 74
0
 42
0.0000001
 43
0.0000001
 44
0.0000000001
 40
0.0
 40
0.0
 40
0.0
 40
0.0
 40
0.4402133985
 40
1.0
 40
1.0
 40
1.0
 40
1.0
 10
113.8499689604
 20
119.5413370953
 30
0.0
 10
113.8499689604
 20
119.5181578815
 30
0.0
 10
113.8856667497
 20
119.4676823937
 30
0.0
 10
113.9404936801
 20
119.4564842816
 30
0.0
 10
113.9699689604
 20
119.4564842816
 30
0.0
  0
SPLINE
  5
42B
100
AcDbEntity
  8
0
100
AcDbSpline
 62
7
  6
CONTINUOUS
 70
0
 71
3
 72
9
 73
5
 74
0
 42
0.0000001
 43
0.0000001
 44
0.0000000001
 40
0.0
 40
0.0
 40
0.0
 40
0.0
 40
0.4402133985
 40
1.0
 40
1.0
 40
1.0
 40
1.0
 10
114.6749689604
 20
119.5837635022
 30
0.0
 10
114.6749689604
 20
119.606942716
 30
0.0
 10
114.6392711711
 20
119.6574182038
 30
0.0
 10
114.5844442407
 20
119.6686163159
 30
0.0
 10
114.5549689604
 20
119.6686163159
 30
0.0
  0
SPLINE
  5
42C
100
AcDbEntity
  8
0
100
AcDbSpline
 62
7
  6
CONTINUOUS
 70
0
 71
3
 72
9
 73
5
 74
0
 42
0.0000001
 43
0.0000001
 44
0.0000000001
 40
0.0
 40
0.0
 40
0.0
 40
0.0
 40
0.4402133985
 40
1.0
 40
1.0
 40
1.0
 40
1.0
 10
114.6749689604
 20
121.7050838457
 30
0.0
 10
114.6749689604
 20
121.7282630596
 30
0.0
 10
114.6392711711
 20
121.7787385474
 30
0.0
 10
114.5844442407
 20
121.7899366595
 30
0.0
 10
114.5549689604
 20
121.7899366595
 30
0.0
  0
SPLINE
  5
42D
100
AcDbEntity
  8
0
100
AcDbSpline
 62
7
  6
CONTINUOUS
 70
0
 71
3
 72
11
 73
7
 74
0
 42
0.0000001
 43
0.0000001
 44
0.0000000001
 40
0.0
 40
0.0
 40
0.0
 40
0.0
 40
0.2094668498
 40
0.4446559298
 40
0.7120302568
 40
1.0
 40
1.0
 40
1.0
 40
1.0
 10
113.0249689604
 20
120.6232104705
 30
0.0
 10
113.0249689604
 20
120.5951003958
 30
0.0
 10
113.0432244234
 20
120.534721449
 30
0.0
 10
113.1131310773
 20
120.4655782694
 30
0.0
 10
113.2113285675
 20
120.4211819671
 30
0.0
 10
113.2863239384
 20
120.4110784362
 30
0.0
 10
113.3249689604
 20
120.4110784362
 30
0.0
  0
SPLINE
  5
42E
100
AcDbEntity
  8
0
100
AcDbSpline
 62
7
  6
CONTINUOUS
 70
0
 71
3
 72
11
 73
7
 74
0
 42
0.0000001
 43
0.0000001
 44
0.0000000001
 40
0.0
 40
0.0
 40
0.0
 40
0.0
 40
0.2094668498
 40
0.4446559298
 40
0.7120302568
 40
1.0
 40
1.0
 40
1.0
 40
1.0
 10
113.0249689604
 20
118.501890127
 30
0.0
 10
113.0249689604
 20
118.4737800522
 30
0.0
 10
113.0432244234
 20
118.4134011054
 30
0.0
 10
113.1131310773
 20
118.3442579258
 30
0.0
 10
113.2113285675
 20
118.2998616236
 30
0.0
 10
113.2863239384
 20
118.2897580926
 30
0.0
 10
113.3249689604
 20
118.2897580926
 30
0.0
  0
SPLINE
  5
42F
100
AcDbEntity
  8
0
100
AcDbSpline
 62
7
  6
CONTINUOUS
 70
0
 71
3
 72
9
 73
5
 74
0
 42
0.0000001
 43
0.0000001
 44
0.0000000001
 40
0.0
 40
0.0
 40
0.0
 40
0.0
 40
0.2432035461
 40
1.0
 40
1.0
 40
1.0
 40
1.0
 10
117.0749689604
 20
122.5323987797
 30
0.0
 10
117.0749689604
 20
122.5490463964
 30
0.0
 10
117.0692768587
 20
122.6175001663
 30
0.0
 10
117.0398606052
 20
122.682983102
 30
0.0
 10
117.0095739105
 20
122.7250110128
 30
0.0
  0
SPLINE
  5
430
100
AcDbEntity
  8
0
100
AcDbSpline
 62
7
  6
CONTINUOUS
 70
0
 71
3
 72
9
 73
5
 74
0
 42
0.0000001
 43
0.0000001
 44
0.0000000001
 40
0.0
 40
0.0
 40
0.0
 40
0.0
 40
0.4654299385
 40
1.0
 40
1.0
 40
1.0
 40
1.0
 10
117.0095739105
 20
122.7250110128
 30
0.0
 10
116.9553287378
 20
122.8002853634
 30
0.0
 10
116.7827803557
 20
122.9208081359
 30
0.0
 10
116.5815354805
 20
122.9566628484
 30
0.0
 10
116.4749689604
 20
122.9566628484
 30
0.0
  0
SPLINE
  5
431
100
AcDbEntity
  8
RUNDUNGEN
100
AcDbSpline
 62
7
  6
CONTINUOUS
 70
0
 71
3
 72
11
 73
7
 74
0
 42
0.0000001
 43
0.0000001
 44
0.0000000001
 40
0.0
 40
0.0
 40
0.0
 40
0.0
 40
0.2256934588
 40
0.4632957354
 40
0.7206235605
 40
1.0
 40
1.0
 40
1.0
 40
1.0
 10
93.1839751155
 20
124.898138998
 30
0.0
 10
93.1840288115
 20
124.9833441432
 30
0.0
 10
93.2150125337
 20
125.1594768347
 30
0.0
 10
93.3476781022
 20
125.4015865499
 30
0.0
 10
93.5554491529
 20
125.6116369252
 30
0.0
 10
93.7290778158
 20
125.719590789
 30
0.0
 10
93.8235984652
 20
125.7663899945
 30
0.0
  0
SPLINE
  5
432
100
AcDbEntity
  8
RUNDUNGEN
100
AcDbSpline
 62
7
  6
CONTINUOUS
 70
0
 71
3
 72
9
 73
5
 74
0
 42
0.0000001
 43
0.0000001
 44
0.0000000001
 40
0.0
 40
0.0
 40
0.0
 40
0.0
 40
0.4805181646
 40
1.0
 40
1.0
 40
1.0
 40
1.0
 10
93.183973823
 20
121.3625629045
 30
0.0
 10
93.1839123068
 20
121.2536764198
 30
0.0
 10
93.2356554164
 20
121.0249371634
 30
0.0
 10
93.3724065034
 20
120.8372891302
 30
0.0
 10
93.4552350532
 20
120.7536444591
 30
0.0
  0
SPLINE
  5
433
100
AcDbEntity
  8
RUNDUNGEN
100
AcDbSpline
 62
7
  6
CONTINUOUS
 70
0
 71
3
 72
11
 73
7
 74
0
 42
0.0000001
 43
0.0000001
 44
0.0000000001
 40
0.0
 40
0.0
 40
0.0
 40
0.0
 40
0.2256919297
 40
0.4632773963
 40
0.7205986282
 40
1.0
 40
1.0
 40
1.0
 40
1.0
 10
82.7428406391
 20
136.2212365909
 30
0.0
 10
82.7427858072
 20
136.5054459416
 30
0.0
 10
82.8455650018
 20
137.0930403439
 30
0.0
 10
83.2876305616
 20
137.9008825337
 30
0.0
 10
83.98048465
 20
138.6017416871
 30
0.0
 10
84.5596437706
 20
138.9618974583
 30
0.0
 10
84.8749560313
 20
139.1180153374
 30
0.0
  0
SPLINE
  5
434
100
AcDbEntity
  8
RUNDUNGEN
100
AcDbSpline
 62
7
  6
CONTINUOUS
 70
0
 71
3
 72
10
 73
6
 74
0
 42
0.0000001
 43
0.0000001
 44
0.0000000001
 40
0.0
 40
0.0
 40
0.0
 40
0.0
 40
0.2382860828
 40
0.4819052527
 40
1.0
 40
1.0
 40
1.0
 40
1.0
 10
82.7428406391
 20
132.685702685
 30
0.0
 10
82.7428754196
 20
132.5054257323
 30
0.0
 10
82.7831159037
 20
132.1395809976
 30
0.0
 10
83.0235166497
 20
131.4177222232
 30
0.0
 10
83.3712767722
 20
130.9369613938
 30
0.0
 10
83.6470779916
 20
130.6584426664
 30
0.0
  0
SPLINE
  5
435
100
AcDbEntity
  8
RUNDUNGEN
100
AcDbSpline
 62
7
  6
CONTINUOUS
 70
0
 71
3
 72
11
 73
7
 74
0
 42
0.0000001
 43
0.0000001
 44
0.0000000001
 40
0.0
 40
0.0
 40
0.0
 40
0.0
 40
0.237780559
 40
0.4809056754
 40
0.7339193747
 40
1.0
 40
1.0
 40
1.0
 40
1.0
 10
141.1816014147
 20
100.5573336863
 30
0.0
 10
141.1816014339
 20
101.0983122159
 30
0.0
 10
141.3016111994
 20
102.1959226663
 30
0.0
 10
141.8337309384
 20
103.7906535461
 30
0.0
 10
142.7016771573
 20
105.3037646513
 30
0.0
 10
143.4683670531
 20
106.2108793716
 30
0.0
 10
143.8943207504
 20
106.6410300504
 30
0.0
  0
SPLINE
  5
436
100
AcDbEntity
  8
RUNDUNGEN
100
AcDbSpline
 62
7
  6
CONTINUOUS
 70
0
 71
3
 72
9
 73
5
 74
0
 42
0.0000001
 43
0.0000001
 44
0.0000000001
 40
0.0
 40
0.0
 40
0.0
 40
0.0
 40
0.483225943
 40
1.0
 40
1.0
 40
1.0
 40
1.0
 10
141.3915903455
 20
102.3243293483
 30
0.0
 10
141.5802752981
 20
101.5354937965
 30
0.0
 10
142.2314645345
 20
99.9584114807
 30
0.0
 10
143.2839920064
 20
98.6255127247
 30
0.0
 10
143.8943207504
 20
98.0091703261
 30
0.0
  0
SPLINE
  5
437
100
AcDbEntity
  8
RUNDUNGEN
100
AcDbSpline
 62
7
  6
CONTINUOUS
 70
0
 71
3
 72
10
 73
6
 74
0
 42
0.0000001
 43
0.0000001
 44
0.0000000001
 40
0.0
 40
0.0
 40
0.0
 40
0.0
 40
0.2382826319
 40
0.4819247904
 40
1.0
 40
1.0
 40
1.0
 40
1.0
 10
91.6622366957
 20
80.9711413373
 30
0.0
 10
91.6622366957
 20
81.151466291
 30
0.0
 10
91.7023569694
 20
81.5174446348
 30
0.0
 10
91.9427838591
 20
82.2395309751
 30
0.0
 10
92.2906082326
 20
82.7204538656
 30
0.0
 10
92.5664764742
 20
82.9990402756
 30
0.0
  0
SPLINE
  5
438
100
AcDbEntity
  8
BEZUGSACHSEN
100
AcDbSpline
 62
7
  6
CONTINUOUS
 70
0
 71
3
 72
9
 73
5
 74
0
 42
0.0000001
 43
0.0000001
 44
0.0000000001
 40
0.0
 40
0.0
 40
0.0
 40
0.0
 40
0.4742612099
 40
1.0
 40
1.0
 40
1.0
 40
1.0
 10
120.7642657164
 20
130.8688976838
 30
0.0
 10
121.0389399547
 20
130.488695238
 30
0.0
 10
121.7750116176
 20
129.7971631979
 30
0.0
 10
122.6712955259
 20
129.351266644
 30
0.0
 10
123.1603218533
 20
129.1746207826
 30
0.0
  0
SPLINE
  5
439
100
AcDbEntity
  8
BEZUGSACHSEN
100
AcDbSpline
 62
7
  6
CONTINUOUS
 70
0
 71
3
 72
9
 73
5
 74
0
 42
0.0000001
 43
0.0000001
 44
0.0000000001
 40
0.0
 40
0.0
 40
0.0
 40
0.0
 40
0.5257387901
 40
1.0
 40
1.0
 40
1.0
 40
1.0
 10
128.1641515381
 20
129.1746207826
 30
0.0
 10
128.6531778655
 20
129.351266644
 30
0.0
 10
129.5494617737
 20
129.7971631979
 30
0.0
 10
130.2855334366
 20
130.488695238
 30
0.0
 10
130.5602076749
 20
130.8688976838
 30
0.0
  0
SPLINE
  5
43A
100
AcDbEntity
  8
BEZUGSACHSEN
100
AcDbSpline
 62
7
  6
CONTINUOUS
 70
0
 71
3
 72
12
 73
8
 74
0
 42
0.0000001
 43
0.0000001
 44
0.0000000001
 40
0.0
 40
0.0
 40
0.0
 40
0.0
 40
0.1099426827
 40
0.2219590892
 40
0.4577463286
 40
0.7169256794
 40
1.0
 40
1.0
 40
1.0
 40
1.0
 10
131.1622366957
 20
129.1024815683
 30
0.0
 10
131.1622366957
 20
129.2807321137
 30
0.0
 10
131.1267234938
 20
129.6415562612
 30
0.0
 10
130.9138956576
 20
130.3565540823
 30
0.0
 10
130.3735576538
 20
131.2039324642
 30
0.0
 10
129.395742349
 20
132.023814017
 30
0.0
 10
128.5958034367
 20
132.4099551628
 30
0.0
 10
128.1641515381
 20
132.5658762598
 30
0.0
  0
SPLINE
  5
43B
100
AcDbEntity
  8
BEZUGSACHSEN
100
AcDbSpline
 62
7
  6
CONTINUOUS
 70
0
 71
3
 72
12
 73
8
 74
0
 42
0.0000001
 43
0.0000001
 44
0.0000000001
 40
0.0
 40
0.0
 40
0.0
 40
0.0
 40
0.2830743206
 40
0.5422536714
 40
0.7780409108
 40
0.8900573173
 40
1.0
 40
1.0
 40
1.0
 40
1.0
 10
123.1603218533
 20
132.5658762598
 30
0.0
 10
122.7286699546
 20
132.4099551628
 30
0.0
 10
121.9287310424
 20
132.023814017
 30
0.0
 10
120.9509157375
 20
131.2039324642
 30
0.0
 10
120.4105777338
 20
130.3565540823
 30
0.0
 10
120.1977498976
 20
129.6415562612
 30
0.0
 10
120.1622366957
 20
129.2807321137
 30
0.0
 10
120.1622366957
 20
129.1024815683
 30
0.0
  0
SPLINE
  5
43C
100
AcDbEntity
  8
RUNDUNGEN
100
AcDbSpline
 62
7
  6
CONTINUOUS
 70
0
 71
3
 72
10
 73
6
 74
0
 42
0.0000001
 43
0.0000001
 44
0.0000000001
 40
0.0
 40
0.0
 40
0.0
 40
0.0
 40
0.5180750537
 40
0.7617172794
 40
1.0
 40
1.0
 40
1.0
 40
1.0
 10
158.7579969171
 20
82.9990402756
 30
0.0
 10
159.0338650761
 20
82.720453949
 30
0.0
 10
159.3816894309
 20
82.2395311426
 30
0.0
 10
159.6221163844
 20
81.5174448206
 30
0.0
 10
159.6622366957
 20
81.1514663583
 30
0.0
 10
159.6622366957
 20
80.9711413373
 30
0.0
  0
SPLINE
  5
43D
100
AcDbEntity
  8
RUNDUNGEN
100
AcDbSpline
 62
7
  6
CONTINUOUS
 70
0
 71
3
 72
11
 73
7
 74
0
 42
0.0000001
 43
0.0000001
 44
0.0000000001
 40
0.0
 40
0.0
 40
0.0
 40
0.0
 40
0.2793755914
 40
0.5367190118
 40
0.774320888
 40
1.0
 40
1.0
 40
1.0
 40
1.0
 10
169.316549515
 20
137.6984860805
 30
0.0
 10
169.411071548
 20
137.6516861899
 30
0.0
 10
169.5847073304
 20
137.5437266033
 30
0.0
 10
169.7924854252
 20
137.3336670867
 30
0.0
 10
169.9251448237
 20
137.0915477169
 30
0.0
 10
169.9561232718
 20
136.9154168659
 30
0.0
 10
169.9561740008
 20
136.8302156293
 30
0.0
  0
SPLINE
  5
43E
100
AcDbEntity
  8
RUNDUNGEN
100
AcDbSpline
 62
7
  6
CONTINUOUS
 70
0
 71
3
 72
11
 73
7
 74
0
 42
0.0000001
 43
0.0000001
 44
0.0000000001
 40
0.0
 40
0.0
 40
0.0
 40
0.0
 40
0.2297148774
 40
0.4842569964
 40
0.7475608951
 40
1.0
 40
1.0
 40
1.0
 40
1.0
 10
160.0189188043
 20
141.0071159455
 30
0.0
 10
160.1386626898
 20
141.1280396843
 30
0.0
 10
160.4481466803
 20
141.3277145419
 30
0.0
 10
160.9905658826
 20
141.4701025079
 30
0.0
 10
161.5677516435
 20
141.4620171556
 30
0.0
 10
161.9404148557
 20
141.3505689262
 30
0.0
 10
162.1080115253
 20
141.267588212
 30
0.0
  0
SPLINE
  5
43F
100
AcDbEntity
  8
0
100
AcDbSpline
 62
7
  6
CONTINUOUS
 70
0
 71
3
 72
9
 73
5
 74
0
 42
0.0000001
 43
0.0000001
 44
0.0000000001
 40
0.0
 40
0.0
 40
0.0
 40
0.0
 40
0.2419317135
 40
1.0
 40
1.0
 40
1.0
 40
1.0
 10
134.2658832409
 20
137.4373476578
 30
0.0
 10
133.804812151
 20
137.6656338667
 30
0.0
 10
131.8545720083
 20
138.518237957
 30
0.0
 10
129.755771421
 20
139.0172257657
 30
0.0
 10
128.1549943437
 20
139.2080047057
 30
0.0
  0
SPLINE
  5
440
100
AcDbEntity
  8
0
100
AcDbSpline
 62
7
  6
CONTINUOUS
 70
0
 71
3
 72
9
 73
5
 74
0
 42
0.0000001
 43
0.0000001
 44
0.0000000001
 40
0.0
 40
0.0
 40
0.0
 40
0.0
 40
0.2576205058
 40
1.0
 40
1.0
 40
1.0
 40
1.0
 10
123.1694790476
 20
139.2080047057
 30
0.0
 10
122.6255343208
 20
139.1431779413
 30
0.0
 10
120.5255856845
 20
138.8086738702
 30
0.0
 10
118.4732527506
 20
138.1377775243
 30
0.0
 10
117.0585901504
 20
137.4373476578
 30
0.0
  0
SPLINE
  5
441
100
AcDbEntity
  8
RUNDUNGEN
100
AcDbSpline
 62
7
  6
CONTINUOUS
 70
0
 71
3
 72
13
 73
9
 74
0
 42
0.0000001
 43
0.0000001
 44
0.0000000001
 40
0.0
 40
0.0
 40
0.0
 40
0.0
 40
0.2520973512
 40
0.3837531518
 40
0.5156914539
 40
0.6454036045
 40
0.7706002144
 40
1.0
 40
1.0
 40
1.0
 40
1.0
 10
85.6941080756
 20
139.523595125
 30
0.0
 10
87.2583260764
 20
140.2980730856
 30
0.0
 10
89.8552479891
 20
141.0741814381
 30
0.0
 10
93.4189721102
 20
141.3743219362
 30
0.0
 10
96.1475944364
 20
141.2286833206
 30
0.0
 10
98.7864519201
 20
140.7111926295
 30
0.0
 10
101.9516815367
 20
139.5910254551
 30
0.0
 10
104.0747297529
 20
138.2211093326
 30
0.0
 10
105.1923068046
 20
137.0925206377
 30
0.0
  0
SPLINE
  5
442
100
AcDbEntity
  8
0
100
AcDbSpline
 62
7
  6
CONTINUOUS
 70
0
 71
3
 72
11
 73
7
 74
0
 42
0.0000001
 43
0.0000001
 44
0.0000000001
 40
0.0
 40
0.0
 40
0.0
 40
0.0
 40
0.2880052506
 40
0.5553344723
 40
0.7905070702
 40
1.0
 40
1.0
 40
1.0
 40
1.0
 10
111.6749689604
 20
122.9566628484
 30
0.0
 10
111.5976699279
 20
122.9566628484
 30
0.0
 10
111.4476740088
 20
122.936471199
 30
0.0
 10
111.2513208663
 20
122.8476261684
 30
0.0
 10
111.1114716858
 20
122.7093950238
 30
0.0
 10
111.0749689604
 20
122.5886255352
 30
0.0
 10
111.0749689604
 20
122.5323987797
 30
0.0
  0
SPLINE
  5
443
100
AcDbEntity
  8
0
100
AcDbSpline
 62
7
  6
CONTINUOUS
 70
0
 71
3
 72
11
 73
7
 74
0
 42
0.0000001
 43
0.0000001
 44
0.0000000001
 40
0.0
 40
0.0
 40
0.0
 40
0.0
 40
0.2879697432
 40
0.5553440702
 40
0.7905331502
 40
1.0
 40
1.0
 40
1.0
 40
1.0
 10
114.8249689604
 20
120.4110784362
 30
0.0
 10
114.8636139824
 20
120.4110784362
 30
0.0
 10
114.9386093533
 20
120.4211819671
 30
0.0
 10
115.0368068435
 20
120.4655782694
 30
0.0
 10
115.1067134974
 20
120.534721449
 30
0.0
 10
115.1249689604
 20
120.5951003958
 30
0.0
 10
115.1249689604
 20
120.6232104705
 30
0.0
  0
SPLINE
  5
444
100
AcDbEntity
  8
0
100
AcDbSpline
 62
7
  6
CONTINUOUS
 70
0
 71
3
 72
11
 73
7
 74
0
 42
0.0000001
 43
0.0000001
 44
0.0000000001
 40
0.0
 40
0.0
 40
0.0
 40
0.0
 40
0.2879697432
 40
0.5553440702
 40
0.7905331502
 40
1.0
 40
1.0
 40
1.0
 40
1.0
 10
114.8249689604
 20
118.2897580926
 30
0.0
 10
114.8636139824
 20
118.2897580926
 30
0.0
 10
114.9386093533
 20
118.2998616236
 30
0.0
 10
115.0368068435
 20
118.3442579258
 30
0.0
 10
115.1067134974
 20
118.4134011054
 30
0.0
 10
115.1249689604
 20
118.4737800522
 30
0.0
 10
115.1249689604
 20
118.501890127
 30
0.0
  0
SPLINE
  5
445
100
AcDbEntity
  8
0
100
AcDbSpline
 62
7
  6
CONTINUOUS
 70
0
 71
3
 72
9
 73
5
 74
0
 42
0.0000001
 43
0.0000001
 44
0.0000000001
 40
0.0
 40
0.0
 40
0.0
 40
0.0
 40
0.5597866015
 40
1.0
 40
1.0
 40
1.0
 40
1.0
 10
113.5949689604
 20
121.7899366595
 30
0.0
 10
113.5654936801
 20
121.7899366595
 30
0.0
 10
113.5106667497
 20
121.7787385474
 30
0.0
 10
113.4749689604
 20
121.7282630596
 30
0.0
 10
113.4749689604
 20
121.7050838457
 30
0.0
  0
SPLINE
  5
446
100
AcDbEntity
  8
0
100
AcDbSpline
 62
7
  6
CONTINUOUS
 70
0
 71
3
 72
9
 73
5
 74
0
 42
0.0000001
 43
0.0000001
 44
0.0000000001
 40
0.0
 40
0.0
 40
0.0
 40
0.0
 40
0.5597866015
 40
1.0
 40
1.0
 40
1.0
 40
1.0
 10
113.5949689604
 20
119.6686163159
 30
0.0
 10
113.5654936801
 20
119.6686163159
 30
0.0
 10
113.5106667497
 20
119.6574182038
 30
0.0
 10
113.4749689604
 20
119.606942716
 30
0.0
 10
113.4749689604
 20
119.5837635022
 30
0.0
  0
SPLINE
  5
447
100
AcDbEntity
  8
0
100
AcDbSpline
 62
7
  6
CONTINUOUS
 70
0
 71
3
 72
9
 73
5
 74
0
 42
0.0000001
 43
0.0000001
 44
0.0000000001
 40
0.0
 40
0.0
 40
0.0
 40
0.0
 40
0.5597866015
 40
1.0
 40
1.0
 40
1.0
 40
1.0
 10
114.1799689604
 20
119.4564842816
 30
0.0
 10
114.2094442407
 20
119.4564842816
 30
0.0
 10
114.2642711711
 20
119.4676823937
 30
0.0
 10
114.2999689604
 20
119.5181578815
 30
0.0
 10
114.2999689604
 20
119.5413370953
 30
0.0
  0
SPLINE
  5
448
100
AcDbEntity
  8
0
100
AcDbSpline
 62
7
  6
CONTINUOUS
 70
0
 71
3
 72
11
 73
7
 74
0
 42
0.0000001
 43
0.0000001
 44
0.0000000001
 40
0.0
 40
0.0
 40
0.0
 40
0.0
 40
0.2880001164
 40
0.5553425139
 40
0.7905343079
 40
1.0
 40
1.0
 40
1.0
 40
1.0
 10
122.7807702619
 20
120.7813666307
 30
0.0
 10
122.9203139065
 20
120.7813666307
 30
0.0
 10
123.1910911238
 20
120.8178416506
 30
0.0
 10
123.5456153118
 20
120.9781666925
 30
0.0
 10
123.7980289759
 20
121.2277801923
 30
0.0
 10
123.8639182712
 20
121.4457895073
 30
0.0
 10
123.8639182712
 20
121.5472811541
 30
0.0
  0
SPLINE
  5
449
100
AcDbEntity
  8
0
100
AcDbSpline
 62
7
  6
CONTINUOUS
 70
0
 71
3
 72
9
 73
5
 74
0
 42
0.0000001
 43
0.0000001
 44
0.0000000001
 40
0.0
 40
0.0
 40
0.0
 40
0.0
 40
0.2457811574
 40
1.0
 40
1.0
 40
1.0
 40
1.0
 10
137.7326642662
 20
122.9213075094
 30
0.0
 10
137.7136479
 20
122.9271700217
 30
0.0
 10
137.6353487582
 20
122.9479359858
 30
0.0
 10
137.5539375804
 20
122.9566628484
 30
0.0
 10
137.4928726901
 20
122.9566628484
 30
0.0
  0
SPLINE
  5
44A
100
AcDbEntity
  8
0
100
AcDbSpline
 62
7
  6
CONTINUOUS
 70
0
 71
3
 72
11
 73
7
 74
0
 42
0.0000001
 43
0.0000001
 44
0.0000000001
 40
0.0
 40
0.0
 40
0.0
 40
0.0
 40
0.2779817175
 40
0.5346952233
 40
0.772857858
 40
1.0
 40
1.0
 40
1.0
 40
1.0
 10
137.6963082401
 20
118.1920487919
 30
0.0
 10
137.9066131562
 20
118.3059290508
 30
0.0
 10
138.2919260916
 20
118.5644824822
 30
0.0
 10
138.7498106954
 20
119.055927677
 30
0.0
 10
139.0402555695
 20
119.6146892288
 30
0.0
 10
139.1075013844
 20
120.0176691628
 30
0.0
 10
139.1075013844
 20
120.2130885374
 30
0.0
  0
SPLINE
  5
44B
100
AcDbEntity
  8
0
100
AcDbSpline
 62
7
  6
CONTINUOUS
 70
0
 71
3
 72
9
 73
5
 74
0
 42
0.0000001
 43
0.0000001
 44
0.0000000001
 40
0.0
 40
0.0
 40
0.0
 40
0.0
 40
0.2591205677
 40
1.0
 40
1.0
 40
1.0
 40
1.0
 10
137.513909168
 20
118.1483367364
 30
0.0
 10
137.5301989138
 20
118.1483367364
 30
0.0
 10
137.5929525015
 20
118.1519320062
 30
0.0
 10
137.6553517012
 20
118.1698707976
 30
0.0
 10
137.6963082401
 20
118.1920487919
 30
0.0
  0
SPLINE
  5
44C
100
AcDbEntity
  8
RUNDUNGEN
100
AcDbSpline
 62
7
  6
CONTINUOUS
 70
0
 71
3
 72
11
 73
7
 74
0
 42
0.0000001
 43
0.0000001
 44
0.0000000001
 40
0.0
 40
0.0
 40
0.0
 40
0.0
 40
0.2880068215
 40
0.5553366529
 40
0.7905059061
 40
1.0
 40
1.0
 40
1.0
 40
1.0
 10
99.0122366957
 20
67.9437552721
 30
0.0
 10
99.076652916
 20
67.9437552721
 30
0.0
 10
99.2016498486
 20
67.9605822874
 30
0.0
 10
99.3652777402
 20
68.0346189945
 30
0.0
 10
99.4818175395
 20
68.149812153
 30
0.0
 10
99.5122366957
 20
68.2504527666
 30
0.0
 10
99.5122366957
 20
68.2973086627
 30
0.0
  0
SPLINE
  5
44D
100
AcDbEntity
  8
RUNDUNGEN
100
AcDbSpline
 62
7
  6
CONTINUOUS
 70
0
 71
3
 72
13
 73
9
 74
0
 42
0.0000001
 43
0.0000001
 44
0.0000000001
 40
0.0
 40
0.0
 40
0.0
 40
0.0
 40
0.1034546555
 40
0.2106690395
 40
0.3244963599
 40
0.4464318111
 40
0.7129511617
 40
1.0
 40
1.0
 40
1.0
 40
1.0
 10
91.6622366957
 20
71.4792891781
 30
0.0
 10
91.6622366957
 20
71.2471564217
 30
0.0
 10
91.7296024094
 20
70.7720437508
 30
0.0
 10
92.0243909196
 20
70.097875403
 30
0.0
 10
92.4972625093
 20
69.4821563752
 30
0.0
 10
93.3615737432
 20
68.7481405074
 30
0.0
 10
94.7697143006
 20
68.1114659756
 30
0.0
 10
96.0181531814
 20
67.9437552721
 30
0.0
 10
96.6622366957
 20
67.9437552721
 30
0.0
  0
SPLINE
  5
44E
100
AcDbEntity
  8
RUNDUNGEN
100
AcDbSpline
 62
7
  6
CONTINUOUS
 70
0
 71
3
 72
11
 73
7
 74
0
 42
0.0000001
 43
0.0000001
 44
0.0000000001
 40
0.0
 40
0.0
 40
0.0
 40
0.0
 40
0.2297023479
 40
0.4842340123
 40
0.7475494683
 40
1.0
 40
1.0
 40
1.0
 40
1.0
 10
86.2281719552
 20
128.0519168223
 30
0.0
 10
86.3479093149
 20
127.9309996737
 30
0.0
 10
86.6573750388
 20
127.7313301542
 30
0.0
 10
87.1997833622
 20
127.588935157
 30
0.0
 10
87.7769791051
 20
127.5970095913
 30
0.0
 10
88.1496604127
 20
127.7084600817
 30
0.0
 10
88.3172646762
 20
127.7914445558
 30
0.0
  0
SPLINE
  5
44F
100
AcDbEntity
  8
RUNDUNGEN
100
AcDbSpline
 62
7
  6
CONTINUOUS
 70
0
 71
3
 72
9
 73
5
 74
0
 42
0.0000001
 43
0.0000001
 44
0.0000000001
 40
0.0
 40
0.0
 40
0.0
 40
0.0
 40
0.5194816775
 40
1.0
 40
1.0
 40
1.0
 40
1.0
 10
169.6849129269
 20
132.6857405451
 30
0.0
 10
169.767748482
 20
132.7693922905
 30
0.0
 10
169.9045097408
 20
132.9570587357
 30
0.0
 10
169.9562438886
 20
133.1858224838
 30
0.0
 10
169.9561727631
 20
133.2947182408
 30
0.0
  0
SPLINE
  5
450
100
AcDbEntity
  8
RUNDUNGEN
100
AcDbSpline
 62
7
  6
CONTINUOUS
 70
0
 71
3
 72
13
 73
9
 74
0
 42
0.0000001
 43
0.0000001
 44
0.0000000001
 40
0.0
 40
0.0
 40
0.0
 40
0.0
 40
0.2870490624
 40
0.5535683755
 40
0.6755038246
 40
0.7893311355
 40
0.8965454157
 40
1.0
 40
1.0
 40
1.0
 40
1.0
 10
154.6622366957
 20
67.9437552721
 30
0.0
 10
155.3063207126
 20
67.9437552721
 30
0.0
 10
156.5547600414
 20
68.1114661353
 30
0.0
 10
157.9629008055
 20
68.7481412222
 30
0.0
 10
158.8272117599
 20
69.4821572619
 30
0.0
 10
159.3000829247
 20
70.0978762855
 30
0.0
 10
159.5948711244
 20
70.7720442985
 30
0.0
 10
159.6622366957
 20
71.2471565814
 30
0.0
 10
159.6622366957
 20
71.4792891781
 30
0.0
  0
SPLINE
  5
451
100
AcDbEntity
  8
RUNDUNGEN
100
AcDbSpline
 62
7
  6
CONTINUOUS
 70
0
 71
3
 72
11
 73
7
 74
0
 42
0.0000001
 43
0.0000001
 44
0.0000000001
 40
0.0
 40
0.0
 40
0.0
 40
0.0
 40
0.2094942263
 40
0.444667264
 40
0.7119932261
 40
1.0
 40
1.0
 40
1.0
 40
1.0
 10
151.8122366957
 20
68.2973086627
 30
0.0
 10
151.8122366957
 20
68.2504527409
 30
0.0
 10
151.8426564362
 20
68.1498113545
 30
0.0
 10
151.9591965447
 20
68.0346184243
 30
0.0
 10
152.1228244012
 20
67.9605819424
 30
0.0
 10
152.2478204914
 20
67.9437552721
 30
0.0
 10
152.3122366957
 20
67.9437552721
 30
0.0
  0
SPLINE
  5
452
100
AcDbEntity
  8
RUNDUNGEN
100
AcDbSpline
 62
7
  6
CONTINUOUS
 70
0
 71
3
 72
10
 73
6
 74
0
 42
0.0000001
 43
0.0000001
 44
0.0000000001
 40
0.0
 40
0.0
 40
0.0
 40
0.0
 40
0.47201694
 40
0.7322443513
 40
1.0
 40
1.0
 40
1.0
 40
1.0
 10
135.8544425664
 20
77.9366716139
 30
0.0
 10
136.3476241133
 20
77.4386306802
 30
0.0
 10
137.3276040755
 20
76.8711714164
 30
0.0
 10
138.7659301506
 20
76.4954951332
 30
0.0
 10
139.5526064087
 20
76.4290366464
 30
0.0
 10
139.9502027878
 20
76.4290366464
 30
0.0
  0
SPLINE
  5
453
100
AcDbEntity
  8
RUNDUNGEN
100
AcDbSpline
 62
7
  6
CONTINUOUS
 70
0
 71
3
 72
10
 73
6
 74
0
 42
0.0000001
 43
0.0000001
 44
0.0000000001
 40
0.0
 40
0.0
 40
0.0
 40
0.0
 40
0.2677558652
 40
0.5279833681
 40
1.0
 40
1.0
 40
1.0
 40
1.0
 10
111.3742706035
 20
76.4290366464
 30
0.0
 10
111.7718673062
 20
76.4290366464
 30
0.0
 10
112.5585440313
 20
76.4954952162
 30
0.0
 10
113.9968700553
 20
76.8711717778
 30
0.0
 10
114.9768495974
 20
77.4386310026
 30
0.0
 10
115.470030825
 20
77.9366716139
 30
0.0
  0
SPLINE
  5
454
100
AcDbEntity
  8
RUNDUNGEN
100
AcDbSpline
 62
7
  6
CONTINUOUS
 70
0
 71
3
 72
13
 73
9
 74
0
 42
0.0000001
 43
0.0000001
 44
0.0000000001
 40
0.0
 40
0.0
 40
0.0
 40
0.0
 40
0.1034546555
 40
0.2106690395
 40
0.3244963599
 40
0.4464318111
 40
0.7129511617
 40
1.0
 40
1.0
 40
1.0
 40
1.0
 10
99.5122366957
 20
72.8935027404
 30
0.0
 10
99.5122366957
 20
73.1256354969
 30
0.0
 10
99.5796024094
 20
73.6007481677
 30
0.0
 10
99.8743909196
 20
74.2749165155
 30
0.0
 10
100.3472625093
 20
74.8906355433
 30
0.0
 10
101.2115737432
 20
75.6246514111
 30
0.0
 10
102.6197143006
 20
76.2613259429
 30
0.0
 10
103.8681531814
 20
76.4290366464
 30
0.0
 10
104.5122366957
 20
76.4290366464
 30
0.0
  0
SPLINE
  5
455
100
AcDbEntity
  8
RUNDUNGEN
100
AcDbSpline
 62
7
  6
CONTINUOUS
 70
0
 71
3
 72
13
 73
9
 74
0
 42
0.0000001
 43
0.0000001
 44
0.0000000001
 40
0.0
 40
0.0
 40
0.0
 40
0.0
 40
0.2870490624
 40
0.5535683755
 40
0.6755038246
 40
0.7893311355
 40
0.8965454157
 40
1.0
 40
1.0
 40
1.0
 40
1.0
 10
146.8122366957
 20
76.4290366464
 30
0.0
 10
147.4563207126
 20
76.4290366464
 30
0.0
 10
148.7047600414
 20
76.2613257832
 30
0.0
 10
150.1129008055
 20
75.6246506963
 30
0.0
 10
150.9772117599
 20
74.8906346566
 30
0.0
 10
151.4500829247
 20
74.274915633
 30
0.0
 10
151.7448711244
 20
73.60074762
 30
0.0
 10
151.8122366957
 20
73.1256353371
 30
0.0
 10
151.8122366957
 20
72.8935027404
 30
0.0
  0
SPLINE
  5
456
100
AcDbEntity
  8
RUNDUNGEN
100
AcDbSpline
 62
7
  6
CONTINUOUS
 70
0
 71
3
 72
13
 73
9
 74
0
 42
0.0000001
 43
0.0000001
 44
0.0000000001
 40
0.0
 40
0.0
 40
0.0
 40
0.0
 40
0.2360077172
 40
0.3661261163
 40
0.500000078
 40
0.6338740716
 40
0.7639924399
 40
1.0
 40
1.0
 40
1.0
 40
1.0
 10
120.7473244299
 20
83.2659631322
 30
0.0
 10
121.3391403804
 20
83.8636103281
 30
0.0
 10
122.5149006714
 20
84.5445871918
 30
0.0
 10
124.2415380649
 20
84.9953573903
 30
0.0
 10
125.6622376711
 20
85.1155764134
 30
0.0
 10
127.0829371427
 20
84.9953570941
 30
0.0
 10
128.8095739091
 20
84.5445866559
 30
0.0
 10
129.9853334049
 20
83.8636099303
 30
0.0
 10
130.5771489614
 20
83.2659631322
 30
0.0
  0
SPLINE
  5
457
100
AcDbEntity
  8
RUNDUNGEN
100
AcDbSpline
 62
7
  6
CONTINUOUS
 70
0
 71
3
 72
9
 73
5
 74
0
 42
0.0000001
 43
0.0000001
 44
0.0000000001
 40
0.0
 40
0.0
 40
0.0
 40
0.0
 40
0.5167739528
 40
1.0
 40
1.0
 40
1.0
 40
1.0
 10
107.430152641
 20
98.0091703261
 30
0.0
 10
108.0404776525
 20
98.6255089555
 30
0.0
 10
109.0929995945
 20
99.9583989142
 30
0.0
 10
109.7441891673
 20
101.5354697417
 30
0.0
 10
109.9328760557
 20
102.3243000787
 30
0.0
  0
SPLINE
  5
458
100
AcDbEntity
  8
RUNDUNGEN
100
AcDbSpline
 62
7
  6
CONTINUOUS
 70
0
 71
3
 72
11
 73
7
 74
0
 42
0.0000001
 43
0.0000001
 44
0.0000000001
 40
0.0
 40
0.0
 40
0.0
 40
0.0
 40
0.2660806488
 40
0.5190943636
 40
0.7622194616
 40
1.0
 40
1.0
 40
1.0
 40
1.0
 10
107.430152641
 20
106.6410300504
 30
0.0
 10
107.8561064318
 20
106.2108792772
 30
0.0
 10
108.6227964598
 20
105.3037643443
 30
0.0
 10
109.490742749
 20
103.790652957
 30
0.0
 10
110.0228623832
 20
102.1959218567
 30
0.0
 10
110.1428719958
 20
101.098311338
 30
0.0
 10
110.1428719766
 20
100.5573327843
 30
0.0
  0
SPLINE
  5
459
100
AcDbEntity
  8
RUNDUNGEN
100
AcDbSpline
 62
7
  6
CONTINUOUS
 70
0
 71
3
 72
11
 73
7
 74
0
 42
0.0000001
 43
0.0000001
 44
0.0000000001
 40
0.0
 40
0.0
 40
0.0
 40
0.0
 40
0.2524507309
 40
0.5157647478
 40
0.7702968692
 40
1.0
 40
1.0
 40
1.0
 40
1.0
 10
91.5938728533
 20
129.4137637065
 30
0.0
 10
91.8732135163
 20
129.5520712742
 30
0.0
 10
92.4943476397
 20
129.7378214295
 30
0.0
 10
93.4563393633
 20
129.7512795599
 30
0.0
 10
94.3603534106
 20
129.5139558224
 30
0.0
 10
94.8761311062
 20
129.1811725328
 30
0.0
 10
95.0756940549
 20
128.9796432624
 30
0.0
  0
SPLINE
  5
45A
100
AcDbEntity
  8
RUNDUNGEN
100
AcDbSpline
 62
7
  6
CONTINUOUS
 70
0
 71
3
 72
9
 73
5
 74
0
 42
0.0000001
 43
0.0000001
 44
0.0000000001
 40
0.0
 40
0.0
 40
0.0
 40
0.0
 40
0.5194825986
 40
1.0
 40
1.0
 40
1.0
 40
1.0
 10
97.7141456622
 20
126.3151946218
 30
0.0
 10
97.8522050337
 20
126.1757749319
 30
0.0
 10
98.0801398938
 20
125.8629976524
 30
0.0
 10
98.1663640971
 20
125.4817253204
 30
0.0
 10
98.1662455965
 20
125.3002329132
 30
0.0
  0
SPLINE
  5
45B
100
AcDbEntity
  8
RUNDUNGEN
100
AcDbSpline
 62
7
  6
CONTINUOUS
 70
0
 71
3
 72
12
 73
8
 74
0
 42
0.0000001
 43
0.0000001
 44
0.0000000001
 40
0.0
 40
0.0
 40
0.0
 40
0.0
 40
0.252259356
 40
0.5153839756
 40
0.6451803977
 40
0.7704553584
 40
1.0
 40
1.0
 40
1.0
 40
1.0
 10
145.0786902255
 20
132.0836944605
 30
0.0
 10
145.6373426354
 20
131.8070936422
 30
0.0
 10
146.8791953616
 20
131.435782639
 30
0.0
 10
148.4932417762
 20
131.4124693211
 30
0.0
 10
149.7544812281
 20
131.6594973358
 30
0.0
 10
150.8850146084
 20
132.0596369448
 30
0.0
 10
151.6432001916
 20
132.5488702038
 30
0.0
 10
152.0423326287
 20
132.9519353488
 30
0.0
  0
SPLINE
  5
45C
100
AcDbEntity
  8
RUNDUNGEN
100
AcDbSpline
 62
7
  6
CONTINUOUS
 70
0
 71
3
 72
12
 73
8
 74
0
 42
0.0000001
 43
0.0000001
 44
0.0000000001
 40
0.0
 40
0.0
 40
0.0
 40
0.0
 40
0.2295488423
 40
0.3548243544
 40
0.4846199331
 40
0.7477426437
 40
1.0
 40
1.0
 40
1.0
 40
1.0
 10
105.9991875258
 20
136.2776896077
 30
0.0
 10
106.3983272616
 20
135.8746170921
 30
0.0
 10
107.1565252163
 20
135.3853791219
 30
0.0
 10
108.2870701392
 20
134.985243427
 30
0.0
 10
109.5483052352
 20
134.7382221537
 30
0.0
 10
111.1623394029
 20
134.7615406735
 30
0.0
 10
112.4041819551
 20
135.1328500974
 30
0.0
 10
112.962829929
 20
135.4094487194
 30
0.0
  0
SPLINE
  5
45D
100
AcDbEntity
  8
0
100
AcDbSpline
 62
7
  6
CONTINUOUS
 70
0
 71
3
 72
11
 73
7
 74
0
 42
0.0000001
 43
0.0000001
 44
0.0000000001
 40
0.0
 40
0.0
 40
0.0
 40
0.0
 40
0.2094656921
 40
0.4446574861
 40
0.7119998836
 40
1.0
 40
1.0
 40
1.0
 40
1.0
 10
123.8639182712
 20
121.5472811541
 30
0.0
 10
123.8639182712
 20
121.6487728009
 30
0.0
 10
123.7980289759
 20
121.866782116
 30
0.0
 10
123.5456153118
 20
122.1163956157
 30
0.0
 10
123.1910911238
 20
122.2767206577
 30
0.0
 10
122.9203139065
 20
122.3131956776
 30
0.0
 10
122.7807702619
 20
122.3131956776
 30
0.0
  0
SPLINE
  5
45E
100
AcDbEntity
  8
0
100
AcDbSpline
 62
7
  6
CONTINUOUS
 70
0
 71
3
 72
9
 73
5
 74
0
 42
0.0000001
 43
0.0000001
 44
0.0000000001
 40
0.0
 40
0.0
 40
0.0
 40
0.0
 40
0.4402133985
 40
1.0
 40
1.0
 40
1.0
 40
1.0
 10
113.4749689604
 20
120.8141293015
 30
0.0
 10
113.4749689604
 20
120.7909500876
 30
0.0
 10
113.5106667497
 20
120.7404745998
 30
0.0
 10
113.5654936801
 20
120.7292764877
 30
0.0
 10
113.5949689604
 20
120.7292764877
 30
0.0
  0
SPLINE
  5
45F
100
AcDbEntity
  8
0
100
AcDbSpline
 62
7
  6
CONTINUOUS
 70
0
 71
3
 72
11
 73
7
 74
0
 42
0.0000001
 43
0.0000001
 44
0.0000000001
 40
0.0
 40
0.0
 40
0.0
 40
0.0
 40
0.2094929298
 40
0.4446655277
 40
0.7119947494
 40
1.0
 40
1.0
 40
1.0
 40
1.0
 10
111.0749689604
 20
117.8654940239
 30
0.0
 10
111.0749689604
 20
117.8092672684
 30
0.0
 10
111.1114716858
 20
117.6884977798
 30
0.0
 10
111.2513208663
 20
117.5502666353
 30
0.0
 10
111.4476740088
 20
117.4614216047
 30
0.0
 10
111.5976699279
 20
117.4412299552
 30
0.0
 10
111.6749689604
 20
117.4412299552
 30
0.0
  0
SPLINE
  5
460
100
AcDbEntity
  8
0
100
AcDbSpline
 62
7
  6
CONTINUOUS
 70
0
 71
3
 72
11
 73
7
 74
0
 42
0.0000001
 43
0.0000001
 44
0.0000000001
 40
0.0
 40
0.0
 40
0.0
 40
0.0
 40
0.2094668498
 40
0.4446559298
 40
0.7120302568
 40
1.0
 40
1.0
 40
1.0
 40
1.0
 10
115.1249689604
 20
119.7746823331
 30
0.0
 10
115.1249689604
 20
119.8027924079
 30
0.0
 10
115.1067134974
 20
119.8631713547
 30
0.0
 10
115.0368068435
 20
119.9323145343
 30
0.0
 10
114.9386093533
 20
119.9767108365
 30
0.0
 10
114.8636139824
 20
119.9868143675
 30
0.0
 10
114.8249689604
 20
119.9868143675
 30
0.0
  0
SPLINE
  5
461
100
AcDbEntity
  8
0
100
AcDbSpline
 62
7
  6
CONTINUOUS
 70
0
 71
3
 72
11
 73
7
 74
0
 42
0.0000001
 43
0.0000001
 44
0.0000000001
 40
0.0
 40
0.0
 40
0.0
 40
0.0
 40
0.2880052506
 40
0.5553344723
 40
0.7905070702
 40
1.0
 40
1.0
 40
1.0
 40
1.0
 10
116.4749689604
 20
117.4412299552
 30
0.0
 10
116.5522679929
 20
117.4412299552
 30
0.0
 10
116.702263912
 20
117.4614216047
 30
0.0
 10
116.8986170545
 20
117.5502666353
 30
0.0
 10
117.038466235
 20
117.6884977798
 30
0.0
 10
117.0749689604
 20
117.8092672684
 30
0.0
 10
117.0749689604
 20
117.8654940239
 30
0.0
  0
SPLINE
  5
462
100
AcDbEntity
  8
0
100
AcDbSpline
 62
7
  6
CONTINUOUS
 70
0
 71
3
 72
9
 73
5
 74
0
 42
0.0000001
 43
0.0000001
 44
0.0000000001
 40
0.0
 40
0.0
 40
0.0
 40
0.0
 40
0.2445376398
 40
1.0
 40
1.0
 40
1.0
 40
1.0
 10
111.0749689604
 20
118.2190474145
 30
0.0
 10
111.0749689604
 20
118.2052066917
 30
0.0
 10
111.0789443005
 20
118.1486259171
 30
0.0
 10
111.099053359
 20
118.0935976823
 30
0.0
 10
111.1206412409
 20
118.0566885845
 30
0.0
  0
SPLINE
  5
463
100
AcDbEntity
  8
0
100
AcDbSpline
 62
7
  6
CONTINUOUS
 70
0
 71
3
 72
9
 73
5
 74
0
 42
0.0000001
 43
0.0000001
 44
0.0000000001
 40
0.0
 40
0.0
 40
0.0
 40
0.0
 40
0.461013727
 40
1.0
 40
1.0
 40
1.0
 40
1.0
 10
111.1206412409
 20
118.0566885845
 30
0.0
 10
111.1697227278
 20
117.972773293
 30
0.0
 10
111.3480810543
 20
117.8346830833
 30
0.0
 10
111.5613116408
 20
117.7947833458
 30
0.0
 10
111.6749689604
 20
117.7947833458
 30
0.0
  0
SPLINE
  5
464
100
AcDbEntity
  8
0
100
AcDbSpline
 62
7
  6
CONTINUOUS
 70
0
 71
3
 72
11
 73
7
 74
0
 42
0.0000001
 43
0.0000001
 44
0.0000000001
 40
0.0
 40
0.0
 40
0.0
 40
0.0
 40
0.2879697432
 40
0.5553440702
 40
0.7905331502
 40
1.0
 40
1.0
 40
1.0
 40
1.0
 10
113.3249689604
 20
119.9868143675
 30
0.0
 10
113.2863239384
 20
119.9868143675
 30
0.0
 10
113.2113285675
 20
119.9767108365
 30
0.0
 10
113.1131310773
 20
119.9323145343
 30
0.0
 10
113.0432244234
 20
119.8631713547
 30
0.0
 10
113.0249689604
 20
119.8027924079
 30
0.0
 10
113.0249689604
 20
119.7746823331
 30
0.0
  0
SPLINE
  5
465
100
AcDbEntity
  8
RUNDUNGEN
100
AcDbSpline
 62
7
  6
CONTINUOUS
 70
0
 71
3
 72
11
 73
7
 74
0
 42
0.0000001
 43
0.0000001
 44
0.0000000001
 40
0.0
 40
0.0
 40
0.0
 40
0.0
 40
0.237780559
 40
0.4809056754
 40
0.7339193747
 40
1.0
 40
1.0
 40
1.0
 40
1.0
 10
110.1428719766
 20
100.5573327843
 30
0.0
 10
110.1428719575
 20
100.0163542547
 30
0.0
 10
110.0228621919
 20
98.9187438043
 30
0.0
 10
109.490742453
 20
97.3240129245
 30
0.0
 10
108.6227962341
 20
95.8109018193
 30
0.0
 10
107.8561063383
 20
94.903787099
 30
0.0
 10
107.430152641
 20
94.4736364202
 30
0.0
  0
SPLINE
  5
466
100
AcDbEntity
  8
0
100
AcDbSpline
 62
7
  6
CONTINUOUS
 70
0
 71
3
 72
11
 73
7
 74
0
 42
0.0000001
 43
0.0000001
 44
0.0000000001
 40
0.0
 40
0.0
 40
0.0
 40
0.0
 40
0.2879697432
 40
0.5553440702
 40
0.7905331502
 40
1.0
 40
1.0
 40
1.0
 40
1.0
 10
113.3249689604
 20
122.108134711
 30
0.0
 10
113.2863239384
 20
122.108134711
 30
0.0
 10
113.2113285675
 20
122.0980311801
 30
0.0
 10
113.1131310773
 20
122.0536348778
 30
0.0
 10
113.0432244234
 20
121.9844916982
 30
0.0
 10
113.0249689604
 20
121.9241127514
 30
0.0
 10
113.0249689604
 20
121.8960026767
 30
0.0
  0
SPLINE
  5
467
100
AcDbEntity
  8
0
100
AcDbSpline
 62
7
  6
CONTINUOUS
 70
0
 71
3
 72
9
 73
5
 74
0
 42
0.0000001
 43
0.0000001
 44
0.0000000001
 40
0.0
 40
0.0
 40
0.0
 40
0.0
 40
0.5597866015
 40
1.0
 40
1.0
 40
1.0
 40
1.0
 10
113.9699689604
 20
120.9414085221
 30
0.0
 10
113.9404936801
 20
120.9414085221
 30
0.0
 10
113.8856667497
 20
120.93021041
 30
0.0
 10
113.8499689604
 20
120.8797349222
 30
0.0
 10
113.8499689604
 20
120.8565557083
 30
0.0
  0
SPLINE
  5
468
100
AcDbEntity
  8
0
100
AcDbSpline
 62
7
  6
CONTINUOUS
 70
0
 71
3
 72
9
 73
5
 74
0
 42
0.0000001
 43
0.0000001
 44
0.0000000001
 40
0.0
 40
0.0
 40
0.0
 40
0.0
 40
0.5597866015
 40
1.0
 40
1.0
 40
1.0
 40
1.0
 10
114.5549689604
 20
120.7292764877
 30
0.0
 10
114.5844442407
 20
120.7292764877
 30
0.0
 10
114.6392711711
 20
120.7404745998
 30
0.0
 10
114.6749689604
 20
120.7909500876
 30
0.0
 10
114.6749689604
 20
120.8141293015
 30
0.0
  0
SPLINE
  5
469
100
AcDbEntity
  8
RUNDUNGEN
100
AcDbSpline
 62
7
  6
CONTINUOUS
 70
0
 71
3
 72
10
 73
6
 74
0
 42
0.0000001
 43
0.0000001
 44
0.0000000001
 40
0.0
 40
0.0
 40
0.0
 40
0.0
 40
0.2382827206
 40
0.4819249463
 40
1.0
 40
1.0
 40
1.0
 40
1.0
 10
159.6622366957
 20
77.4356074314
 30
0.0
 10
159.6622366957
 20
77.6159324524
 30
0.0
 10
159.6221163844
 20
77.9819109147
 30
0.0
 10
159.3816894309
 20
78.7039972367
 30
0.0
 10
159.0338650761
 20
79.1849200431
 30
0.0
 10
158.7579969171
 20
79.4635063697
 30
0.0
  0
SPLINE
  5
46A
100
AcDbEntity
  8
0
100
AcDbSpline
 62
7
  6
CONTINUOUS
 70
0
 71
3
 72
9
 73
5
 74
0
 42
0.0000001
 43
0.0000001
 44
0.0000000001
 40
0.0
 40
0.0
 40
0.0
 40
0.0
 40
0.5597866015
 40
1.0
 40
1.0
 40
1.0
 40
1.0
 10
114.5549689604
 20
118.6079561442
 30
0.0
 10
114.5844442407
 20
118.6079561442
 30
0.0
 10
114.6392711711
 20
118.6191542563
 30
0.0
 10
114.6749689604
 20
118.6696297441
 30
0.0
 10
114.6749689604
 20
118.6928089579
 30
0.0
  0
SPLINE
  5
46B
100
AcDbEntity
  8
RUNDUNGEN
100
AcDbSpline
 62
7
  6
CONTINUOUS
 70
0
 71
3
 72
11
 73
7
 74
0
 42
0.0000001
 43
0.0000001
 44
0.0000000001
 40
0.0
 40
0.0
 40
0.0
 40
0.0
 40
0.2256941656
 40
0.4632959394
 40
0.7206237852
 40
1.0
 40
1.0
 40
1.0
 40
1.0
 10
169.9561727631
 20
133.2947182408
 30
0.0
 10
169.9561171119
 20
133.379922381
 30
0.0
 10
169.9251302612
 20
133.5560517431
 30
0.0
 10
169.7924637777
 20
133.7981561079
 30
0.0
 10
169.5846947666
 20
134.0082017576
 30
0.0
 10
169.4110686788
 20
134.1161537045
 30
0.0
 10
169.316549515
 20
134.1629521746
 30
0.0
  0
SPLINE
  5
46C
100
AcDbEntity
  8
0
100
AcDbSpline
 62
7
  6
CONTINUOUS
 70
0
 71
3
 72
11
 73
7
 74
0
 42
0.0000001
 43
0.0000001
 44
0.0000000001
 40
0.0
 40
0.0
 40
0.0
 40
0.0
 40
0.2865059912
 40
0.5484241175
 40
0.7833822346
 40
1.0
 40
1.0
 40
1.0
 40
1.0
 10
123.4029187809
 20
120.2083179842
 30
0.0
 10
123.594102654
 20
120.2527347262
 30
0.0
 10
123.952535433
 20
120.3791158287
 30
0.0
 10
124.40079737
 20
120.687319593
 30
0.0
 10
124.7009123217
 20
121.0866223954
 30
0.0
 10
124.7739549584
 20
121.39920028
 30
0.0
 10
124.7739326968
 20
121.5475978275
 30
0.0
  0
SPLINE
  5
46D
100
AcDbEntity
  8
0
100
AcDbSpline
 62
7
  6
CONTINUOUS
 70
0
 71
3
 72
9
 73
5
 74
0
 42
0.0000001
 43
0.0000001
 44
0.0000000001
 40
0.0
 40
0.0
 40
0.0
 40
0.0
 40
0.4402133985
 40
1.0
 40
1.0
 40
1.0
 40
1.0
 10
113.4749689604
 20
121.167682692
 30
0.0
 10
113.4749689604
 20
121.1445034782
 30
0.0
 10
113.5106667497
 20
121.0940279904
 30
0.0
 10
113.5654936801
 20
121.0828298783
 30
0.0
 10
113.5949689604
 20
121.0828298783
 30
0.0
  0
SPLINE
  5
46E
100
AcDbEntity
  8
0
100
AcDbSpline
 62
7
  6
CONTINUOUS
 70
0
 71
3
 72
9
 73
5
 74
0
 42
0.0000001
 43
0.0000001
 44
0.0000000001
 40
0.0
 40
0.0
 40
0.0
 40
0.0
 40
0.2536121958
 40
1.0
 40
1.0
 40
1.0
 40
1.0
 10
137.4928726901
 20
117.4412299552
 30
0.0
 10
137.5134053573
 20
117.4412299552
 30
0.0
 10
137.5943281906
 20
117.4441633277
 30
0.0
 10
137.6749179195
 20
117.4587828043
 30
0.0
 10
137.7326642662
 20
117.4765852943
 30
0.0
  0
SPLINE
  5
46F
100
AcDbEntity
  8
0
100
AcDbSpline
 62
7
  6
CONTINUOUS
 70
0
 71
3
 72
12
 73
8
 74
0
 42
0.0000001
 43
0.0000001
 44
0.0000000001
 40
0.0
 40
0.0
 40
0.0
 40
0.0
 40
0.2844670851
 40
0.5445747
 40
0.7798379195
 40
0.8910272787
 40
1.0
 40
1.0
 40
1.0
 40
1.0
 10
137.7326642662
 20
117.4765852943
 30
0.0
 10
138.091259559
 20
117.5871358218
 30
0.0
 10
138.7586369744
 20
117.8733872153
 30
0.0
 10
139.5819863082
 20
118.5107281613
 30
0.0
 10
140.0421840835
 20
119.1876208594
 30
0.0
 10
140.2238737856
 20
119.7639092102
 30
0.0
 10
140.2541020294
 20
120.0551971437
 30
0.0
 10
140.2541020294
 20
120.1989464018
 30
0.0
  0
SPLINE
  5
470
100
AcDbEntity
  8
0
100
AcDbSpline
 62
7
  6
CONTINUOUS
 70
0
 71
3
 72
9
 73
5
 74
0
 42
0.0000001
 43
0.0000001
 44
0.0000000001
 40
0.0
 40
0.0
 40
0.0
 40
0.0
 40
0.239729366
 40
1.0
 40
1.0
 40
1.0
 40
1.0
 10
137.6963082401
 20
122.2341282829
 30
0.0
 10
137.6830518325
 20
122.2413066369
 30
0.0
 10
137.625620032
 20
122.2672388806
 30
0.0
 10
137.5617181547
 20
122.2778403385
 30
0.0
 10
137.513909168
 20
122.2778403385
 30
0.0
  0
SPLINE
  5
471
100
AcDbEntity
  8
RUNDUNGEN
100
AcDbSpline
 62
7
  6
CONTINUOUS
 70
0
 71
3
 72
10
 73
6
 74
0
 42
0.0000001
 43
0.0000001
 44
0.0000000001
 40
0.0
 40
0.0
 40
0.0
 40
0.0
 40
0.5180752096
 40
0.7617173681
 40
1.0
 40
1.0
 40
1.0
 40
1.0
 10
92.5664764742
 20
79.4635063697
 30
0.0
 10
92.2906082326
 20
79.1849199597
 30
0.0
 10
91.9427838591
 20
78.7039970692
 30
0.0
 10
91.7023569694
 20
77.9819107289
 30
0.0
 10
91.6622366957
 20
77.6159323851
 30
0.0
 10
91.6622366957
 20
77.4356074314
 30
0.0
  0
SPLINE
  5
472
100
AcDbEntity
  8
RUNDUNGEN
100
AcDbSpline
 62
7
  6
CONTINUOUS
 70
0
 71
3
 72
11
 73
7
 74
0
 42
0.0000001
 43
0.0000001
 44
0.0000000001
 40
0.0
 40
0.0
 40
0.0
 40
0.0
 40
0.2793752682
 40
0.5367194959
 40
0.7743217448
 40
1.0
 40
1.0
 40
1.0
 40
1.0
 10
93.8235984652
 20
122.2308560886
 30
0.0
 10
93.7290746632
 20
122.1840553221
 30
0.0
 10
93.555435426
 20
122.0760931249
 30
0.0
 10
93.3476543941
 20
121.866027509
 30
0.0
 10
93.2149963385
 20
121.6239006839
 30
0.0
 10
93.1840219588
 20
121.4477655122
 30
0.0
 10
93.183973823
 20
121.3625629045
 30
0.0
  0
SPLINE
  5
473
100
AcDbEntity
  8
0
100
AcDbSpline
 62
7
  6
CONTINUOUS
 70
0
 71
3
 72
11
 73
7
 74
0
 42
0.0000001
 43
0.0000001
 44
0.0000000001
 40
0.0
 40
0.0
 40
0.0
 40
0.0
 40
0.2094668498
 40
0.4446559298
 40
0.7120302568
 40
1.0
 40
1.0
 40
1.0
 40
1.0
 10
115.1249689604
 20
121.8960026767
 30
0.0
 10
115.1249689604
 20
121.9241127514
 30
0.0
 10
115.1067134974
 20
121.9844916982
 30
0.0
 10
115.0368068435
 20
122.0536348778
 30
0.0
 10
114.9386093533
 20
122.0980311801
 30
0.0
 10
114.8636139824
 20
122.108134711
 30
0.0
 10
114.8249689604
 20
122.108134711
 30
0.0
  0
SPLINE
  5
474
100
AcDbEntity
  8
RUNDUNGEN
100
AcDbSpline
 62
7
  6
CONTINUOUS
 70
0
 71
3
 72
11
 73
7
 74
0
 42
0.0000001
 43
0.0000001
 44
0.0000000001
 40
0.0
 40
0.0
 40
0.0
 40
0.0
 40
0.2794013718
 40
0.5367226037
 40
0.7743080703
 40
1.0
 40
1.0
 40
1.0
 40
1.0
 10
84.8749560313
 20
135.5824814314
 30
0.0
 10
84.5596437706
 20
135.4263635524
 30
0.0
 10
83.98048465
 20
135.0662077812
 30
0.0
 10
83.2876305616
 20
134.3653486278
 30
0.0
 10
82.8455650018
 20
133.557506438
 30
0.0
 10
82.7427858072
 20
132.9699120357
 30
0.0
 10
82.7428406391
 20
132.685702685
 30
0.0
  0
SPLINE
  5
475
100
AcDbEntity
  8
RUNDUNGEN
100
AcDbSpline
 62
7
  6
CONTINUOUS
 70
0
 71
3
 72
13
 73
9
 74
0
 42
0.0000001
 43
0.0000001
 44
0.0000000001
 40
0.0
 40
0.0
 40
0.0
 40
0.0
 40
0.2294024489
 40
0.3545997024
 40
0.4843111916
 40
0.6162488545
 40
0.7479039449
 40
1.0
 40
1.0
 40
1.0
 40
1.0
 10
105.1923068046
 20
133.5569867318
 30
0.0
 10
104.0747168154
 20
134.6855884917
 30
0.0
 10
101.9516432174
 20
136.055511014
 30
0.0
 10
98.7863932626
 20
137.1756746551
 30
0.0
 10
96.1475386387
 20
137.693155516
 30
0.0
 10
93.4189301563
 20
137.838787338
 30
0.0
 10
89.8552250141
 20
137.5386415636
 30
0.0
 10
87.2583179823
 20
136.7625351721
 30
0.0
 10
85.6941080756
 20
135.9880612191
 30
0.0
  0
SPLINE
  5
476
100
AcDbEntity
  8
0
100
AcDbSpline
 62
7
  6
CONTINUOUS
 70
0
 71
3
 72
9
 73
5
 74
0
 42
0.0000001
 43
0.0000001
 44
0.0000000001
 40
0.0
 40
0.0
 40
0.0
 40
0.0
 40
0.2419366003
 40
1.0
 40
1.0
 40
1.0
 40
1.0
 10
134.2658832409
 20
133.9018137518
 30
0.0
 10
133.8053810478
 20
134.1298182878
 30
0.0
 10
131.8576404765
 20
134.9814645127
 30
0.0
 10
129.7616691901
 20
135.4803603702
 30
0.0
 10
128.1629836485
 20
135.671517076
 30
0.0
  0
SPLINE
  5
477
100
AcDbEntity
  8
0
100
AcDbSpline
 62
7
  6
CONTINUOUS
 70
0
 71
3
 72
9
 73
5
 74
0
 42
0.0000001
 43
0.0000001
 44
0.0000000001
 40
0.0
 40
0.0
 40
0.0
 40
0.0
 40
0.2576167678
 40
1.0
 40
1.0
 40
1.0
 40
1.0
 10
123.1614897428
 20
135.671517076
 30
0.0
 10
122.6182599256
 20
135.6065624495
 30
0.0
 10
120.5210584195
 20
135.2717580026
 30
0.0
 10
118.4714862878
 20
134.6013690046
 30
0.0
 10
117.0585901504
 20
133.9018137518
 30
0.0
  0
SPLINE
  5
478
100
AcDbEntity
  8
RUNDUNGEN
100
AcDbSpline
 62
7
  6
CONTINUOUS
 70
0
 71
3
 72
11
 73
7
 74
0
 42
0.0000001
 43
0.0000001
 44
0.0000000001
 40
0.0
 40
0.0
 40
0.0
 40
0.0
 40
0.2524504675
 40
0.5157648302
 40
0.7702974388
 40
1.0
 40
1.0
 40
1.0
 40
1.0
 10
162.1080115253
 20
137.7320543061
 30
0.0
 10
161.9404073028
 20
137.8150387599
 30
0.0
 10
161.5677268401
 20
137.9264890729
 30
0.0
 10
160.9905313364
 20
137.9345638078
 30
0.0
 10
160.4481227613
 20
137.7921692927
 30
0.0
 10
160.1386562763
 20
137.5924993017
 30
0.0
 10
160.0189188043
 20
137.4715820396
 30
0.0
  0
SPLINE
  5
479
100
AcDbEntity
  8
BEZUGSACHSEN
100
AcDbSpline
 62
7
  6
CONTINUOUS
 70
0
 71
3
 72
19
 73
15
 74
0
 42
0.0000001
 43
0.0000001
 44
0.0000000001
 40
0.0
 40
0.0
 40
0.0
 40
0.0
 40
0.0517279957
 40
0.105334459
 40
0.1622489926
 40
0.2232158543
 40
0.3564755372
 40
0.5
 40
0.6435244628
 40
0.7767841457
 40
0.8377510074
 40
0.894665541
 40
0.9482720043
 40
1.0
 40
1.0
 40
1.0
 40
1.0
 10
120.1622366957
 20
129.1024815683
 30
0.0
 10
120.1622366957
 20
128.8471322432
 30
0.0
 10
120.2363417001
 20
128.3245086535
 30
0.0
 10
120.5606056345
 20
127.5829202478
 30
0.0
 10
121.0807843278
 20
126.9056329108
 30
0.0
 10
122.0314108427
 20
126.0982166012
 30
0.0
 10
123.5813766342
 20
125.3978761104
 30
0.0
 10
125.6622366957
 20
125.117732518
 30
0.0
 10
127.7430967571
 20
125.3978761104
 30
0.0
 10
129.2930625487
 20
126.0982166012
 30
0.0
 10
130.2436890636
 20
126.9056329108
 30
0.0
 10
130.7638677568
 20
127.5829202478
 30
0.0
 10
131.0881316913
 20
128.3245086535
 30
0.0
 10
131.1622366957
 20
128.8471322432
 30
0.0
 10
131.1622366957
 20
129.1024815683
 30
0.0
  0
SPLINE
  5
47A
100
AcDbEntity
  8
0
100
AcDbSpline
 62
7
  6
CONTINUOUS
 70
0
 71
3
 72
11
 73
7
 74
0
 42
0.0000001
 43
0.0000001
 44
0.0000000001
 40
0.0
 40
0.0
 40
0.0
 40
0.0
 40
0.227142142
 40
0.4653047767
 40
0.7220182825
 40
1.0
 40
1.0
 40
1.0
 40
1.0
 10
139.1075013844
 20
120.2130885374
 30
0.0
 10
139.1075013844
 20
120.4085079121
 30
0.0
 10
139.0402555695
 20
120.8114878461
 30
0.0
 10
138.7498106954
 20
121.3702493979
 30
0.0
 10
138.2919260916
 20
121.8616945927
 30
0.0
 10
137.9066131562
 20
122.1202480241
 30
0.0
 10
137.6963082401
 20
122.2341282829
 30
0.0
  0
SPLINE
  5
47B
100
AcDbEntity
  8
0
100
AcDbSpline
 62
7
  6
CONTINUOUS
 70
0
 71
3
 72
19
 73
15
 74
0
 42
0.0000001
 43
0.0000001
 44
0.0000000001
 40
0.0
 40
0.0
 40
0.0
 40
0.0
 40
0.0517234907
 40
0.1053372095
 40
0.1622487312
 40
0.2232163938
 40
0.3564752704
 40
0.5
 40
0.6435247296
 40
0.7767836062
 40
0.8377512688
 40
0.8946627905
 40
0.9482765093
 40
1.0
 40
1.0
 40
1.0
 40
1.0
 10
126.2207702619
 20
119.466974502
 30
0.0
 10
126.2207702619
 20
119.3348052426
 30
0.0
 10
126.2591542116
 20
119.0642701772
 30
0.0
 10
126.4269685589
 20
118.6803708521
 30
0.0
 10
126.6962867152
 20
118.3297941226
 30
0.0
 10
127.1883463901
 20
117.9118223489
 30
0.0
 10
127.9906917289
 20
117.549301777
 30
0.0
 10
129.0678379422
 20
117.40426838
 30
0.0
 10
130.1449841554
 20
117.549301777
 30
0.0
 10
130.9473294943
 20
117.9118223489
 30
0.0
 10
131.4393891692
 20
118.3297941226
 30
0.0
 10
131.7087073255
 20
118.6803708521
 30
0.0
 10
131.8765216728
 20
119.0642701772
 30
0.0
 10
131.9149056225
 20
119.3348052426
 30
0.0
 10
131.9149056225
 20
119.466974502
 30
0.0
  0
SPLINE
  5
47C
100
AcDbEntity
  8
0
100
AcDbSpline
 62
7
  6
CONTINUOUS
 70
0
 71
3
 72
9
 73
5
 74
0
 42
0.0000001
 43
0.0000001
 44
0.0000000001
 40
0.0
 40
0.0
 40
0.0
 40
0.0
 40
0.4402133985
 40
1.0
 40
1.0
 40
1.0
 40
1.0
 10
113.4749689604
 20
118.6928089579
 30
0.0
 10
113.4749689604
 20
118.6696297441
 30
0.0
 10
113.5106667497
 20
118.6191542563
 30
0.0
 10
113.5654936801
 20
118.6079561442
 30
0.0
 10
113.5949689604
 20
118.6079561442
 30
0.0
  0
SPLINE
  5
47D
100
AcDbEntity
  8
0
100
AcDbSpline
 62
7
  6
CONTINUOUS
 70
0
 71
3
 72
9
 73
5
 74
0
 42
0.0000001
 43
0.0000001
 44
0.0000000001
 40
0.0
 40
0.0
 40
0.0
 40
0.0
 40
0.4402133985
 40
1.0
 40
1.0
 40
1.0
 40
1.0
 10
113.4749689604
 20
119.0463623485
 30
0.0
 10
113.4749689604
 20
119.0231831347
 30
0.0
 10
113.5106667497
 20
118.9727076469
 30
0.0
 10
113.5654936801
 20
118.9615095347
 30
0.0
 10
113.5949689604
 20
118.9615095347
 30
0.0
  0
SPLINE
  5
47E
100
AcDbEntity
  8
0
100
AcDbSpline
 62
7
  6
CONTINUOUS
 70
0
 71
3
 72
19
 73
15
 74
0
 42
0.0000001
 43
0.0000001
 44
0.0000000001
 40
0.0
 40
0.0
 40
0.0
 40
0.0
 40
0.051855061
 40
0.1061589371
 40
0.1638754827
 40
0.2253669227
 40
0.3583203672
 40
0.5
 40
0.6416796328
 40
0.7746330773
 40
0.8361245173
 40
0.8938410629
 40
0.948144939
 40
1.0
 40
1.0
 40
1.0
 40
1.0
 10
126.2418872297
 20
119.5761206603
 30
0.0
 10
126.2630481302
 20
119.4538188538
 30
0.0
 10
126.3389937804
 20
119.2081281216
 30
0.0
 10
126.5414505616
 20
118.8685504443
 30
0.0
 10
126.825748238
 20
118.5620093308
 30
0.0
 10
127.3127636582
 20
118.2007777591
 30
0.0
 10
128.0688653315
 20
117.8896101284
 30
0.0
 10
129.0678379422
 20
117.7649362775
 30
0.0
 10
130.0668105528
 20
117.8896101284
 30
0.0
 10
130.8229122262
 20
118.2007777591
 30
0.0
 10
131.3099276464
 20
118.5620093308
 30
0.0
 10
131.5942253227
 20
118.8685504443
 30
0.0
 10
131.7966821039
 20
119.2081281216
 30
0.0
 10
131.8726277542
 20
119.4538188538
 30
0.0
 10
131.8937886547
 20
119.5761206603
 30
0.0
  0
SPLINE
  5
47F
100
AcDbEntity
  8
0
100
AcDbSpline
 62
7
  6
CONTINUOUS
 70
0
 71
3
 72
9
 73
5
 74
0
 42
0.0000001
 43
0.0000001
 44
0.0000000001
 40
0.0
 40
0.0
 40
0.0
 40
0.0
 40
0.2536121958
 40
1.0
 40
1.0
 40
1.0
 40
1.0
 10
137.4928726901
 20
117.7947833458
 30
0.0
 10
137.5134053573
 20
117.7947833458
 30
0.0
 10
137.5943281906
 20
117.7977167183
 30
0.0
 10
137.6749179195
 20
117.8123361949
 30
0.0
 10
137.7326642662
 20
117.8301386848
 30
0.0
  0
SPLINE
  5
480
100
AcDbEntity
  8
0
100
AcDbSpline
 62
7
  6
CONTINUOUS
 70
0
 71
3
 72
11
 73
7
 74
0
 42
0.0000001
 43
0.0000001
 44
0.0000000001
 40
0.0
 40
0.0
 40
0.0
 40
0.0
 40
0.2816347582
 40
0.5420479832
 40
0.7798483853
 40
1.0
 40
1.0
 40
1.0
 40
1.0
 10
137.7326642662
 20
117.8301386848
 30
0.0
 10
138.0565394186
 20
117.9299854193
 30
0.0
 10
138.6638258294
 20
118.1830344645
 30
0.0
 10
139.4347475897
 20
118.7342372196
 30
0.0
 10
139.9870064725
 20
119.4150250034
 30
0.0
 10
140.1820114022
 20
119.9447371622
 30
0.0
 10
140.2254198251
 20
120.2060851349
 30
0.0
  0
SPLINE
  5
481
100
AcDbEntity
  8
0
100
AcDbSpline
 62
7
  6
CONTINUOUS
 70
0
 71
3
 72
9
 73
5
 74
0
 42
0.0000001
 43
0.0000001
 44
0.0000000001
 40
0.0
 40
0.0
 40
0.0
 40
0.0
 40
0.2591205677
 40
1.0
 40
1.0
 40
1.0
 40
1.0
 10
137.513909168
 20
122.6313937291
 30
0.0
 10
137.5301989138
 20
122.6313937291
 30
0.0
 10
137.5929525015
 20
122.6277984593
 30
0.0
 10
137.6553517012
 20
122.6098596679
 30
0.0
 10
137.6963082401
 20
122.5876816735
 30
0.0
  0
SPLINE
  5
482
100
AcDbEntity
  8
0
100
AcDbSpline
 62
7
  6
CONTINUOUS
 70
0
 71
3
 72
11
 73
7
 74
0
 42
0.0000001
 43
0.0000001
 44
0.0000000001
 40
0.0
 40
0.0
 40
0.0
 40
0.0
 40
0.2779697373
 40
0.5346991835
 40
0.7728568778
 40
1.0
 40
1.0
 40
1.0
 40
1.0
 10
137.6963082401
 20
122.5876816735
 30
0.0
 10
137.9066048462
 20
122.4738059146
 30
0.0
 10
138.291913169
 20
122.2152415313
 30
0.0
 10
138.7498281914
 20
121.7238196352
 30
0.0
 10
139.040261993
 20
121.165037613
 30
0.0
 10
139.1075193754
 20
120.7620628461
 30
0.0
 10
139.1075193754
 20
120.566641928
 30
0.0
  0
SPLINE
  5
483
100
AcDbEntity
  8
0
100
AcDbSpline
 62
7
  6
CONTINUOUS
 70
0
 71
3
 72
11
 73
7
 74
0
 42
0.0000001
 43
0.0000001
 44
0.0000000001
 40
0.0
 40
0.0
 40
0.0
 40
0.0
 40
0.2782911642
 40
0.539206302
 40
0.7792454761
 40
1.0
 40
1.0
 40
1.0
 40
1.0
 10
123.4029187809
 20
120.5618713748
 30
0.0
 10
123.5549697902
 20
120.5971965847
 30
0.0
 10
123.8443716306
 20
120.6921522832
 30
0.0
 10
124.2269663713
 20
120.9103793842
 30
0.0
 10
124.5255538749
 20
121.1898664593
 30
0.0
 10
124.6600332909
 20
121.4162353412
 30
0.0
 10
124.7043849933
 20
121.5318467601
 30
0.0
  0
SPLINE
  5
484
100
AcDbEntity
  8
0
100
AcDbSpline
 62
7
  6
CONTINUOUS
 70
0
 71
3
 72
8
 73
4
 74
0
 42
0.0000001
 43
0.0000001
 44
0.0000000001
 40
0.0
 40
0.0
 40
0.0
 40
0.0
 40
1.0
 40
1.0
 40
1.0
 40
1.0
 10
124.7043849933
 20
121.5318467601
 30
0.0
 10
124.7273310211
 20
121.5916600861
 30
0.0
 10
124.7451219002
 20
121.6537562009
 30
0.0
 10
124.7568593469
 20
121.7167354554
 30
0.0
  0
SPLINE
  5
485
100
AcDbEntity
  8
0
100
AcDbSpline
 62
7
  6
CONTINUOUS
 70
0
 71
3
 72
11
 73
7
 74
0
 42
0.0000001
 43
0.0000001
 44
0.0000000001
 40
0.0
 40
0.0
 40
0.0
 40
0.0
 40
0.2880066977
 40
0.5553334191
 40
0.790532629
 40
1.0
 40
1.0
 40
1.0
 40
1.0
 10
122.7807702619
 20
122.6667490682
 30
0.0
 10
122.9203165638
 20
122.6667490682
 30
0.0
 10
123.1910930715
 20
122.6302882683
 30
0.0
 10
123.5455986698
 20
122.46992526
 30
0.0
 10
123.7980115151
 20
122.220332859
 30
0.0
 10
123.8639369686
 20
122.0023266184
 30
0.0
 10
123.8639369686
 20
121.9008345447
 30
0.0
  0
SPLINE
  5
486
100
AcDbEntity
  8
RUNDUNGEN
100
AcDbSpline
 62
7
  6
CONTINUOUS
 70
0
 71
3
 72
11
 73
7
 74
0
 42
0.0000001
 43
0.0000001
 44
0.0000000001
 40
0.0
 40
0.0
 40
0.0
 40
0.0
 40
0.2256927635
 40
0.4632951072
 40
0.7206222905
 40
1.0
 40
1.0
 40
1.0
 40
1.0
 10
98.1662455965
 20
125.3002329132
 30
0.0
 10
98.1661528774
 20
125.1582268048
 30
0.0
 10
98.1145089715
 20
124.8646781364
 30
0.0
 10
97.8933987426
 20
124.4611711879
 30
0.0
 10
97.5471170161
 20
124.1110935499
 30
0.0
 10
97.2577395251
 20
123.9311731562
 30
0.0
 10
97.1002066423
 20
123.8531752393
 30
0.0
  0
SPLINE
  5
487
100
AcDbEntity
  8
0
100
AcDbSpline
 62
7
  6
CONTINUOUS
 70
0
 71
3
 72
9
 73
5
 74
0
 42
0.0000001
 43
0.0000001
 44
0.0000000001
 40
0.0
 40
0.0
 40
0.0
 40
0.0
 40
0.5597866015
 40
1.0
 40
1.0
 40
1.0
 40
1.0
 10
114.5549689604
 20
118.9615095347
 30
0.0
 10
114.5844442407
 20
118.9615095347
 30
0.0
 10
114.6392711711
 20
118.9727076469
 30
0.0
 10
114.6749689604
 20
119.0231831347
 30
0.0
 10
114.6749689604
 20
119.0463623485
 30
0.0
  0
SPLINE
  5
488
100
AcDbEntity
  8
0
100
AcDbSpline
 62
7
  6
CONTINUOUS
 70
0
 71
3
 72
9
 73
5
 74
0
 42
0.0000001
 43
0.0000001
 44
0.0000000001
 40
0.0
 40
0.0
 40
0.0
 40
0.0
 40
0.4402133985
 40
1.0
 40
1.0
 40
1.0
 40
1.0
 10
113.8499689604
 20
121.2101090989
 30
0.0
 10
113.8499689604
 20
121.2332883127
 30
0.0
 10
113.8856667497
 20
121.2837638005
 30
0.0
 10
113.9404936801
 20
121.2949619127
 30
0.0
 10
113.9699689604
 20
121.2949619127
 30
0.0
  0
SPLINE
  5
489
100
AcDbEntity
  8
0
100
AcDbSpline
 62
7
  6
CONTINUOUS
 70
0
 71
3
 72
9
 73
5
 74
0
 42
0.0000001
 43
0.0000001
 44
0.0000000001
 40
0.0
 40
0.0
 40
0.0
 40
0.0
 40
0.5597866015
 40
1.0
 40
1.0
 40
1.0
 40
1.0
 10
114.1799689604
 20
121.2949619127
 30
0.0
 10
114.2094442407
 20
121.2949619127
 30
0.0
 10
114.2642711711
 20
121.2837638005
 30
0.0
 10
114.2999689604
 20
121.2332883127
 30
0.0
 10
114.2999689604
 20
121.2101090989
 30
0.0
  0
SPLINE
  5
48A
100
AcDbEntity
  8
0
100
AcDbSpline
 62
7
  6
CONTINUOUS
 70
0
 71
3
 72
9
 73
5
 74
0
 42
0.0000001
 43
0.0000001
 44
0.0000000001
 40
0.0
 40
0.0
 40
0.0
 40
0.0
 40
0.5597866015
 40
1.0
 40
1.0
 40
1.0
 40
1.0
 10
114.5549689604
 20
121.0828298783
 30
0.0
 10
114.5844442407
 20
121.0828298783
 30
0.0
 10
114.6392711711
 20
121.0940279904
 30
0.0
 10
114.6749689604
 20
121.1445034782
 30
0.0
 10
114.6749689604
 20
121.167682692
 30
0.0
  0
SPLINE
  5
48B
100
AcDbEntity
  8
0
100
AcDbSpline
 62
7
  6
CONTINUOUS
 70
0
 71
3
 72
11
 73
7
 74
0
 42
0.0000001
 43
0.0000001
 44
0.0000000001
 40
0.0
 40
0.0
 40
0.0
 40
0.0
 40
0.2876567391
 40
0.555407049
 40
0.7907201247
 40
1.0
 40
1.0
 40
1.0
 40
1.0
 10
114.8249689604
 20
122.4616881016
 30
0.0
 10
114.8635663856
 20
122.4616881016
 30
0.0
 10
114.9385035968
 20
122.4514313716
 30
0.0
 10
115.0368845347
 20
122.4073181077
 30
0.0
 10
115.106558472
 20
122.3379197537
 30
0.0
 10
115.1249689604
 20
122.2776369819
 30
0.0
 10
115.1249689604
 20
122.2495560673
 30
0.0
  0
SPLINE
  5
48C
100
AcDbEntity
  8
0
100
AcDbSpline
 62
7
  6
CONTINUOUS
 70
0
 71
3
 72
8
 73
4
 74
0
 42
0.0000001
 43
0.0000001
 44
0.0000000001
 40
0.0
 40
0.0
 40
0.0
 40
0.0
 40
1.0
 40
1.0
 40
1.0
 40
1.0
 10
114.9050884988
 20
120.3325540316
 30
0.0
 10
114.9289189169
 20
120.3278765382
 30
0.0
 10
114.9524698384
 20
120.3210884214
 30
0.0
 10
114.9749689604
 20
120.3119474544
 30
0.0
  0
SPLINE
  5
48D
100
AcDbEntity
  8
0
100
AcDbSpline
 62
7
  6
CONTINUOUS
 70
0
 71
3
 72
9
 73
5
 74
0
 42
0.0000001
 43
0.0000001
 44
0.0000000001
 40
0.0
 40
0.0
 40
0.0
 40
0.0
 40
0.5424756321
 40
1.0
 40
1.0
 40
1.0
 40
1.0
 10
114.9749689604
 20
120.3119474544
 30
0.0
 10
115.0165008711
 20
120.295073826
 30
0.0
 10
115.0897409069
 20
120.2491397042
 30
0.0
 10
115.1249689604
 20
120.1660443461
 30
0.0
 10
115.1249689604
 20
120.1282357237
 30
0.0
  0
SPLINE
  5
48E
100
AcDbEntity
  8
0
100
AcDbSpline
 62
7
  6
CONTINUOUS
 70
0
 71
3
 72
9
 73
5
 74
0
 42
0.0000001
 43
0.0000001
 44
0.0000000001
 40
0.0
 40
0.0
 40
0.0
 40
0.0
 40
0.4575243679
 40
1.0
 40
1.0
 40
1.0
 40
1.0
 10
113.0249689604
 20
120.1282357237
 30
0.0
 10
113.0249689604
 20
120.1660443461
 30
0.0
 10
113.0601970139
 20
120.2491397042
 30
0.0
 10
113.1334370497
 20
120.295073826
 30
0.0
 10
113.1749689604
 20
120.3119474544
 30
0.0
  0
SPLINE
  5
48F
100
AcDbEntity
  8
0
100
AcDbSpline
 62
7
  6
CONTINUOUS
 70
0
 71
3
 72
9
 73
5
 74
0
 42
0.0000001
 43
0.0000001
 44
0.0000000001
 40
0.0
 40
0.0
 40
0.0
 40
0.0
 40
0.2441493338
 40
1.0
 40
1.0
 40
1.0
 40
1.0
 10
113.1749689604
 20
120.3119474544
 30
0.0
 10
113.1865195175
 20
120.3166402269
 30
0.0
 10
113.234860596
 20
120.333245013
 30
0.0
 10
113.2863715352
 20
120.3403677581
 30
0.0
 10
113.3249689604
 20
120.3403677581
 30
0.0
  0
SPLINE
  5
490
100
AcDbEntity
  8
0
100
AcDbSpline
 62
7
  6
CONTINUOUS
 70
0
 71
3
 72
11
 73
7
 74
0
 42
0.0000001
 43
0.0000001
 44
0.0000000001
 40
0.0
 40
0.0
 40
0.0
 40
0.0
 40
0.2092798753
 40
0.444592951
 40
0.7123432609
 40
1.0
 40
1.0
 40
1.0
 40
1.0
 10
113.0249689604
 20
122.2495560673
 30
0.0
 10
113.0249689604
 20
122.2776369819
 30
0.0
 10
113.0433794488
 20
122.3379197537
 30
0.0
 10
113.1130533861
 20
122.4073181077
 30
0.0
 10
113.211434324
 20
122.4514313716
 30
0.0
 10
113.2863715352
 20
122.4616881016
 30
0.0
 10
113.3249689604
 20
122.4616881016
 30
0.0
  0
SPLINE
  5
491
100
AcDbEntity
  8
RUNDUNGEN
100
AcDbSpline
 62
7
  6
CONTINUOUS
 70
0
 71
3
 72
11
 73
7
 74
0
 42
0.0000001
 43
0.0000001
 44
0.0000000001
 40
0.0
 40
0.0
 40
0.0
 40
0.0
 40
0.2660806488
 40
0.5190943636
 40
0.7622194616
 40
1.0
 40
1.0
 40
1.0
 40
1.0
 10
143.8943207504
 20
94.4736364202
 30
0.0
 10
143.4683669596
 20
94.9037871934
 30
0.0
 10
142.7016769315
 20
95.8109021263
 30
0.0
 10
141.8337306423
 20
97.3240135136
 30
0.0
 10
141.3016110081
 20
98.9187446139
 30
0.0
 10
141.1816013955
 20
100.0163551326
 30
0.0
 10
141.1816014147
 20
100.5573336863
 30
0.0
  0
SPLINE
  5
492
100
AcDbEntity
  8
0
100
AcDbSpline
 62
7
  6
CONTINUOUS
 70
0
 71
3
 72
9
 73
5
 74
0
 42
0.0000001
 43
0.0000001
 44
0.0000000001
 40
0.0
 40
0.0
 40
0.0
 40
0.0
 40
0.538986273
 40
1.0
 40
1.0
 40
1.0
 40
1.0
 10
116.4749689604
 20
117.7947833458
 30
0.0
 10
116.58862628
 20
117.7947833458
 30
0.0
 10
116.8018568665
 20
117.8346830833
 30
0.0
 10
116.980215193
 20
117.972773293
 30
0.0
 10
117.0292966799
 20
118.0566885845
 30
0.0
  0
SPLINE
  5
493
100
AcDbEntity
  8
0
100
AcDbSpline
 62
7
  6
CONTINUOUS
 70
0
 71
3
 72
9
 73
5
 74
0
 42
0.0000001
 43
0.0000001
 44
0.0000000001
 40
0.0
 40
0.0
 40
0.0
 40
0.0
 40
0.2592261758
 40
1.0
 40
1.0
 40
1.0
 40
1.0
 10
117.0292966799
 20
118.0566885845
 30
0.0
 10
117.0367025834
 20
118.0693505592
 30
0.0
 10
117.062325919
 20
118.119829367
 30
0.0
 10
117.0749689604
 20
118.1771294029
 30
0.0
 10
117.0749689604
 20
118.2190474145
 30
0.0
  0
SPLINE
  5
494
100
AcDbEntity
  8
RUNDUNGEN
100
AcDbSpline
 62
7
  6
CONTINUOUS
 70
0
 71
3
 72
12
 73
8
 74
0
 42
0.0000001
 43
0.0000001
 44
0.0000000001
 40
0.0
 40
0.0
 40
0.0
 40
0.0
 40
0.2295488423
 40
0.3548243544
 40
0.4846199331
 40
0.7477426437
 40
1.0
 40
1.0
 40
1.0
 40
1.0
 10
152.0423326287
 20
129.4164014429
 30
0.0
 10
151.6431928929
 20
129.0133289273
 30
0.0
 10
150.8849949382
 20
128.524090957
 30
0.0
 10
149.7544500153
 20
128.1239552622
 30
0.0
 10
148.4932149193
 20
127.8769339889
 30
0.0
 10
146.8791807516
 20
127.9002525087
 30
0.0
 10
145.6373381994
 20
128.2715619326
 30
0.0
 10
145.0786902255
 20
128.5481605545
 30
0.0
  0
SPLINE
  5
495
100
AcDbEntity
  8
0
100
AcDbSpline
 62
7
  6
CONTINUOUS
 70
0
 71
3
 72
9
 73
5
 74
0
 42
0.0000001
 43
0.0000001
 44
0.0000000001
 40
0.0
 40
0.0
 40
0.0
 40
0.0
 40
0.4402133985
 40
1.0
 40
1.0
 40
1.0
 40
1.0
 10
114.2999689604
 20
120.8565557083
 30
0.0
 10
114.2999689604
 20
120.8797349222
 30
0.0
 10
114.2642711711
 20
120.93021041
 30
0.0
 10
114.2094442407
 20
120.9414085221
 30
0.0
 10
114.1799689604
 20
120.9414085221
 30
0.0
  0
SPLINE
  5
496
100
AcDbEntity
  8
RUNDUNGEN
100
AcDbSpline
 62
7
  6
CONTINUOUS
 70
0
 71
3
 72
12
 73
8
 74
0
 42
0.0000001
 43
0.0000001
 44
0.0000000001
 40
0.0
 40
0.0
 40
0.0
 40
0.0
 40
0.252259356
 40
0.5153839756
 40
0.6451803977
 40
0.7704553584
 40
1.0
 40
1.0
 40
1.0
 40
1.0
 10
112.962829929
 20
131.8739148135
 30
0.0
 10
112.4041775191
 20
131.5973139951
 30
0.0
 10
111.1623247929
 20
131.226002992
 30
0.0
 10
109.5482783783
 20
131.2026896741
 30
0.0
 10
108.2870389264
 20
131.4497176887
 30
0.0
 10
107.1565055461
 20
131.8498572978
 30
0.0
 10
106.3983199629
 20
132.3390905568
 30
0.0
 10
105.9991875258
 20
132.7421557018
 30
0.0
  0
SPLINE
  5
497
100
AcDbEntity
  8
KONSTRUKTIONSELEMENTE
100
AcDbSpline
 62
7
  6
CONTINUOUS
 70
0
 71
3
 72
9
 73
5
 74
0
 42
0.0000001
 43
0.0000001
 44
0.0000000001
 40
0.0
 40
0.0
 40
0.0
 40
0.0
 40
0.5024826949
 40
1.0
 40
1.0
 40
1.0
 40
1.0
 10
131.9122366957
 20
174.8842983622
 30
0.0
 10
133.0936358999
 20
174.6752489426
 30
0.0
 10
135.4249315277
 20
174.1375574076
 30
0.0
 10
137.6837625474
 20
173.3435664742
 30
0.0
 10
138.7763277743
 20
172.8773048183
 30
0.0
  0
SPLINE
  5
498
100
AcDbEntity
  8
RUNDUNGEN
100
AcDbSpline
 62
7
  6
CONTINUOUS
 70
0
 71
3
 72
16
 73
12
 74
0
 42
0.0000001
 43
0.0000001
 44
0.0000000001
 40
0.0
 40
0.0
 40
0.0
 40
0.0
 40
0.0242874348
 40
0.0512771385
 40
0.082901453
 40
0.1202969766
 40
0.2141635644
 40
0.3338260053
 40
0.4770520394
 40
0.6397399996
 40
1.0
 40
1.0
 40
1.0
 40
1.0
 10
154.1622366957
 20
177.5605061981
 30
0.0
 10
154.1622366957
 20
177.5998474554
 30
0.0
 10
154.146227433
 20
177.6834324302
 30
0.0
 10
154.0786886534
 20
177.8014795892
 30
0.0
 10
153.9707843748
 20
177.9149422783
 30
0.0
 10
153.7581383571
 20
178.0726441248
 30
0.0
 10
153.3887404926
 20
178.2491292971
 30
0.0
 10
152.8376687939
 20
178.4254255633
 30
0.0
 10
152.1631101725
 20
178.57209658
 30
0.0
 10
151.0942535748
 20
178.7241427128
 30
0.0
 10
150.2457928238
 20
178.766277564
 30
0.0
 10
149.6622366957
 20
178.766277564
 30
0.0
  0
SPLINE
  5
499
100
AcDbEntity
  8
KONSTRUKTIONSELEMENTE
100
AcDbSpline
 62
7
  6
CONTINUOUS
 70
0
 71
3
 72
9
 73
5
 74
0
 42
0.0000001
 43
0.0000001
 44
0.0000000001
 40
0.0
 40
0.0
 40
0.0
 40
0.0
 40
0.4975177047
 40
1.0
 40
1.0
 40
1.0
 40
1.0
 10
112.5481456171
 20
172.8773048183
 30
0.0
 10
113.6407117192
 20
173.3435668477
 30
0.0
 10
115.899542859
 20
174.1375574462
 30
0.0
 10
118.230838433
 20
174.6752491092
 30
0.0
 10
119.4122366957
 20
174.8842983622
 30
0.0
  0
SPLINE
  5
49A
100
AcDbEntity
  8
KONSTRUKTIONSELEMENTE
100
AcDbSpline
 62
7
  6
CONTINUOUS
 70
0
 71
3
 72
11
 73
7
 74
0
 42
0.0000001
 43
0.0000001
 44
0.0000000001
 40
0.0
 40
0.0
 40
0.0
 40
0.0
 40
0.2498418809
 40
0.4997992424
 40
0.7498631476
 40
1.0
 40
1.0
 40
1.0
 40
1.0
 10
110.8267764736
 20
169.2403048183
 30
0.0
 10
110.8267764736
 20
169.5835378967
 30
0.0
 10
110.9184888516
 20
170.2730630922
 30
0.0
 10
111.2978462629
 20
171.239191455
 30
0.0
 10
111.854405995
 20
172.1123635933
 30
0.0
 10
112.3075339036
 20
172.6319616059
 30
0.0
 10
112.5481456171
 20
172.8773048183
 30
0.0
  0
SPLINE
  5
49B
100
AcDbEntity
  8
KONSTRUKTIONSELEMENTE
100
AcDbSpline
 62
7
  6
CONTINUOUS
 70
0
 71
3
 72
9
 73
5
 74
0
 42
0.0000001
 43
0.0000001
 44
0.0000000001
 40
0.0
 40
0.0
 40
0.0
 40
0.0
 40
0.5001839413
 40
1.0
 40
1.0
 40
1.0
 40
1.0
 10
110.0976694421
 20
161.8773048183
 30
0.0
 10
110.3183122723
 20
162.3813244137
 30
0.0
 10
110.6873011329
 20
163.4241925523
 30
0.0
 10
110.8267764736
 20
164.5275104218
 30
0.0
 10
110.8267764736
 20
165.0773048183
 30
0.0
  0
SPLINE
  5
49C
100
AcDbEntity
  8
KONSTRUKTIONSELEMENTE
100
AcDbSpline
 62
7
  6
CONTINUOUS
 70
0
 71
3
 72
9
 73
5
 74
0
 42
0.0000001
 43
0.0000001
 44
0.0000000001
 40
0.0
 40
0.0
 40
0.0
 40
0.0
 40
0.4998160587
 40
1.0
 40
1.0
 40
1.0
 40
1.0
 10
140.4976969177
 20
165.0773048183
 30
0.0
 10
140.4976969177
 20
164.5275104218
 30
0.0
 10
140.6371722584
 20
163.4241925523
 30
0.0
 10
141.0061611191
 20
162.3813244137
 30
0.0
 10
141.2268039492
 20
161.8773048183
 30
0.0
  0
SPLINE
  5
49D
100
AcDbEntity
  8
KONSTRUKTIONSELEMENTE
100
AcDbSpline
 62
7
  6
CONTINUOUS
 70
0
 71
3
 72
11
 73
7
 74
0
 42
0.0000001
 43
0.0000001
 44
0.0000000001
 40
0.0
 40
0.0
 40
0.0
 40
0.0
 40
0.2501369337
 40
0.5002009564
 40
0.7501583912
 40
1.0
 40
1.0
 40
1.0
 40
1.0
 10
138.7763277743
 20
172.8773048183
 30
0.0
 10
139.0169395659
 20
172.6319615262
 30
0.0
 10
139.4700676444
 20
172.1123633011
 30
0.0
 10
140.0266275479
 20
171.2391908097
 30
0.0
 10
140.4059846042
 20
170.2730624221
 30
0.0
 10
140.4976969177
 20
169.5835375229
 30
0.0
 10
140.4976969177
 20
169.2403048183
 30
0.0
  0
SPLINE
  5
49E
100
AcDbEntity
  8
KONSTRUKTIONSELEMENTE
100
AcDbSpline
 62
7
  6
CONTINUOUS
 70
0
 71
3
 72
9
 73
5
 74
0
 42
0.0000001
 43
0.0000001
 44
0.0000000001
 40
0.0
 40
0.0
 40
0.0
 40
0.0
 40
0.4749716346
 40
1.0
 40
1.0
 40
1.0
 40
1.0
 10
144.8211900453
 20
147.8773048183
 30
0.0
 10
144.8357618448
 20
147.8773048183
 30
0.0
 10
144.8670806152
 20
147.8852481329
 30
0.0
 10
144.8896850721
 20
147.9076755651
 30
0.0
 10
144.899378452
 20
147.9205398609
 30
0.0
  0
SPLINE
  5
49F
100
AcDbEntity
  8
KONSTRUKTIONSELEMENTE
100
AcDbSpline
 62
7
  6
CONTINUOUS
 70
0
 71
3
 72
20
 73
16
 74
0
 42
0.0000001
 43
0.0000001
 44
0.0000000001
 40
0.0
 40
0.0
 40
0.0
 40
0.0
 40
0.0052706207
 40
0.0123641056
 40
0.0326624155
 40
0.0614056838
 40
0.098500764
 40
0.1436502594
 40
0.1964195188
 40
0.2562845615
 40
0.3226349797
 40
0.4720457108
 40
0.6387980916
 40
0.8167487559
 40
1.0
 40
1.0
 40
1.0
 40
1.0
 10
144.899378452
 20
147.9205398609
 30
0.0
 10
144.914745571
 20
147.9409338994
 30
0.0
 10
144.9399798019
 20
147.996493269
 30
0.0
 10
144.9747945833
 20
148.1511130992
 30
0.0
 10
144.9855323629
 20
148.4245579866
 30
0.0
 10
144.964250486
 20
148.8411374775
 30
0.0
 10
144.905517449
 20
149.3760485938
 30
0.0
 10
144.8096094028
 20
150.0231387784
 30
0.0
 10
144.6756768723
 20
150.7758733551
 30
0.0
 10
144.5036871575
 20
151.6258707033
 30
0.0
 10
144.2114871298
 20
152.9289725982
 30
0.0
 10
143.7516461612
 20
154.7247621389
 30
0.0
 10
143.0692731189
 20
157.0200425234
 30
0.0
 10
142.2358368323
 20
159.4392151735
 30
0.0
 10
141.5828454629
 20
161.0639908321
 30
0.0
 10
141.2268039492
 20
161.8773048183
 30
0.0
  0
SPLINE
  5
4A0
100
AcDbEntity
  8
RUNDUNGEN
100
AcDbSpline
 62
7
  6
CONTINUOUS
 70
0
 71
3
 72
10
 73
6
 74
0
 42
0.0000001
 43
0.0000001
 44
0.0000000001
 40
0.0
 40
0.0
 40
0.0
 40
0.0
 40
0.4924296823
 40
0.7450737982
 40
1.0
 40
1.0
 40
1.0
 40
1.0
 10
113.707961614
 20
194.8773048183
 30
0.0
 10
112.8054206383
 20
194.8773048183
 30
0.0
 10
111.4402626587
 20
194.8292529077
 30
0.0
 10
109.6082832966
 20
194.7756095665
 30
0.0
 10
108.6779537506
 20
194.764787012
 30
0.0
 10
108.2107168005
 20
194.764787012
 30
0.0
  0
SPLINE
  5
4A1
100
AcDbEntity
  8
KONSTRUKTIONSELEMENTE
100
AcDbSpline
 62
7
  6
CONTINUOUS
 70
0
 71
3
 72
24
 73
20
 74
0
 42
0.0000001
 43
0.0000001
 44
0.0000000001
 40
0.0
 40
0.0
 40
0.0
 40
0.0
 40
0.1913874409
 40
0.3766227337
 40
0.5488612775
 40
0.6278871631
 40
0.7010292476
 40
0.7674709147
 40
0.8264694342
 40
0.8773617793
 40
0.9195966859
 40
0.9373354831
 40
0.9527689538
 40
0.9658759409
 40
0.9766663346
 40
0.9851857887
 40
0.9915684094
 40
0.9961893607
 40
1.0
 40
1.0
 40
1.0
 40
1.0
 10
110.0976694421
 20
161.8773048183
 30
0.0
 10
109.7234720614
 20
161.0225169589
 30
0.0
 10
109.0408646939
 20
159.3165217392
 30
0.0
 10
108.1780524638
 20
156.7825234607
 30
0.0
 10
107.581625848
 20
154.7389332828
 30
0.0
 10
107.1858848624
 20
153.20751767
 30
0.0
 10
106.9401247317
 20
152.1703305628
 30
0.0
 10
106.7366574529
 20
151.2236934944
 30
0.0
 10
106.5753643003
 20
150.3791569053
 30
0.0
 10
106.4561217076
 20
149.647027421
 30
0.0
 10
106.3877362678
 20
149.1106467532
 30
0.0
 10
106.3562074903
 20
148.7442993251
 30
0.0
 10
106.3444966014
 20
148.5189215002
 30
0.0
 10
106.3431835753
 20
148.3270600621
 30
0.0
 10
106.3521416264
 20
148.1691778114
 30
0.0
 10
106.371268246
 20
148.0449255278
 30
0.0
 10
106.4005014362
 20
147.9540940104
 30
0.0
 10
106.4426766329
 20
147.8921619165
 30
0.0
 10
106.4847046521
 20
147.8773048183
 30
0.0
 10
106.503283346
 20
147.8773048183
 30
0.0
  0
SPLINE
  5
4A2
100
AcDbEntity
  8
RUNDUNGEN
100
AcDbSpline
 62
7
  6
CONTINUOUS
 70
0
 71
3
 72
16
 73
12
 74
0
 42
0.0000001
 43
0.0000001
 44
0.0000000001
 40
0.0
 40
0.0
 40
0.0
 40
0.0
 40
0.0242874348
 40
0.0512771385
 40
0.082901453
 40
0.1202969766
 40
0.2141635644
 40
0.3338260053
 40
0.4770520394
 40
0.6397399996
 40
1.0
 40
1.0
 40
1.0
 40
1.0
 10
97.1622366957
 20
177.5605061981
 30
0.0
 10
97.1622366957
 20
177.5998474554
 30
0.0
 10
97.1782459584
 20
177.6834324302
 30
0.0
 10
97.245784738
 20
177.8014795892
 30
0.0
 10
97.3536890166
 20
177.9149422783
 30
0.0
 10
97.5663350342
 20
178.0726441248
 30
0.0
 10
97.9357328988
 20
178.2491292971
 30
0.0
 10
98.4868045974
 20
178.4254255633
 30
0.0
 10
99.1613632188
 20
178.57209658
 30
0.0
 10
100.2302198165
 20
178.7241427128
 30
0.0
 10
101.0786805675
 20
178.766277564
 30
0.0
 10
101.6622366957
 20
178.766277564
 30
0.0
  0
SPLINE
  5
4A3
100
AcDbEntity
  8
RUNDUNGEN
100
AcDbSpline
 62
7
  6
CONTINUOUS
 70
0
 71
3
 72
9
 73
5
 74
0
 42
0.0000001
 43
0.0000001
 44
0.0000000001
 40
0.0
 40
0.0
 40
0.0
 40
0.0
 40
0.2404036222
 40
1.0
 40
1.0
 40
1.0
 40
1.0
 10
149.7247185353
 20
194.5404187191
 30
0.0
 10
149.5658393582
 20
194.5917174068
 30
0.0
 10
148.8937787819
 20
194.7701619555
 30
0.0
 10
148.1908343958
 20
194.8197649604
 30
0.0
 10
147.6636839223
 20
194.7999020326
 30
0.0
  0
SPLINE
  5
4A4
100
AcDbEntity
  8
RUNDUNGEN
100
AcDbSpline
 62
7
  6
CONTINUOUS
 70
0
 71
3
 72
9
 73
5
 74
0
 42
0.0000001
 43
0.0000001
 44
0.0000000001
 40
0.0
 40
0.0
 40
0.0
 40
0.0
 40
0.2515165758
 40
1.0
 40
1.0
 40
1.0
 40
1.0
 10
105.3473826564
 20
194.764787012
 30
0.0
 10
105.2060659656
 20
194.7647870128
 30
0.0
 10
104.6442045616
 20
194.7680096052
 30
0.0
 10
104.0824769203
 20
194.7839271039
 30
0.0
 10
103.6622366957
 20
194.7998471925
 30
0.0
  0
SPLINE
  5
4A5
100
AcDbEntity
  8
RUNDUNGEN
100
AcDbSpline
 62
7
  6
CONTINUOUS
 70
0
 71
3
 72
9
 73
5
 74
0
 42
0.0000001
 43
0.0000001
 44
0.0000000001
 40
0.0
 40
0.0
 40
0.0
 40
0.0
 40
0.2478013891
 40
1.0
 40
1.0
 40
1.0
 40
1.0
 10
147.6636839308
 20
194.7999020329
 30
0.0
 10
147.5244359899
 20
194.7946240946
 30
0.0
 10
146.962448213
 20
194.7749384028
 30
0.0
 10
146.4000797381
 20
194.764787012
 30
0.0
 10
145.9770905048
 20
194.764787012
 30
0.0
  0
SPLINE
  5
4A6
100
AcDbEntity
  8
RUNDUNGEN
100
AcDbSpline
 62
7
  6
CONTINUOUS
 70
0
 71
3
 72
16
 73
12
 74
0
 42
0.0000001
 43
0.0000001
 44
0.0000000001
 40
0.0
 40
0.0
 40
0.0
 40
0.0
 40
0.0242874348
 40
0.0512771385
 40
0.082901453
 40
0.1202969766
 40
0.2141635644
 40
0.3338260053
 40
0.4770520394
 40
0.6397399996
 40
1.0
 40
1.0
 40
1.0
 40
1.0
 10
154.1622366957
 20
171.6715334523
 30
0.0
 10
154.1622366957
 20
171.7108747097
 30
0.0
 10
154.146227433
 20
171.7944596844
 30
0.0
 10
154.0786886534
 20
171.9125068434
 30
0.0
 10
153.9707843748
 20
172.0259695325
 30
0.0
 10
153.7581383571
 20
172.1836713791
 30
0.0
 10
153.3887404926
 20
172.3601565514
 30
0.0
 10
152.8376687939
 20
172.5364528176
 30
0.0
 10
152.1631101725
 20
172.6831238342
 30
0.0
 10
151.0942535748
 20
172.8351699671
 30
0.0
 10
150.2457928238
 20
172.8773048183
 30
0.0
 10
149.6622366957
 20
172.8773048183
 30
0.0
  0
SPLINE
  5
4A7
100
AcDbEntity
  8
RUNDUNGEN
100
AcDbSpline
 62
7
  6
CONTINUOUS
 70
0
 71
3
 72
10
 73
6
 74
0
 42
0.0000001
 43
0.0000001
 44
0.0000000001
 40
0.0
 40
0.0
 40
0.0
 40
0.0
 40
0.2549263925
 40
0.5075710364
 40
1.0
 40
1.0
 40
1.0
 40
1.0
 10
143.1137565908
 20
194.764787012
 30
0.0
 10
142.646528538
 20
194.764787012
 30
0.0
 10
141.7162160895
 20
194.7756092848
 30
0.0
 10
139.884272944
 20
194.8292500713
 30
0.0
 10
138.5191424177
 20
194.8773048183
 30
0.0
 10
137.616620621
 20
194.8773048183
 30
0.0
  0
SPLINE
  5
4A8
100
AcDbEntity
  8
RUNDUNGEN
100
AcDbSpline
 62
7
  6
CONTINUOUS
 70
0
 71
3
 72
16
 73
12
 74
0
 42
0.0000001
 43
0.0000001
 44
0.0000000001
 40
0.0
 40
0.0
 40
0.0
 40
0.0
 40
0.3602600004
 40
0.5229479606
 40
0.6661739947
 40
0.7858364356
 40
0.8797030234
 40
0.917098547
 40
0.9487228615
 40
0.9757125652
 40
1.0
 40
1.0
 40
1.0
 40
1.0
 10
101.6622366957
 20
172.8773048183
 30
0.0
 10
101.0786805675
 20
172.8773048183
 30
0.0
 10
100.2302198165
 20
172.8351699671
 30
0.0
 10
99.1613632188
 20
172.6831238342
 30
0.0
 10
98.4868045974
 20
172.5364528176
 30
0.0
 10
97.9357328988
 20
172.3601565514
 30
0.0
 10
97.5663350342
 20
172.1836713791
 30
0.0
 10
97.3536890166
 20
172.0259695325
 30
0.0
 10
97.245784738
 20
171.9125068434
 30
0.0
 10
97.1782459584
 20
171.7944596844
 30
0.0
 10
97.1622366957
 20
171.7108747097
 30
0.0
 10
97.1622366957
 20
171.6715334523
 30
0.0
  0
SPLINE
  5
4A9
100
AcDbEntity
  8
RUNDUNGEN
100
AcDbSpline
 62
7
  6
CONTINUOUS
 70
0
 71
3
 72
9
 73
5
 74
0
 42
0.0000001
 43
0.0000001
 44
0.0000000001
 40
0.0
 40
0.0
 40
0.0
 40
0.0
 40
0.259310087
 40
1.0
 40
1.0
 40
1.0
 40
1.0
 10
103.6622366957
 20
194.7998471925
 30
0.0
 10
103.4822007696
 20
194.8066675485
 30
0.0
 10
102.787629711
 20
194.8066702198
 30
0.0
 10
102.089481564
 20
194.6985409972
 30
0.0
 10
101.5997548561
 20
194.5404187191
 30
0.0
  0
ELLIPSE
  5
4AA
100
AcDbEntity
  8
0
100
AcDbEllipse
 62
7
  6
CONTINUOUS
 10
471.964369725
 20
188.3773048183
 30
0.0
 11
-1.020028169
 21
6.4800083213
 31
0.0
 40
0.4994016261
 41
-1.6492465757
 42
-0.4286154991
  0
ELLIPSE
  5
4AB
100
AcDbEntity
  8
RUNDUNGEN
100
AcDbEllipse
 62
7
  6
CONTINUOUS
 10
486.7987985107
 20
188.3773048183
 30
0.0
 11
1.020028169
 21
6.4800083213
 31
0.0
 40
0.4994016261
 41
0.4286154991
 42
1.6492465757
  0
ENDSEC
  0
SECTION
  2
OBJECTS
  0
DICTIONARY
  5
C
100
AcDbDictionary
280
0
281
1
  3
ACAD_GROUP
350
D
  3
ACAD_MLINESTYLE
350
17
  3
ACAD_LAYOUT
350
1A
  3
ACAD_PLOTSETTINGS
350
19
  3
ACAD_PLOTSTYLENAME
350
E
  0
DICTIONARY
  5
D
102
{ACAD_REACTORS
330
C
102
}
100
AcDbDictionary
280
0
281
1
  0
ACDBDICTIONARYWDFLT
  5
E
102
{ACAD_REACTORS
330
C
102
}
100
AcDbDictionary
281
1
  3
Normal
350
F
100
AcDbDictionaryWithDefault
340
F
  0
DICTIONARY
  5
17
102
{ACAD_REACTORS
330
C
102
}
100
AcDbDictionary
280
0
281
1
  3
Standard
350
18
  0
DICTIONARY
  5
19
102
{ACAD_REACTORS
330
C
102
}
100
AcDbDictionary
281
1
  0
DICTIONARY
  5
1A
102
{ACAD_REACTORS
330
C
102
}
100
AcDbDictionary
281
1
  3
Model
350
4AC
  3
Layout1
350
4AD
  0
ACDBPLACEHOLDER
  5
F
102
{ACAD_REACTORS
330
E
102
}
  0
MLINESTYLE
  5
18
102
{ACAD_REACTORS
330
17
102
}
100
AcDbMlineStyle
  2
STANDARD
 70
0
  3

 62
256
 51
90.0
 52
90.0
 71
2
 49
0.5
 62
256
  6
BYLAYER
 49
-0.5
 62
256
  6
BYLAYER
  0
LAYOUT
  5
4AC
102
{ACAD_REACTORS
330
1A
102
}
100
AcDbPlotSettings
  1

  2
none_device
  4
ISO_A2_(594.00_x_420.00_MM)
  6

 40
0.0
 41
0.0
 42
0.0
 43
0.0
 44
594.0
 45
420.0
 46
0.0
 47
0.0
 48
0.0
 49
0.0
140
0.0
141
0.0
142
1.0
143
1.0
 70
1024
 72
1
 73
0
 74
0
  7

 75
0
147
1.0
148
0.0
149
0.0
100
AcDbLayout
  1
Model
 70
0
 71
0
 10
0.0
 20
0.0
 11
594.0
 21
420.0
 12
0.0
 22
0.0
 32
0.0
 14
0.0
 24
0.0
 34
0.0
 15
0.0
 25
0.0
 35
0.0
146
0.0
 13
0.0
 23
0.0
 33
0.0
 16
1.0
 26
0.0
 36
0.0
 17
0.0
 27
1.0
 37
0.0
 76
0
330
20A
345
0
346
0
  0
LAYOUT
  5
4AD
102
{ACAD_REACTORS
330
1A
102
}
100
AcDbPlotSettings
  1

  2
none_device
  4
ISO_A2_(594.00_x_420.00_MM)
  6

 40
0.0
 41
0.0
 42
0.0
 43
0.0
 44
594.0
 45
420.0
 46
0.0
 47
0.0
 48
0.0
 49
0.0
140
0.0
141
0.0
142
1.0
143
1.0
 70
0
 72
1
 73
0
 74
0
  7

 75
0
147
1.0
148
0.0
149
0.0
100
AcDbLayout
  1
Layout1
 70
0
 71
1
 10
0.0
 20
0.0
 11
594.0
 21
420.0
 12
0.0
 22
0.0
 32
0.0
 14
0.0
 24
0.0
 34
0.0
 15
0.0
 25
0.0
 35
0.0
146
0.0
 13
0.0
 23
0.0
 33
0.0
 16
1.0
 26
0.0
 36
0.0
 17
0.0
 27
1.0
 37
0.0
 76
0
330
20B
345
0
346
0
  0
ENDSEC
  0
EOF
