999
DXF file: IAK-RG-1-8_7903010_M34539-P-2.dxf
999
Pro/ENGINEER 2010140 by Parametric Technology Corporation
  0
SECTION
  2
HEADER
  9
$ACADVER
  1
AC1015
  9
$DWGCODEPAGE
  3
ANSI_1252
  9
$EXTMAX
 10
420.0
 20
297.0
 30
0.0
  9
$EXTMIN
 10
0.0
 20
0.0
 30
0.0
  9
$LIMMIN
 10
0.0
 20
0.0
  9
$LIMMAX
 10
420.0
 20
297.0
  9
$VIEWCTR
 10
210.0
 20
148.5
  9
$VIEWSIZE
 40
297.0
  9
$CLAYER
  8
0
  9
$LTSCALE
 40
23.1
  9
$CELTYPE
  6
BYLAYER
  9
$DIMSCALE
 40
1.0
  9
$DIMASZ
 40
3.5
  9
$DIMEXO
 40
2.625
  9
$DIMDLI
 40
15.96
  9
$DIMEXE
 40
7.56
  9
$DIMCEN
 40
3.78
  9
$DIMLFAC
 40
1.0
  9
$DIMBLK
  1
_FILLED
  9
$DIMTXT
 40
3.5
  9
$DIMTOL
 70
1
  9
$DIMLIM
 70
0
  9
$DIMTFAC
 40
1.0
  9
$DIMTP
 40
0.005
  9
$DIMTM
 40
0.005
  9
$PDMODE
 70
3
  9
$PDSIZE
 40
0.3125
  9
$HANDSEED
  5
4C5
  9
$TILEMODE
 70
1
  9
$MEASUREMENT
 70
1
  9
$INSUNITS
 70
4
  0
ENDSEC
  0
SECTION
  2
CLASSES
  0
CLASS
  1
ACDBDICTIONARYWDFLT
  2
AcDbDictionaryWithDefault
  3
AutoCAD 2000
 90
0
280
0
281
0
  0
CLASS
  1
ACDBPLACEHOLDER
  2
AcDbPlaceHolder
  3
AutoCAD 2000
 90
0
280
0
281
0
  0
CLASS
  1
LAYOUT
  2
AcDbLayout
  3
AutoCAD 2000
 90
0
280
0
281
0
  0
ENDSEC
  0
SECTION
  2
TABLES
  0
TABLE
  2
VPORT
  5
8
100
AcDbSymbolTable
 70
2
  0
VPORT
  5
1F4
100
AcDbSymbolTableRecord
100
AcDbViewportTableRecord
  2
*ACTIVE
 70
0
 10
0.0
 20
0.0
 11
1.0
 21
1.0
 12
210.0
 22
148.5
 13
0.0
 23
0.0
 14
1.0
 24
1.0
 15
0.0
 25
0.0
 16
0.0
 26
0.0
 36
1.0
 17
0.0
 27
0.0
 37
0.0
 40
297.0
 41
1.4141414141
 42
50.0
 43
0.0
 44
0.0
 50
0.0
 51
0.0
 71
0
 72
100
 73
1
 74
1
 75
0
 76
0
 77
0
 78
0
  0
ENDTAB
  0
TABLE
  2
LTYPE
  5
5
100
AcDbSymbolTable
 70
6
  0
LTYPE
  5
14
100
AcDbSymbolTableRecord
100
AcDbLinetypeTableRecord
  2
BYBLOCK
 70
0
  3

 72
65
 73
0
 40
0.0
  0
LTYPE
  5
15
100
AcDbSymbolTableRecord
100
AcDbLinetypeTableRecord
  2
BYLAYER
 70
0
  3

 72
65
 73
0
 40
0.0
  0
LTYPE
  5
16
100
AcDbSymbolTableRecord
100
AcDbLinetypeTableRecord
  2
CONTINUOUS
 70
64
  3
Solid line
 72
65
 73
0
 40
0.0
  0
LTYPE
  5
1F5
100
AcDbSymbolTableRecord
100
AcDbLinetypeTableRecord
  2
CENTER
 70
64
  3
____ _ ____ _ ____ _ ____ _ ____ _ ____ _ ____
 72
65
 73
4
 40
0.6
 49
0.375
 74
0
 49
-0.075
 74
0
 49
0.075
 74
0
 49
-0.075
 74
0
  0
LTYPE
  5
1F6
100
AcDbSymbolTableRecord
100
AcDbLinetypeTableRecord
  2
HIDDEN
 70
64
  3
- - - - - - - - - - - - - - - - - - - -
 72
65
 73
2
 40
0.2
 49
0.1
 74
0
 49
-0.1
 74
0
  0
LTYPE
  5
1F7
100
AcDbSymbolTableRecord
100
AcDbLinetypeTableRecord
  2
PHANTOM
 70
64
  3
_____ _ _ _____ _ _ _____ _ _ _____
 72
65
 73
6
 40
0.8
 49
0.45
 74
0
 49
-0.05
 74
0
 49
0.1
 74
0
 49
-0.05
 74
0
 49
0.1
 74
0
 49
-0.05
 74
0
  0
LTYPE
  5
1F8
100
AcDbSymbolTableRecord
100
AcDbLinetypeTableRecord
  2
DOT
 70
64
  3
. . . . . . . . . . . . . . . . . . . .
 72
65
 73
2
 40
0.2
 49
0.1
 74
0
 49
-0.1
 74
0
  0
LTYPE
  5
1F9
100
AcDbSymbolTableRecord
100
AcDbLinetypeTableRecord
  2
DASHED
 70
64
  3
- - - - - - - - - - - - - - - - - - - -
 72
65
 73
2
 40
0.2
 49
0.1
 74
0
 49
-0.1
 74
0
  0
ENDTAB
  0
TABLE
  2
LAYER
  5
2
100
AcDbSymbolTable
 70
36
  0
LAYER
  5
10
100
AcDbSymbolTableRecord
100
AcDbLayerTableRecord
  2
0
 70
0
 62
7
  6
CONTINUOUS
370
-3
390
F
  0
LAYER
  5
1FA
100
AcDbSymbolTableRecord
100
AcDbLayerTableRecord
  2
DEFAULT_1
 70
0
 62
7
  6
CENTER
370
-3
390
F
  0
LAYER
  5
1FB
100
AcDbSymbolTableRecord
100
AcDbLayerTableRecord
  2
DEFAULT_2
 70
0
 62
8
  6
HIDDEN
370
-3
390
F
  0
LAYER
  5
1FC
100
AcDbSymbolTableRecord
100
AcDbLayerTableRecord
  2
DEFAULT_3
 70
0
 62
7
  6
PHANTOM
370
-3
390
F
  0
LAYER
  5
1FD
100
AcDbSymbolTableRecord
100
AcDbLayerTableRecord
  2
BEZUGSACHSEN
 70
0
 62
7
  6
CONTINUOUS
370
-3
390
F
  0
LAYER
  5
1FE
100
AcDbSymbolTableRecord
100
AcDbLayerTableRecord
  2
BEZUGSEBENEN
 70
0
 62
7
  6
CONTINUOUS
370
-3
390
F
  0
LAYER
  5
1FF
100
AcDbSymbolTableRecord
100
AcDbLayerTableRecord
  2
BG_STARTBEZUEGE
 70
0
 62
7
  6
CONTINUOUS
370
-3
390
F
  0
LAYER
  5
200
100
AcDbSymbolTableRecord
100
AcDbLayerTableRecord
  2
FASEN
 70
0
 62
7
  6
CONTINUOUS
370
-3
390
F
  0
LAYER
  5
201
100
AcDbSymbolTableRecord
100
AcDbLayerTableRecord
  2
HILFEN
 70
0
 62
7
  6
CONTINUOUS
370
-3
390
F
  0
LAYER
  5
202
100
AcDbSymbolTableRecord
100
AcDbLayerTableRecord
  2
KONSTRUKTIONSELEMENTE
 70
0
 62
7
  6
CONTINUOUS
370
-3
390
F
  0
LAYER
  5
203
100
AcDbSymbolTableRecord
100
AcDbLayerTableRecord
  2
NORM
 70
0
 62
7
  6
CONTINUOUS
370
-3
390
F
  0
LAYER
  5
204
100
AcDbSymbolTableRecord
100
AcDbLayerTableRecord
  2
PLATZIERUNG
 70
0
 62
7
  6
CONTINUOUS
370
-3
390
F
  0
LAYER
  5
205
100
AcDbSymbolTableRecord
100
AcDbLayerTableRecord
  2
RUNDUNGEN
 70
0
 62
7
  6
CONTINUOUS
370
-3
390
F
  0
LAYER
  5
206
100
AcDbSymbolTableRecord
100
AcDbLayerTableRecord
  2
TEIL_STARTBEZUEGE
 70
0
 62
7
  6
CONTINUOUS
370
-3
390
F
  0
LAYER
  5
207
100
AcDbSymbolTableRecord
100
AcDbLayerTableRecord
  2
T_STARTBEZUEGE
 70
0
 62
7
  6
CONTINUOUS
370
-3
390
F
  0
ENDTAB
  0
TABLE
  2
STYLE
  5
3
100
AcDbSymbolTable
 70
1
  0
STYLE
  5
11
100
AcDbSymbolTableRecord
100
AcDbTextStyleTableRecord
  2
STANDARD
 70
0
 40
0.0
 41
0.7
 50
0.0
 71
0
 42
0.2
  3
txt
  4

  0
STYLE
  5
208
100
AcDbSymbolTableRecord
100
AcDbTextStyleTableRecord
  2
TEXTSTYLE_1
 70
0
 40
0.0
 41
0.8
 50
0.0
 71
0
 42
0.2
  3
gdt
  4

  0
ENDTAB
  0
TABLE
  2
VIEW
  5
6
100
AcDbSymbolTable
 70
0
  0
ENDTAB
  0
TABLE
  2
UCS
  5
7
100
AcDbSymbolTable
 70
0
  0
ENDTAB
  0
TABLE
  2
APPID
  5
9
100
AcDbSymbolTable
 70
1
  0
APPID
  5
209
100
AcDbSymbolTableRecord
100
AcDbRegAppTableRecord
  2
ACAD
 70
0
  0
ENDTAB
  0
TABLE
  2
BLOCK_RECORD
  5
1
100
AcDbSymbolTable
 70
0
  0
BLOCK_RECORD
  5
20A
100
AcDbSymbolTableRecord
100
AcDbBlockTableRecord
  2
*Model_Space
  0
BLOCK_RECORD
  5
20B
100
AcDbSymbolTableRecord
100
AcDbBlockTableRecord
  2
*Paper_Space
  0
ENDTAB
  0
TABLE
  2
DIMSTYLE
  5
A
100
AcDbSymbolTable
 70
1
100
AcDbDimStyleTable
 71
0
  0
DIMSTYLE
105
20C
100
AcDbSymbolTableRecord
100
AcDbDimStyleTableRecord
  2
STANDARD
 70
0
  3

  4

 40
1.0
 41
3.5
 42
0.0625
 43
0.38
 44
0.18
 45
0.0
 46
0.0
 47
0.005
 48
0.005
140
3.5
141
0.09
142
0.0
143
25.4
144
1.0
145
0.0
146
1.0
147
0.09
 71
1.0
 72
0.0
 73
0
 74
0
 75
0
 76
0
 77
1
 78
8
170
0
171
2
172
0
173
0
174
0
175
0
176
0
177
0
178
5
270
2
271
3
272
3
273
2
274
2
275
0
280
0
281
0
282
0
283
1
284
8
285
0
286
0
287
3
288
0
340
11
  0
ENDTAB
  0
ENDSEC
  0
SECTION
  2
BLOCKS
  0
BLOCK
  5
20
100
AcDbEntity
  8
0
100
AcDbBlockBegin
  2
*Model_Space
 70
0
 10
0.0
 20
0.0
 30
0.0
  3
*Model_Space
  1

  0
ENDBLK
  5
21
100
AcDbEntity
  8
0
100
AcDbBlockEnd
  0
BLOCK
  5
1C
100
AcDbEntity
  8
0
100
AcDbBlockBegin
  2
*Paper_Space
 70
0
 10
0.0
 20
0.0
 30
0.0
  3
*Paper_Space
  1

  0
ENDBLK
  5
1D
100
AcDbEntity
  8
0
100
AcDbBlockEnd
  0
ENDSEC
  0
SECTION
  2
ENTITIES
  0
MTEXT
  5
20D
100
AcDbEntity
  8
0
100
AcDbMText
 62
5
  6
CONTINUOUS
  7
STANDARD
 71
1
 72
1
 10
300.5275735294
 20
194.1471966912
 30
0.0
 11
0.0
 21
1.0
 31
0.0
 44
0.9
  1
RUD
 40
7.0
 41
18.6666666667
  0
MTEXT
  5
20E
100
AcDbEntity
  8
0
100
AcDbMText
 62
5
  6
CONTINUOUS
  7
STANDARD
 71
1
 72
1
 10
393.1229319853
 20
181.1075367647
 30
0.0
 11
0.0
 21
1.0
 31
0.0
 44
0.9
  1
IAK-RG 1-8
 40
7.0
 41
53.3333333333
  0
MTEXT
  5
20F
100
AcDbEntity
  8
0
100
AcDbMText
 62
5
  6
CONTINUOUS
  7
STANDARD
 71
1
 72
1
 10
88.3120404412
 20
171.2431066176
 30
0.0
 11
0.0
 21
1.0
 31
0.0
 44
0.9
  1
RUD IAK-RG 1-8
 40
7.0
 41
76.1666666667
  0
LINE
  5
210
100
AcDbEntity
  8
0
100
AcDbLine
 62
7
  6
CONTINUOUS
 10
0.0
 20
0.0
 11
0.0
 21
297.0
  0
LINE
  5
211
100
AcDbEntity
  8
0
100
AcDbLine
 62
7
  6
CONTINUOUS
 10
0.0
 20
0.0
 11
420.0
 21
0.0
  0
LINE
  5
212
100
AcDbEntity
  8
0
100
AcDbLine
 62
7
  6
CONTINUOUS
 10
0.0
 20
297.0
 11
420.0
 21
297.0
  0
LINE
  5
213
100
AcDbEntity
  8
0
100
AcDbLine
 62
7
  6
CONTINUOUS
 10
420.0
 20
0.0
 11
420.0
 21
297.0
  0
LINE
  5
214
100
AcDbEntity
  8
RUNDUNGEN
100
AcDbLine
 62
7
  6
CONTINUOUS
 10
173.8840912205
 20
-1.5558544501
 11
170.3485573146
 21
1.9796794558
  0
LINE
  5
215
100
AcDbEntity
  8
RUNDUNGEN
100
AcDbLine
 62
7
  6
CONTINUOUS
 10
219.2568756923
 20
50.8879978335
 11
222.7924095982
 21
47.3524639276
  0
LINE
  5
216
100
AcDbEntity
  8
RUNDUNGEN
100
AcDbLine
 62
7
  6
CONTINUOUS
 10
231.0948730219
 20
55.6549273513
 11
227.559339116
 21
59.1904612572
  0
LINE
  5
217
100
AcDbEntity
  8
KONSTRUKTIONSELEMENTE
100
AcDbLine
 62
7
  6
CONTINUOUS
 10
223.5229872598
 20
65.1243150158
 11
227.0585211658
 21
61.5887811099
  0
LINE
  5
218
100
AcDbEntity
  8
KONSTRUKTIONSELEMENTE
100
AcDbLine
 62
7
  6
CONTINUOUS
 10
223.8765406504
 20
65.4778684064
 11
227.4120745564
 21
61.9423345004
  0
LINE
  5
219
100
AcDbEntity
  8
0
100
AcDbLine
 62
7
  6
CONTINUOUS
 10
349.5072331266
 20
78.1528213619
 11
351.1072331266
 21
78.1528213619
  0
LINE
  5
21A
100
AcDbEntity
  8
0
100
AcDbLine
 62
7
  6
CONTINUOUS
 10
343.9663598416
 20
84.1510213619
 11
356.6481064115
 21
84.1510213619
  0
LINE
  5
21B
100
AcDbEntity
  8
0
100
AcDbLine
 62
7
  6
CONTINUOUS
 10
348.5572331266
 20
98.8598334754
 11
352.0572331266
 21
98.8598334754
  0
LINE
  5
21C
100
AcDbEntity
  8
0
100
AcDbLine
 62
7
  6
CONTINUOUS
 10
352.0572331266
 20
106.2261763654
 11
348.5572331266
 21
106.2261763654
  0
LINE
  5
21D
100
AcDbEntity
  8
0
100
AcDbLine
 62
7
  6
CONTINUOUS
 10
347.6375473617
 20
113.8918919767
 11
352.9769188914
 21
113.8918919767
  0
LINE
  5
21E
100
AcDbEntity
  8
0
100
AcDbLine
 62
7
  6
CONTINUOUS
 10
348.3022244707
 20
128.1528213619
 11
352.3122417824
 21
128.1528213619
  0
LINE
  5
21F
100
AcDbEntity
  8
KONSTRUKTIONSELEMENTE
100
AcDbLine
 62
7
  6
CONTINUOUS
 10
285.0412772231
 20
126.642604979
 11
288.576811129
 21
123.1070710731
  0
LINE
  5
220
100
AcDbEntity
  8
KONSTRUKTIONSELEMENTE
100
AcDbLine
 62
7
  6
CONTINUOUS
 10
285.3948306137
 20
126.9961583696
 11
288.9303645196
 21
123.4606244637
  0
LINE
  5
221
100
AcDbEntity
  8
0
100
AcDbLine
 62
7
  6
CONTINUOUS
 10
348.3022244707
 20
142.413750747
 11
352.3122417824
 21
142.413750747
  0
LINE
  5
222
100
AcDbEntity
  8
0
100
AcDbLine
 62
7
  6
CONTINUOUS
 10
294.8072331266
 20
178.4028213619
 11
294.8072331266
 21
238.4028213619
  0
LINE
  5
223
100
AcDbEntity
  8
KONSTRUKTIONSELEMENTE
100
AcDbLine
 62
7
  6
CONTINUOUS
 10
219.4924786071
 20
61.093806363
 11
223.5229872598
 21
65.1243150158
  0
LINE
  5
224
100
AcDbEntity
  8
KONSTRUKTIONSELEMENTE
100
AcDbLine
 62
7
  6
CONTINUOUS
 10
223.8765406504
 20
65.4778684064
 11
227.9070493032
 21
69.5083770591
  0
LINE
  5
225
100
AcDbEntity
  8
KONSTRUKTIONSELEMENTE
100
AcDbLine
 62
7
  6
CONTINUOUS
 10
281.0107685703
 20
122.6120963263
 11
285.0412772231
 21
126.642604979
  0
LINE
  5
226
100
AcDbEntity
  8
KONSTRUKTIONSELEMENTE
100
AcDbLine
 62
7
  6
CONTINUOUS
 10
285.3948306137
 20
126.9961583696
 11
289.4253392664
 21
131.0266670224
  0
LINE
  5
227
100
AcDbEntity
  8
KONSTRUKTIONSELEMENTE
100
AcDbLine
 62
7
  6
CONTINUOUS
 10
260.8582253065
 20
100.2675220408
 11
250.2516235887
 21
89.660920323
  0
LINE
  5
228
100
AcDbEntity
  8
0
100
AcDbLine
 62
7
  6
CONTINUOUS
 10
348.3022244707
 20
152.8534756201
 11
352.3122417824
 21
152.8534756201
  0
LINE
  5
229
100
AcDbEntity
  8
0
100
AcDbLine
 62
7
  6
CONTINUOUS
 10
352.3122417824
 20
156.6746801322
 11
348.3022244707
 21
156.6746801322
  0
LINE
  5
22A
100
AcDbEntity
  8
0
100
AcDbLine
 62
7
  6
CONTINUOUS
 10
312.8072331266
 20
178.4028213619
 11
312.8072331266
 21
238.4028213619
  0
LINE
  5
22B
100
AcDbEntity
  8
KONSTRUKTIONSELEMENTE
100
AcDbLine
 62
7
  6
CONTINUOUS
 10
223.028012513
 20
57.5582724571
 11
227.0585211658
 21
61.5887811099
  0
LINE
  5
22C
100
AcDbEntity
  8
KONSTRUKTIONSELEMENTE
100
AcDbLine
 62
7
  6
CONTINUOUS
 10
227.4120745564
 20
61.9423345004
 11
231.4425832091
 21
65.9728431532
  0
LINE
  5
22D
100
AcDbEntity
  8
KONSTRUKTIONSELEMENTE
100
AcDbLine
 62
7
  6
CONTINUOUS
 10
284.5463024762
 20
119.0765624203
 11
288.576811129
 21
123.1070710731
  0
LINE
  5
22E
100
AcDbEntity
  8
KONSTRUKTIONSELEMENTE
100
AcDbLine
 62
7
  6
CONTINUOUS
 10
288.9303645196
 20
123.4606244637
 11
292.9608731723
 21
127.4911331164
  0
LINE
  5
22F
100
AcDbEntity
  8
KONSTRUKTIONSELEMENTE
100
AcDbLine
 62
7
  6
CONTINUOUS
 10
264.0402058218
 20
97.0855415254
 11
253.433604104
 21
86.4789398076
  0
LINE
  5
230
100
AcDbEntity
  8
KONSTRUKTIONSELEMENTE
100
AcDbLine
 62
7
  6
CONTINUOUS
 10
294.7993508034
 20
127.1375797258
 11
323.7412187049
 21
156.0794476273
  0
LINE
  5
231
100
AcDbEntity
  8
RUNDUNGEN
100
AcDbLine
 62
7
  6
CONTINUOUS
 10
170.3485573146
 20
1.9796794558
 11
227.5594302516
 21
59.1905523929
  0
LINE
  5
232
100
AcDbEntity
  8
KONSTRUKTIONSELEMENTE
100
AcDbLine
 62
7
  6
CONTINUOUS
 10
234.6952744026
 20
65.9728431532
 11
253.4039593778
 21
84.6815281284
  0
LINE
  5
233
100
AcDbEntity
  8
KONSTRUKTIONSELEMENTE
100
AcDbLine
 62
7
  6
CONTINUOUS
 10
265.8079727748
 20
97.0855415254
 11
284.51665775
 21
115.7942265006
  0
LINE
  5
234
100
AcDbEntity
  8
KONSTRUKTIONSELEMENTE
100
AcDbLine
 62
7
  6
CONTINUOUS
 10
237.8772549179
 20
62.7908626379
 11
256.5859398931
 21
81.499547613
  0
LINE
  5
235
100
AcDbEntity
  8
KONSTRUKTIONSELEMENTE
100
AcDbLine
 62
7
  6
CONTINUOUS
 10
268.9899532901
 20
93.9035610101
 11
287.6986382653
 21
112.6122459853
  0
LINE
  5
236
100
AcDbEntity
  8
RUNDUNGEN
100
AcDbLine
 62
7
  6
CONTINUOUS
 10
173.8840912205
 20
-1.5558544501
 11
231.0949576154
 21
55.6550119447
  0
LINE
  5
237
100
AcDbEntity
  8
KONSTRUKTIONSELEMENTE
100
AcDbLine
 62
7
  6
CONTINUOUS
 10
299.0915016178
 20
122.9444491659
 11
327.983859392
 21
151.8368069402
  0
LINE
  5
238
100
AcDbEntity
  8
KONSTRUKTIONSELEMENTE
100
AcDbLine
 62
7
  6
CONTINUOUS
 10
258.3833515723
 20
81.5291923393
 11
268.9899532901
 21
92.1357940571
  0
LINE
  5
239
100
AcDbEntity
  8
KONSTRUKTIONSELEMENTE
100
AcDbLine
 62
7
  6
CONTINUOUS
 10
299.3955448811
 20
121.0564614076
 11
290.980974185
 21
112.6418907115
  0
LINE
  5
23A
100
AcDbEntity
  8
KONSTRUKTIONSELEMENTE
100
AcDbLine
 62
7
  6
CONTINUOUS
 10
237.8772549179
 20
59.5381714444
 11
229.4626842218
 21
51.1236007483
  0
LINE
  5
23B
100
AcDbEntity
  8
KONSTRUKTIONSELEMENTE
100
AcDbLine
 62
7
  6
CONTINUOUS
 10
261.5653320877
 20
78.347211824
 11
272.1719338055
 21
88.9538135418
  0
LINE
  5
23C
100
AcDbEntity
  8
KONSTRUKTIONSELEMENTE
100
AcDbLine
 62
7
  6
CONTINUOUS
 10
302.9310787871
 20
117.5209275017
 11
294.516508091
 21
109.1063568056
  0
LINE
  5
23D
100
AcDbEntity
  8
KONSTRUKTIONSELEMENTE
100
AcDbLine
 62
7
  6
CONTINUOUS
 10
241.4127888238
 20
56.0026375385
 11
232.9982181277
 21
47.5880668424
  0
LINE
  5
23E
100
AcDbEntity
  8
0
100
AcDbLine
 62
7
  6
CONTINUOUS
 10
338.3072331266
 20
89.3528213619
 11
338.3072331266
 21
100.1528213619
  0
LINE
  5
23F
100
AcDbEntity
  8
0
100
AcDbLine
 62
7
  6
CONTINUOUS
 10
344.7925272442
 20
150.0939978325
 11
348.3022244707
 21
156.6746801322
  0
LINE
  5
240
100
AcDbEntity
  8
RUNDUNGEN
100
AcDbLine
 62
7
  6
CONTINUOUS
 10
362.3072331266
 20
100.1528213619
 11
359.3072331266
 21
105.3489737846
  0
LINE
  5
241
100
AcDbEntity
  8
0
100
AcDbLine
 62
7
  6
CONTINUOUS
 10
352.8216102223
 20
121.9516422239
 11
352.9769188914
 21
113.8918919767
  0
LINE
  5
242
100
AcDbEntity
  8
0
100
AcDbLine
 62
7
  6
CONTINUOUS
 10
341.3072331266
 20
111.8028213619
 11
341.3072331266
 21
105.3489737846
  0
LINE
  5
243
100
AcDbEntity
  8
0
100
AcDbLine
 62
7
  6
CONTINUOUS
 10
344.0572331266
 20
123.8784613656
 11
344.0572331266
 21
115.3010351918
  0
LINE
  5
244
100
AcDbEntity
  8
BEZUGSACHSEN
100
AcDbLine
 62
7
  6
CONTINUOUS
 10
344.0572331266
 20
123.8787513293
 11
344.0572331266
 21
147.1528213619
  0
LINE
  5
245
100
AcDbEntity
  8
0
100
AcDbLine
 62
7
  6
CONTINUOUS
 10
348.5572331266
 20
106.2261763654
 11
348.5572331266
 21
98.8598334754
  0
LINE
  5
246
100
AcDbEntity
  8
0
100
AcDbLine
 62
7
  6
CONTINUOUS
 10
352.0572331266
 20
106.2261763654
 11
352.0572331266
 21
98.8598334754
  0
LINE
  5
247
100
AcDbEntity
  8
0
100
AcDbLine
 62
7
  6
CONTINUOUS
 10
347.7928560308
 20
121.9516422239
 11
347.6375473617
 21
113.8918919767
  0
LINE
  5
248
100
AcDbEntity
  8
KONSTRUKTIONSELEMENTE
100
AcDbLine
 62
7
  6
CONTINUOUS
 10
352.3122417824
 20
156.6746801322
 11
355.8219390089
 21
150.0939978325
  0
LINE
  5
249
100
AcDbEntity
  8
0
100
AcDbLine
 62
7
  6
CONTINUOUS
 10
348.5572331266
 20
98.8598334754
 11
347.292349798
 21
109.4028213619
  0
LINE
  5
24A
100
AcDbEntity
  8
0
100
AcDbLine
 62
7
  6
CONTINUOUS
 10
348.5572331266
 20
106.2261763654
 11
347.6375473617
 21
113.8918919767
  0
LINE
  5
24B
100
AcDbEntity
  8
RUNDUNGEN
100
AcDbLine
 62
7
  6
CONTINUOUS
 10
356.5572331266
 20
123.8784613656
 11
356.5572331266
 21
115.3010351918
  0
LINE
  5
24C
100
AcDbEntity
  8
BEZUGSACHSEN
100
AcDbLine
 62
7
  6
CONTINUOUS
 10
356.5572331266
 20
123.8787513293
 11
356.5572331266
 21
147.1528213619
  0
LINE
  5
24D
100
AcDbEntity
  8
RUNDUNGEN
100
AcDbLine
 62
7
  6
CONTINUOUS
 10
359.3072331266
 20
111.8028213619
 11
359.3072331266
 21
105.3489737846
  0
LINE
  5
24E
100
AcDbEntity
  8
RUNDUNGEN
100
AcDbLine
 62
7
  6
CONTINUOUS
 10
362.3072331266
 20
89.3528213619
 11
362.3072331266
 21
100.1528213619
  0
LINE
  5
24F
100
AcDbEntity
  8
0
100
AcDbLine
 62
7
  6
CONTINUOUS
 10
352.0572331266
 20
106.2261763654
 11
352.9769188914
 21
113.8918919767
  0
LINE
  5
250
100
AcDbEntity
  8
RUNDUNGEN
100
AcDbLine
 62
7
  6
CONTINUOUS
 10
352.0572331266
 20
98.8598334754
 11
353.3221164551
 21
109.4028213619
  0
LINE
  5
251
100
AcDbEntity
  8
0
100
AcDbLine
 62
7
  6
CONTINUOUS
 10
338.3072331266
 20
100.1528213619
 11
341.3072331266
 21
105.3489737846
  0
LINE
  5
252
100
AcDbEntity
  8
0
100
AcDbLine
 62
7
  6
CONTINUOUS
 10
387.8072331266
 20
238.4028213619
 11
387.8072331266
 21
178.4028213619
  0
LINE
  5
253
100
AcDbEntity
  8
0
100
AcDbLine
 62
7
  6
CONTINUOUS
 10
405.8072331266
 20
238.4028213619
 11
405.8072331266
 21
178.4028213619
  0
LINE
  5
254
100
AcDbEntity
  8
RUNDUNGEN
100
AcDbLine
 62
7
  6
CONTINUOUS
 10
68.8805831938
 20
-1.5558544501
 11
71.4805831938
 21
-1.5558544501
  0
LINE
  5
255
100
AcDbEntity
  8
RUNDUNGEN
100
AcDbLine
 62
7
  6
CONTINUOUS
 10
113.2805831938
 20
-1.5558544501
 11
115.8805831938
 21
-1.5558544501
  0
LINE
  5
256
100
AcDbEntity
  8
RUNDUNGEN
100
AcDbLine
 62
7
  6
CONTINUOUS
 10
75.4805831938
 20
5.5152133618
 11
80.9302933354
 21
5.5152133618
  0
LINE
  5
257
100
AcDbEntity
  8
RUNDUNGEN
100
AcDbLine
 62
7
  6
CONTINUOUS
 10
103.8308730522
 20
5.5152133618
 11
109.2805831938
 21
5.5152133618
  0
LINE
  5
258
100
AcDbEntity
  8
0
100
AcDbLine
 62
7
  6
CONTINUOUS
 10
81.1907690056
 20
38.3249680088
 11
85.0307690056
 21
38.3249680088
  0
LINE
  5
259
100
AcDbEntity
  8
0
100
AcDbLine
 62
7
  6
CONTINUOUS
 10
87.0674100468
 20
38.3249680088
 11
87.8354100468
 21
38.3249680088
  0
LINE
  5
25A
100
AcDbEntity
  8
0
100
AcDbLine
 62
7
  6
CONTINUOUS
 10
91.4937731803
 20
38.3249680088
 11
92.3805831938
 21
38.3249680088
  0
LINE
  5
25B
100
AcDbEntity
  8
0
100
AcDbLine
 62
7
  6
CONTINUOUS
 10
99.0627183352
 20
38.3249680088
 11
101.8450919893
 21
38.3249680088
  0
LINE
  5
25C
100
AcDbEntity
  8
0
100
AcDbLine
 62
7
  6
CONTINUOUS
 10
81.1907690056
 20
38.6078107213
 11
85.0307690056
 21
38.6078107213
  0
LINE
  5
25D
100
AcDbEntity
  8
0
100
AcDbLine
 62
7
  6
CONTINUOUS
 10
87.0674100468
 20
38.6078107213
 11
87.8354100468
 21
38.6078107213
  0
LINE
  5
25E
100
AcDbEntity
  8
0
100
AcDbLine
 62
7
  6
CONTINUOUS
 10
91.4937731803
 20
38.6078107213
 11
92.1496430861
 21
38.6078107213
  0
LINE
  5
25F
100
AcDbEntity
  8
0
100
AcDbLine
 62
7
  6
CONTINUOUS
 10
99.0627183352
 20
38.6078107213
 11
101.8450919893
 21
38.6078107213
  0
LINE
  5
260
100
AcDbEntity
  8
0
100
AcDbLine
 62
7
  6
CONTINUOUS
 10
101.8619211717
 20
38.8906534338
 11
99.8307183352
 21
38.8906534338
  0
LINE
  5
261
100
AcDbEntity
  8
0
100
AcDbLine
 62
7
  6
CONTINUOUS
 10
83.7107690056
 20
39.0037905188
 11
82.5107690056
 21
39.0037905188
  0
LINE
  5
262
100
AcDbEntity
  8
0
100
AcDbLine
 62
7
  6
CONTINUOUS
 10
82.7267690056
 20
39.25834896
 11
83.4947690056
 21
39.25834896
  0
LINE
  5
263
100
AcDbEntity
  8
0
100
AcDbLine
 62
7
  6
CONTINUOUS
 10
82.7267690056
 20
39.5411916725
 11
83.4947690056
 21
39.5411916725
  0
LINE
  5
264
100
AcDbEntity
  8
0
100
AcDbLine
 62
7
  6
CONTINUOUS
 10
83.1947690056
 20
39.9371714699
 11
83.0267690056
 21
39.9371714699
  0
LINE
  5
265
100
AcDbEntity
  8
0
100
AcDbLine
 62
7
  6
CONTINUOUS
 10
83.4947690056
 20
40.1068770974
 11
83.2907690056
 21
40.1068770974
  0
LINE
  5
266
100
AcDbEntity
  8
0
100
AcDbLine
 62
7
  6
CONTINUOUS
 10
82.9307690056
 20
40.1068770974
 11
82.7267690056
 21
40.1068770974
  0
LINE
  5
267
100
AcDbEntity
  8
0
100
AcDbLine
 62
7
  6
CONTINUOUS
 10
82.5107690056
 20
40.3614355386
 11
82.9307690056
 21
40.3614355386
  0
LINE
  5
268
100
AcDbEntity
  8
0
100
AcDbLine
 62
7
  6
CONTINUOUS
 10
83.2907690056
 20
40.3614355386
 11
83.7107690056
 21
40.3614355386
  0
LINE
  5
269
100
AcDbEntity
  8
0
100
AcDbLine
 62
7
  6
CONTINUOUS
 10
87.8354100468
 20
40.4540193412
 11
89.7554100468
 21
40.4540193412
  0
LINE
  5
26A
100
AcDbEntity
  8
0
100
AcDbLine
 62
7
  6
CONTINUOUS
 10
82.5107690056
 20
40.6442782511
 11
82.9307690056
 21
40.6442782511
  0
LINE
  5
26B
100
AcDbEntity
  8
0
100
AcDbLine
 62
7
  6
CONTINUOUS
 10
83.2907690056
 20
40.6442782511
 11
83.7107690056
 21
40.6442782511
  0
LINE
  5
26C
100
AcDbEntity
  8
0
100
AcDbLine
 62
7
  6
CONTINUOUS
 10
83.7107690056
 20
40.7008467936
 11
83.2907690056
 21
40.7008467936
  0
LINE
  5
26D
100
AcDbEntity
  8
0
100
AcDbLine
 62
7
  6
CONTINUOUS
 10
82.9307690056
 20
40.7008467936
 11
82.5107690056
 21
40.7008467936
  0
LINE
  5
26E
100
AcDbEntity
  8
0
100
AcDbLine
 62
7
  6
CONTINUOUS
 10
87.8354100468
 20
40.7368620537
 11
89.7554100468
 21
40.7368620537
  0
LINE
  5
26F
100
AcDbEntity
  8
0
100
AcDbLine
 62
7
  6
CONTINUOUS
 10
82.7267690056
 20
40.9554052348
 11
82.9307690056
 21
40.9554052348
  0
LINE
  5
270
100
AcDbEntity
  8
0
100
AcDbLine
 62
7
  6
CONTINUOUS
 10
83.2907690056
 20
40.9554052348
 11
83.4947690056
 21
40.9554052348
  0
LINE
  5
271
100
AcDbEntity
  8
0
100
AcDbLine
 62
7
  6
CONTINUOUS
 10
90.0754100468
 20
40.9970773492
 11
87.8354100468
 21
40.9970773492
  0
LINE
  5
272
100
AcDbEntity
  8
0
100
AcDbLine
 62
7
  6
CONTINUOUS
 10
83.0267690056
 20
41.1251108623
 11
83.1947690056
 21
41.1251108623
  0
LINE
  5
273
100
AcDbEntity
  8
0
100
AcDbLine
 62
7
  6
CONTINUOUS
 10
82.7267690056
 20
41.2382479473
 11
82.9307690056
 21
41.2382479473
  0
LINE
  5
274
100
AcDbEntity
  8
0
100
AcDbLine
 62
7
  6
CONTINUOUS
 10
83.2907690056
 20
41.2382479473
 11
83.4947690056
 21
41.2382479473
  0
LINE
  5
275
100
AcDbEntity
  8
0
100
AcDbLine
 62
7
  6
CONTINUOUS
 10
83.0267690056
 20
41.4079535748
 11
83.1947690056
 21
41.4079535748
  0
LINE
  5
276
100
AcDbEntity
  8
0
100
AcDbLine
 62
7
  6
CONTINUOUS
 10
99.8307183352
 20
41.7190805585
 11
99.0627183352
 21
41.7190805585
  0
LINE
  5
277
100
AcDbEntity
  8
0
100
AcDbLine
 62
7
  6
CONTINUOUS
 10
87.8354100468
 20
41.7473648298
 11
87.0674100468
 21
41.7473648298
  0
LINE
  5
278
100
AcDbEntity
  8
0
100
AcDbLine
 62
7
  6
CONTINUOUS
 10
83.4947690056
 20
41.8039333723
 11
82.7267690056
 21
41.8039333723
  0
LINE
  5
279
100
AcDbEntity
  8
0
100
AcDbLine
 62
7
  6
CONTINUOUS
 10
82.5107690056
 20
42.0584918135
 11
83.7107690056
 21
42.0584918135
  0
LINE
  5
27A
100
AcDbEntity
  8
0
100
AcDbLine
 62
7
  6
CONTINUOUS
 10
99.0627183352
 20
42.1942563155
 11
101.8619211717
 21
42.1942563155
  0
LINE
  5
27B
100
AcDbEntity
  8
0
100
AcDbLine
 62
7
  6
CONTINUOUS
 10
87.0674100468
 20
42.2225405867
 11
90.0754100468
 21
42.2225405867
  0
LINE
  5
27C
100
AcDbEntity
  8
0
100
AcDbLine
 62
7
  6
CONTINUOUS
 10
82.5107690056
 20
42.341334526
 11
83.7107690056
 21
42.341334526
  0
LINE
  5
27D
100
AcDbEntity
  8
0
100
AcDbLine
 62
7
  6
CONTINUOUS
 10
99.0627183352
 20
42.4770990279
 11
101.8619211717
 21
42.4770990279
  0
LINE
  5
27E
100
AcDbEntity
  8
0
100
AcDbLine
 62
7
  6
CONTINUOUS
 10
87.0674100468
 20
42.5053832992
 11
90.0754100468
 21
42.5053832992
  0
LINE
  5
27F
100
AcDbEntity
  8
0
100
AcDbLine
 62
7
  6
CONTINUOUS
 10
101.8450919893
 20
42.7373143234
 11
99.0627183352
 21
42.7373143234
  0
LINE
  5
280
100
AcDbEntity
  8
0
100
AcDbLine
 62
7
  6
CONTINUOUS
 10
97.3827183352
 20
42.7373143234
 11
96.6147183352
 21
42.7373143234
  0
LINE
  5
281
100
AcDbEntity
  8
0
100
AcDbLine
 62
7
  6
CONTINUOUS
 10
93.5954100468
 20
42.7373143234
 11
92.8274100468
 21
42.7373143234
  0
LINE
  5
282
100
AcDbEntity
  8
0
100
AcDbLine
 62
7
  6
CONTINUOUS
 10
90.0754100468
 20
42.7373143234
 11
87.0674100468
 21
42.7373143234
  0
LINE
  5
283
100
AcDbEntity
  8
0
100
AcDbLine
 62
7
  6
CONTINUOUS
 10
85.0307690056
 20
42.7373143234
 11
81.1907690056
 21
42.7373143234
  0
LINE
  5
284
100
AcDbEntity
  8
RUNDUNGEN
100
AcDbLine
 62
7
  6
CONTINUOUS
 10
58.0684562306
 20
49.6257486054
 11
59.9612584705
 21
47.7142963198
  0
LINE
  5
285
100
AcDbEntity
  8
RUNDUNGEN
100
AcDbLine
 62
7
  6
CONTINUOUS
 10
65.7543804777
 20
41.8640938698
 11
77.79491595
 21
29.7049213145
  0
LINE
  5
286
100
AcDbEntity
  8
RUNDUNGEN
100
AcDbLine
 62
7
  6
CONTINUOUS
 10
96.4763434152
 20
10.8394231271
 11
100.5542648751
 21
6.7213213358
  0
LINE
  5
287
100
AcDbEntity
  8
RUNDUNGEN
100
AcDbLine
 62
7
  6
CONTINUOUS
 10
107.7826816906
 20
47.2955184839
 11
99.26350043
 21
51.5135482757
  0
LINE
  5
288
100
AcDbEntity
  8
RUNDUNGEN
100
AcDbLine
 62
7
  6
CONTINUOUS
 10
69.2434241692
 20
46.3538919788
 11
67.1211913547
 21
48.4970354506
  0
LINE
  5
289
100
AcDbEntity
  8
RUNDUNGEN
100
AcDbLine
 62
7
  6
CONTINUOUS
 10
99.26350043
 20
55.0490821816
 11
107.7826816906
 21
50.8310523898
  0
LINE
  5
28A
100
AcDbEntity
  8
RUNDUNGEN
100
AcDbLine
 62
7
  6
CONTINUOUS
 10
119.157191371
 20
7.659946428
 11
106.9662504376
 21
19.9710064104
  0
LINE
  5
28B
100
AcDbEntity
  8
RUNDUNGEN
100
AcDbLine
 62
7
  6
CONTINUOUS
 10
76.6501438579
 20
50.5858218357
 11
74.6163475573
 21
52.6396574161
  0
LINE
  5
28C
100
AcDbEntity
  8
RUNDUNGEN
100
AcDbLine
 62
7
  6
CONTINUOUS
 10
119.157191371
 20
11.1954803339
 11
106.9662504376
 21
23.5065403163
  0
LINE
  5
28D
100
AcDbEntity
  8
RUNDUNGEN
100
AcDbLine
 62
7
  6
CONTINUOUS
 10
76.6501438579
 20
54.1213557416
 11
74.6163475573
 21
56.175191322
  0
LINE
  5
28E
100
AcDbEntity
  8
KONSTRUKTIONSELEMENTE
100
AcDbLine
 62
7
  6
CONTINUOUS
 10
111.6893831938
 20
78.1528213619
 11
108.1043046946
 21
78.1528213619
  0
LINE
  5
28F
100
AcDbEntity
  8
0
100
AcDbLine
 62
7
  6
CONTINUOUS
 10
108.1043046946
 20
78.1528213619
 11
108.0693280006
 21
78.1528213619
  0
LINE
  5
290
100
AcDbEntity
  8
0
100
AcDbLine
 62
7
  6
CONTINUOUS
 10
76.691838387
 20
78.1528213619
 11
76.656861693
 21
78.1528213619
  0
LINE
  5
291
100
AcDbEntity
  8
KONSTRUKTIONSELEMENTE
100
AcDbLine
 62
7
  6
CONTINUOUS
 10
76.656861693
 20
78.1528213619
 11
73.0717831938
 21
78.1528213619
  0
LINE
  5
292
100
AcDbEntity
  8
BEZUGSACHSEN
100
AcDbLine
 62
7
  6
CONTINUOUS
 10
87.3805831938
 20
86.5028213619
 11
97.3805831938
 21
86.5028213619
  0
LINE
  5
293
100
AcDbEntity
  8
RUNDUNGEN
100
AcDbLine
 62
7
  6
CONTINUOUS
 10
128.0040334493
 20
52.429356212
 11
122.1061387304
 21
55.3495306832
  0
LINE
  5
294
100
AcDbEntity
  8
RUNDUNGEN
100
AcDbLine
 62
7
  6
CONTINUOUS
 10
128.0040334493
 20
55.9648901179
 11
122.1061387304
 21
58.8850645891
  0
LINE
  5
295
100
AcDbEntity
  8
0
100
AcDbLine
 62
7
  6
CONTINUOUS
 10
89.7554100468
 20
40.4540193412
 11
91.4937731803
 21
38.3249680088
  0
LINE
  5
296
100
AcDbEntity
  8
0
100
AcDbLine
 62
7
  6
CONTINUOUS
 10
89.7554100468
 20
40.7368620537
 11
91.4937731803
 21
38.6078107213
  0
LINE
  5
297
100
AcDbEntity
  8
0
100
AcDbLine
 62
7
  6
CONTINUOUS
 10
92.3805831938
 20
38.3249680088
 11
90.573128862
 21
40.538638432
  0
LINE
  5
298
100
AcDbEntity
  8
BEZUGSACHSEN
100
AcDbLine
 62
7
  6
CONTINUOUS
 10
87.3805831938
 20
89.5217569385
 11
97.3805831938
 21
89.5217569385
  0
LINE
  5
299
100
AcDbEntity
  8
BEZUGSACHSEN
100
AcDbLine
 62
7
  6
CONTINUOUS
 10
87.3805831938
 20
94.7838857853
 11
97.3805831938
 21
94.7838857853
  0
LINE
  5
29A
100
AcDbEntity
  8
RUNDUNGEN
100
AcDbLine
 62
7
  6
CONTINUOUS
 10
73.0717831938
 20
78.1528213619
 11
69.3805831938
 21
84.1510213619
  0
LINE
  5
29B
100
AcDbEntity
  8
0
100
AcDbLine
 62
7
  6
CONTINUOUS
 10
109.3354373901
 20
106.6258402103
 11
109.6814852124
 21
106.7069942502
  0
LINE
  5
29C
100
AcDbEntity
  8
0
100
AcDbLine
 62
7
  6
CONTINUOUS
 10
103.0373572818
 20
106.6258402103
 11
103.3834055001
 21
106.7069942502
  0
LINE
  5
29D
100
AcDbEntity
  8
BEZUGSACHSEN
100
AcDbLine
 62
7
  6
CONTINUOUS
 10
87.3805831938
 20
97.8028213619
 11
97.3805831938
 21
97.8028213619
  0
LINE
  5
29E
100
AcDbEntity
  8
RUNDUNGEN
100
AcDbLine
 62
7
  6
CONTINUOUS
 10
72.9805831938
 20
100.1528213619
 11
83.3700935459
 21
100.1528213619
  0
LINE
  5
29F
100
AcDbEntity
  8
RUNDUNGEN
100
AcDbLine
 62
7
  6
CONTINUOUS
 10
101.3910728417
 20
100.1528213619
 11
111.7805831938
 21
100.1528213619
  0
LINE
  5
2A0
100
AcDbEntity
  8
RUNDUNGEN
100
AcDbLine
 62
7
  6
CONTINUOUS
 10
111.7805831938
 20
105.3489737846
 11
96.5523482666
 21
105.3489737846
  0
LINE
  5
2A1
100
AcDbEntity
  8
RUNDUNGEN
100
AcDbLine
 62
7
  6
CONTINUOUS
 10
88.208818121
 20
105.3489737846
 11
72.9805831938
 21
105.3489737846
  0
LINE
  5
2A2
100
AcDbEntity
  8
0
100
AcDbLine
 62
7
  6
CONTINUOUS
 10
75.4155429902
 20
106.6258402103
 11
75.8923229902
 21
106.6258402103
  0
LINE
  5
2A3
100
AcDbEntity
  8
0
100
AcDbLine
 62
7
  6
CONTINUOUS
 10
77.8789062478
 20
106.6258402103
 11
78.4351497327
 21
106.6258402103
  0
LINE
  5
2A4
100
AcDbEntity
  8
0
100
AcDbLine
 62
7
  6
CONTINUOUS
 10
80.3422695053
 20
106.6258402103
 11
80.6601229902
 21
106.6258402103
  0
LINE
  5
2A5
100
AcDbEntity
  8
0
100
AcDbLine
 62
7
  6
CONTINUOUS
 10
82.5672429902
 20
106.6258402103
 11
84.4743629902
 21
106.6258402103
  0
LINE
  5
2A6
100
AcDbEntity
  8
0
100
AcDbLine
 62
7
  6
CONTINUOUS
 10
97.1545351938
 20
106.6258402103
 11
97.5697932142
 21
106.6258402103
  0
LINE
  5
2A7
100
AcDbEntity
  8
0
100
AcDbLine
 62
7
  6
CONTINUOUS
 10
98.1234705418
 20
106.6258402103
 11
98.5387285622
 21
106.6258402103
  0
LINE
  5
2A8
100
AcDbEntity
  8
0
100
AcDbLine
 62
7
  6
CONTINUOUS
 10
100.2689703469
 20
106.6258402103
 11
100.7534381694
 21
106.6258402103
  0
LINE
  5
2A9
100
AcDbEntity
  8
0
100
AcDbLine
 62
7
  6
CONTINUOUS
 10
102.4144702511
 20
106.6258402103
 11
103.0373572818
 21
106.6258402103
  0
LINE
  5
2AA
100
AcDbEntity
  8
0
100
AcDbLine
 62
7
  6
CONTINUOUS
 10
108.9201793697
 20
106.6258402103
 11
109.3354373901
 21
106.6258402103
  0
LINE
  5
2AB
100
AcDbEntity
  8
0
100
AcDbLine
 62
7
  6
CONTINUOUS
 10
79.9449529902
 20
106.7069942502
 11
80.3422695053
 21
106.6258402103
  0
LINE
  5
2AC
100
AcDbEntity
  8
0
100
AcDbLine
 62
7
  6
CONTINUOUS
 10
80.3422695053
 20
107.1127644644
 11
80.0244164751
 21
107.1939184972
  0
LINE
  5
2AD
100
AcDbEntity
  8
0
100
AcDbLine
 62
7
  6
CONTINUOUS
 10
77.4021262478
 20
110.0343100459
 11
77.6405162478
 21
109.953156013
  0
LINE
  5
2AE
100
AcDbEntity
  8
0
100
AcDbLine
 62
7
  6
CONTINUOUS
 10
79.6270995053
 20
106.8693023373
 11
79.9449529902
 21
106.7069942502
  0
LINE
  5
2AF
100
AcDbEntity
  8
0
100
AcDbLine
 62
7
  6
CONTINUOUS
 10
80.0244164751
 20
107.1939184972
 11
79.7860264751
 21
107.3562266198
  0
LINE
  5
2B0
100
AcDbEntity
  8
RUNDUNGEN
100
AcDbLine
 62
7
  6
CONTINUOUS
 10
57.3450644077
 20
51.2480677561
 11
57.3450644077
 21
54.783601662
  0
LINE
  5
2B1
100
AcDbEntity
  8
0
100
AcDbLine
 62
7
  6
CONTINUOUS
 10
84.7922160204
 20
107.1939184972
 11
84.4743629902
 21
107.1127644644
  0
LINE
  5
2B2
100
AcDbEntity
  8
0
100
AcDbLine
 62
7
  6
CONTINUOUS
 10
80.9779764751
 20
107.1939184972
 11
80.6601229902
 21
107.1127644644
  0
LINE
  5
2B3
100
AcDbEntity
  8
0
100
AcDbLine
 62
7
  6
CONTINUOUS
 10
108.9893887758
 20
110.4400802103
 11
108.6433401614
 21
110.3589261774
  0
LINE
  5
2B4
100
AcDbEntity
  8
0
100
AcDbLine
 62
7
  6
CONTINUOUS
 10
102.4144702511
 20
110.4400802103
 11
102.0684216368
 21
110.3589261774
  0
LINE
  5
2B5
100
AcDbEntity
  8
0
100
AcDbLine
 62
7
  6
CONTINUOUS
 10
84.4743629902
 20
106.6258402103
 11
84.87167996
 21
106.7069942502
  0
LINE
  5
2B6
100
AcDbEntity
  8
0
100
AcDbLine
 62
7
  6
CONTINUOUS
 10
80.6601229902
 20
106.6258402103
 11
81.0574395053
 21
106.7069942502
  0
LINE
  5
2B7
100
AcDbEntity
  8
0
100
AcDbLine
 62
7
  6
CONTINUOUS
 10
109.266227192
 20
107.0316104315
 11
108.9893887758
 21
107.0316104315
  0
LINE
  5
2B8
100
AcDbEntity
  8
0
100
AcDbLine
 62
7
  6
CONTINUOUS
 10
103.0373572818
 20
107.1127644644
 11
102.4144702511
 21
107.1127644644
  0
LINE
  5
2B9
100
AcDbEntity
  8
0
100
AcDbLine
 62
7
  6
CONTINUOUS
 10
84.4743629902
 20
107.1127644644
 11
83.0440229902
 21
107.1127644644
  0
LINE
  5
2BA
100
AcDbEntity
  8
0
100
AcDbLine
 62
7
  6
CONTINUOUS
 10
80.6601229902
 20
107.1127644644
 11
80.3422695053
 21
107.1127644644
  0
LINE
  5
2BB
100
AcDbEntity
  8
0
100
AcDbLine
 62
7
  6
CONTINUOUS
 10
102.9681474797
 20
108.2489210952
 11
103.5910345103
 21
108.2489210952
  0
LINE
  5
2BC
100
AcDbEntity
  8
0
100
AcDbLine
 62
7
  6
CONTINUOUS
 10
75.8923229902
 20
108.3300751281
 11
77.243199619
 21
108.3300751281
  0
LINE
  5
2BD
100
AcDbEntity
  8
0
100
AcDbLine
 62
7
  6
CONTINUOUS
 10
98.5387285622
 20
108.3300751281
 11
99.7152929204
 21
108.3300751281
  0
LINE
  5
2BE
100
AcDbEntity
  8
0
100
AcDbLine
 62
7
  6
CONTINUOUS
 10
108.9893887758
 20
108.4112291609
 11
109.266227192
 21
108.4112291609
  0
LINE
  5
2BF
100
AcDbEntity
  8
0
100
AcDbLine
 62
7
  6
CONTINUOUS
 10
109.266227192
 20
108.7358452925
 11
108.9893887758
 21
108.7358452925
  0
LINE
  5
2C0
100
AcDbEntity
  8
0
100
AcDbLine
 62
7
  6
CONTINUOUS
 10
104.0062925307
 20
108.7358452925
 11
102.9681474797
 21
108.7358452925
  0
LINE
  5
2C1
100
AcDbEntity
  8
0
100
AcDbLine
 62
7
  6
CONTINUOUS
 10
99.8537123265
 20
108.8169993253
 11
98.5387285622
 21
108.8169993253
  0
LINE
  5
2C2
100
AcDbEntity
  8
0
100
AcDbLine
 62
7
  6
CONTINUOUS
 10
77.4021262478
 20
108.8169993253
 11
75.8923229902
 21
108.8169993253
  0
LINE
  5
2C3
100
AcDbEntity
  8
0
100
AcDbLine
 62
7
  6
CONTINUOUS
 10
103.5910345103
 20
109.4662315884
 11
104.0062925307
 21
109.4662315884
  0
LINE
  5
2C4
100
AcDbEntity
  8
0
100
AcDbLine
 62
7
  6
CONTINUOUS
 10
83.0440229902
 20
109.953156013
 11
84.4743629902
 21
109.953156013
  0
LINE
  5
2C5
100
AcDbEntity
  8
0
100
AcDbLine
 62
7
  6
CONTINUOUS
 10
102.4144702511
 20
109.953156013
 11
103.0373572818
 21
109.953156013
  0
LINE
  5
2C6
100
AcDbEntity
  8
0
100
AcDbLine
 62
7
  6
CONTINUOUS
 10
75.8923229902
 20
110.0343100459
 11
77.4021262478
 21
110.0343100459
  0
LINE
  5
2C7
100
AcDbEntity
  8
0
100
AcDbLine
 62
7
  6
CONTINUOUS
 10
98.5387285622
 20
110.0343100459
 11
99.8537123265
 21
110.0343100459
  0
LINE
  5
2C8
100
AcDbEntity
  8
0
100
AcDbLine
 62
7
  6
CONTINUOUS
 10
108.9893887758
 20
110.0343100459
 11
109.266227192
 21
110.0343100459
  0
LINE
  5
2C9
100
AcDbEntity
  8
0
100
AcDbLine
 62
7
  6
CONTINUOUS
 10
109.266227192
 20
110.4400802103
 11
108.9893887758
 21
110.4400802103
  0
LINE
  5
2CA
100
AcDbEntity
  8
0
100
AcDbLine
 62
7
  6
CONTINUOUS
 10
103.0373572818
 20
110.4400802103
 11
102.4144702511
 21
110.4400802103
  0
LINE
  5
2CB
100
AcDbEntity
  8
0
100
AcDbLine
 62
7
  6
CONTINUOUS
 10
99.7845027225
 20
110.4400802103
 11
98.1234705418
 21
110.4400802103
  0
LINE
  5
2CC
100
AcDbEntity
  8
0
100
AcDbLine
 62
7
  6
CONTINUOUS
 10
97.5697932142
 20
110.4400802103
 11
97.1545351938
 21
110.4400802103
  0
LINE
  5
2CD
100
AcDbEntity
  8
0
100
AcDbLine
 62
7
  6
CONTINUOUS
 10
84.4743629902
 20
110.4400802103
 11
82.5672429902
 21
110.4400802103
  0
LINE
  5
2CE
100
AcDbEntity
  8
0
100
AcDbLine
 62
7
  6
CONTINUOUS
 10
81.9315364751
 20
110.4400802103
 11
81.4547564751
 21
110.4400802103
  0
LINE
  5
2CF
100
AcDbEntity
  8
0
100
AcDbLine
 62
7
  6
CONTINUOUS
 10
79.5476364751
 20
110.4400802103
 11
79.0708562478
 21
110.4400802103
  0
LINE
  5
2D0
100
AcDbEntity
  8
0
100
AcDbLine
 62
7
  6
CONTINUOUS
 10
77.3226629902
 20
110.4400802103
 11
75.4155429902
 21
110.4400802103
  0
LINE
  5
2D1
100
AcDbEntity
  8
RUNDUNGEN
100
AcDbLine
 62
7
  6
CONTINUOUS
 10
108.9132926161
 20
115.3010351918
 11
106.3745673384
 21
115.3010351918
  0
LINE
  5
2D2
100
AcDbEntity
  8
RUNDUNGEN
100
AcDbLine
 62
7
  6
CONTINUOUS
 10
78.3865990492
 20
115.3010351918
 11
75.8478734534
 21
115.3010351918
  0
LINE
  5
2D3
100
AcDbEntity
  8
RUNDUNGEN
100
AcDbLine
 62
7
  6
CONTINUOUS
 10
82.9591871008
 20
115.4028213619
 11
101.8019663667
 21
115.4028213619
  0
LINE
  5
2D4
100
AcDbEntity
  8
0
100
AcDbLine
 62
7
  6
CONTINUOUS
 10
77.7199797327
 20
110.3589261774
 11
77.3226629902
 21
110.4400802103
  0
LINE
  5
2D5
100
AcDbEntity
  8
0
100
AcDbLine
 62
7
  6
CONTINUOUS
 10
84.87167996
 20
110.3589261774
 11
84.4743629902
 21
110.4400802103
  0
LINE
  5
2D6
100
AcDbEntity
  8
0
100
AcDbLine
 62
7
  6
CONTINUOUS
 10
102.0684216368
 20
106.7069942502
 11
102.4144702511
 21
106.6258402103
  0
LINE
  5
2D7
100
AcDbEntity
  8
0
100
AcDbLine
 62
7
  6
CONTINUOUS
 10
108.5741307553
 20
106.7069942502
 11
108.9201793697
 21
106.6258402103
  0
LINE
  5
2D8
100
AcDbEntity
  8
0
100
AcDbLine
 62
7
  6
CONTINUOUS
 10
100.1305509408
 20
110.3589261774
 11
99.7845027225
 21
110.4400802103
  0
LINE
  5
2D9
100
AcDbEntity
  8
0
100
AcDbLine
 62
7
  6
CONTINUOUS
 10
103.3834055001
 20
110.3589261774
 11
103.0373572818
 21
110.4400802103
  0
LINE
  5
2DA
100
AcDbEntity
  8
0
100
AcDbLine
 62
7
  6
CONTINUOUS
 10
109.6122758064
 20
110.3589261774
 11
109.266227192
 21
110.4400802103
  0
LINE
  5
2DB
100
AcDbEntity
  8
0
100
AcDbLine
 62
7
  6
CONTINUOUS
 10
84.4743629902
 20
109.953156013
 11
84.7922160204
 21
109.8720019801
  0
LINE
  5
2DC
100
AcDbEntity
  8
0
100
AcDbLine
 62
7
  6
CONTINUOUS
 10
102.4144702511
 20
107.1127644644
 11
102.1376314388
 21
107.1939184972
  0
LINE
  5
2DD
100
AcDbEntity
  8
0
100
AcDbLine
 62
7
  6
CONTINUOUS
 10
108.9893887758
 20
107.0316104315
 11
108.7125503595
 21
107.1127644644
  0
LINE
  5
2DE
100
AcDbEntity
  8
0
100
AcDbLine
 62
7
  6
CONTINUOUS
 10
103.0373572818
 20
109.953156013
 11
103.314195698
 21
109.8720019801
  0
LINE
  5
2DF
100
AcDbEntity
  8
0
100
AcDbLine
 62
7
  6
CONTINUOUS
 10
109.266227192
 20
108.4112291609
 11
109.5430664003
 21
108.3300751281
  0
LINE
  5
2E0
100
AcDbEntity
  8
0
100
AcDbLine
 62
7
  6
CONTINUOUS
 10
108.9893887758
 20
108.7358452925
 11
108.7125503595
 21
108.8169993253
  0
LINE
  5
2E1
100
AcDbEntity
  8
0
100
AcDbLine
 62
7
  6
CONTINUOUS
 10
109.266227192
 20
110.0343100459
 11
109.5430664003
 21
109.953156013
  0
LINE
  5
2E2
100
AcDbEntity
  8
0
100
AcDbLine
 62
7
  6
CONTINUOUS
 10
99.8537123265
 20
110.0343100459
 11
100.0613413367
 21
109.953156013
  0
LINE
  5
2E3
100
AcDbEntity
  8
0
100
AcDbLine
 62
7
  6
CONTINUOUS
 10
85.1895329902
 20
110.1966181116
 11
84.87167996
 21
110.3589261774
  0
LINE
  5
2E4
100
AcDbEntity
  8
0
100
AcDbLine
 62
7
  6
CONTINUOUS
 10
101.7915832205
 20
106.8693023373
 11
102.0684216368
 21
106.7069942502
  0
LINE
  5
2E5
100
AcDbEntity
  8
0
100
AcDbLine
 62
7
  6
CONTINUOUS
 10
84.7922160204
 20
109.8720019801
 11
85.0306060204
 21
109.7096939144
  0
LINE
  5
2E6
100
AcDbEntity
  8
0
100
AcDbLine
 62
7
  6
CONTINUOUS
 10
78.0378329902
 20
110.1154640787
 11
77.7199797327
 21
110.3589261774
  0
LINE
  5
2E7
100
AcDbEntity
  8
0
100
AcDbLine
 62
7
  6
CONTINUOUS
 10
79.3092464751
 20
107.1939184972
 11
79.6270995053
 21
106.8693023373
  0
LINE
  5
2E8
100
AcDbEntity
  8
0
100
AcDbLine
 62
7
  6
CONTINUOUS
 10
77.6405162478
 20
109.953156013
 11
77.7994429902
 21
109.7908479472
  0
LINE
  5
2E9
100
AcDbEntity
  8
0
100
AcDbLine
 62
7
  6
CONTINUOUS
 10
85.5073860204
 20
109.8720019801
 11
85.1895329902
 21
110.1966181116
  0
LINE
  5
2EA
100
AcDbEntity
  8
0
100
AcDbLine
 62
7
  6
CONTINUOUS
 10
78.2762229902
 20
109.7908479472
 11
78.0378329902
 21
110.1154640787
  0
LINE
  5
2EB
100
AcDbEntity
  8
0
100
AcDbLine
 62
7
  6
CONTINUOUS
 10
79.7860264751
 20
107.3562266198
 11
79.6270995053
 21
107.5996887185
  0
LINE
  5
2EC
100
AcDbEntity
  8
0
100
AcDbLine
 62
7
  6
CONTINUOUS
 10
79.1503197327
 20
107.5185346856
 11
79.3092464751
 21
107.1939184972
  0
LINE
  5
2ED
100
AcDbEntity
  8
0
100
AcDbLine
 62
7
  6
CONTINUOUS
 10
63.8587244235
 20
128.1528213619
 11
67.6799289356
 21
113.8918919767
  0
LINE
  5
2EE
100
AcDbEntity
  8
0
100
AcDbLine
 62
7
  6
CONTINUOUS
 10
67.6799289356
 20
106.2261763654
 11
69.3805831938
 21
98.8598334754
  0
LINE
  5
2EF
100
AcDbEntity
  8
RUNDUNGEN
100
AcDbLine
 62
7
  6
CONTINUOUS
 10
64.8805831938
 20
1.2725726746
 11
64.8805831938
 21
9.5731611832
  0
LINE
  5
2F0
100
AcDbEntity
  8
RUNDUNGEN
100
AcDbLine
 62
7
  6
CONTINUOUS
 10
65.5373629308
 20
42.350789615
 11
65.5373629308
 21
45.886323521
  0
LINE
  5
2F1
100
AcDbEntity
  8
0
100
AcDbLine
 62
7
  6
CONTINUOUS
 10
67.6799289356
 20
106.2261763654
 11
67.6799289356
 21
113.8918919767
  0
LINE
  5
2F2
100
AcDbEntity
  8
RUNDUNGEN
100
AcDbLine
 62
7
  6
CONTINUOUS
 10
69.3805831938
 20
84.1510213619
 11
69.3805831938
 21
109.4028213619
  0
LINE
  5
2F3
100
AcDbEntity
  8
RUNDUNGEN
100
AcDbLine
 62
7
  6
CONTINUOUS
 10
71.4805831938
 20
-1.5558544501
 11
71.4805831938
 21
2.686786237
  0
LINE
  5
2F4
100
AcDbEntity
  8
0
100
AcDbLine
 62
7
  6
CONTINUOUS
 10
67.6799289356
 20
142.413750747
 11
63.8587244235
 21
128.1528213619
  0
LINE
  5
2F5
100
AcDbEntity
  8
0
100
AcDbLine
 62
7
  6
CONTINUOUS
 10
108.7125503595
 20
107.1127644644
 11
108.4357111512
 21
107.2750725301
  0
LINE
  5
2F6
100
AcDbEntity
  8
0
100
AcDbLine
 62
7
  6
CONTINUOUS
 10
109.9583244207
 20
108.4923831938
 11
109.8199048166
 21
108.5735372267
  0
LINE
  5
2F7
100
AcDbEntity
  8
0
100
AcDbLine
 62
7
  6
CONTINUOUS
 10
103.6602443124
 20
110.1966181116
 11
103.3834055001
 21
110.3589261774
  0
LINE
  5
2F8
100
AcDbEntity
  8
0
100
AcDbLine
 62
7
  6
CONTINUOUS
 10
108.2972923391
 20
108.6546912596
 11
108.4357111512
 21
108.5735372267
  0
LINE
  5
2F9
100
AcDbEntity
  8
0
100
AcDbLine
 62
7
  6
CONTINUOUS
 10
109.5430664003
 20
108.3300751281
 11
109.8199048166
 21
108.1677670623
  0
LINE
  5
2FA
100
AcDbEntity
  8
0
100
AcDbLine
 62
7
  6
CONTINUOUS
 10
108.228082141
 20
106.9504563702
 11
108.5741307553
 21
106.7069942502
  0
LINE
  5
2FB
100
AcDbEntity
  8
0
100
AcDbLine
 62
7
  6
CONTINUOUS
 10
109.9583244207
 20
110.1154640787
 11
109.6122758064
 21
110.3589261774
  0
LINE
  5
2FC
100
AcDbEntity
  8
0
100
AcDbLine
 62
7
  6
CONTINUOUS
 10
102.1376314388
 20
107.1939184972
 11
101.9300024286
 21
107.3562266198
  0
LINE
  5
2FD
100
AcDbEntity
  8
0
100
AcDbLine
 62
7
  6
CONTINUOUS
 10
103.314195698
 20
109.8720019801
 11
103.5218247082
 21
109.7096939144
  0
LINE
  5
2FE
100
AcDbEntity
  8
0
100
AcDbLine
 62
7
  6
CONTINUOUS
 10
100.4073897531
 20
110.1154640787
 11
100.1305509408
 21
110.3589261774
  0
LINE
  5
2FF
100
AcDbEntity
  8
0
100
AcDbLine
 62
7
  6
CONTINUOUS
 10
85.0306060204
 20
109.7096939144
 11
85.1895329902
 21
109.4662315884
  0
LINE
  5
300
100
AcDbEntity
  8
0
100
AcDbLine
 62
7
  6
CONTINUOUS
 10
85.6663129902
 20
109.5473858486
 11
85.5073860204
 21
109.8720019801
  0
LINE
  5
301
100
AcDbEntity
  8
0
100
AcDbLine
 62
7
  6
CONTINUOUS
 10
78.4351497327
 20
106.6258402103
 11
77.7199797327
 21
108.4923831938
  0
LINE
  5
302
100
AcDbEntity
  8
0
100
AcDbLine
 62
7
  6
CONTINUOUS
 10
77.243199619
 20
108.3300751281
 11
77.8789062478
 21
106.6258402103
  0
LINE
  5
303
100
AcDbEntity
  8
0
100
AcDbLine
 62
7
  6
CONTINUOUS
 10
77.7994429902
 20
109.7908479472
 11
77.8789062478
 21
109.5473858486
  0
LINE
  5
304
100
AcDbEntity
  8
0
100
AcDbLine
 62
7
  6
CONTINUOUS
 10
78.3556862478
 20
109.5473858486
 11
78.2762229902
 21
109.7908479472
  0
LINE
  5
305
100
AcDbEntity
  8
0
100
AcDbLine
 62
7
  6
CONTINUOUS
 10
79.6270995053
 20
107.5996887185
 11
79.5476364751
 21
107.92430485
  0
LINE
  5
306
100
AcDbEntity
  8
0
100
AcDbLine
 62
7
  6
CONTINUOUS
 10
79.0708562478
 20
107.92430485
 11
79.1503197327
 21
107.5185346856
  0
LINE
  5
307
100
AcDbEntity
  8
0
100
AcDbLine
 62
7
  6
CONTINUOUS
 10
75.4155429902
 20
110.4400802103
 11
75.4155429902
 21
106.6258402103
  0
LINE
  5
308
100
AcDbEntity
  8
0
100
AcDbLine
 62
7
  6
CONTINUOUS
 10
75.8923229902
 20
106.6258402103
 11
75.8923229902
 21
108.3300751281
  0
LINE
  5
309
100
AcDbEntity
  8
0
100
AcDbLine
 62
7
  6
CONTINUOUS
 10
75.8923229902
 20
108.8169993253
 11
75.8923229902
 21
110.0343100459
  0
LINE
  5
30A
100
AcDbEntity
  8
0
100
AcDbLine
 62
7
  6
CONTINUOUS
 10
77.8789062478
 20
109.5473858486
 11
77.8789062478
 21
109.3039235226
  0
LINE
  5
30B
100
AcDbEntity
  8
0
100
AcDbLine
 62
7
  6
CONTINUOUS
 10
78.3556862478
 20
109.2227694897
 11
78.3556862478
 21
109.5473858486
  0
LINE
  5
30C
100
AcDbEntity
  8
0
100
AcDbLine
 62
7
  6
CONTINUOUS
 10
79.0708562478
 20
110.4400802103
 11
79.0708562478
 21
107.92430485
  0
LINE
  5
30D
100
AcDbEntity
  8
0
100
AcDbLine
 62
7
  6
CONTINUOUS
 10
79.5476364751
 20
107.92430485
 11
79.5476364751
 21
110.4400802103
  0
LINE
  5
30E
100
AcDbEntity
  8
KONSTRUKTIONSELEMENTE
100
AcDbLine
 62
7
  6
CONTINUOUS
 10
80.4242011323
 20
92.2028213619
 11
80.4242011323
 21
95.9932213619
  0
LINE
  5
30F
100
AcDbEntity
  8
0
100
AcDbLine
 62
7
  6
CONTINUOUS
 10
80.7107690056
 20
42.3979030684
 11
80.7107690056
 21
38.6643792638
  0
LINE
  5
310
100
AcDbEntity
  8
0
100
AcDbLine
 62
7
  6
CONTINUOUS
 10
81.4547564751
 20
110.4400802103
 11
81.4547564751
 21
107.92430485
  0
LINE
  5
311
100
AcDbEntity
  8
0
100
AcDbLine
 62
7
  6
CONTINUOUS
 10
81.9315364751
 20
107.92430485
 11
81.9315364751
 21
110.4400802103
  0
LINE
  5
312
100
AcDbEntity
  8
0
100
AcDbLine
 62
7
  6
CONTINUOUS
 10
82.2707690056
 20
39.1734961462
 11
82.2707690056
 21
40.4745726236
  0
LINE
  5
313
100
AcDbEntity
  8
0
100
AcDbLine
 62
7
  6
CONTINUOUS
 10
82.2707690056
 20
40.8705524211
 11
82.2707690056
 21
42.1716288985
  0
LINE
  5
314
100
AcDbEntity
  8
0
100
AcDbLine
 62
7
  6
CONTINUOUS
 10
82.5672429902
 20
110.4400802103
 11
82.5672429902
 21
106.6258402103
  0
LINE
  5
315
100
AcDbEntity
  8
0
100
AcDbLine
 62
7
  6
CONTINUOUS
 10
82.6307690056
 20
41.7360511213
 11
82.6307690056
 21
41.0232874858
  0
LINE
  5
316
100
AcDbEntity
  8
0
100
AcDbLine
 62
7
  6
CONTINUOUS
 10
82.6307690056
 20
40.0389948464
 11
82.6307690056
 21
39.326231211
  0
LINE
  5
317
100
AcDbEntity
  8
0
100
AcDbLine
 62
7
  6
CONTINUOUS
 10
82.9307690056
 20
40.0050537209
 11
82.9307690056
 21
40.1068770974
  0
LINE
  5
318
100
AcDbEntity
  8
0
100
AcDbLine
 62
7
  6
CONTINUOUS
 10
82.9307690056
 20
40.3614355386
 11
82.9307690056
 21
40.7008467936
  0
LINE
  5
319
100
AcDbEntity
  8
0
100
AcDbLine
 62
7
  6
CONTINUOUS
 10
82.9307690056
 20
40.9554052348
 11
82.9307690056
 21
41.3400713238
  0
LINE
  5
31A
100
AcDbEntity
  8
0
100
AcDbLine
 62
7
  6
CONTINUOUS
 10
83.0440229902
 20
107.1127644644
 11
83.0440229902
 21
109.953156013
  0
LINE
  5
31B
100
AcDbEntity
  8
0
100
AcDbLine
 62
7
  6
CONTINUOUS
 10
83.2907690056
 20
41.3400713238
 11
83.2907690056
 21
40.9554052348
  0
LINE
  5
31C
100
AcDbEntity
  8
0
100
AcDbLine
 62
7
  6
CONTINUOUS
 10
83.2907690056
 20
40.7008467936
 11
83.2907690056
 21
40.3614355386
  0
LINE
  5
31D
100
AcDbEntity
  8
0
100
AcDbLine
 62
7
  6
CONTINUOUS
 10
83.2907690056
 20
40.1068770974
 11
83.2907690056
 21
40.0050537209
  0
LINE
  5
31E
100
AcDbEntity
  8
0
100
AcDbLine
 62
7
  6
CONTINUOUS
 10
83.3805831938
 20
284.8431389453
 11
83.3805831938
 21
131.9625037784
  0
LINE
  5
31F
100
AcDbEntity
  8
0
100
AcDbLine
 62
7
  6
CONTINUOUS
 10
83.5907690056
 20
39.326231211
 11
83.5907690056
 21
40.0389948464
  0
LINE
  5
320
100
AcDbEntity
  8
0
100
AcDbLine
 62
7
  6
CONTINUOUS
 10
83.5907690056
 20
41.0232874858
 11
83.5907690056
 21
41.7360511213
  0
LINE
  5
321
100
AcDbEntity
  8
0
100
AcDbLine
 62
7
  6
CONTINUOUS
 10
83.9507690056
 20
42.1716288985
 11
83.9507690056
 21
40.8705524211
  0
LINE
  5
322
100
AcDbEntity
  8
0
100
AcDbLine
 62
7
  6
CONTINUOUS
 10
83.9507690056
 20
40.4745726236
 11
83.9507690056
 21
39.1734961462
  0
LINE
  5
323
100
AcDbEntity
  8
0
100
AcDbLine
 62
7
  6
CONTINUOUS
 10
78.1196538087
 20
152.8534756201
 11
67.6799289356
 21
142.413750747
  0
LINE
  5
324
100
AcDbEntity
  8
0
100
AcDbLine
 62
7
  6
CONTINUOUS
 10
108.7125503595
 20
108.8169993253
 11
108.4357111512
 21
109.060461424
  0
LINE
  5
325
100
AcDbEntity
  8
0
100
AcDbLine
 62
7
  6
CONTINUOUS
 10
110.235162837
 20
108.2489210952
 11
109.9583244207
 21
108.4923831938
  0
LINE
  5
326
100
AcDbEntity
  8
0
100
AcDbLine
 62
7
  6
CONTINUOUS
 10
109.5430664003
 20
109.953156013
 11
109.8199048166
 21
109.7096939144
  0
LINE
  5
327
100
AcDbEntity
  8
0
100
AcDbLine
 62
7
  6
CONTINUOUS
 10
101.5147444082
 20
107.1939184972
 11
101.7915832205
 21
106.8693023373
  0
LINE
  5
328
100
AcDbEntity
  8
0
100
AcDbLine
 62
7
  6
CONTINUOUS
 10
100.0613413367
 20
109.953156013
 11
100.1997607429
 21
109.7908479472
  0
LINE
  5
329
100
AcDbEntity
  8
0
100
AcDbLine
 62
7
  6
CONTINUOUS
 10
103.9370831247
 20
109.8720019801
 11
103.6602443124
 21
110.1966181116
  0
LINE
  5
32A
100
AcDbEntity
  8
0
100
AcDbLine
 62
7
  6
CONTINUOUS
 10
108.0204531308
 20
107.1939184972
 11
108.228082141
 21
106.9504563702
  0
LINE
  5
32B
100
AcDbEntity
  8
0
100
AcDbLine
 62
7
  6
CONTINUOUS
 10
108.0896633289
 20
108.8981533582
 11
108.2972923391
 21
108.6546912596
  0
LINE
  5
32C
100
AcDbEntity
  8
0
100
AcDbLine
 62
7
  6
CONTINUOUS
 10
110.165953431
 20
109.8720019801
 11
109.9583244207
 21
110.1154640787
  0
LINE
  5
32D
100
AcDbEntity
  8
0
100
AcDbLine
 62
7
  6
CONTINUOUS
 10
100.6150185653
 20
109.7908479472
 11
100.4073897531
 21
110.1154640787
  0
LINE
  5
32E
100
AcDbEntity
  8
0
100
AcDbLine
 62
7
  6
CONTINUOUS
 10
101.9300024286
 20
107.3562266198
 11
101.7915832205
 21
107.5996887185
  0
LINE
  5
32F
100
AcDbEntity
  8
0
100
AcDbLine
 62
7
  6
CONTINUOUS
 10
85.1895329902
 20
109.4662315884
 11
85.2689960204
 21
109.1416154569
  0
LINE
  5
330
100
AcDbEntity
  8
0
100
AcDbLine
 62
7
  6
CONTINUOUS
 10
85.7457760204
 20
109.1416154569
 11
85.6663129902
 21
109.5473858486
  0
LINE
  5
331
100
AcDbEntity
  8
KONSTRUKTIONSELEMENTE
100
AcDbLine
 62
7
  6
CONTINUOUS
 10
84.3805831938
 20
68.4477168874
 11
84.3805831938
 21
79.0543186052
  0
LINE
  5
332
100
AcDbEntity
  8
0
100
AcDbLine
 62
7
  6
CONTINUOUS
 10
85.2689960204
 20
109.1416154569
 11
85.2689960204
 21
107.92430485
  0
LINE
  5
333
100
AcDbEntity
  8
0
100
AcDbLine
 62
7
  6
CONTINUOUS
 10
85.5107690056
 20
38.6643792638
 11
85.5107690056
 21
42.3979030684
  0
LINE
  5
334
100
AcDbEntity
  8
0
100
AcDbLine
 62
7
  6
CONTINUOUS
 10
85.7457760204
 20
107.92430485
 11
85.7457760204
 21
109.1416154569
  0
LINE
  5
335
100
AcDbEntity
  8
0
100
AcDbLine
 62
7
  6
CONTINUOUS
 10
87.0674100468
 20
42.7373143234
 11
87.0674100468
 21
42.2225405867
  0
LINE
  5
336
100
AcDbEntity
  8
0
100
AcDbLine
 62
7
  6
CONTINUOUS
 10
87.0674100468
 20
41.7473648298
 11
87.0674100468
 21
38.3249680088
  0
LINE
  5
337
100
AcDbEntity
  8
0
100
AcDbLine
 62
7
  6
CONTINUOUS
 10
87.3805831938
 20
92.2028213619
 11
87.3805831938
 21
82.3655115973
  0
LINE
  5
338
100
AcDbEntity
  8
KONSTRUKTIONSELEMENTE
100
AcDbLine
 62
7
  6
CONTINUOUS
 10
87.3805831938
 20
92.2028213619
 11
87.3805831938
 21
102.5928213619
  0
LINE
  5
339
100
AcDbEntity
  8
0
100
AcDbLine
 62
7
  6
CONTINUOUS
 10
87.8354100468
 20
38.3249680088
 11
87.8354100468
 21
40.7368620537
  0
LINE
  5
33A
100
AcDbEntity
  8
0
100
AcDbLine
 62
7
  6
CONTINUOUS
 10
87.8354100468
 20
40.9970773492
 11
87.8354100468
 21
41.7473648298
  0
LINE
  5
33B
100
AcDbEntity
  8
KONSTRUKTIONSELEMENTE
100
AcDbLine
 62
7
  6
CONTINUOUS
 10
88.8805831938
 20
68.4477168874
 11
88.8805831938
 21
79.0543186052
  0
LINE
  5
33C
100
AcDbEntity
  8
KONSTRUKTIONSELEMENTE
100
AcDbLine
 62
7
  6
CONTINUOUS
 10
88.8805831938
 20
99.5604152596
 11
88.8805831938
 21
106.1594475699
  0
LINE
  5
33D
100
AcDbEntity
  8
0
100
AcDbLine
 62
7
  6
CONTINUOUS
 10
89.7554100468
 20
40.4540193412
 11
89.7554100468
 21
40.7368620537
  0
LINE
  5
33E
100
AcDbEntity
  8
KONSTRUKTIONSELEMENTE
100
AcDbLine
 62
7
  6
CONTINUOUS
 10
89.8805831938
 20
123.2640193827
 11
89.8805831938
 21
115.660337378
  0
LINE
  5
33F
100
AcDbEntity
  8
KONSTRUKTIONSELEMENTE
100
AcDbLine
 62
7
  6
CONTINUOUS
 10
89.8805831938
 20
69.8055072988
 11
89.8805831938
 21
47.3037989454
  0
LINE
  5
340
100
AcDbEntity
  8
KONSTRUKTIONSELEMENTE
100
AcDbLine
 62
7
  6
CONTINUOUS
 10
90.1305831938
 20
78.3032581206
 11
90.1305831938
 21
86.5028213619
  0
LINE
  5
341
100
AcDbEntity
  8
KONSTRUKTIONSELEMENTE
100
AcDbLine
 62
7
  6
CONTINUOUS
 10
90.1305831938
 20
97.8028213619
 11
90.1305831938
 21
100.3114757442
  0
LINE
  5
342
100
AcDbEntity
  8
0
100
AcDbLine
 62
7
  6
CONTINUOUS
 10
90.573128862
 20
40.538638432
 11
90.573128862
 21
40.8214811445
  0
LINE
  5
343
100
AcDbEntity
  8
0
100
AcDbLine
 62
7
  6
CONTINUOUS
 10
90.9419434121
 20
41.8926516804
 11
90.9419434121
 21
41.609808968
  0
LINE
  5
344
100
AcDbEntity
  8
0
100
AcDbLine
 62
7
  6
CONTINUOUS
 10
91.4937731803
 20
38.3249680088
 11
91.4937731803
 21
38.6078107213
  0
LINE
  5
345
100
AcDbEntity
  8
0
100
AcDbLine
 62
7
  6
CONTINUOUS
 10
92.8274100468
 20
42.7373143234
 11
92.8274100468
 21
39.9455636463
  0
LINE
  5
346
100
AcDbEntity
  8
0
100
AcDbLine
 62
7
  6
CONTINUOUS
 10
93.5954100468
 20
39.9455636463
 11
93.5954100468
 21
42.7373143234
  0
LINE
  5
347
100
AcDbEntity
  8
0
100
AcDbLine
 62
7
  6
CONTINUOUS
 10
81.8520729902
 20
107.5185346856
 11
81.9315364751
 21
107.92430485
  0
LINE
  5
348
100
AcDbEntity
  8
0
100
AcDbLine
 62
7
  6
CONTINUOUS
 10
85.6663129902
 20
107.5185346856
 11
85.7457760204
 21
107.92430485
  0
LINE
  5
349
100
AcDbEntity
  8
0
100
AcDbLine
 62
7
  6
CONTINUOUS
 10
81.4547564751
 20
107.92430485
 11
81.3752929902
 21
107.5996887185
  0
LINE
  5
34A
100
AcDbEntity
  8
0
100
AcDbLine
 62
7
  6
CONTINUOUS
 10
77.8789062478
 20
109.3039235226
 11
77.7994429902
 21
109.060461424
  0
LINE
  5
34B
100
AcDbEntity
  8
0
100
AcDbLine
 62
7
  6
CONTINUOUS
 10
78.2762229902
 20
108.9793073911
 11
78.3556862478
 21
109.2227694897
  0
LINE
  5
34C
100
AcDbEntity
  8
0
100
AcDbLine
 62
7
  6
CONTINUOUS
 10
108.4357111512
 20
107.2750725301
 11
108.228082141
 21
107.5996887185
  0
LINE
  5
34D
100
AcDbEntity
  8
0
100
AcDbLine
 62
7
  6
CONTINUOUS
 10
109.8199048166
 20
108.1677670623
 11
110.0275338268
 21
107.8431508171
  0
LINE
  5
34E
100
AcDbEntity
  8
0
100
AcDbLine
 62
7
  6
CONTINUOUS
 10
108.4357111512
 20
109.060461424
 11
108.2972923391
 21
109.3039235226
  0
LINE
  5
34F
100
AcDbEntity
  8
0
100
AcDbLine
 62
7
  6
CONTINUOUS
 10
109.8199048166
 20
109.7096939144
 11
109.9583244207
 21
109.4662315884
  0
LINE
  5
350
100
AcDbEntity
  8
0
100
AcDbLine
 62
7
  6
CONTINUOUS
 10
101.3763252001
 20
107.5185346856
 11
101.5147444082
 21
107.1939184972
  0
LINE
  5
351
100
AcDbEntity
  8
0
100
AcDbLine
 62
7
  6
CONTINUOUS
 10
107.9512437247
 20
109.2227694897
 11
108.0896633289
 21
108.8981533582
  0
LINE
  5
352
100
AcDbEntity
  8
0
100
AcDbLine
 62
7
  6
CONTINUOUS
 10
100.7534381694
 20
106.6258402103
 11
100.1305509408
 21
108.4923831938
  0
LINE
  5
353
100
AcDbEntity
  8
0
100
AcDbLine
 62
7
  6
CONTINUOUS
 10
99.7152929204
 20
108.3300751281
 11
100.2689703469
 21
106.6258402103
  0
LINE
  5
354
100
AcDbEntity
  8
0
100
AcDbLine
 62
7
  6
CONTINUOUS
 10
100.1997607429
 20
109.7908479472
 11
100.2689703469
 21
109.5473858486
  0
LINE
  5
355
100
AcDbEntity
  8
0
100
AcDbLine
 62
7
  6
CONTINUOUS
 10
100.6842283674
 20
109.5473858486
 11
100.6150185653
 21
109.7908479472
  0
LINE
  5
356
100
AcDbEntity
  8
0
100
AcDbLine
 62
7
  6
CONTINUOUS
 10
103.5218247082
 20
109.7096939144
 11
103.5910345103
 21
109.4662315884
  0
LINE
  5
357
100
AcDbEntity
  8
0
100
AcDbLine
 62
7
  6
CONTINUOUS
 10
101.7915832205
 20
107.5996887185
 11
101.7223734184
 21
107.92430485
  0
LINE
  5
358
100
AcDbEntity
  8
KONSTRUKTIONSELEMENTE
100
AcDbLine
 62
7
  6
CONTINUOUS
 10
94.6305831938
 20
78.3032581206
 11
94.6305831938
 21
86.5028213619
  0
LINE
  5
359
100
AcDbEntity
  8
KONSTRUKTIONSELEMENTE
100
AcDbLine
 62
7
  6
CONTINUOUS
 10
94.6305831938
 20
97.8028213619
 11
94.6305831938
 21
100.3114757442
  0
LINE
  5
35A
100
AcDbEntity
  8
KONSTRUKTIONSELEMENTE
100
AcDbLine
 62
7
  6
CONTINUOUS
 10
94.8805831938
 20
123.2640193827
 11
94.8805831938
 21
115.660337378
  0
LINE
  5
35B
100
AcDbEntity
  8
KONSTRUKTIONSELEMENTE
100
AcDbLine
 62
7
  6
CONTINUOUS
 10
94.8805831938
 20
69.8055072988
 11
94.8805831938
 21
47.3037989454
  0
LINE
  5
35C
100
AcDbEntity
  8
KONSTRUKTIONSELEMENTE
100
AcDbLine
 62
7
  6
CONTINUOUS
 10
95.8805831938
 20
106.1594475699
 11
95.8805831938
 21
99.5604152596
  0
LINE
  5
35D
100
AcDbEntity
  8
KONSTRUKTIONSELEMENTE
100
AcDbLine
 62
7
  6
CONTINUOUS
 10
95.8805831938
 20
79.0543186052
 11
95.8805831938
 21
68.4477168874
  0
LINE
  5
35E
100
AcDbEntity
  8
0
100
AcDbLine
 62
7
  6
CONTINUOUS
 10
96.6147183352
 20
42.7373143234
 11
96.6147183352
 21
39.9455636463
  0
LINE
  5
35F
100
AcDbEntity
  8
0
100
AcDbLine
 62
7
  6
CONTINUOUS
 10
97.1545351938
 20
110.4400802103
 11
97.1545351938
 21
106.6258402103
  0
LINE
  5
360
100
AcDbEntity
  8
0
100
AcDbLine
 62
7
  6
CONTINUOUS
 10
97.3805831938
 20
82.3655115973
 11
97.3805831938
 21
92.2028213619
  0
LINE
  5
361
100
AcDbEntity
  8
KONSTRUKTIONSELEMENTE
100
AcDbLine
 62
7
  6
CONTINUOUS
 10
97.3805831938
 20
92.2028213619
 11
97.3805831938
 21
102.5928216192
  0
LINE
  5
362
100
AcDbEntity
  8
0
100
AcDbLine
 62
7
  6
CONTINUOUS
 10
97.3827183352
 20
39.9455636463
 11
97.3827183352
 21
42.7373143234
  0
LINE
  5
363
100
AcDbEntity
  8
0
100
AcDbLine
 62
7
  6
CONTINUOUS
 10
97.5697932142
 20
106.6258402103
 11
97.5697932142
 21
110.4400802103
  0
LINE
  5
364
100
AcDbEntity
  8
0
100
AcDbLine
 62
7
  6
CONTINUOUS
 10
98.1234705418
 20
110.4400802103
 11
98.1234705418
 21
106.6258402103
  0
LINE
  5
365
100
AcDbEntity
  8
0
100
AcDbLine
 62
7
  6
CONTINUOUS
 10
98.5387285622
 20
106.6258402103
 11
98.5387285622
 21
108.3300751281
  0
LINE
  5
366
100
AcDbEntity
  8
0
100
AcDbLine
 62
7
  6
CONTINUOUS
 10
98.5387285622
 20
108.8169993253
 11
98.5387285622
 21
110.0343100459
  0
LINE
  5
367
100
AcDbEntity
  8
0
100
AcDbLine
 62
7
  6
CONTINUOUS
 10
99.0627183352
 20
42.7373143234
 11
99.0627183352
 21
42.1942563155
  0
LINE
  5
368
100
AcDbEntity
  8
0
100
AcDbLine
 62
7
  6
CONTINUOUS
 10
99.0627183352
 20
41.7190805585
 11
99.0627183352
 21
38.3249680088
  0
LINE
  5
369
100
AcDbEntity
  8
0
100
AcDbLine
 62
7
  6
CONTINUOUS
 10
99.8307183352
 20
38.8906534338
 11
99.8307183352
 21
41.7190805585
  0
LINE
  5
36A
100
AcDbEntity
  8
0
100
AcDbLine
 62
7
  6
CONTINUOUS
 10
100.2689703469
 20
109.5473858486
 11
100.2689703469
 21
109.3039235226
  0
LINE
  5
36B
100
AcDbEntity
  8
KONSTRUKTIONSELEMENTE
100
AcDbLine
 62
7
  6
CONTINUOUS
 10
100.3805831938
 20
79.0543186052
 11
100.3805831938
 21
68.4477168874
  0
LINE
  5
36C
100
AcDbEntity
  8
0
100
AcDbLine
 62
7
  6
CONTINUOUS
 10
100.6842283674
 20
109.2227694897
 11
100.6842283674
 21
109.5473858486
  0
LINE
  5
36D
100
AcDbEntity
  8
0
100
AcDbLine
 62
7
  6
CONTINUOUS
 10
101.307115398
 20
109.1416154569
 11
101.307115398
 21
107.92430485
  0
LINE
  5
36E
100
AcDbEntity
  8
0
100
AcDbLine
 62
7
  6
CONTINUOUS
 10
101.3805831938
 20
284.8431389453
 11
101.3805831938
 21
131.9625037784
  0
LINE
  5
36F
100
AcDbEntity
  8
0
100
AcDbLine
 62
7
  6
CONTINUOUS
 10
101.7223734184
 20
107.92430485
 11
101.7223734184
 21
109.1416154569
  0
LINE
  5
370
100
AcDbEntity
  8
0
100
AcDbLine
 62
7
  6
CONTINUOUS
 10
102.9681474797
 20
108.7358452925
 11
102.9681474797
 21
108.2489210952
  0
LINE
  5
371
100
AcDbEntity
  8
0
100
AcDbLine
 62
7
  6
CONTINUOUS
 10
103.1368093376
 20
40.8252975871
 11
103.1368093376
 21
40.5424548746
  0
LINE
  5
372
100
AcDbEntity
  8
0
100
AcDbLine
 62
7
  6
CONTINUOUS
 10
103.5910345103
 20
108.2489210952
 11
103.5910345103
 21
107.5996887185
  0
LINE
  5
373
100
AcDbEntity
  8
0
100
AcDbLine
 62
7
  6
CONTINUOUS
 10
104.0062925307
 20
107.5185346856
 11
104.0062925307
 21
108.7358452925
  0
LINE
  5
374
100
AcDbEntity
  8
KONSTRUKTIONSELEMENTE
100
AcDbLine
 62
7
  6
CONTINUOUS
 10
104.3369652553
 20
92.2028213619
 11
104.3369652553
 21
95.9932213619
  0
LINE
  5
375
100
AcDbEntity
  8
0
100
AcDbLine
 62
7
  6
CONTINUOUS
 10
85.2689960204
 20
107.92430485
 11
85.1895329902
 21
107.5996887185
  0
LINE
  5
376
100
AcDbEntity
  8
0
100
AcDbLine
 62
7
  6
CONTINUOUS
 10
81.6931464751
 20
107.1939184972
 11
81.8520729902
 21
107.5185346856
  0
LINE
  5
377
100
AcDbEntity
  8
0
100
AcDbLine
 62
7
  6
CONTINUOUS
 10
85.5073860204
 20
107.1939184972
 11
85.6663129902
 21
107.5185346856
  0
LINE
  5
378
100
AcDbEntity
  8
0
100
AcDbLine
 62
7
  6
CONTINUOUS
 10
81.3752929902
 20
107.5996887185
 11
81.2163664751
 21
107.3562266198
  0
LINE
  5
379
100
AcDbEntity
  8
0
100
AcDbLine
 62
7
  6
CONTINUOUS
 10
78.0378329902
 20
108.6546912596
 11
78.2762229902
 21
108.9793073911
  0
LINE
  5
37A
100
AcDbEntity
  8
0
100
AcDbLine
 62
7
  6
CONTINUOUS
 10
83.3805831938
 20
154.2631374003
 11
78.1196538087
 21
152.8534756201
  0
LINE
  5
37B
100
AcDbEntity
  8
0
100
AcDbLine
 62
7
  6
CONTINUOUS
 10
106.641512579
 20
152.8534756201
 11
101.3805831938
 21
154.2631374003
  0
LINE
  5
37C
100
AcDbEntity
  8
0
100
AcDbLine
 62
7
  6
CONTINUOUS
 10
107.8820343186
 20
107.5996887185
 11
108.0204531308
 21
107.1939184972
  0
LINE
  5
37D
100
AcDbEntity
  8
0
100
AcDbLine
 62
7
  6
CONTINUOUS
 10
110.3735824412
 20
107.8431508171
 11
110.235162837
 21
108.2489210952
  0
LINE
  5
37E
100
AcDbEntity
  8
0
100
AcDbLine
 62
7
  6
CONTINUOUS
 10
110.3043722431
 20
109.4662315884
 11
110.165953431
 21
109.8720019801
  0
LINE
  5
37F
100
AcDbEntity
  8
0
100
AcDbLine
 62
7
  6
CONTINUOUS
 10
101.307115398
 20
107.92430485
 11
101.3763252001
 21
107.5185346856
  0
LINE
  5
380
100
AcDbEntity
  8
0
100
AcDbLine
 62
7
  6
CONTINUOUS
 10
104.0062925307
 20
109.4662315884
 11
103.9370831247
 21
109.8720019801
  0
LINE
  5
381
100
AcDbEntity
  8
0
100
AcDbLine
 62
7
  6
CONTINUOUS
 10
107.8820343186
 20
107.8431508171
 11
107.8820343186
 21
107.5996887185
  0
LINE
  5
382
100
AcDbEntity
  8
0
100
AcDbLine
 62
7
  6
CONTINUOUS
 10
107.9512437247
 20
109.4662315884
 11
107.9512437247
 21
109.2227694897
  0
LINE
  5
383
100
AcDbEntity
  8
0
100
AcDbLine
 62
7
  6
CONTINUOUS
 10
108.228082141
 20
107.5996887185
 11
108.228082141
 21
107.8431508171
  0
LINE
  5
384
100
AcDbEntity
  8
0
100
AcDbLine
 62
7
  6
CONTINUOUS
 10
108.2972923391
 20
109.3039235226
 11
108.2972923391
 21
109.4662315884
  0
LINE
  5
385
100
AcDbEntity
  8
0
100
AcDbLine
 62
7
  6
CONTINUOUS
 10
109.9583244207
 20
109.4662315884
 11
109.9583244207
 21
109.3039235226
  0
LINE
  5
386
100
AcDbEntity
  8
0
100
AcDbLine
 62
7
  6
CONTINUOUS
 10
110.0275338268
 20
107.8431508171
 11
110.0275338268
 21
107.5996887185
  0
LINE
  5
387
100
AcDbEntity
  8
0
100
AcDbLine
 62
7
  6
CONTINUOUS
 10
110.3043722431
 20
109.2227694897
 11
110.3043722431
 21
109.4662315884
  0
LINE
  5
388
100
AcDbEntity
  8
0
100
AcDbLine
 62
7
  6
CONTINUOUS
 10
110.3735824412
 20
107.5996887185
 11
110.3735824412
 21
107.8431508171
  0
LINE
  5
389
100
AcDbEntity
  8
RUNDUNGEN
100
AcDbLine
 62
7
  6
CONTINUOUS
 10
113.2805831938
 20
2.686786237
 11
113.2805831938
 21
-1.5558544501
  0
LINE
  5
38A
100
AcDbEntity
  8
0
100
AcDbLine
 62
7
  6
CONTINUOUS
 10
101.3763252001
 20
109.5473858486
 11
101.307115398
 21
109.1416154569
  0
LINE
  5
38B
100
AcDbEntity
  8
0
100
AcDbLine
 62
7
  6
CONTINUOUS
 10
101.7223734184
 20
109.1416154569
 11
101.7915832205
 21
109.4662315884
  0
LINE
  5
38C
100
AcDbEntity
  8
0
100
AcDbLine
 62
7
  6
CONTINUOUS
 10
103.9370831247
 20
107.1939184972
 11
104.0062925307
 21
107.5185346856
  0
LINE
  5
38D
100
AcDbEntity
  8
0
100
AcDbLine
 62
7
  6
CONTINUOUS
 10
100.2689703469
 20
109.3039235226
 11
100.1997607429
 21
109.060461424
  0
LINE
  5
38E
100
AcDbEntity
  8
0
100
AcDbLine
 62
7
  6
CONTINUOUS
 10
100.6150185653
 20
108.9793073911
 11
100.6842283674
 21
109.2227694897
  0
LINE
  5
38F
100
AcDbEntity
  8
0
100
AcDbLine
 62
7
  6
CONTINUOUS
 10
103.5910345103
 20
107.5996887185
 11
103.5218247082
 21
107.3562266198
  0
LINE
  5
390
100
AcDbEntity
  8
0
100
AcDbLine
 62
7
  6
CONTINUOUS
 10
85.1895329902
 20
107.5996887185
 11
85.0306060204
 21
107.3562266198
  0
LINE
  5
391
100
AcDbEntity
  8
0
100
AcDbLine
 62
7
  6
CONTINUOUS
 10
77.7994429902
 20
109.060461424
 11
77.6405162478
 21
108.8981533582
  0
LINE
  5
392
100
AcDbEntity
  8
0
100
AcDbLine
 62
7
  6
CONTINUOUS
 10
81.3752929902
 20
106.8693023373
 11
81.6931464751
 21
107.1939184972
  0
LINE
  5
393
100
AcDbEntity
  8
0
100
AcDbLine
 62
7
  6
CONTINUOUS
 10
117.081237452
 20
142.413750747
 11
106.641512579
 21
152.8534756201
  0
LINE
  5
394
100
AcDbEntity
  8
RUNDUNGEN
100
AcDbLine
 62
7
  6
CONTINUOUS
 10
115.3805831938
 20
84.1510213619
 11
115.3805831938
 21
109.4028213619
  0
LINE
  5
395
100
AcDbEntity
  8
0
100
AcDbLine
 62
7
  6
CONTINUOUS
 10
117.081237452
 20
106.2261763654
 11
117.081237452
 21
113.8918919767
  0
LINE
  5
396
100
AcDbEntity
  8
RUNDUNGEN
100
AcDbLine
 62
7
  6
CONTINUOUS
 10
119.8805831938
 20
1.2725726746
 11
119.8805831938
 21
9.5731611832
  0
LINE
  5
397
100
AcDbEntity
  8
0
100
AcDbLine
 62
7
  6
CONTINUOUS
 10
117.081237452
 20
113.8918919767
 11
120.9024419641
 21
128.1528213619
  0
LINE
  5
398
100
AcDbEntity
  8
0
100
AcDbLine
 62
7
  6
CONTINUOUS
 10
108.0896633289
 20
109.8720019801
 11
107.9512437247
 21
109.4662315884
  0
LINE
  5
399
100
AcDbEntity
  8
0
100
AcDbLine
 62
7
  6
CONTINUOUS
 10
108.0204531308
 20
108.2489210952
 11
107.8820343186
 21
107.8431508171
  0
LINE
  5
39A
100
AcDbEntity
  8
0
100
AcDbLine
 62
7
  6
CONTINUOUS
 10
110.235162837
 20
107.1939184972
 11
110.3735824412
 21
107.5996887185
  0
LINE
  5
39B
100
AcDbEntity
  8
0
100
AcDbLine
 62
7
  6
CONTINUOUS
 10
101.5147444082
 20
109.8720019801
 11
101.3763252001
 21
109.5473858486
  0
LINE
  5
39C
100
AcDbEntity
  8
0
100
AcDbLine
 62
7
  6
CONTINUOUS
 10
110.165953431
 20
108.8981533582
 11
110.3043722431
 21
109.2227694897
  0
LINE
  5
39D
100
AcDbEntity
  8
0
100
AcDbLine
 62
7
  6
CONTINUOUS
 10
101.7915832205
 20
109.4662315884
 11
101.9300024286
 21
109.7096939144
  0
LINE
  5
39E
100
AcDbEntity
  8
0
100
AcDbLine
 62
7
  6
CONTINUOUS
 10
108.2972923391
 20
109.4662315884
 11
108.4357111512
 21
109.7096939144
  0
LINE
  5
39F
100
AcDbEntity
  8
0
100
AcDbLine
 62
7
  6
CONTINUOUS
 10
100.4073897531
 20
108.6546912596
 11
100.6150185653
 21
108.9793073911
  0
LINE
  5
3A0
100
AcDbEntity
  8
0
100
AcDbLine
 62
7
  6
CONTINUOUS
 10
100.1997607429
 20
109.060461424
 11
100.0613413367
 21
108.8981533582
  0
LINE
  5
3A1
100
AcDbEntity
  8
0
100
AcDbLine
 62
7
  6
CONTINUOUS
 10
101.7915832205
 20
110.1966181116
 11
101.5147444082
 21
109.8720019801
  0
LINE
  5
3A2
100
AcDbEntity
  8
0
100
AcDbLine
 62
7
  6
CONTINUOUS
 10
85.1895329902
 20
106.8693023373
 11
85.5073860204
 21
107.1939184972
  0
LINE
  5
3A3
100
AcDbEntity
  8
0
100
AcDbLine
 62
7
  6
CONTINUOUS
 10
81.2163664751
 20
107.3562266198
 11
80.9779764751
 21
107.1939184972
  0
LINE
  5
3A4
100
AcDbEntity
  8
0
100
AcDbLine
 62
7
  6
CONTINUOUS
 10
85.0306060204
 20
107.3562266198
 11
84.7922160204
 21
107.1939184972
  0
LINE
  5
3A5
100
AcDbEntity
  8
0
100
AcDbLine
 62
7
  6
CONTINUOUS
 10
77.7199797327
 20
108.4923831938
 11
78.0378329902
 21
108.6546912596
  0
LINE
  5
3A6
100
AcDbEntity
  8
0
100
AcDbLine
 62
7
  6
CONTINUOUS
 10
81.0574395053
 20
106.7069942502
 11
81.3752929902
 21
106.8693023373
  0
LINE
  5
3A7
100
AcDbEntity
  8
0
100
AcDbLine
 62
7
  6
CONTINUOUS
 10
84.87167996
 20
106.7069942502
 11
85.1895329902
 21
106.8693023373
  0
LINE
  5
3A8
100
AcDbEntity
  8
0
100
AcDbLine
 62
7
  6
CONTINUOUS
 10
77.6405162478
 20
108.8981533582
 11
77.4021262478
 21
108.8169993253
  0
LINE
  5
3A9
100
AcDbEntity
  8
0
100
AcDbLine
 62
7
  6
CONTINUOUS
 10
120.9024419641
 20
128.1528213619
 11
117.081237452
 21
142.413750747
  0
LINE
  5
3AA
100
AcDbEntity
  8
RUNDUNGEN
100
AcDbLine
 62
7
  6
CONTINUOUS
 10
128.5157417257
 20
51.7342826535
 11
128.5157417257
 21
55.2698165595
  0
LINE
  5
3AB
100
AcDbEntity
  8
0
100
AcDbLine
 62
7
  6
CONTINUOUS
 10
117.081237452
 20
106.2261763654
 11
115.3805831938
 21
98.8598334754
  0
LINE
  5
3AC
100
AcDbEntity
  8
0
100
AcDbLine
 62
7
  6
CONTINUOUS
 10
109.9583244207
 20
109.3039235226
 11
109.8199048166
 21
109.060461424
  0
LINE
  5
3AD
100
AcDbEntity
  8
0
100
AcDbLine
 62
7
  6
CONTINUOUS
 10
108.228082141
 20
107.8431508171
 11
108.4357111512
 21
108.1677670623
  0
LINE
  5
3AE
100
AcDbEntity
  8
0
100
AcDbLine
 62
7
  6
CONTINUOUS
 10
110.0275338268
 20
107.5996887185
 11
109.8199048166
 21
107.2750725301
  0
LINE
  5
3AF
100
AcDbEntity
  8
0
100
AcDbLine
 62
7
  6
CONTINUOUS
 10
103.6602443124
 20
106.8693023373
 11
103.9370831247
 21
107.1939184972
  0
LINE
  5
3B0
100
AcDbEntity
  8
0
100
AcDbLine
 62
7
  6
CONTINUOUS
 10
108.2972923391
 20
110.1154640787
 11
108.0896633289
 21
109.8720019801
  0
LINE
  5
3B1
100
AcDbEntity
  8
0
100
AcDbLine
 62
7
  6
CONTINUOUS
 10
109.9583244207
 20
108.6546912596
 11
110.165953431
 21
108.8981533582
  0
LINE
  5
3B2
100
AcDbEntity
  8
0
100
AcDbLine
 62
7
  6
CONTINUOUS
 10
110.0275338268
 20
106.9504563702
 11
110.235162837
 21
107.1939184972
  0
LINE
  5
3B3
100
AcDbEntity
  8
0
100
AcDbLine
 62
7
  6
CONTINUOUS
 10
108.4357111512
 20
109.7096939144
 11
108.7125503595
 21
109.953156013
  0
LINE
  5
3B4
100
AcDbEntity
  8
0
100
AcDbLine
 62
7
  6
CONTINUOUS
 10
108.2972923391
 20
108.4923831938
 11
108.0204531308
 21
108.2489210952
  0
LINE
  5
3B5
100
AcDbEntity
  8
0
100
AcDbLine
 62
7
  6
CONTINUOUS
 10
109.8199048166
 20
109.060461424
 11
109.5430664003
 21
108.8169993253
  0
LINE
  5
3B6
100
AcDbEntity
  8
0
100
AcDbLine
 62
7
  6
CONTINUOUS
 10
101.9300024286
 20
109.7096939144
 11
102.1376314388
 21
109.8720019801
  0
LINE
  5
3B7
100
AcDbEntity
  8
0
100
AcDbLine
 62
7
  6
CONTINUOUS
 10
103.5218247082
 20
107.3562266198
 11
103.314195698
 21
107.1939184972
  0
LINE
  5
3B8
100
AcDbEntity
  8
0
100
AcDbLine
 62
7
  6
CONTINUOUS
 10
108.6433401614
 20
110.3589261774
 11
108.2972923391
 21
110.1154640787
  0
LINE
  5
3B9
100
AcDbEntity
  8
0
100
AcDbLine
 62
7
  6
CONTINUOUS
 10
102.0684216368
 20
110.3589261774
 11
101.7915832205
 21
110.1966181116
  0
LINE
  5
3BA
100
AcDbEntity
  8
0
100
AcDbLine
 62
7
  6
CONTINUOUS
 10
100.1305509408
 20
108.4923831938
 11
100.4073897531
 21
108.6546912596
  0
LINE
  5
3BB
100
AcDbEntity
  8
0
100
AcDbLine
 62
7
  6
CONTINUOUS
 10
103.3834055001
 20
106.7069942502
 11
103.6602443124
 21
106.8693023373
  0
LINE
  5
3BC
100
AcDbEntity
  8
0
100
AcDbLine
 62
7
  6
CONTINUOUS
 10
108.4357111512
 20
108.5735372267
 11
108.2972923391
 21
108.4923831938
  0
LINE
  5
3BD
100
AcDbEntity
  8
0
100
AcDbLine
 62
7
  6
CONTINUOUS
 10
108.4357111512
 20
108.1677670623
 11
108.7125503595
 21
108.3300751281
  0
LINE
  5
3BE
100
AcDbEntity
  8
0
100
AcDbLine
 62
7
  6
CONTINUOUS
 10
109.8199048166
 20
108.5735372267
 11
109.9583244207
 21
108.6546912596
  0
LINE
  5
3BF
100
AcDbEntity
  8
0
100
AcDbLine
 62
7
  6
CONTINUOUS
 10
100.0613413367
 20
108.8981533582
 11
99.8537123265
 21
108.8169993253
  0
LINE
  5
3C0
100
AcDbEntity
  8
0
100
AcDbLine
 62
7
  6
CONTINUOUS
 10
102.1376314388
 20
109.8720019801
 11
102.4144702511
 21
109.953156013
  0
LINE
  5
3C1
100
AcDbEntity
  8
0
100
AcDbLine
 62
7
  6
CONTINUOUS
 10
108.7125503595
 20
109.953156013
 11
108.9893887758
 21
110.0343100459
  0
LINE
  5
3C2
100
AcDbEntity
  8
0
100
AcDbLine
 62
7
  6
CONTINUOUS
 10
103.314195698
 20
107.1939184972
 11
103.0373572818
 21
107.1127644644
  0
LINE
  5
3C3
100
AcDbEntity
  8
0
100
AcDbLine
 62
7
  6
CONTINUOUS
 10
109.5430664003
 20
108.8169993253
 11
109.266227192
 21
108.7358452925
  0
LINE
  5
3C4
100
AcDbEntity
  8
0
100
AcDbLine
 62
7
  6
CONTINUOUS
 10
108.7125503595
 20
108.3300751281
 11
108.9893887758
 21
108.4112291609
  0
LINE
  5
3C5
100
AcDbEntity
  8
RUNDUNGEN
100
AcDbLine
 62
7
  6
CONTINUOUS
 10
111.6893831938
 20
78.1528213619
 11
115.3805831938
 21
84.1510213619
  0
LINE
  5
3C6
100
AcDbEntity
  8
0
100
AcDbLine
 62
7
  6
CONTINUOUS
 10
109.6814852124
 20
106.7069942502
 11
110.0275338268
 21
106.9504563702
  0
LINE
  5
3C7
100
AcDbEntity
  8
0
100
AcDbLine
 62
7
  6
CONTINUOUS
 10
109.8199048166
 20
107.2750725301
 11
109.5430664003
 21
107.1127644644
  0
LINE
  5
3C8
100
AcDbEntity
  8
0
100
AcDbLine
 62
7
  6
CONTINUOUS
 10
109.5430664003
 20
107.1127644644
 11
109.266227192
 21
107.0316104315
  0
LINE
  5
3C9
100
AcDbEntity
  8
RUNDUNGEN
100
AcDbLine
 62
7
  6
CONTINUOUS
 10
60.6890627509
 20
57.9116730987
 11
59.0507586623
 21
57.1005135234
  0
LINE
  5
3CA
100
AcDbEntity
  8
RUNDUNGEN
100
AcDbLine
 62
7
  6
CONTINUOUS
 10
60.6890627509
 20
54.3761391928
 11
59.0507586623
 21
53.5649796174
  0
LINE
  5
3CB
100
AcDbEntity
  8
RUNDUNGEN
100
AcDbLine
 62
7
  6
CONTINUOUS
 10
77.79491595
 20
23.5065403163
 11
65.6039750166
 21
11.1954803339
  0
LINE
  5
3CC
100
AcDbEntity
  8
RUNDUNGEN
100
AcDbLine
 62
7
  6
CONTINUOUS
 10
77.79491595
 20
19.9710064104
 11
65.6039750166
 21
7.659946428
  0
LINE
  5
3CD
100
AcDbEntity
  8
RUNDUNGEN
100
AcDbLine
 62
7
  6
CONTINUOUS
 10
113.3535956132
 20
51.5256451005
 11
120.4348645536
 21
58.6766867759
  0
LINE
  5
3CE
100
AcDbEntity
  8
RUNDUNGEN
100
AcDbLine
 62
7
  6
CONTINUOUS
 10
64.3357343935
 20
48.8443318059
 11
61.6325326473
 21
47.5059185066
  0
LINE
  5
3CF
100
AcDbEntity
  8
RUNDUNGEN
100
AcDbLine
 62
7
  6
CONTINUOUS
 10
66.0490712072
 20
46.5813970794
 11
68.04134549
 21
47.5678149077
  0
LINE
  5
3D0
100
AcDbEntity
  8
RUNDUNGEN
100
AcDbLine
 62
7
  6
CONTINUOUS
 10
85.4976659576
 20
55.0490821816
 11
82.2210577804
 21
53.4267630309
  0
LINE
  5
3D1
100
AcDbEntity
  8
RUNDUNGEN
100
AcDbLine
 62
7
  6
CONTINUOUS
 10
66.0490712072
 20
43.0458631735
 11
68.7522729534
 21
44.3842764728
  0
LINE
  5
3D2
100
AcDbEntity
  8
RUNDUNGEN
100
AcDbLine
 62
7
  6
CONTINUOUS
 10
85.4976659576
 20
51.5135482757
 11
82.2210577804
 21
49.891229125
  0
LINE
  5
3D3
100
AcDbEntity
  8
RUNDUNGEN
100
AcDbLine
 62
7
  6
CONTINUOUS
 10
113.3535956132
 20
47.9901111946
 11
120.4348645536
 21
55.14115287
  0
LINE
  5
3D4
100
AcDbEntity
  8
RUNDUNGEN
100
AcDbLine
 62
7
  6
CONTINUOUS
 10
84.2069015125
 20
6.7213213358
 11
88.2848229724
 21
10.8394231271
  0
LINE
  5
3D5
100
AcDbEntity
  8
RUNDUNGEN
100
AcDbLine
 62
7
  6
CONTINUOUS
 10
106.9662504376
 20
29.7049213145
 11
128.2987241788
 21
51.2475869083
  0
ARC
  5
3D6
100
AcDbEntity
  8
KONSTRUKTIONSELEMENTE
100
AcDbCircle
 62
7
  6
CONTINUOUS
 10
234.6599190635
 20
62.7555072988
 40
9.55
100
AcDbArc
 50
58.6297070454
 51
135.0
  0
ARC
  5
3D7
100
AcDbEntity
  8
KONSTRUKTIONSELEMENTE
100
AcDbCircle
 62
7
  6
CONTINUOUS
 10
234.6599190635
 20
62.7555072988
 40
9.55
100
AcDbArc
 50
315.0
 51
31.3702929546
  0
ARC
  5
3D8
100
AcDbEntity
  8
KONSTRUKTIONSELEMENTE
100
AcDbCircle
 62
7
  6
CONTINUOUS
 10
226.2453483674
 20
54.3409366027
 40
9.55
100
AcDbArc
 50
240.1951355235
 51
315.0
  0
ARC
  5
3D9
100
AcDbEntity
  8
KONSTRUKTIONSELEMENTE
100
AcDbCircle
 62
7
  6
CONTINUOUS
 10
226.2453483674
 20
54.3409366027
 40
9.55
100
AcDbArc
 50
135.0
 51
209.8048644765
  0
ARC
  5
3DA
100
AcDbEntity
  8
KONSTRUKTIONSELEMENTE
100
AcDbCircle
 62
7
  6
CONTINUOUS
 10
255.9084778382
 20
84.0040660735
 40
8.0
100
AcDbArc
 50
135.0
 51
208.6357041722
  0
ARC
  5
3DB
100
AcDbEntity
  8
KONSTRUKTIONSELEMENTE
100
AcDbCircle
 62
7
  6
CONTINUOUS
 10
255.9084778382
 20
84.0040660735
 40
8.0
100
AcDbArc
 50
241.3642958278
 51
315.0
  0
ARC
  5
3DC
100
AcDbEntity
  8
KONSTRUKTIONSELEMENTE
100
AcDbCircle
 62
7
  6
CONTINUOUS
 10
234.6599190635
 20
62.7555072988
 40
4.55
100
AcDbArc
 50
74.6522021471
 51
135.0
  0
ARC
  5
3DD
100
AcDbEntity
  8
KONSTRUKTIONSELEMENTE
100
AcDbCircle
 62
7
  6
CONTINUOUS
 10
234.6599190635
 20
62.7555072988
 40
4.55
100
AcDbArc
 50
315.0
 51
15.3477978529
  0
ARC
  5
3DE
100
AcDbEntity
  8
KONSTRUKTIONSELEMENTE
100
AcDbCircle
 62
7
  6
CONTINUOUS
 10
226.2453483674
 20
54.3409366027
 40
4.55
100
AcDbArc
 50
258.3583327703
 51
315.0
  0
ARC
  5
3DF
100
AcDbEntity
  8
KONSTRUKTIONSELEMENTE
100
AcDbCircle
 62
7
  6
CONTINUOUS
 10
226.2453483674
 20
54.3409366027
 40
4.55
100
AcDbArc
 50
135.0
 51
191.6049591202
  0
ARC
  5
3E0
100
AcDbEntity
  8
KONSTRUKTIONSELEMENTE
100
AcDbCircle
 62
7
  6
CONTINUOUS
 10
255.9084778382
 20
84.0040660735
 40
3.5
100
AcDbArc
 50
135.0
 51
184.8461224921
  0
ARC
  5
3E1
100
AcDbEntity
  8
KONSTRUKTIONSELEMENTE
100
AcDbCircle
 62
7
  6
CONTINUOUS
 10
255.9084778382
 20
84.0040660735
 40
3.5
100
AcDbArc
 50
265.1538775079
 51
315.0
  0
ARC
  5
3E2
100
AcDbEntity
  8
KONSTRUKTIONSELEMENTE
100
AcDbCircle
 62
7
  6
CONTINUOUS
 10
255.0245943617
 20
83.120182597
 40
2.25
100
AcDbArc
 50
315.0
 51
135.0
  0
ARC
  5
3E3
100
AcDbEntity
  8
KONSTRUKTIONSELEMENTE
100
AcDbCircle
 62
7
  6
CONTINUOUS
 10
236.2862646602
 20
64.3818528955
 40
2.25
100
AcDbArc
 50
135.0
 51
315.0
  0
ARC
  5
3E4
100
AcDbEntity
  8
KONSTRUKTIONSELEMENTE
100
AcDbCircle
 62
7
  6
CONTINUOUS
 10
287.7636383306
 20
115.8592265659
 40
9.55
100
AcDbArc
 50
238.6297070454
 51
315.0
  0
ARC
  5
3E5
100
AcDbEntity
  8
KONSTRUKTIONSELEMENTE
100
AcDbCircle
 62
7
  6
CONTINUOUS
 10
287.7636383306
 20
115.8592265659
 40
9.55
100
AcDbArc
 50
135.0
 51
211.3702929546
  0
ARC
  5
3E6
100
AcDbEntity
  8
KONSTRUKTIONSELEMENTE
100
AcDbCircle
 62
7
  6
CONTINUOUS
 10
266.515079556
 20
94.6106677913
 40
8.0
100
AcDbArc
 50
315.0
 51
28.6357041722
  0
ARC
  5
3E7
100
AcDbEntity
  8
KONSTRUKTIONSELEMENTE
100
AcDbCircle
 62
7
  6
CONTINUOUS
 10
266.515079556
 20
94.6106677913
 40
8.0
100
AcDbArc
 50
61.3642958278
 51
135.0
  0
ARC
  5
3E8
100
AcDbEntity
  8
KONSTRUKTIONSELEMENTE
100
AcDbCircle
 62
7
  6
CONTINUOUS
 10
287.7636383306
 20
115.8592265659
 40
4.55
100
AcDbArc
 50
254.6522021471
 51
315.0
  0
ARC
  5
3E9
100
AcDbEntity
  8
KONSTRUKTIONSELEMENTE
100
AcDbCircle
 62
7
  6
CONTINUOUS
 10
287.7636383306
 20
115.8592265659
 40
4.55
100
AcDbArc
 50
135.0
 51
195.3477978529
  0
ARC
  5
3EA
100
AcDbEntity
  8
KONSTRUKTIONSELEMENTE
100
AcDbCircle
 62
7
  6
CONTINUOUS
 10
266.515079556
 20
94.6106677913
 40
3.5
100
AcDbArc
 50
315.0
 51
4.8461224921
  0
ARC
  5
3EB
100
AcDbEntity
  8
KONSTRUKTIONSELEMENTE
100
AcDbCircle
 62
7
  6
CONTINUOUS
 10
266.515079556
 20
94.6106677913
 40
3.5
100
AcDbArc
 50
85.1538775079
 51
135.0
  0
ARC
  5
3EC
100
AcDbEntity
  8
KONSTRUKTIONSELEMENTE
100
AcDbCircle
 62
7
  6
CONTINUOUS
 10
286.1372927339
 20
114.2328809692
 40
2.25
100
AcDbArc
 50
315.0
 51
135.0
  0
ARC
  5
3ED
100
AcDbEntity
  8
KONSTRUKTIONSELEMENTE
100
AcDbCircle
 62
7
  6
CONTINUOUS
 10
267.3989630325
 20
95.4945512677
 40
2.25
100
AcDbArc
 50
135.0
 51
315.0
  0
ARC
  5
3EE
100
AcDbEntity
  8
KONSTRUKTIONSELEMENTE
100
AcDbCircle
 62
7
  6
CONTINUOUS
 10
296.1782090267
 20
124.273797262
 40
9.55
100
AcDbArc
 50
63.3390960058
 51
135.0
  0
ARC
  5
3EF
100
AcDbEntity
  8
KONSTRUKTIONSELEMENTE
100
AcDbCircle
 62
7
  6
CONTINUOUS
 10
296.1782090267
 20
124.273797262
 40
9.55
100
AcDbArc
 50
315.0
 51
26.6609039942
  0
ARC
  5
3F0
100
AcDbEntity
  8
KONSTRUKTIONSELEMENTE
100
AcDbCircle
 62
7
  6
CONTINUOUS
 10
296.1782090267
 20
124.273797262
 40
4.55
100
AcDbArc
 50
86.2724010126
 51
135.0
  0
ARC
  5
3F1
100
AcDbEntity
  8
KONSTRUKTIONSELEMENTE
100
AcDbCircle
 62
7
  6
CONTINUOUS
 10
296.1782090267
 20
124.273797262
 40
4.55
100
AcDbArc
 50
315.0
 51
3.7275989874
  0
ARC
  5
3F2
100
AcDbEntity
  8
KONSTRUKTIONSELEMENTE
100
AcDbCircle
 62
7
  6
CONTINUOUS
 10
296.920671147
 20
125.0162593823
 40
3.0
100
AcDbArc
 50
135.0
 51
315.0
  0
ARC
  5
3F3
100
AcDbEntity
  8
RUNDUNGEN
100
AcDbCircle
 62
7
  6
CONTINUOUS
 10
351.1072331266
 20
89.3528213619
 40
11.2
100
AcDbArc
 50
270.0
 51
360.0
  0
ARC
  5
3F4
100
AcDbEntity
  8
0
100
AcDbCircle
 62
7
  6
CONTINUOUS
 10
349.5072331266
 20
89.3528213619
 40
11.2
100
AcDbArc
 50
180.0
 51
270.0
  0
ARC
  5
3F5
100
AcDbEntity
  8
RUNDUNGEN
100
AcDbCircle
 62
7
  6
CONTINUOUS
 10
351.1988949564
 20
88.8094531965
 40
10.6489600174
100
AcDbArc
 50
279.3184681096
 51
283.0943592224
  0
ARC
  5
3F6
100
AcDbEntity
  8
RUNDUNGEN
100
AcDbCircle
 62
7
  6
CONTINUOUS
 10
351.2985044828
 20
88.3784980461
 40
10.2066433843
100
AcDbArc
 50
283.0978155991
 51
286.1037786302
  0
ARC
  5
3F7
100
AcDbEntity
  8
RUNDUNGEN
100
AcDbCircle
 62
7
  6
CONTINUOUS
 10
351.3711793734
 20
88.120418533
 40
9.9385324279
100
AcDbArc
 50
286.1139388483
 51
286.7775108569
  0
CIRCLE
  5
3F8
100
AcDbEntity
  8
BEZUGSACHSEN
100
AcDbCircle
 62
7
  6
CONTINUOUS
 10
350.3072331266
 20
92.1528213619
 40
5.6906
  0
ARC
  5
3F9
100
AcDbEntity
  8
0
100
AcDbCircle
 62
7
  6
CONTINUOUS
 10
344.9072331266
 20
111.8028213619
 40
3.6
100
AcDbArc
 50
103.3863540691
 51
179.9999506524
  0
ARC
  5
3FA
100
AcDbEntity
  8
RUNDUNGEN
100
AcDbCircle
 62
7
  6
CONTINUOUS
 10
355.7072331266
 20
111.8028213619
 40
3.6
100
AcDbArc
 50
0.0000493476
 51
76.6136459309
  0
ARC
  5
3FB
100
AcDbEntity
  8
RUNDUNGEN
100
AcDbCircle
 62
7
  6
CONTINUOUS
 10
357.2307903436
 20
112.9990431252
 40
2.3471789212
100
AcDbArc
 50
126.8864980309
 51
130.4738884922
  0
ARC
  5
3FC
100
AcDbEntity
  8
0
100
AcDbCircle
 62
7
  6
CONTINUOUS
 10
343.3836759095
 20
112.9990431252
 40
2.3471789212
100
AcDbArc
 50
49.5261115078
 51
53.1135019691
  0
ARC
  5
3FD
100
AcDbEntity
  8
0
100
AcDbCircle
 62
7
  6
CONTINUOUS
 10
350.3072331266
 20
178.4028213619
 40
55.5
100
AcDbArc
 50
276.466080078
 51
360.0
  0
ARC
  5
3FE
100
AcDbEntity
  8
0
100
AcDbCircle
 62
7
  6
CONTINUOUS
 10
350.3072331266
 20
178.4028213619
 40
55.5
100
AcDbArc
 50
228.0986942731
 51
263.533919922
  0
ARC
  5
3FF
100
AcDbEntity
  8
0
100
AcDbCircle
 62
7
  6
CONTINUOUS
 10
350.3072331266
 20
178.4028213619
 40
55.5
100
AcDbArc
 50
180.0
 51
221.9013057269
  0
ARC
  5
400
100
AcDbEntity
  8
0
100
AcDbCircle
 62
7
  6
CONTINUOUS
 10
350.3072331266
 20
238.4028213619
 40
55.5
100
AcDbArc
 50
0.0
 51
180.0
  0
ARC
  5
401
100
AcDbEntity
  8
0
100
AcDbCircle
 62
7
  6
CONTINUOUS
 10
350.3072331266
 20
178.4028213619
 40
37.5
100
AcDbArc
 50
279.5942707183
 51
360.0
  0
ARC
  5
402
100
AcDbEntity
  8
0
100
AcDbCircle
 62
7
  6
CONTINUOUS
 10
350.3072331266
 20
178.4028213619
 40
37.5
100
AcDbArc
 50
229.5903972803
 51
260.4057292817
  0
ARC
  5
403
100
AcDbEntity
  8
0
100
AcDbCircle
 62
7
  6
CONTINUOUS
 10
350.3072331266
 20
178.4028213619
 40
37.5
100
AcDbArc
 50
180.0
 51
220.4096027197
  0
ARC
  5
404
100
AcDbEntity
  8
0
100
AcDbCircle
 62
7
  6
CONTINUOUS
 10
350.3072331266
 20
238.4028213619
 40
37.5
100
AcDbArc
 50
0.0
 51
180.0
  0
ARC
  5
405
100
AcDbEntity
  8
BEZUGSACHSEN
100
AcDbCircle
 62
7
  6
CONTINUOUS
 10
350.3072331266
 20
147.1528213619
 40
6.25
100
AcDbArc
 50
0.0
 51
28.0724869359
  0
ARC
  5
406
100
AcDbEntity
  8
BEZUGSACHSEN
100
AcDbCircle
 62
7
  6
CONTINUOUS
 10
350.3072331266
 20
147.1528213619
 40
6.25
100
AcDbArc
 50
151.9275130641
 51
180.0
  0
ARC
  5
407
100
AcDbEntity
  8
KONSTRUKTIONSELEMENTE
100
AcDbCircle
 62
7
  6
CONTINUOUS
 10
325.9120491756
 20
154.0076374109
 40
3.0
100
AcDbArc
 50
315.0
 51
135.0
  0
ARC
  5
408
100
AcDbEntity
  8
KONSTRUKTIONSELEMENTE
100
AcDbCircle
 62
7
  6
CONTINUOUS
 10
92.3805831938
 20
54.0114613619
 40
28.79136
100
AcDbArc
 50
56.9721560344
 51
79.9991254185
  0
ARC
  5
409
100
AcDbEntity
  8
KONSTRUKTIONSELEMENTE
100
AcDbCircle
 62
7
  6
CONTINUOUS
 10
92.3805831938
 20
54.0114613619
 40
28.79136
100
AcDbArc
 50
100.0008745815
 51
123.0278439656
  0
ARC
  5
40A
100
AcDbEntity
  8
RUNDUNGEN
100
AcDbCircle
 62
7
  6
CONTINUOUS
 10
108.9106710231
 20
143.0577028872
 40
27.7566678192
100
AcDbArc
 50
270.0054115361
 51
270.9708056369
  0
ARC
  5
40B
100
AcDbEntity
  8
RUNDUNGEN
100
AcDbCircle
 62
7
  6
CONTINUOUS
 10
75.850489504
 20
143.0567735533
 40
27.7557384848
100
AcDbArc
 50
269.029932686
 51
269.9945997237
  0
ARC
  5
40C
100
AcDbEntity
  8
BEZUGSACHSEN
100
AcDbCircle
 62
7
  6
CONTINUOUS
 10
92.3805831938
 20
128.1528213619
 40
12.75
100
AcDbArc
 50
134.9044389838
 51
45.0955610162
  0
ARC
  5
40D
100
AcDbEntity
  8
KONSTRUKTIONSELEMENTE
100
AcDbCircle
 62
7
  6
CONTINUOUS
 10
92.5529996641
 20
107.0067353348
 40
9.4578024042
100
AcDbArc
 50
69.9135734383
 51
75.7259840467
  0
ARC
  5
40E
100
AcDbEntity
  8
KONSTRUKTIONSELEMENTE
100
AcDbCircle
 62
7
  6
CONTINUOUS
 10
92.1805665755
 20
107.0969663092
 40
9.3635703713
100
AcDbArc
 50
104.2407451748
 51
110.1349869262
  0
ARC
  5
40F
100
AcDbEntity
  8
0
100
AcDbCircle
 62
7
  6
CONTINUOUS
 10
92.3805831938
 20
284.9028213619
 40
9.0
100
AcDbArc
 50
0.0
 51
180.0
  0
ARC
  5
410
100
AcDbEntity
  8
0
100
AcDbCircle
 62
7
  6
CONTINUOUS
 10
92.3805831938
 20
131.9028213619
 40
9.0
100
AcDbArc
 50
180.0
 51
360.0
  0
ARC
  5
411
100
AcDbEntity
  8
RUNDUNGEN
100
AcDbCircle
 62
7
  6
CONTINUOUS
 10
75.3805831938
 20
109.4028213619
 40
6.0
100
AcDbArc
 50
116.2394469635
 51
180.0
  0
ARC
  5
412
100
AcDbEntity
  8
RUNDUNGEN
100
AcDbCircle
 62
7
  6
CONTINUOUS
 10
109.3805831938
 20
109.4028213619
 40
6.0
100
AcDbArc
 50
0.0
 51
63.7605530365
  0
ARC
  5
413
100
AcDbEntity
  8
KONSTRUKTIONSELEMENTE
100
AcDbCircle
 62
7
  6
CONTINUOUS
 10
92.3805831938
 20
102.5928213619
 40
5.0
100
AcDbArc
 50
0.0000014742
 51
180.0
  0
ARC
  5
414
100
AcDbEntity
  8
RUNDUNGEN
100
AcDbCircle
 62
7
  6
CONTINUOUS
 10
74.548676112
 20
111.0909608186
 40
4.1180105821
100
AcDbArc
 50
113.1855758857
 51
116.2420010499
  0
ARC
  5
415
100
AcDbEntity
  8
RUNDUNGEN
100
AcDbCircle
 62
7
  6
CONTINUOUS
 10
110.2124902756
 20
111.0909608186
 40
4.1180105821
100
AcDbArc
 50
63.7579989501
 51
66.8144241143
  0
ARC
  5
416
100
AcDbEntity
  8
KONSTRUKTIONSELEMENTE
100
AcDbCircle
 62
7
  6
CONTINUOUS
 10
92.3805831938
 20
69.8055072988
 40
2.5
100
AcDbArc
 50
0.0
 51
180.0
  0
ARC
  5
417
100
AcDbEntity
  8
KONSTRUKTIONSELEMENTE
100
AcDbCircle
 62
7
  6
CONTINUOUS
 10
92.3805831938
 20
47.2909366027
 40
2.5
100
AcDbArc
 50
180.0
 51
360.0
  0
ARC
  5
418
100
AcDbEntity
  8
KONSTRUKTIONSELEMENTE
100
AcDbCircle
 62
7
  6
CONTINUOUS
 10
92.3805831938
 20
108.8092265659
 40
2.5
100
AcDbArc
 50
219.86215042
 51
320.13784958
  0
ARC
  5
419
100
AcDbEntity
  8
KONSTRUKTIONSELEMENTE
100
AcDbCircle
 62
7
  6
CONTINUOUS
 10
92.3805831938
 20
78.2540660735
 40
2.25
100
AcDbArc
 50
180.0
 51
360.0
  0
ARC
  5
41A
100
AcDbEntity
  8
KONSTRUKTIONSELEMENTE
100
AcDbCircle
 62
7
  6
CONTINUOUS
 10
92.3805831938
 20
100.3606677913
 40
2.25
100
AcDbArc
 50
0.0
 51
180.0
  0
CIRCLE
  5
41B
100
AcDbEntity
  8
BEZUGSACHSEN
100
AcDbCircle
 62
7
  6
CONTINUOUS
 10
77.5805831938
 20
91.9528213619
 40
1.75
  0
ARC
  5
41C
100
AcDbEntity
  8
0
100
AcDbCircle
 62
7
  6
CONTINUOUS
 10
102.3508094262
 20
40.8161216067
 40
1.7033694965
100
AcDbArc
 50
350.5636876715
 51
355.3957076166
  0
ARC
  5
41D
100
AcDbEntity
  8
0
100
AcDbCircle
 62
7
  6
CONTINUOUS
 10
83.7105901553
 20
40.3107104822
 40
0.3335678168
100
AcDbArc
 50
78.8903114984
 51
89.9692795104
  0
SPLINE
  5
41E
100
AcDbEntity
  8
0
100
AcDbSpline
 62
7
  6
CONTINUOUS
 70
0
 71
3
 72
11
 73
7
 74
0
 42
0.0000001
 43
0.0000001
 44
0.0000000001
 40
0.0
 40
0.0
 40
0.0
 40
0.0
 40
0.2577328834
 40
0.5000000007
 40
0.7422671179
 40
1.0
 40
1.0
 40
1.0
 40
1.0
 10
348.3022244707
 20
156.6746801322
 30
0.0
 10
348.1409137508
 20
156.3722225323
 30
0.0
 10
347.8801961869
 20
155.7535178597
 30
0.0
 10
347.7372408942
 20
154.7640778733
 30
0.0
 10
347.8801961857
 20
153.774637888
 30
0.0
 10
348.1409137516
 20
153.1559332185
 30
0.0
 10
348.3022244707
 20
152.8534756201
 30
0.0
  0
SPLINE
  5
41F
100
AcDbEntity
  8
0
100
AcDbSpline
 62
7
  6
CONTINUOUS
 70
0
 71
3
 72
9
 73
5
 74
0
 42
0.0000001
 43
0.0000001
 44
0.0000000001
 40
0.0
 40
0.0
 40
0.0
 40
0.0
 40
0.5000869397
 40
1.0
 40
1.0
 40
1.0
 40
1.0
 10
352.3122417824
 20
128.1528213619
 30
0.0
 10
352.4590416656
 20
127.1255751946
 30
0.0
 10
352.6944775874
 20
125.0626134291
 30
0.0
 10
352.8016250938
 20
122.9887713509
 30
0.0
 10
352.8216102223
 20
121.9516422239
 30
0.0
  0
SPLINE
  5
420
100
AcDbEntity
  8
0
100
AcDbSpline
 62
7
  6
CONTINUOUS
 70
0
 71
3
 72
11
 73
7
 74
0
 42
0.0000001
 43
0.0000001
 44
0.0000000001
 40
0.0
 40
0.0
 40
0.0
 40
0.0
 40
0.2500457849
 40
0.5000000008
 40
0.7499542166
 40
1.0
 40
1.0
 40
1.0
 40
1.0
 10
352.3122417824
 20
142.413750747
 30
0.0
 10
352.4809467838
 20
141.2332214282
 30
0.0
 10
352.7414732328
 20
138.8606794505
 30
0.0
 10
352.875104915
 20
135.2832860435
 30
0.0
 10
352.7414732341
 20
131.7058926433
 30
0.0
 10
352.4809467828
 20
129.3333506738
 30
0.0
 10
352.3122417824
 20
128.1528213619
 30
0.0
  0
SPLINE
  5
421
100
AcDbEntity
  8
0
100
AcDbSpline
 62
7
  6
CONTINUOUS
 70
0
 71
3
 72
11
 73
7
 74
0
 42
0.0000001
 43
0.0000001
 44
0.0000000001
 40
0.0
 40
0.0
 40
0.0
 40
0.0
 40
0.2506004323
 40
0.5000000008
 40
0.7493995691
 40
1.0
 40
1.0
 40
1.0
 40
1.0
 10
352.3122417824
 20
152.8534756201
 30
0.0
 10
352.4803462861
 20
151.9923442858
 30
0.0
 10
352.7409968673
 20
150.2583118513
 30
0.0
 10
352.8752436951
 20
147.6336131756
 30
0.0
 10
352.7409968687
 20
145.0089145047
 30
0.0
 10
352.4803462851
 20
143.2748820764
 30
0.0
 10
352.3122417824
 20
142.413750747
 30
0.0
  0
SPLINE
  5
422
100
AcDbEntity
  8
0
100
AcDbSpline
 62
7
  6
CONTINUOUS
 70
0
 71
3
 72
11
 73
7
 74
0
 42
0.0000001
 43
0.0000001
 44
0.0000000001
 40
0.0
 40
0.0
 40
0.0
 40
0.0
 40
0.2577328834
 40
0.5000000007
 40
0.7422671179
 40
1.0
 40
1.0
 40
1.0
 40
1.0
 10
352.3122417824
 20
156.6746801322
 30
0.0
 10
352.4735525024
 20
156.3722225323
 30
0.0
 10
352.7342700663
 20
155.7535178597
 30
0.0
 10
352.877225359
 20
154.7640778733
 30
0.0
 10
352.7342700674
 20
153.774637888
 30
0.0
 10
352.4735525015
 20
153.1559332185
 30
0.0
 10
352.3122417824
 20
152.8534756201
 30
0.0
  0
SPLINE
  5
423
100
AcDbEntity
  8
RUNDUNGEN
100
AcDbSpline
 62
7
  6
CONTINUOUS
 70
0
 71
3
 72
9
 73
5
 74
0
 42
0.0000001
 43
0.0000001
 44
0.0000000001
 40
0.0
 40
0.0
 40
0.0
 40
0.0
 40
0.1992237026
 40
1.0
 40
1.0
 40
1.0
 40
1.0
 10
356.5406914983
 20
115.3050131246
 30
0.0
 10
356.5385196973
 20
115.305529974
 30
0.0
 10
356.5273427876
 20
115.3069584717
 30
0.0
 10
356.5160516283
 20
115.3049416149
 30
0.0
 10
356.5073193586
 20
115.3028757472
 30
0.0
  0
SPLINE
  5
424
100
AcDbEntity
  8
RUNDUNGEN
100
AcDbSpline
 62
7
  6
CONTINUOUS
 70
0
 71
3
 72
12
 73
8
 74
0
 42
0.0000001
 43
0.0000001
 44
0.0000000001
 40
0.0
 40
0.0
 40
0.0
 40
0.0
 40
0.0542729009
 40
0.1283319023
 40
0.3375862636
 40
0.6288814157
 40
1.0
 40
1.0
 40
1.0
 40
1.0
 10
356.5073193586
 20
115.3028757472
 30
0.0
 10
356.493062035
 20
115.2995027705
 30
0.0
 10
356.4603113815
 20
115.2877334761
 30
0.0
 10
356.3777629674
 20
115.2490909308
 30
0.0
 10
356.2436175302
 20
115.1706741977
 30
0.0
 10
356.0470693385
 20
115.0413001687
 30
0.0
 10
355.9020878005
 20
114.9364844978
 30
0.0
 10
355.8219390089
 20
114.8763781525
 30
0.0
  0
SPLINE
  5
425
100
AcDbEntity
  8
RUNDUNGEN
100
AcDbSpline
 62
7
  6
CONTINUOUS
 70
0
 71
3
 72
20
 73
16
 74
0
 42
0.0000001
 43
0.0000001
 44
0.0000000001
 40
0.0
 40
0.0
 40
0.0
 40
0.0
 40
0.1321911901
 40
0.261980541
 40
0.3885473868
 40
0.5110491683
 40
0.6289220928
 40
0.6866661732
 40
0.7442850343
 40
0.7736372648
 40
0.8036535196
 40
0.834594567
 40
0.8665543043
 40
0.9325733822
 40
1.0
 40
1.0
 40
1.0
 40
1.0
 10
354.2399965648
 20
78.6049408918
 30
0.0
 10
354.6186052604
 20
78.719091515
 30
0.0
 10
355.3563957962
 20
78.9906236575
 30
0.0
 10
356.3866835737
 20
79.5368772549
 30
0.0
 10
357.2966979488
 20
80.2224861021
 30
0.0
 10
358.0340872828
 20
81.0457650598
 30
0.0
 10
358.4450018534
 20
81.8578652484
 30
0.0
 10
358.5615144183
 20
82.5514772639
 30
0.0
 10
358.5165752116
 20
82.9898786765
 30
0.0
 10
358.3908607627
 20
83.3185312169
 30
0.0
 10
358.2458397007
 20
83.5487266508
 30
0.0
 10
358.0507803205
 20
83.7496067581
 30
0.0
 10
357.7292637447
 20
83.9670453002
 30
0.0
 10
357.2501873716
 20
84.1231003861
 30
0.0
 10
356.8498094304
 20
84.1510213619
 30
0.0
 10
356.6481064115
 20
84.1510213619
 30
0.0
  0
LINE
  5
426
100
AcDbEntity
  8
0
100
AcDbLine
 62
7
  6
CONTINUOUS
 10
344.9072331266
 20
104.3843566918
 11
341.3072331266
 21
105.3489737846
  0
LINE
  5
427
100
AcDbEntity
  8
0
100
AcDbLine
 62
7
  6
CONTINUOUS
 10
338.3072331266
 20
100.1528213619
 11
341.9072331266
 21
99.1882042691
  0
SPLINE
  5
428
100
AcDbEntity
  8
0
100
AcDbSpline
 62
7
  6
CONTINUOUS
 70
0
 71
3
 72
9
 73
5
 74
0
 42
0.0000001
 43
0.0000001
 44
0.0000000001
 40
0.0
 40
0.0
 40
0.0
 40
0.0
 40
0.1992237026
 40
1.0
 40
1.0
 40
1.0
 40
1.0
 10
344.0737747548
 20
115.3050131246
 30
0.0
 10
344.0759465558
 20
115.305529974
 30
0.0
 10
344.0871234656
 20
115.3069584717
 30
0.0
 10
344.0984146249
 20
115.3049416149
 30
0.0
 10
344.1071468946
 20
115.3028757472
 30
0.0
  0
SPLINE
  5
429
100
AcDbEntity
  8
0
100
AcDbSpline
 62
7
  6
CONTINUOUS
 70
0
 71
3
 72
12
 73
8
 74
0
 42
0.0000001
 43
0.0000001
 44
0.0000000001
 40
0.0
 40
0.0
 40
0.0
 40
0.0
 40
0.0542729009
 40
0.1283319023
 40
0.3375862636
 40
0.6288814157
 40
1.0
 40
1.0
 40
1.0
 40
1.0
 10
344.1071468946
 20
115.3028757472
 30
0.0
 10
344.1214042182
 20
115.2995027705
 30
0.0
 10
344.1541548717
 20
115.2877334761
 30
0.0
 10
344.2367032858
 20
115.2490909308
 30
0.0
 10
344.3708487229
 20
115.1706741977
 30
0.0
 10
344.5673969146
 20
115.0413001687
 30
0.0
 10
344.7123784526
 20
114.9364844978
 30
0.0
 10
344.7925272442
 20
114.8763781525
 30
0.0
  0
SPLINE
  5
42A
100
AcDbEntity
  8
0
100
AcDbSpline
 62
7
  6
CONTINUOUS
 70
0
 71
3
 72
9
 73
5
 74
0
 42
0.0000001
 43
0.0000001
 44
0.0000000001
 40
0.0
 40
0.0
 40
0.0
 40
0.0
 40
0.5000869397
 40
1.0
 40
1.0
 40
1.0
 40
1.0
 10
348.3022244707
 20
128.1528213619
 30
0.0
 10
348.1554245876
 20
127.1255751946
 30
0.0
 10
347.9199886658
 20
125.0626134291
 30
0.0
 10
347.8128411593
 20
122.9887713509
 30
0.0
 10
347.7928560308
 20
121.9516422239
 30
0.0
  0
SPLINE
  5
42B
100
AcDbEntity
  8
0
100
AcDbSpline
 62
7
  6
CONTINUOUS
 70
0
 71
3
 72
11
 73
7
 74
0
 42
0.0000001
 43
0.0000001
 44
0.0000000001
 40
0.0
 40
0.0
 40
0.0
 40
0.0
 40
0.2500457849
 40
0.5000000008
 40
0.7499542166
 40
1.0
 40
1.0
 40
1.0
 40
1.0
 10
348.3022244707
 20
142.413750747
 30
0.0
 10
348.1335194693
 20
141.2332214282
 30
0.0
 10
347.8729930204
 20
138.8606794505
 30
0.0
 10
347.7393613381
 20
135.2832860435
 30
0.0
 10
347.872993019
 20
131.7058926433
 30
0.0
 10
348.1335194703
 20
129.3333506738
 30
0.0
 10
348.3022244707
 20
128.1528213619
 30
0.0
  0
SPLINE
  5
42C
100
AcDbEntity
  8
0
100
AcDbSpline
 62
7
  6
CONTINUOUS
 70
0
 71
3
 72
11
 73
7
 74
0
 42
0.0000001
 43
0.0000001
 44
0.0000000001
 40
0.0
 40
0.0
 40
0.0
 40
0.0
 40
0.2506004323
 40
0.5000000008
 40
0.7493995691
 40
1.0
 40
1.0
 40
1.0
 40
1.0
 10
348.3022244707
 20
152.8534756201
 30
0.0
 10
348.1341199671
 20
151.9923442858
 30
0.0
 10
347.8734693859
 20
150.2583118513
 30
0.0
 10
347.7392225581
 20
147.6336131756
 30
0.0
 10
347.8734693845
 20
145.0089145047
 30
0.0
 10
348.1341199681
 20
143.2748820764
 30
0.0
 10
348.3022244707
 20
142.413750747
 30
0.0
  0
LINE
  5
42D
100
AcDbEntity
  8
RUNDUNGEN
100
AcDbLine
 62
7
  6
CONTINUOUS
 10
355.7072331266
 20
104.3843566918
 11
359.3072331266
 21
105.3489737846
  0
LINE
  5
42E
100
AcDbEntity
  8
RUNDUNGEN
100
AcDbLine
 62
7
  6
CONTINUOUS
 10
362.3072331266
 20
100.1528213619
 11
358.7072331266
 21
99.1882042691
  0
SPLINE
  5
42F
100
AcDbEntity
  8
0
100
AcDbSpline
 62
7
  6
CONTINUOUS
 70
0
 71
3
 72
22
 73
18
 74
0
 42
0.0000001
 43
0.0000001
 44
0.0000000001
 40
0.0
 40
0.0
 40
0.0
 40
0.0
 40
0.1326783965
 40
0.263459051
 40
0.3913746768
 40
0.5153371175
 40
0.575643447
 40
0.6346684792
 40
0.6924801705
 40
0.7495023058
 40
0.7781842674
 40
0.807305335
 40
0.8372294965
 40
0.8682440719
 40
0.9003591982
 40
0.9332757143
 40
1.0
 40
1.0
 40
1.0
 40
1.0
 10
347.691271402
 20
78.3010213761
 30
0.0
 10
347.2404818246
 20
78.3750922596
 30
0.0
 10
346.3534049226
 20
78.5786792971
 30
0.0
 10
345.0892122518
 20
79.0587913091
 30
0.0
 10
343.9405039161
 20
79.7159968013
 30
0.0
 10
343.1176896076
 20
80.4227506834
 30
0.0
 10
342.5952188886
 20
81.0806887078
 30
0.0
 10
342.2913248124
 20
81.6129634726
 30
0.0
 10
342.0962872411
 20
82.1833517564
 30
0.0
 10
342.0568328997
 20
82.6840885495
 30
0.0
 10
342.1276878996
 20
83.0752568996
 30
0.0
 10
342.2407893398
 20
83.3579037189
 30
0.0
 10
342.4198811706
 20
83.6146146057
 30
0.0
 10
342.6625688972
 20
83.8283773936
 30
0.0
 10
342.9556543991
 20
83.9868967662
 30
0.0
 10
343.3904804867
 20
84.1232619251
 30
0.0
 10
343.7366166812
 20
84.1510213619
 30
0.0
 10
343.9663598416
 20
84.1510213619
 30
0.0
  0
SPLINE
  5
430
100
AcDbEntity
  8
KONSTRUKTIONSELEMENTE
100
AcDbSpline
 62
7
  6
CONTINUOUS
 70
0
 71
3
 72
9
 73
5
 74
0
 42
0.0000001
 43
0.0000001
 44
0.0000000001
 40
0.0
 40
0.0
 40
0.0
 40
0.0
 40
0.4979444043
 40
1.0
 40
1.0
 40
1.0
 40
1.0
 10
84.3805831938
 20
79.0543186052
 30
0.0
 10
84.3805831938
 20
79.5496032371
 30
0.0
 10
84.5273024336
 20
80.5495292734
 30
0.0
 10
84.9483034348
 20
81.4657470946
 30
0.0
 10
85.2127253362
 20
81.8893687579
 30
0.0
  0
SPLINE
  5
431
100
AcDbEntity
  8
KONSTRUKTIONSELEMENTE
100
AcDbSpline
 62
7
  6
CONTINUOUS
 70
0
 71
3
 72
9
 73
5
 74
0
 42
0.0000001
 43
0.0000001
 44
0.0000000001
 40
0.0
 40
0.0
 40
0.0
 40
0.0
 40
0.2452449996
 40
1.0
 40
1.0
 40
1.0
 40
1.0
 10
87.3721678816
 20
84.0037853092
 30
0.0
 10
87.5785909761
 20
84.133148644
 30
0.0
 10
88.4445986369
 20
84.6214281467
 30
0.0
 10
89.3953144638
 20
84.9542813235
 30
0.0
 10
90.1264708733
 20
85.1200847258
 30
0.0
  0
SPLINE
  5
432
100
AcDbEntity
  8
KONSTRUKTIONSELEMENTE
100
AcDbSpline
 62
7
  6
CONTINUOUS
 70
0
 71
3
 72
9
 73
5
 74
0
 42
0.0000001
 43
0.0000001
 44
0.0000000001
 40
0.0
 40
0.0
 40
0.0
 40
0.0
 40
0.255340464
 40
1.0
 40
1.0
 40
1.0
 40
1.0
 10
94.6327539726
 20
85.1205159381
 30
0.0
 10
94.8801931488
 20
85.0644456872
 30
0.0
 10
95.8401448873
 20
84.8077272599
 30
0.0
 10
96.7613951781
 20
84.3970283666
 30
0.0
 10
97.388398583
 20
84.0041719748
 30
0.0
  0
SPLINE
  5
433
100
AcDbEntity
  8
KONSTRUKTIONSELEMENTE
100
AcDbSpline
 62
7
  6
CONTINUOUS
 70
0
 71
3
 72
9
 73
5
 74
0
 42
0.0000001
 43
0.0000001
 44
0.0000000001
 40
0.0
 40
0.0
 40
0.0
 40
0.0
 40
0.5020275958
 40
1.0
 40
1.0
 40
1.0
 40
1.0
 10
99.5506654902
 20
81.8858547207
 30
0.0
 10
99.8144581172
 20
81.4626854994
 30
0.0
 10
100.234226351
 20
80.5474586693
 30
0.0
 10
100.3805831938
 20
79.5489475765
 30
0.0
 10
100.3805831938
 20
79.0543186052
 30
0.0
  0
SPLINE
  5
434
100
AcDbEntity
  8
KONSTRUKTIONSELEMENTE
100
AcDbSpline
 62
7
  6
CONTINUOUS
 70
0
 71
3
 72
14
 73
10
 74
0
 42
0.0000001
 43
0.0000001
 44
0.0000000001
 40
0.0
 40
0.0
 40
0.0
 40
0.0
 40
0.0551359094
 40
0.1223699656
 40
0.2074507274
 40
0.3149057254
 40
0.4478676734
 40
0.6082995934
 40
1.0
 40
1.0
 40
1.0
 40
1.0
 10
88.8805831938
 20
79.0543186052
 30
0.0
 10
88.8805831938
 20
79.0893936029
 30
0.0
 10
88.8866742575
 20
79.1674136721
 30
0.0
 10
88.9208236631
 20
79.2956059991
 30
0.0
 10
88.9895569569
 20
79.4466120248
 30
0.0
 10
89.1024503315
 20
79.6210655471
 30
0.0
 10
89.2710824111
 20
79.8134814593
 30
0.0
 10
89.5986955201
 20
80.1022540221
 30
0.0
 10
89.9038323322
 20
80.2840827695
 30
0.0
 10
90.1285913055
 20
80.3916709005
 30
0.0
  0
SPLINE
  5
435
100
AcDbEntity
  8
KONSTRUKTIONSELEMENTE
100
AcDbSpline
 62
7
  6
CONTINUOUS
 70
0
 71
3
 72
14
 73
10
 74
0
 42
0.0000001
 43
0.0000001
 44
0.0000000001
 40
0.0
 40
0.0
 40
0.0
 40
0.0
 40
0.3917172299
 40
0.5521555057
 40
0.6851138818
 40
0.7925516428
 40
0.877642207
 40
0.9448879032
 40
1.0
 40
1.0
 40
1.0
 40
1.0
 10
94.6323324293
 20
80.3917828285
 30
0.0
 10
94.8571403353
 20
80.2841929279
 30
0.0
 10
95.1623417959
 20
80.1023435414
 30
0.0
 10
95.4900144439
 20
79.8135315897
 30
0.0
 10
95.6586934739
 20
79.6211231983
 30
0.0
 10
95.7716070957
 20
79.4466539573
 30
0.0
 10
95.8403213886
 20
79.2956111484
 30
0.0
 10
95.8744766525
 20
79.1674053831
 30
0.0
 10
95.8805831938
 20
79.089383266
 30
0.0
 10
95.8805831938
 20
79.0543186052
 30
0.0
  0
SPLINE
  5
436
100
AcDbEntity
  8
KONSTRUKTIONSELEMENTE
100
AcDbSpline
 62
7
  6
CONTINUOUS
 70
0
 71
3
 72
12
 73
8
 74
0
 42
0.0000001
 43
0.0000001
 44
0.0000000001
 40
0.0
 40
0.0
 40
0.0
 40
0.0
 40
0.1282453638
 40
0.2146169864
 40
0.321985829
 40
0.6101725692
 40
1.0
 40
1.0
 40
1.0
 40
1.0
 10
95.8805831938
 20
68.4477168874
 30
0.0
 10
95.8805831938
 20
68.3784538775
 30
0.0
 10
95.8609202081
 20
68.2619100279
 30
0.0
 10
95.7942303144
 20
68.100886504
 30
0.0
 10
95.6630654236
 20
67.87507533
 30
0.0
 10
95.3717709633
 20
67.5601008866
 30
0.0
 10
95.0694735599
 20
67.3487336445
 30
0.0
 10
94.8869372588
 20
67.2438190481
 30
0.0
  0
SPLINE
  5
437
100
AcDbEntity
  8
KONSTRUKTIONSELEMENTE
100
AcDbSpline
 62
7
  6
CONTINUOUS
 70
0
 71
3
 72
12
 73
8
 74
0
 42
0.0000001
 43
0.0000001
 44
0.0000000001
 40
0.0
 40
0.0
 40
0.0
 40
0.0
 40
0.3898396094
 40
0.6780156338
 40
0.7853729626
 40
0.8717632718
 40
1.0
 40
1.0
 40
1.0
 40
1.0
 10
89.8741375927
 20
67.2438715192
 30
0.0
 10
89.6916103493
 20
67.3487869287
 30
0.0
 10
89.3893625856
 20
67.5601762665
 30
0.0
 10
89.0980576094
 20
67.875094184
 30
0.0
 10
88.9669194511
 20
68.100902646
 30
0.0
 10
88.900273644
 20
68.2619283804
 30
0.0
 10
88.8805831938
 20
68.378463155
 30
0.0
 10
88.8805831938
 20
68.4477168874
 30
0.0
  0
SPLINE
  5
438
100
AcDbEntity
  8
KONSTRUKTIONSELEMENTE
100
AcDbSpline
 62
7
  6
CONTINUOUS
 70
0
 71
3
 72
14
 73
10
 74
0
 42
0.0000001
 43
0.0000001
 44
0.0000000001
 40
0.0
 40
0.0
 40
0.0
 40
0.0
 40
0.1196424727
 40
0.2395631224
 40
0.3606430533
 40
0.4833332762
 40
0.6083558391
 40
0.7361852119
 40
1.0
 40
1.0
 40
1.0
 40
1.0
 10
100.3805831938
 20
68.4477168874
 30
0.0
 10
100.3805831938
 20
68.0985031853
 30
0.0
 10
100.3084844938
 20
67.3971645486
 30
0.0
 10
99.9901768964
 20
66.3869354474
 30
0.0
 10
99.4808761576
 20
65.4483975952
 30
0.0
 10
98.8024681472
 20
64.6058159981
 30
0.0
 10
97.9804020524
 20
63.873573506
 30
0.0
 10
96.7129045127
 20
63.0488998602
 30
0.0
 10
95.6302320514
 20
62.6319020357
 30
0.0
 10
94.8840075297
 20
62.4419335451
 30
0.0
  0
SPLINE
  5
439
100
AcDbEntity
  8
KONSTRUKTIONSELEMENTE
100
AcDbSpline
 62
7
  6
CONTINUOUS
 70
0
 71
3
 72
14
 73
10
 74
0
 42
0.0000001
 43
0.0000001
 44
0.0000000001
 40
0.0
 40
0.0
 40
0.0
 40
0.0
 40
0.2638203492
 40
0.3916464215
 40
0.5166578653
 40
0.6393440549
 40
0.7604112963
 40
0.8803567455
 40
1.0
 40
1.0
 40
1.0
 40
1.0
 10
89.8762553913
 20
62.4421807347
 30
0.0
 10
89.130115569
 20
62.632215336
 30
0.0
 10
88.0475821538
 20
63.0492410649
 30
0.0
 10
86.7803107069
 20
63.873922882
 30
0.0
 10
85.9584375293
 20
64.6061233682
 30
0.0
 10
85.2801929849
 20
65.4485744309
 30
0.0
 10
84.7708853028
 20
66.387011726
 30
0.0
 10
84.4527261999
 20
67.3972105839
 30
0.0
 10
84.3805831938
 20
68.0985380899
 30
0.0
 10
84.3805831938
 20
68.4477168874
 30
0.0
  0
SPLINE
  5
43A
100
AcDbEntity
  8
KONSTRUKTIONSELEMENTE
100
AcDbSpline
 62
7
  6
CONTINUOUS
 70
0
 71
3
 72
14
 73
10
 74
0
 42
0.0000001
 43
0.0000001
 44
0.0000000001
 40
0.0
 40
0.0
 40
0.0
 40
0.0
 40
0.0551359094
 40
0.1223699656
 40
0.2074507274
 40
0.3149057254
 40
0.4478676734
 40
0.6082995934
 40
1.0
 40
1.0
 40
1.0
 40
1.0
 10
95.8805831938
 20
99.5604152596
 30
0.0
 10
95.8805831938
 20
99.5253402618
 30
0.0
 10
95.8744921301
 20
99.4473201926
 30
0.0
 10
95.8403427245
 20
99.3191278656
 30
0.0
 10
95.7716094307
 20
99.1681218399
 30
0.0
 10
95.6587160561
 20
98.9936683176
 30
0.0
 10
95.4900839765
 20
98.8012524054
 30
0.0
 10
95.1624708675
 20
98.5124798426
 30
0.0
 10
94.8573340554
 20
98.3306510952
 30
0.0
 10
94.6325750821
 20
98.2230629642
 30
0.0
  0
SPLINE
  5
43B
100
AcDbEntity
  8
KONSTRUKTIONSELEMENTE
100
AcDbSpline
 62
7
  6
CONTINUOUS
 70
0
 71
3
 72
14
 73
10
 74
0
 42
0.0000001
 43
0.0000001
 44
0.0000000001
 40
0.0
 40
0.0
 40
0.0
 40
0.0
 40
0.3917172299
 40
0.5521555057
 40
0.6851138818
 40
0.7925516428
 40
0.877642207
 40
0.9448879032
 40
1.0
 40
1.0
 40
1.0
 40
1.0
 10
90.1288339583
 20
98.2229510362
 30
0.0
 10
89.9040260523
 20
98.3305409368
 30
0.0
 10
89.5988245917
 20
98.5123903234
 30
0.0
 10
89.2711519437
 20
98.801202275
 30
0.0
 10
89.1024729137
 20
98.9936106664
 30
0.0
 10
88.9895592919
 20
99.1680799075
 30
0.0
 10
88.920844999
 20
99.3191227163
 30
0.0
 10
88.8866897351
 20
99.4473284817
 30
0.0
 10
88.8805831938
 20
99.5253505987
 30
0.0
 10
88.8805831938
 20
99.5604152596
 30
0.0
  0
SPLINE
  5
43C
100
AcDbEntity
  8
KONSTRUKTIONSELEMENTE
100
AcDbSpline
 62
7
  6
CONTINUOUS
 70
0
 71
3
 72
9
 73
5
 74
0
 42
0.0000001
 43
0.0000001
 44
0.0000000001
 40
0.0
 40
0.0
 40
0.0
 40
0.0
 40
0.4924641795
 40
1.0
 40
1.0
 40
1.0
 40
1.0
 10
104.6129480523
 20
124.5446347038
 30
0.0
 10
103.105939524
 20
123.8669061584
 30
0.0
 10
99.9101077358
 20
122.7799957734
 30
0.0
 10
96.5802891477
 20
122.2479900066
 30
0.0
 10
94.8825773759
 20
122.1143953574
 30
0.0
  0
SPLINE
  5
43D
100
AcDbEntity
  8
KONSTRUKTIONSELEMENTE
100
AcDbSpline
 62
7
  6
CONTINUOUS
 70
0
 71
3
 72
9
 73
5
 74
0
 42
0.0000001
 43
0.0000001
 44
0.0000000001
 40
0.0
 40
0.0
 40
0.0
 40
0.0
 40
0.507540112
 40
1.0
 40
1.0
 40
1.0
 40
1.0
 10
89.8792625436
 20
122.1143350249
 30
0.0
 10
88.1812043594
 20
122.2479096744
 30
0.0
 10
84.8507335403
 20
122.7800198116
 30
0.0
 10
81.6543080148
 20
123.8672337274
 30
0.0
 10
80.1470552015
 20
124.5451631664
 30
0.0
  0
SPLINE
  5
43E
100
AcDbEntity
  8
KONSTRUKTIONSELEMENTE
100
AcDbSpline
 62
7
  6
CONTINUOUS
 70
0
 71
3
 72
12
 73
8
 74
0
 42
0.0000001
 43
0.0000001
 44
0.0000000001
 40
0.0
 40
0.0
 40
0.0
 40
0.0
 40
0.1151617485
 40
0.2325536787
 40
0.475452866
 40
0.7314334448
 40
1.0
 40
1.0
 40
1.0
 40
1.0
 10
69.9052983695
 20
144.6610336194
 30
0.0
 10
70.1654997961
 20
145.299308587
 30
0.0
 10
70.7845291945
 20
146.5520302303
 30
0.0
 10
72.3793990945
 20
148.9170471763
 30
0.0
 10
75.0113290887
 20
151.5556038851
 30
0.0
 10
78.9045547819
 20
154.0467976603
 30
0.0
 10
81.8385392827
 20
155.2191218828
 30
0.0
 10
83.3758938595
 20
155.6886105885
 30
0.0
  0
SPLINE
  5
43F
100
AcDbEntity
  8
KONSTRUKTIONSELEMENTE
100
AcDbSpline
 62
7
  6
CONTINUOUS
 70
0
 71
3
 72
12
 73
8
 74
0
 42
0.0000001
 43
0.0000001
 44
0.0000000001
 40
0.0
 40
0.0
 40
0.0
 40
0.0
 40
0.268569158
 40
0.5245489632
 40
0.7674463061
 40
0.8848379394
 40
1.0
 40
1.0
 40
1.0
 40
1.0
 10
101.3874685267
 20
155.6879331989
 30
0.0
 10
102.9247692364
 20
155.2183332524
 30
0.0
 10
105.8586085586
 20
154.0457905276
 30
0.0
 10
109.7515115131
 20
151.5542686655
 30
0.0
 10
112.3830806606
 20
148.9154845291
 30
0.0
 10
113.977623961
 20
146.5503337829
 30
0.0
 10
114.5964808601
 20
145.2975600475
 30
0.0
 10
114.8565961374
 20
144.6592639717
 30
0.0
  0
SPLINE
  5
440
100
AcDbEntity
  8
KONSTRUKTIONSELEMENTE
100
AcDbSpline
 62
7
  6
CONTINUOUS
 70
0
 71
3
 72
9
 73
5
 74
0
 42
0.0000001
 43
0.0000001
 44
0.0000000001
 40
0.0
 40
0.0
 40
0.0
 40
0.0
 40
0.240646954
 40
1.0
 40
1.0
 40
1.0
 40
1.0
 10
104.7009284661
 20
131.4090444706
 30
0.0
 10
104.4277951253
 20
131.2291990419
 30
0.0
 10
103.2707637451
 20
130.5155525892
 30
0.0
 10
102.0328987391
 20
129.9356906794
 30
0.0
 10
101.0691991524
 20
129.5667163034
 30
0.0
  0
SPLINE
  5
441
100
AcDbEntity
  8
KONSTRUKTIONSELEMENTE
100
AcDbSpline
 62
7
  6
CONTINUOUS
 70
0
 71
3
 72
9
 73
5
 74
0
 42
0.0000001
 43
0.0000001
 44
0.0000000001
 40
0.0
 40
0.0
 40
0.0
 40
0.0
 40
0.25923984
 40
1.0
 40
1.0
 40
1.0
 40
1.0
 10
83.6954312445
 20
129.5653894183
 30
0.0
 10
83.3661597264
 20
129.6914008239
 30
0.0
 10
82.1085314851
 20
130.2090516497
 30
0.0
 10
80.9020367624
 20
130.8548123
 30
0.0
 10
80.0606168738
 20
131.4087981388
 30
0.0
  0
SPLINE
  5
442
100
AcDbEntity
  8
0
100
AcDbSpline
 62
7
  6
CONTINUOUS
 70
0
 71
3
 72
12
 73
8
 74
0
 42
0.0000001
 43
0.0000001
 44
0.0000000001
 40
0.0
 40
0.0
 40
0.0
 40
0.0
 40
0.1089727213
 40
0.2201620805
 40
0.4554253
 40
0.7155329149
 40
1.0
 40
1.0
 40
1.0
 40
1.0
 10
104.0540754608
 20
40.5311411661
 30
0.0
 10
104.0540754608
 20
40.6461405726
 30
0.0
 10
104.0298928658
 20
40.8791709194
 30
0.0
 10
103.8845411041
 20
41.3402016001
 30
0.0
 10
103.5163828838
 20
41.8817157585
 30
0.0
 10
102.8577034168
 20
42.3915885153
 30
0.0
 10
102.3238014845
 20
42.6205896301
 30
0.0
 10
102.0369252503
 20
42.7090300522
 30
0.0
  0
SPLINE
  5
443
100
AcDbEntity
  8
0
100
AcDbSpline
 62
7
  6
CONTINUOUS
 70
0
 71
3
 72
19
 73
15
 74
0
 42
0.0000001
 43
0.0000001
 44
0.0000000001
 40
0.0
 40
0.0
 40
0.0
 40
0.0
 40
0.0517123707
 40
0.1053415175
 40
0.1622467977
 40
0.2232148443
 40
0.3564757697
 40
0.5
 40
0.6435242303
 40
0.7767851557
 40
0.8377532023
 40
0.8946584825
 40
0.9482876293
 40
1.0
 40
1.0
 40
1.0
 40
1.0
 10
93.5954100468
 20
39.9455636463
 30
0.0
 10
93.5954100468
 20
39.8754964036
 30
0.0
 10
93.6157975177
 20
39.7320482631
 30
0.0
 10
93.7047306616
 20
39.5284690815
 30
0.0
 10
93.8475655177
 20
39.3425802668
 30
0.0
 10
94.1084501771
 20
39.120929605
 30
0.0
 10
94.5339174871
 20
38.9287451499
 30
0.0
 10
95.105064191
 20
38.8518034721
 30
0.0
 10
95.6762108949
 20
38.9287451499
 30
0.0
 10
96.1016782049
 20
39.120929605
 30
0.0
 10
96.3625628643
 20
39.3425802668
 30
0.0
 10
96.5053977204
 20
39.5284690815
 30
0.0
 10
96.5943308643
 20
39.7320482631
 30
0.0
 10
96.6147183352
 20
39.8754964036
 30
0.0
 10
96.6147183352
 20
39.9455636463
 30
0.0
  0
SPLINE
  5
444
100
AcDbEntity
  8
0
100
AcDbSpline
 62
7
  6
CONTINUOUS
 70
0
 71
3
 72
13
 73
9
 74
0
 42
0.0000001
 43
0.0000001
 44
0.0000000001
 40
0.0
 40
0.0
 40
0.0
 40
0.0
 40
0.1034557072
 40
0.2106700021
 40
0.3244995741
 40
0.4464358475
 40
0.7129373538
 40
1.0
 40
1.0
 40
1.0
 40
1.0
 10
91.6699399947
 20
41.6100623067
 30
0.0
 10
91.6699288907
 20
41.6840827973
 30
0.0
 10
91.6483690205
 20
41.8355731757
 30
0.0
 10
91.5543248928
 20
42.0505186513
 30
0.0
 10
91.4035178673
 20
42.2468372138
 30
0.0
 10
91.1278974235
 20
42.4808519381
 30
0.0
 10
90.6788819105
 20
42.6838392736
 30
0.0
 10
90.2807976345
 20
42.7373143234
 30
0.0
 10
90.0754100468
 20
42.7373143234
 30
0.0
  0
SPLINE
  5
445
100
AcDbEntity
  8
0
100
AcDbSpline
 62
7
  6
CONTINUOUS
 70
0
 71
3
 72
11
 73
7
 74
0
 42
0.0000001
 43
0.0000001
 44
0.0000000001
 40
0.0
 40
0.0
 40
0.0
 40
0.0
 40
0.2092798753
 40
0.444592951
 40
0.7123432609
 40
1.0
 40
1.0
 40
1.0
 40
1.0
 10
82.9307690056
 20
40.0050537209
 30
0.0
 10
82.9307690056
 20
39.9960678282
 30
0.0
 10
82.9366603619
 20
39.9767773413
 30
0.0
 10
82.9589560218
 20
39.954569868
 30
0.0
 10
82.9904379219
 20
39.9404536235
 30
0.0
 10
83.0144178295
 20
39.9371714699
 30
0.0
 10
83.0267690056
 20
39.9371714699
 30
0.0
  0
SPLINE
  5
446
100
AcDbEntity
  8
0
100
AcDbSpline
 62
7
  6
CONTINUOUS
 70
0
 71
3
 72
11
 73
7
 74
0
 42
0.0000001
 43
0.0000001
 44
0.0000000001
 40
0.0
 40
0.0
 40
0.0
 40
0.0
 40
0.2092798753
 40
0.444592951
 40
0.7123432609
 40
1.0
 40
1.0
 40
1.0
 40
1.0
 10
83.5907690056
 20
40.0389948464
 30
0.0
 10
83.5907690056
 20
40.0479807391
 30
0.0
 10
83.5848776493
 20
40.0672712261
 30
0.0
 10
83.5625819894
 20
40.0894786993
 30
0.0
 10
83.5311000892
 20
40.1035949438
 30
0.0
 10
83.5071201816
 20
40.1068770974
 30
0.0
 10
83.4947690056
 20
40.1068770974
 30
0.0
  0
SPLINE
  5
447
100
AcDbEntity
  8
RUNDUNGEN
100
AcDbSpline
 62
7
  6
CONTINUOUS
 70
0
 71
3
 72
10
 73
6
 74
0
 42
0.0000001
 43
0.0000001
 44
0.0000000001
 40
0.0
 40
0.0
 40
0.0
 40
0.0
 40
0.5180750537
 40
0.7617172794
 40
1.0
 40
1.0
 40
1.0
 40
1.0
 10
119.157191371
 20
11.1954803339
 30
0.0
 10
119.3778858982
 20
10.9726112726
 30
0.0
 10
119.656145382
 20
10.5878730274
 30
0.0
 10
119.8484869448
 20
10.0102039699
 30
0.0
 10
119.8805831938
 20
9.7174212
 30
0.0
 10
119.8805831938
 20
9.5731611832
 30
0.0
  0
SPLINE
  5
448
100
AcDbEntity
  8
0
100
AcDbSpline
 62
7
  6
CONTINUOUS
 70
0
 71
3
 72
11
 73
7
 74
0
 42
0.0000001
 43
0.0000001
 44
0.0000000001
 40
0.0
 40
0.0
 40
0.0
 40
0.0
 40
0.2092798753
 40
0.444592951
 40
0.7123432609
 40
1.0
 40
1.0
 40
1.0
 40
1.0
 10
83.5907690056
 20
41.7360511213
 30
0.0
 10
83.5907690056
 20
41.7450370139
 30
0.0
 10
83.5848776493
 20
41.7643275009
 30
0.0
 10
83.5625819894
 20
41.7865349742
 30
0.0
 10
83.5311000892
 20
41.8006512186
 30
0.0
 10
83.5071201816
 20
41.8039333723
 30
0.0
 10
83.4947690056
 20
41.8039333723
 30
0.0
  0
SPLINE
  5
449
100
AcDbEntity
  8
RUNDUNGEN
100
AcDbSpline
 62
7
  6
CONTINUOUS
 70
0
 71
3
 72
11
 73
7
 74
0
 42
0.0000001
 43
0.0000001
 44
0.0000000001
 40
0.0
 40
0.0
 40
0.0
 40
0.0
 40
0.2793755914
 40
0.5367190118
 40
0.774320888
 40
1.0
 40
1.0
 40
1.0
 40
1.0
 10
128.0040334493
 20
55.9648901179
 30
0.0
 10
128.0796510757
 20
55.9274502054
 30
0.0
 10
128.2185597016
 20
55.8410825361
 30
0.0
 10
128.3847821774
 20
55.6730349228
 30
0.0
 10
128.4909096962
 20
55.479339427
 30
0.0
 10
128.5156924547
 20
55.3384347462
 30
0.0
 10
128.5157330379
 20
55.2702737569
 30
0.0
  0
SPLINE
  5
44A
100
AcDbEntity
  8
RUNDUNGEN
100
AcDbSpline
 62
7
  6
CONTINUOUS
 70
0
 71
3
 72
11
 73
7
 74
0
 42
0.0000001
 43
0.0000001
 44
0.0000000001
 40
0.0
 40
0.0
 40
0.0
 40
0.0
 40
0.2297148774
 40
0.4842569964
 40
0.7475608951
 40
1.0
 40
1.0
 40
1.0
 40
1.0
 10
120.4348645536
 20
58.6766867759
 30
0.0
 10
120.5306596621
 20
58.773425767
 30
0.0
 10
120.7782468544
 20
58.933165653
 30
0.0
 10
121.2121822163
 20
59.0470760258
 30
0.0
 10
121.673930825
 20
59.040607744
 30
0.0
 10
121.9720613948
 20
58.9514491605
 30
0.0
 10
122.1061387304
 20
58.8850645891
 30
0.0
  0
SPLINE
  5
44B
100
AcDbEntity
  8
0
100
AcDbSpline
 62
7
  6
CONTINUOUS
 70
0
 71
3
 72
9
 73
5
 74
0
 42
0.0000001
 43
0.0000001
 44
0.0000000001
 40
0.0
 40
0.0
 40
0.0
 40
0.0
 40
0.2423574743
 40
1.0
 40
1.0
 40
1.0
 40
1.0
 10
99.26350043
 20
55.0490821816
 30
0.0
 10
98.9309232291
 20
55.2137483037
 30
0.0
 10
97.5297613246
 20
55.8340625109
 30
0.0
 10
96.030089021
 20
56.2241534646
 30
0.0
 10
94.8829075609
 20
56.3970684952
 30
0.0
  0
SPLINE
  5
44C
100
AcDbEntity
  8
0
100
AcDbSpline
 62
7
  6
CONTINUOUS
 70
0
 71
3
 72
9
 73
5
 74
0
 42
0.0000001
 43
0.0000001
 44
0.0000000001
 40
0.0
 40
0.0
 40
0.0
 40
0.0
 40
0.2572745118
 40
1.0
 40
1.0
 40
1.0
 40
1.0
 10
89.8782588267
 20
56.3970684952
 30
0.0
 10
89.4887414034
 20
56.3383564087
 30
0.0
 10
87.9838283635
 20
56.0559472843
 30
0.0
 10
86.516789263
 20
55.5536720397
 30
0.0
 10
85.4976659576
 20
55.0490821816
 30
0.0
  0
SPLINE
  5
44D
100
AcDbEntity
  8
RUNDUNGEN
100
AcDbSpline
 62
7
  6
CONTINUOUS
 70
0
 71
3
 72
13
 73
9
 74
0
 42
0.0000001
 43
0.0000001
 44
0.0000000001
 40
0.0
 40
0.0
 40
0.0
 40
0.0
 40
0.2520973212
 40
0.3837531223
 40
0.515691444
 40
0.6454036133
 40
0.770600228
 40
1.0
 40
1.0
 40
1.0
 40
1.0
 10
60.6890627509
 20
57.9116730987
 30
0.0
 10
61.8063611905
 20
58.4648715764
 30
0.0
 10
63.6613052512
 20
59.0192346828
 30
0.0
 10
66.2068224278
 20
59.2336208256
 30
0.0
 10
68.1558385727
 20
59.1295932703
 30
0.0
 10
70.0407369885
 20
58.7599570206
 30
0.0
 10
72.3016153284
 20
57.9598375726
 30
0.0
 10
73.8180782818
 20
56.9813260566
 30
0.0
 10
74.6163475573
 20
56.175191322
 30
0.0
  0
SPLINE
  5
44E
100
AcDbEntity
  8
0
100
AcDbSpline
 62
7
  6
CONTINUOUS
 70
0
 71
3
 72
11
 73
7
 74
0
 42
0.0000001
 43
0.0000001
 44
0.0000000001
 40
0.0
 40
0.0
 40
0.0
 40
0.0
 40
0.2094668498
 40
0.4446559298
 40
0.7120302568
 40
1.0
 40
1.0
 40
1.0
 40
1.0
 10
82.2707690056
 20
40.8705524211
 30
0.0
 10
82.2707690056
 20
40.8480643613
 30
0.0
 10
82.285373376
 20
40.7997612038
 30
0.0
 10
82.3412986991
 20
40.7444466601
 30
0.0
 10
82.4198566913
 20
40.7089296184
 30
0.0
 10
82.479852988
 20
40.7008467936
 30
0.0
 10
82.5107690056
 20
40.7008467936
 30
0.0
  0
SPLINE
  5
44F
100
AcDbEntity
  8
0
100
AcDbSpline
 62
7
  6
CONTINUOUS
 70
0
 71
3
 72
11
 73
7
 74
0
 42
0.0000001
 43
0.0000001
 44
0.0000000001
 40
0.0
 40
0.0
 40
0.0
 40
0.0
 40
0.2094668498
 40
0.4446559298
 40
0.7120302568
 40
1.0
 40
1.0
 40
1.0
 40
1.0
 10
82.2707690056
 20
39.1734961462
 30
0.0
 10
82.2707690056
 20
39.1510080864
 30
0.0
 10
82.285373376
 20
39.102704929
 30
0.0
 10
82.3412986991
 20
39.0473903853
 30
0.0
 10
82.4198566913
 20
39.0118733435
 30
0.0
 10
82.479852988
 20
39.0037905188
 30
0.0
 10
82.5107690056
 20
39.0037905188
 30
0.0
  0
SPLINE
  5
450
100
AcDbEntity
  8
0
100
AcDbSpline
 62
7
  6
CONTINUOUS
 70
0
 71
3
 72
9
 73
5
 74
0
 42
0.0000001
 43
0.0000001
 44
0.0000000001
 40
0.0
 40
0.0
 40
0.0
 40
0.0
 40
0.4873302954
 40
1.0
 40
1.0
 40
1.0
 40
1.0
 10
85.5107690056
 20
42.3979030684
 30
0.0
 10
85.5107690056
 20
42.4246674538
 30
0.0
 10
85.5012585888
 20
42.4799257091
 30
0.0
 10
85.4749141905
 20
42.5291501216
 30
0.0
 10
85.4584529656
 20
42.5519928549
 30
0.0
  0
SPLINE
  5
451
100
AcDbEntity
  8
0
100
AcDbSpline
 62
7
  6
CONTINUOUS
 70
0
 71
3
 72
9
 73
5
 74
0
 42
0.0000001
 43
0.0000001
 44
0.0000000001
 40
0.0
 40
0.0
 40
0.0
 40
0.0
 40
0.4654299385
 40
1.0
 40
1.0
 40
1.0
 40
1.0
 10
85.4584529656
 20
42.5519928549
 30
0.0
 10
85.4150568275
 20
42.6122123354
 30
0.0
 10
85.2770181218
 20
42.7086305534
 30
0.0
 10
85.1160222216
 20
42.7373143234
 30
0.0
 10
85.0307690056
 20
42.7373143234
 30
0.0
  0
SPLINE
  5
452
100
AcDbEntity
  8
RUNDUNGEN
100
AcDbSpline
 62
7
  6
CONTINUOUS
 70
0
 71
3
 72
11
 73
7
 74
0
 42
0.0000001
 43
0.0000001
 44
0.0000000001
 40
0.0
 40
0.0
 40
0.0
 40
0.0
 40
0.2256934588
 40
0.4632957354
 40
0.7206235605
 40
1.0
 40
1.0
 40
1.0
 40
1.0
 10
65.5373725275
 20
45.8867962822
 30
0.0
 10
65.5374154843
 20
45.9549603983
 30
0.0
 10
65.562202462
 20
46.0958665515
 30
0.0
 10
65.6683349168
 20
46.2895543237
 30
0.0
 10
65.8345517574
 20
46.4575946239
 30
0.0
 10
65.9734546878
 20
46.543957715
 30
0.0
 10
66.0490712072
 20
46.5813970794
 30
0.0
  0
SPLINE
  5
453
100
AcDbEntity
  8
RUNDUNGEN
100
AcDbSpline
 62
7
  6
CONTINUOUS
 70
0
 71
3
 72
9
 73
5
 74
0
 42
0.0000001
 43
0.0000001
 44
0.0000000001
 40
0.0
 40
0.0
 40
0.0
 40
0.0
 40
0.4805181646
 40
1.0
 40
1.0
 40
1.0
 40
1.0
 10
65.5373714935
 20
42.3512286262
 30
0.0
 10
65.5373222805
 20
42.2641194384
 30
0.0
 10
65.5787167682
 20
42.0811280333
 30
0.0
 10
65.6881176378
 20
41.9310096067
 30
0.0
 10
65.7543804777
 20
41.8640938698
 30
0.0
  0
SPLINE
  5
454
100
AcDbEntity
  8
RUNDUNGEN
100
AcDbSpline
 62
7
  6
CONTINUOUS
 70
0
 71
3
 72
11
 73
7
 74
0
 42
0.0000001
 43
0.0000001
 44
0.0000000001
 40
0.0
 40
0.0
 40
0.0
 40
0.0
 40
0.2256919297
 40
0.4632773963
 40
0.7205986282
 40
1.0
 40
1.0
 40
1.0
 40
1.0
 10
57.3450663486
 20
54.7830905262
 30
0.0
 10
57.345022483
 20
55.0104580068
 30
0.0
 10
57.4272458387
 20
55.4805335286
 30
0.0
 10
57.7808982865
 20
56.1268072804
 30
0.0
 10
58.3351815573
 20
56.6874946032
 30
0.0
 10
58.7985088537
 20
56.9756192201
 30
0.0
 10
59.0507586623
 20
57.1005135234
 30
0.0
  0
SPLINE
  5
455
100
AcDbEntity
  8
RUNDUNGEN
100
AcDbSpline
 62
7
  6
CONTINUOUS
 70
0
 71
3
 72
10
 73
6
 74
0
 42
0.0000001
 43
0.0000001
 44
0.0000000001
 40
0.0
 40
0.0
 40
0.0
 40
0.0
 40
0.2382860828
 40
0.4819052527
 40
1.0
 40
1.0
 40
1.0
 40
1.0
 10
57.3450663486
 20
51.2475566203
 30
0.0
 10
57.3450941729
 20
51.1033350581
 30
0.0
 10
57.3772865603
 20
50.8106592704
 30
0.0
 10
57.569607157
 20
50.2331722509
 30
0.0
 10
57.8478152551
 20
49.8485635873
 30
0.0
 10
58.0684562306
 20
49.6257486054
 30
0.0
  0
SPLINE
  5
456
100
AcDbEntity
  8
RUNDUNGEN
100
AcDbSpline
 62
7
  6
CONTINUOUS
 70
0
 71
3
 72
11
 73
7
 74
0
 42
0.0000001
 43
0.0000001
 44
0.0000000001
 40
0.0
 40
0.0
 40
0.0
 40
0.0
 40
0.237780559
 40
0.4809056754
 40
0.7339193747
 40
1.0
 40
1.0
 40
1.0
 40
1.0
 10
104.796074969
 20
24.8379642233
 30
0.0
 10
104.7960749844
 20
25.270747047
 30
0.0
 10
104.8920827968
 20
26.1488354073
 30
0.0
 10
105.317778588
 20
27.4246201111
 30
0.0
 10
106.0121355631
 20
28.6351089953
 30
0.0
 10
106.6254874797
 20
29.3608007715
 30
0.0
 10
106.9662504376
 20
29.7049213145
 30
0.0
  0
SPLINE
  5
457
100
AcDbEntity
  8
RUNDUNGEN
100
AcDbSpline
 62
7
  6
CONTINUOUS
 70
0
 71
3
 72
9
 73
5
 74
0
 42
0.0000001
 43
0.0000001
 44
0.0000000001
 40
0.0
 40
0.0
 40
0.0
 40
0.0
 40
0.4843491198
 40
1.0
 40
1.0
 40
1.0
 40
1.0
 10
105.0596894876
 20
26.6047728891
 30
0.0
 10
105.2304749616
 20
26.0382151336
 30
0.0
 10
105.7488636967
 20
24.9143357937
 30
0.0
 10
106.5229755815
 20
23.9541828216
 30
0.0
 10
106.9662504376
 20
23.5065403163
 30
0.0
  0
SPLINE
  5
458
100
AcDbEntity
  8
RUNDUNGEN
100
AcDbSpline
 62
7
  6
CONTINUOUS
 70
0
 71
3
 72
10
 73
6
 74
0
 42
0.0000001
 43
0.0000001
 44
0.0000000001
 40
0.0
 40
0.0
 40
0.0
 40
0.0
 40
0.2382826319
 40
0.4819247904
 40
1.0
 40
1.0
 40
1.0
 40
1.0
 10
64.8805831938
 20
9.5731611832
 30
0.0
 10
64.8805831938
 20
9.7174211462
 30
0.0
 10
64.9126794128
 20
10.0102038212
 30
0.0
 10
65.1050209245
 20
10.5878728934
 30
0.0
 10
65.3832804234
 20
10.9726112059
 30
0.0
 10
65.6039750166
 20
11.1954803339
 30
0.0
  0
SPLINE
  5
459
100
AcDbEntity
  8
BEZUGSACHSEN
100
AcDbSpline
 62
7
  6
CONTINUOUS
 70
0
 71
3
 72
9
 73
5
 74
0
 42
0.0000001
 43
0.0000001
 44
0.0000000001
 40
0.0
 40
0.0
 40
0.0
 40
0.0
 40
0.4784360623
 40
1.0
 40
1.0
 40
1.0
 40
1.0
 10
88.0518339231
 20
48.8037770678
 30
0.0
 10
88.2793260452
 20
48.5254671827
 30
0.0
 10
88.845910033
 20
48.0159745421
 30
0.0
 10
89.5154709884
 20
47.6606275944
 30
0.0
 10
89.8781912558
 20
47.5123451034
 30
0.0
  0
SPLINE
  5
45A
100
AcDbEntity
  8
BEZUGSACHSEN
100
AcDbSpline
 62
7
  6
CONTINUOUS
 70
0
 71
3
 72
9
 73
5
 74
0
 42
0.0000001
 43
0.0000001
 44
0.0000000001
 40
0.0
 40
0.0
 40
0.0
 40
0.0
 40
0.5215639377
 40
1.0
 40
1.0
 40
1.0
 40
1.0
 10
94.8829751318
 20
47.5123451034
 30
0.0
 10
95.2456953992
 20
47.6606275944
 30
0.0
 10
95.9152563546
 20
48.0159745421
 30
0.0
 10
96.4818403424
 20
48.5254671827
 30
0.0
 10
96.7093324645
 20
48.8037770678
 30
0.0
  0
SPLINE
  5
45B
100
AcDbEntity
  8
BEZUGSACHSEN
100
AcDbSpline
 62
7
  6
CONTINUOUS
 70
0
 71
3
 72
12
 73
8
 74
0
 42
0.0000001
 43
0.0000001
 44
0.0000000001
 40
0.0
 40
0.0
 40
0.0
 40
0.0
 40
0.1108217967
 40
0.2235429053
 40
0.4598709646
 40
0.718266993
 40
1.0
 40
1.0
 40
1.0
 40
1.0
 10
97.3805831938
 20
47.0376864258
 30
0.0
 10
97.3805831938
 20
47.1920600869
 30
0.0
 10
97.3513469322
 20
47.5042163544
 30
0.0
 10
97.1760829405
 20
48.1235039852
 30
0.0
 10
96.7307496237
 20
48.8625562798
 30
0.0
 10
95.9171399345
 20
49.5932910567
 30
0.0
 10
95.2462433827
 20
49.9500551437
 30
0.0
 10
94.8829751318
 20
50.098561654
 30
0.0
  0
SPLINE
  5
45C
100
AcDbEntity
  8
BEZUGSACHSEN
100
AcDbSpline
 62
7
  6
CONTINUOUS
 70
0
 71
3
 72
12
 73
8
 74
0
 42
0.0000001
 43
0.0000001
 44
0.0000000001
 40
0.0
 40
0.0
 40
0.0
 40
0.0
 40
0.281733007
 40
0.5401290354
 40
0.7764570947
 40
0.8891782033
 40
1.0
 40
1.0
 40
1.0
 40
1.0
 10
89.8781912558
 20
50.098561654
 30
0.0
 10
89.5149230049
 20
49.9500551437
 30
0.0
 10
88.8440264531
 20
49.5932910567
 30
0.0
 10
88.0304167639
 20
48.8625562798
 30
0.0
 10
87.5850834471
 20
48.1235039852
 30
0.0
 10
87.4098194554
 20
47.5042163544
 30
0.0
 10
87.3805831938
 20
47.1920600869
 30
0.0
 10
87.3805831938
 20
47.0376864258
 30
0.0
  0
SPLINE
  5
45D
100
AcDbEntity
  8
RUNDUNGEN
100
AcDbSpline
 62
7
  6
CONTINUOUS
 70
0
 71
3
 72
13
 73
9
 74
0
 42
0.0000001
 43
0.0000001
 44
0.0000000001
 40
0.0
 40
0.0
 40
0.0
 40
0.0
 40
0.1034546555
 40
0.2106690395
 40
0.3244963599
 40
0.4464318111
 40
0.7129511617
 40
1.0
 40
1.0
 40
1.0
 40
1.0
 10
64.8805831938
 20
1.2725726746
 30
0.0
 10
64.8805831938
 20
1.0868664695
 30
0.0
 10
64.9344757648
 20
0.7067763329
 30
0.0
 10
65.170306573
 20
0.1674416546
 30
0.0
 10
65.5486038447
 20
-0.3251335677
 30
0.0
 10
66.2400528318
 20
-0.9123462619
 30
0.0
 10
67.3665652778
 20
-1.4216858873
 30
0.0
 10
68.3653163824
 20
-1.5558544501
 30
0.0
 10
68.8805831938
 20
-1.5558544501
 30
0.0
  0
SPLINE
  5
45E
100
AcDbEntity
  8
RUNDUNGEN
100
AcDbSpline
 62
7
  6
CONTINUOUS
 70
0
 71
3
 72
11
 73
7
 74
0
 42
0.0000001
 43
0.0000001
 44
0.0000000001
 40
0.0
 40
0.0
 40
0.0
 40
0.0
 40
0.2297023479
 40
0.4842340123
 40
0.7475494683
 40
1.0
 40
1.0
 40
1.0
 40
1.0
 10
59.9612584705
 20
47.7142963198
 30
0.0
 10
60.0570483583
 20
47.6175626008
 30
0.0
 10
60.3046209374
 20
47.4578269853
 30
0.0
 10
60.7385475961
 20
47.3439109875
 30
0.0
 10
61.2003041905
 20
47.350370535
 30
0.0
 10
61.4984492365
 20
47.4395309273
 30
0.0
 10
61.6325326473
 20
47.5059185066
 30
0.0
  0
SPLINE
  5
45F
100
AcDbEntity
  8
RUNDUNGEN
100
AcDbSpline
 62
7
  6
CONTINUOUS
 70
0
 71
3
 72
9
 73
5
 74
0
 42
0.0000001
 43
0.0000001
 44
0.0000000001
 40
0.0
 40
0.0
 40
0.0
 40
0.0
 40
0.5194816775
 40
1.0
 40
1.0
 40
1.0
 40
1.0
 10
128.2987241788
 20
51.2475869083
 30
0.0
 10
128.3649926229
 20
51.3145083047
 30
0.0
 10
128.4744016299
 20
51.4646414609
 30
0.0
 10
128.5157889482
 20
51.6476524594
 30
0.0
 10
128.5157320478
 20
51.7347690649
 30
0.0
  0
SPLINE
  5
460
100
AcDbEntity
  8
RUNDUNGEN
100
AcDbSpline
 62
7
  6
CONTINUOUS
 70
0
 71
3
 72
13
 73
9
 74
0
 42
0.0000001
 43
0.0000001
 44
0.0000000001
 40
0.0
 40
0.0
 40
0.0
 40
0.0
 40
0.2870490624
 40
0.5535683755
 40
0.6755038246
 40
0.7893311355
 40
0.8965454157
 40
1.0
 40
1.0
 40
1.0
 40
1.0
 10
115.8805831938
 20
-1.5558544501
 30
0.0
 10
116.3958504073
 20
-1.5558544501
 30
0.0
 10
117.3946018704
 20
-1.4216857595
 30
0.0
 10
118.5211144816
 20
-0.91234569
 30
0.0
 10
119.2125632452
 20
-0.3251328583
 30
0.0
 10
119.590860177
 20
0.1674423606
 30
0.0
 10
119.8266907368
 20
0.706776771
 30
0.0
 10
119.8805831938
 20
1.0868665973
 30
0.0
 10
119.8805831938
 20
1.2725726746
 30
0.0
  0
SPLINE
  5
461
100
AcDbEntity
  8
RUNDUNGEN
100
AcDbSpline
 62
7
  6
CONTINUOUS
 70
0
 71
3
 72
10
 73
6
 74
0
 42
0.0000001
 43
0.0000001
 44
0.0000000001
 40
0.0
 40
0.0
 40
0.0
 40
0.0
 40
0.47201694
 40
0.7322443513
 40
1.0
 40
1.0
 40
1.0
 40
1.0
 10
100.5542648751
 20
6.7213213358
 30
0.0
 10
100.9488101126
 20
6.3228885888
 30
0.0
 10
101.7327940824
 20
5.8689211778
 30
0.0
 10
102.8834549424
 20
5.5683801512
 30
0.0
 10
103.5127959489
 20
5.5152133618
 30
0.0
 10
103.8308730522
 20
5.5152133618
 30
0.0
  0
SPLINE
  5
462
100
AcDbEntity
  8
RUNDUNGEN
100
AcDbSpline
 62
7
  6
CONTINUOUS
 70
0
 71
3
 72
10
 73
6
 74
0
 42
0.0000001
 43
0.0000001
 44
0.0000000001
 40
0.0
 40
0.0
 40
0.0
 40
0.0
 40
0.2677558652
 40
0.5279833681
 40
1.0
 40
1.0
 40
1.0
 40
1.0
 10
80.9302933354
 20
5.5152133618
 30
0.0
 10
81.2483706975
 20
5.5152133618
 30
0.0
 10
81.8777120776
 20
5.5683802176
 30
0.0
 10
83.0283728968
 20
5.8689214669
 30
0.0
 10
83.8123565305
 20
6.3228888468
 30
0.0
 10
84.2069015125
 20
6.7213213358
 30
0.0
  0
SPLINE
  5
463
100
AcDbEntity
  8
0
100
AcDbSpline
 62
7
  6
CONTINUOUS
 70
0
 71
3
 72
11
 73
7
 74
0
 42
0.0000001
 43
0.0000001
 44
0.0000000001
 40
0.0
 40
0.0
 40
0.0
 40
0.0
 40
0.2880052506
 40
0.5553344723
 40
0.7905070702
 40
1.0
 40
1.0
 40
1.0
 40
1.0
 10
81.1907690056
 20
42.7373143234
 30
0.0
 10
81.1289297796
 20
42.7373143234
 30
0.0
 10
81.0089330443
 20
42.7211610038
 30
0.0
 10
80.8518505303
 20
42.6500849794
 30
0.0
 10
80.7399711859
 20
42.5395000637
 30
0.0
 10
80.7107690056
 20
42.4428844728
 30
0.0
 10
80.7107690056
 20
42.3979030684
 30
0.0
  0
SPLINE
  5
464
100
AcDbEntity
  8
0
100
AcDbSpline
 62
7
  6
CONTINUOUS
 70
0
 71
3
 72
11
 73
7
 74
0
 42
0.0000001
 43
0.0000001
 44
0.0000000001
 40
0.0
 40
0.0
 40
0.0
 40
0.0
 40
0.2879697432
 40
0.5553440702
 40
0.7905331502
 40
1.0
 40
1.0
 40
1.0
 40
1.0
 10
83.7107690056
 20
40.7008467936
 30
0.0
 10
83.7416850232
 20
40.7008467936
 30
0.0
 10
83.8016813199
 20
40.7089296184
 30
0.0
 10
83.8802393121
 20
40.7444466601
 30
0.0
 10
83.9361646352
 20
40.7997612038
 30
0.0
 10
83.9507690056
 20
40.8480643613
 30
0.0
 10
83.9507690056
 20
40.8705524211
 30
0.0
  0
SPLINE
  5
465
100
AcDbEntity
  8
0
100
AcDbSpline
 62
7
  6
CONTINUOUS
 70
0
 71
3
 72
11
 73
7
 74
0
 42
0.0000001
 43
0.0000001
 44
0.0000000001
 40
0.0
 40
0.0
 40
0.0
 40
0.0
 40
0.2879697432
 40
0.5553440702
 40
0.7905331502
 40
1.0
 40
1.0
 40
1.0
 40
1.0
 10
83.7107690056
 20
39.0037905188
 30
0.0
 10
83.7416850232
 20
39.0037905188
 30
0.0
 10
83.8016813199
 20
39.0118733435
 30
0.0
 10
83.8802393121
 20
39.0473903853
 30
0.0
 10
83.9361646352
 20
39.102704929
 30
0.0
 10
83.9507690056
 20
39.1510080864
 30
0.0
 10
83.9507690056
 20
39.1734961462
 30
0.0
  0
SPLINE
  5
466
100
AcDbEntity
  8
0
100
AcDbSpline
 62
7
  6
CONTINUOUS
 70
0
 71
3
 72
11
 73
7
 74
0
 42
0.0000001
 43
0.0000001
 44
0.0000000001
 40
0.0
 40
0.0
 40
0.0
 40
0.0
 40
0.2876567391
 40
0.555407049
 40
0.7907201247
 40
1.0
 40
1.0
 40
1.0
 40
1.0
 10
82.7267690056
 20
41.8039333723
 30
0.0
 10
82.7144178295
 20
41.8039333723
 30
0.0
 10
82.6904379219
 20
41.8006512186
 30
0.0
 10
82.6589560218
 20
41.7865349742
 30
0.0
 10
82.6366603619
 20
41.7643275009
 30
0.0
 10
82.6307690056
 20
41.7450370139
 30
0.0
 10
82.6307690056
 20
41.7360511213
 30
0.0
  0
SPLINE
  5
467
100
AcDbEntity
  8
0
100
AcDbSpline
 62
7
  6
CONTINUOUS
 70
0
 71
3
 72
11
 73
7
 74
0
 42
0.0000001
 43
0.0000001
 44
0.0000000001
 40
0.0
 40
0.0
 40
0.0
 40
0.0
 40
0.2876567391
 40
0.555407049
 40
0.7907201247
 40
1.0
 40
1.0
 40
1.0
 40
1.0
 10
82.7267690056
 20
40.1068770974
 30
0.0
 10
82.7144178295
 20
40.1068770974
 30
0.0
 10
82.6904379219
 20
40.1035949438
 30
0.0
 10
82.6589560218
 20
40.0894786993
 30
0.0
 10
82.6366603619
 20
40.0672712261
 30
0.0
 10
82.6307690056
 20
40.0479807391
 30
0.0
 10
82.6307690056
 20
40.0389948464
 30
0.0
  0
SPLINE
  5
468
100
AcDbEntity
  8
0
100
AcDbSpline
 62
7
  6
CONTINUOUS
 70
0
 71
3
 72
11
 73
7
 74
0
 42
0.0000001
 43
0.0000001
 44
0.0000000001
 40
0.0
 40
0.0
 40
0.0
 40
0.0
 40
0.2876567391
 40
0.555407049
 40
0.7907201247
 40
1.0
 40
1.0
 40
1.0
 40
1.0
 10
83.1947690056
 20
39.9371714699
 30
0.0
 10
83.2071201816
 20
39.9371714699
 30
0.0
 10
83.2311000892
 20
39.9404536235
 30
0.0
 10
83.2625819894
 20
39.954569868
 30
0.0
 10
83.2848776493
 20
39.9767773413
 30
0.0
 10
83.2907690056
 20
39.9960678282
 30
0.0
 10
83.2907690056
 20
40.0050537209
 30
0.0
  0
SPLINE
  5
469
100
AcDbEntity
  8
0
100
AcDbSpline
 62
7
  6
CONTINUOUS
 70
0
 71
3
 72
12
 73
8
 74
0
 42
0.0000001
 43
0.0000001
 44
0.0000000001
 40
0.0
 40
0.0
 40
0.0
 40
0.0
 40
0.2874600855
 40
0.5543011876
 40
0.7890519721
 40
0.8964084757
 40
1.0
 40
1.0
 40
1.0
 40
1.0
 10
90.0754100468
 20
40.9970773492
 30
0.0
 10
90.1870449624
 20
40.9970773492
 30
0.0
 10
90.4036571623
 20
41.0264336031
 30
0.0
 10
90.6873154435
 20
41.153976998
 30
0.0
 10
90.8602416164
 20
41.3269764545
 30
0.0
 10
90.9302555425
 20
41.4872378885
 30
0.0
 10
90.9419284542
 20
41.5695792747
 30
0.0
 10
90.9419284542
 20
41.609808968
 30
0.0
  0
SPLINE
  5
46A
100
AcDbEntity
  8
0
100
AcDbSpline
 62
7
  6
CONTINUOUS
 70
0
 71
3
 72
9
 73
5
 74
0
 42
0.0000001
 43
0.0000001
 44
0.0000000001
 40
0.0
 40
0.0
 40
0.0
 40
0.0
 40
0.2457811574
 40
1.0
 40
1.0
 40
1.0
 40
1.0
 10
102.0369252503
 20
42.7090300522
 30
0.0
 10
102.0217121572
 20
42.713720062
 30
0.0
 10
101.9590728438
 20
42.7303328333
 30
0.0
 10
101.8939439016
 20
42.7373143234
 30
0.0
 10
101.8450919893
 20
42.7373143234
 30
0.0
  0
SPLINE
  5
46B
100
AcDbEntity
  8
0
100
AcDbSpline
 62
7
  6
CONTINUOUS
 70
0
 71
3
 72
11
 73
7
 74
0
 42
0.0000001
 43
0.0000001
 44
0.0000000001
 40
0.0
 40
0.0
 40
0.0
 40
0.0
 40
0.2779817175
 40
0.5346952233
 40
0.772857858
 40
1.0
 40
1.0
 40
1.0
 40
1.0
 10
102.0078404293
 20
38.9256230782
 30
0.0
 10
102.1760843623
 20
39.0167272853
 30
0.0
 10
102.4843347105
 20
39.2235700305
 30
0.0
 10
102.8506423936
 20
39.6167261863
 30
0.0
 10
103.0829982929
 20
40.0637354277
 30
0.0
 10
103.1367949448
 20
40.3861193749
 30
0.0
 10
103.1367949448
 20
40.5424548746
 30
0.0
  0
SPLINE
  5
46C
100
AcDbEntity
  8
0
100
AcDbSpline
 62
7
  6
CONTINUOUS
 70
0
 71
3
 72
9
 73
5
 74
0
 42
0.0000001
 43
0.0000001
 44
0.0000000001
 40
0.0
 40
0.0
 40
0.0
 40
0.0
 40
0.2591205677
 40
1.0
 40
1.0
 40
1.0
 40
1.0
 10
101.8619211717
 20
38.8906534338
 30
0.0
 10
101.8749529683
 20
38.8906534338
 30
0.0
 10
101.9251558385
 20
38.8935296496
 30
0.0
 10
101.9750751982
 20
38.9078806827
 30
0.0
 10
102.0078404293
 20
38.9256230782
 30
0.0
  0
SPLINE
  5
46D
100
AcDbEntity
  8
RUNDUNGEN
100
AcDbSpline
 62
7
  6
CONTINUOUS
 70
0
 71
3
 72
13
 73
9
 74
0
 42
0.0000001
 43
0.0000001
 44
0.0000000001
 40
0.0
 40
0.0
 40
0.0
 40
0.0
 40
0.1034546555
 40
0.2106690395
 40
0.3244963599
 40
0.4464318111
 40
0.7129511617
 40
1.0
 40
1.0
 40
1.0
 40
1.0
 10
71.4805831938
 20
2.686786237
 30
0.0
 10
71.4805831938
 20
2.8724924421
 30
0.0
 10
71.5344757648
 20
3.2525825788
 30
0.0
 10
71.770306573
 20
3.7919172571
 30
0.0
 10
72.1486038447
 20
4.2844924793
 30
0.0
 10
72.8400528318
 20
4.8717051736
 30
0.0
 10
73.9665652778
 20
5.381044799
 30
0.0
 10
74.9653163824
 20
5.5152133618
 30
0.0
 10
75.4805831938
 20
5.5152133618
 30
0.0
  0
SPLINE
  5
46E
100
AcDbEntity
  8
RUNDUNGEN
100
AcDbSpline
 62
7
  6
CONTINUOUS
 70
0
 71
3
 72
13
 73
9
 74
0
 42
0.0000001
 43
0.0000001
 44
0.0000000001
 40
0.0
 40
0.0
 40
0.0
 40
0.0
 40
0.2870490624
 40
0.5535683755
 40
0.6755038246
 40
0.7893311355
 40
0.8965454157
 40
1.0
 40
1.0
 40
1.0
 40
1.0
 10
109.2805831938
 20
5.5152133618
 30
0.0
 10
109.7958504073
 20
5.5152133618
 30
0.0
 10
110.7946018704
 20
5.3810446712
 30
0.0
 10
111.9211144816
 20
4.8717046017
 30
0.0
 10
112.6125632452
 20
4.28449177
 30
0.0
 10
112.990860177
 20
3.7919165511
 30
0.0
 10
113.2266907368
 20
3.2525821407
 30
0.0
 10
113.2805831938
 20
2.8724923144
 30
0.0
 10
113.2805831938
 20
2.686786237
 30
0.0
  0
SPLINE
  5
46F
100
AcDbEntity
  8
RUNDUNGEN
100
AcDbSpline
 62
7
  6
CONTINUOUS
 70
0
 71
3
 72
13
 73
9
 74
0
 42
0.0000001
 43
0.0000001
 44
0.0000000001
 40
0.0
 40
0.0
 40
0.0
 40
0.0
 40
0.2360077452
 40
0.3661261418
 40
0.5000000756
 40
0.6338740402
 40
0.7639924068
 40
1.0
 40
1.0
 40
1.0
 40
1.0
 10
88.2848229724
 20
10.8394231271
 30
0.0
 10
88.7780029889
 20
11.3374625155
 30
0.0
 10
89.7578033252
 20
11.9049432468
 30
0.0
 10
91.1966678223
 20
12.2805850244
 30
0.0
 10
92.3805839812
 20
12.3807675149
 30
0.0
 10
93.5645000311
 20
12.2805847856
 30
0.0
 10
95.0033640215
 20
11.904942814
 30
0.0
 10
95.9831637163
 20
11.3374621947
 30
0.0
 10
96.4763434152
 20
10.8394231271
 30
0.0
  0
SPLINE
  5
470
100
AcDbEntity
  8
RUNDUNGEN
100
AcDbSpline
 62
7
  6
CONTINUOUS
 70
0
 71
3
 72
9
 73
5
 74
0
 42
0.0000001
 43
0.0000001
 44
0.0000000001
 40
0.0
 40
0.0
 40
0.0
 40
0.0
 40
0.5156509212
 40
1.0
 40
1.0
 40
1.0
 40
1.0
 10
77.79491595
 20
23.5065403163
 30
0.0
 10
78.2381934824
 20
23.9541855244
 30
0.0
 10
79.0123094947
 20
24.9143448113
 30
0.0
 10
79.5306987198
 20
26.0382323042
 30
0.0
 10
79.7014832635
 20
26.6047939701
 30
0.0
  0
SPLINE
  5
471
100
AcDbEntity
  8
RUNDUNGEN
100
AcDbSpline
 62
7
  6
CONTINUOUS
 70
0
 71
3
 72
11
 73
7
 74
0
 42
0.0000001
 43
0.0000001
 44
0.0000000001
 40
0.0
 40
0.0
 40
0.0
 40
0.0
 40
0.2660806488
 40
0.5190943636
 40
0.7622194616
 40
1.0
 40
1.0
 40
1.0
 40
1.0
 10
77.79491595
 20
29.7049213145
 30
0.0
 10
78.1356789827
 20
29.360800696
 30
0.0
 10
78.7490310051
 20
28.6351087496
 30
0.0
 10
79.4433880365
 20
27.4246196398
 30
0.0
 10
79.8690837439
 20
26.1488347596
 30
0.0
 10
79.9650914339
 20
25.2707463446
 30
0.0
 10
79.9650914186
 20
24.8379635016
 30
0.0
  0
SPLINE
  5
472
100
AcDbEntity
  8
RUNDUNGEN
100
AcDbSpline
 62
7
  6
CONTINUOUS
 70
0
 71
3
 72
11
 73
7
 74
0
 42
0.0000001
 43
0.0000001
 44
0.0000000001
 40
0.0
 40
0.0
 40
0.0
 40
0.0
 40
0.2524507309
 40
0.5157647478
 40
0.7702968692
 40
1.0
 40
1.0
 40
1.0
 40
1.0
 10
64.3357343935
 20
48.8443318059
 30
0.0
 10
64.5592069238
 20
48.95497786
 30
0.0
 10
65.0561142225
 20
49.1035779842
 30
0.0
 10
65.8257076014
 20
49.1143444886
 30
0.0
 10
66.5489188393
 20
48.9244854986
 30
0.0
 10
66.9615409957
 20
48.6582588669
 30
0.0
 10
67.1211913547
 20
48.4970354506
 30
0.0
  0
SPLINE
  5
473
100
AcDbEntity
  8
RUNDUNGEN
100
AcDbSpline
 62
7
  6
CONTINUOUS
 70
0
 71
3
 72
10
 73
6
 74
0
 42
0.0000001
 43
0.0000001
 44
0.0000000001
 40
0.0
 40
0.0
 40
0.0
 40
0.0
 40
0.5180905271
 40
0.761708294
 40
1.0
 40
1.0
 40
1.0
 40
1.0
 10
69.2434241692
 20
46.3538919788
 30
0.0
 10
69.3538716665
 20
46.2423562269
 30
0.0
 10
69.4930952716
 20
46.0497878737
 30
0.0
 10
69.5892305959
 20
45.7606503628
 30
0.0
 10
69.6051512552
 20
45.6141186902
 30
0.0
 10
69.6051041167
 20
45.5419226119
 30
0.0
  0
SPLINE
  5
474
100
AcDbEntity
  8
RUNDUNGEN
100
AcDbSpline
 62
7
  6
CONTINUOUS
 70
0
 71
3
 72
12
 73
8
 74
0
 42
0.0000001
 43
0.0000001
 44
0.0000000001
 40
0.0
 40
0.0
 40
0.0
 40
0.0
 40
0.252259356
 40
0.5153839756
 40
0.6451803977
 40
0.7704553584
 40
1.0
 40
1.0
 40
1.0
 40
1.0
 10
107.7826816906
 20
50.8310523898
 30
0.0
 10
108.2296036185
 20
50.6097717352
 30
0.0
 10
109.2230857994
 20
50.3127229326
 30
0.0
 10
110.5143229311
 20
50.2940722783
 30
0.0
 10
111.5233144927
 20
50.49169469
 30
0.0
 10
112.4277411969
 20
50.8118063773
 30
0.0
 10
113.0342896635
 20
51.2031929845
 30
0.0
 10
113.3535956132
 20
51.5256451005
 30
0.0
  0
SPLINE
  5
475
100
AcDbEntity
  8
RUNDUNGEN
100
AcDbSpline
 62
7
  6
CONTINUOUS
 70
0
 71
3
 72
12
 73
8
 74
0
 42
0.0000001
 43
0.0000001
 44
0.0000000001
 40
0.0
 40
0.0
 40
0.0
 40
0.0
 40
0.2295488423
 40
0.3548243544
 40
0.4846199331
 40
0.7477426437
 40
1.0
 40
1.0
 40
1.0
 40
1.0
 10
76.6501438579
 20
54.1213557416
 30
0.0
 10
76.9694556466
 20
53.7988977291
 30
0.0
 10
77.5760140103
 20
53.4075073529
 30
0.0
 10
78.4804499487
 20
53.087398797
 30
0.0
 10
79.4894380255
 20
52.8897817784
 30
0.0
 10
80.7806653596
 20
52.9084365942
 30
0.0
 10
81.7741394013
 20
53.2054841333
 30
0.0
 10
82.2210577804
 20
53.4267630309
 30
0.0
  0
SPLINE
  5
476
100
AcDbEntity
  8
RUNDUNGEN
100
AcDbSpline
 62
7
  6
CONTINUOUS
 70
0
 71
3
 72
11
 73
7
 74
0
 42
0.0000001
 43
0.0000001
 44
0.0000000001
 40
0.0
 40
0.0
 40
0.0
 40
0.0
 40
0.2256927635
 40
0.4632951072
 40
0.7206222905
 40
1.0
 40
1.0
 40
1.0
 40
1.0
 10
69.6051041167
 20
45.5419226119
 30
0.0
 10
69.6050299414
 20
45.4283177252
 30
0.0
 10
69.5637148167
 20
45.1934787905
 30
0.0
 10
69.3868266336
 20
44.8706732317
 30
0.0
 10
69.1098012524
 20
44.5906111213
 30
0.0
 10
68.8782992596
 20
44.4466748063
 30
0.0
 10
68.7522729534
 20
44.3842764728
 30
0.0
  0
SPLINE
  5
477
100
AcDbEntity
  8
0
100
AcDbSpline
 62
7
  6
CONTINUOUS
 70
0
 71
3
 72
11
 73
7
 74
0
 42
0.0000001
 43
0.0000001
 44
0.0000000001
 40
0.0
 40
0.0
 40
0.0
 40
0.0
 40
0.2092798753
 40
0.444592951
 40
0.7123432609
 40
1.0
 40
1.0
 40
1.0
 40
1.0
 10
82.6307690056
 20
39.6090739235
 30
0.0
 10
82.6307690056
 20
39.6000880308
 30
0.0
 10
82.6366603619
 20
39.5807975438
 30
0.0
 10
82.6589560218
 20
39.5585900705
 30
0.0
 10
82.6904379219
 20
39.5444738261
 30
0.0
 10
82.7144178295
 20
39.5411916725
 30
0.0
 10
82.7267690056
 20
39.5411916725
 30
0.0
  0
SPLINE
  5
478
100
AcDbEntity
  8
RUNDUNGEN
100
AcDbSpline
 62
7
  6
CONTINUOUS
 70
0
 71
3
 72
11
 73
7
 74
0
 42
0.0000001
 43
0.0000001
 44
0.0000000001
 40
0.0
 40
0.0
 40
0.0
 40
0.0
 40
0.237780559
 40
0.4809056754
 40
0.7339193747
 40
1.0
 40
1.0
 40
1.0
 40
1.0
 10
79.9650914186
 20
24.8379635016
 30
0.0
 10
79.9650914032
 20
24.405180678
 30
0.0
 10
79.8690835908
 20
23.5270923177
 30
0.0
 10
79.4433877996
 20
22.2513076138
 30
0.0
 10
78.7490308245
 20
21.0408187297
 30
0.0
 10
78.1356789079
 20
20.3151269534
 30
0.0
 10
77.79491595
 20
19.9710064104
 30
0.0
  0
SPLINE
  5
479
100
AcDbEntity
  8
0
100
AcDbSpline
 62
7
  6
CONTINUOUS
 70
0
 71
3
 72
11
 73
7
 74
0
 42
0.0000001
 43
0.0000001
 44
0.0000000001
 40
0.0
 40
0.0
 40
0.0
 40
0.0
 40
0.2092798753
 40
0.444592951
 40
0.7123432609
 40
1.0
 40
1.0
 40
1.0
 40
1.0
 10
83.2907690056
 20
41.0572286113
 30
0.0
 10
83.2907690056
 20
41.066214504
 30
0.0
 10
83.2848776493
 20
41.085504991
 30
0.0
 10
83.2625819894
 20
41.1077124642
 30
0.0
 10
83.2311000892
 20
41.1218287087
 30
0.0
 10
83.2071201816
 20
41.1251108623
 30
0.0
 10
83.1947690056
 20
41.1251108623
 30
0.0
  0
SPLINE
  5
47A
100
AcDbEntity
  8
0
100
AcDbSpline
 62
7
  6
CONTINUOUS
 70
0
 71
3
 72
11
 73
7
 74
0
 42
0.0000001
 43
0.0000001
 44
0.0000000001
 40
0.0
 40
0.0
 40
0.0
 40
0.0
 40
0.2094668498
 40
0.4446559298
 40
0.7120302568
 40
1.0
 40
1.0
 40
1.0
 40
1.0
 10
83.9507690056
 20
40.1917299111
 30
0.0
 10
83.9507690056
 20
40.214217971
 30
0.0
 10
83.9361646352
 20
40.2625211284
 30
0.0
 10
83.8802393121
 20
40.3178356721
 30
0.0
 10
83.8016813199
 20
40.3533527139
 30
0.0
 10
83.7416850232
 20
40.3614355386
 30
0.0
 10
83.7107690056
 20
40.3614355386
 30
0.0
  0
SPLINE
  5
47B
100
AcDbEntity
  8
RUNDUNGEN
100
AcDbSpline
 62
7
  6
CONTINUOUS
 70
0
 71
3
 72
10
 73
6
 74
0
 42
0.0000001
 43
0.0000001
 44
0.0000000001
 40
0.0
 40
0.0
 40
0.0
 40
0.0
 40
0.5180752096
 40
0.7617173681
 40
1.0
 40
1.0
 40
1.0
 40
1.0
 10
65.6039750166
 20
7.659946428
 30
0.0
 10
65.3832804234
 20
7.4370772999
 30
0.0
 10
65.1050209245
 20
7.0523389875
 30
0.0
 10
64.9126794128
 20
6.4746699153
 30
0.0
 10
64.8805831938
 20
6.1818872402
 30
0.0
 10
64.8805831938
 20
6.0376272773
 30
0.0
  0
SPLINE
  5
47C
100
AcDbEntity
  8
RUNDUNGEN
100
AcDbSpline
 62
7
  6
CONTINUOUS
 70
0
 71
3
 72
11
 73
7
 74
0
 42
0.0000001
 43
0.0000001
 44
0.0000000001
 40
0.0
 40
0.0
 40
0.0
 40
0.0
 40
0.2793752682
 40
0.5367194959
 40
0.7743217448
 40
1.0
 40
1.0
 40
1.0
 40
1.0
 10
66.0490712072
 20
43.0458631735
 30
0.0
 10
65.9734521656
 20
43.0084225603
 30
0.0
 10
65.8345407759
 20
42.9220528025
 30
0.0
 10
65.6683159504
 20
42.7540003098
 30
0.0
 10
65.5621895059
 20
42.5602988497
 30
0.0
 10
65.5374100021
 20
42.4193907123
 30
0.0
 10
65.5373714935
 20
42.3512286262
 30
0.0
  0
SPLINE
  5
47D
100
AcDbEntity
  8
RUNDUNGEN
100
AcDbSpline
 62
7
  6
CONTINUOUS
 70
0
 71
3
 72
11
 73
7
 74
0
 42
0.0000001
 43
0.0000001
 44
0.0000000001
 40
0.0
 40
0.0
 40
0.0
 40
0.0
 40
0.2794013718
 40
0.5367226037
 40
0.7743080703
 40
1.0
 40
1.0
 40
1.0
 40
1.0
 10
59.0507586623
 20
53.5649796174
 30
0.0
 10
58.7985088537
 20
53.4400853142
 30
0.0
 10
58.3351815573
 20
53.1519606973
 30
0.0
 10
57.7808982865
 20
52.5912733745
 30
0.0
 10
57.4272458387
 20
51.9449996227
 30
0.0
 10
57.345022483
 20
51.4749241008
 30
0.0
 10
57.3450663486
 20
51.2475566203
 30
0.0
  0
SPLINE
  5
47E
100
AcDbEntity
  8
RUNDUNGEN
100
AcDbSpline
 62
7
  6
CONTINUOUS
 70
0
 71
3
 72
13
 73
9
 74
0
 42
0.0000001
 43
0.0000001
 44
0.0000000001
 40
0.0
 40
0.0
 40
0.0
 40
0.0
 40
0.2294024287
 40
0.3545996847
 40
0.4843111938
 40
0.616248878
 40
0.747903971
 40
1.0
 40
1.0
 40
1.0
 40
1.0
 10
74.6163475573
 20
52.6396574161
 30
0.0
 10
73.8180690633
 20
53.44580146
 30
0.0
 10
72.3015880242
 20
54.4243175269
 30
0.0
 10
70.0406952034
 20
55.224434467
 30
0.0
 10
68.15579883
 20
55.5940637087
 30
0.0
 10
66.2067925501
 20
55.6980864267
 30
0.0
 10
63.6612888898
 20
55.4836965267
 30
0.0
 10
61.8063554267
 20
54.9293348167
 30
0.0
 10
60.6890627509
 20
54.3761391928
 30
0.0
  0
SPLINE
  5
47F
100
AcDbEntity
  8
0
100
AcDbSpline
 62
7
  6
CONTINUOUS
 70
0
 71
3
 72
9
 73
5
 74
0
 42
0.0000001
 43
0.0000001
 44
0.0000000001
 40
0.0
 40
0.0
 40
0.0
 40
0.0
 40
0.2423574743
 40
1.0
 40
1.0
 40
1.0
 40
1.0
 10
99.26350043
 20
51.5135482757
 30
0.0
 10
98.9309232291
 20
51.6782143977
 30
0.0
 10
97.5297613246
 20
52.298528605
 30
0.0
 10
96.030089021
 20
52.6886195587
 30
0.0
 10
94.8829075609
 20
52.8615345893
 30
0.0
  0
SPLINE
  5
480
100
AcDbEntity
  8
0
100
AcDbSpline
 62
7
  6
CONTINUOUS
 70
0
 71
3
 72
9
 73
5
 74
0
 42
0.0000001
 43
0.0000001
 44
0.0000000001
 40
0.0
 40
0.0
 40
0.0
 40
0.0
 40
0.2572745118
 40
1.0
 40
1.0
 40
1.0
 40
1.0
 10
89.8782588267
 20
52.8615345893
 30
0.0
 10
89.4887414034
 20
52.8028225027
 30
0.0
 10
87.9838283635
 20
52.5204133783
 30
0.0
 10
86.516789263
 20
52.0181381338
 30
0.0
 10
85.4976659576
 20
51.5135482757
 30
0.0
  0
SPLINE
  5
481
100
AcDbEntity
  8
RUNDUNGEN
100
AcDbSpline
 62
7
  6
CONTINUOUS
 70
0
 71
3
 72
11
 73
7
 74
0
 42
0.0000001
 43
0.0000001
 44
0.0000000001
 40
0.0
 40
0.0
 40
0.0
 40
0.0
 40
0.2524504675
 40
0.5157648302
 40
0.7702974388
 40
1.0
 40
1.0
 40
1.0
 40
1.0
 10
122.1061387304
 20
55.3495306832
 30
0.0
 10
121.9720553524
 20
55.4159182462
 30
0.0
 10
121.6739109822
 20
55.5050784966
 30
0.0
 10
121.2121545793
 20
55.5115382845
 30
0.0
 10
120.7782277192
 20
55.3976226725
 30
0.0
 10
120.5306545313
 20
55.2378866797
 30
0.0
 10
120.4348645536
 20
55.14115287
 30
0.0
  0
SPLINE
  5
482
100
AcDbEntity
  8
RUNDUNGEN
100
AcDbSpline
 62
7
  6
CONTINUOUS
 70
0
 71
3
 72
10
 73
6
 74
0
 42
0.0000001
 43
0.0000001
 44
0.0000000001
 40
0.0
 40
0.0
 40
0.0
 40
0.0
 40
0.2382827206
 40
0.4819249463
 40
1.0
 40
1.0
 40
1.0
 40
1.0
 10
119.8805831938
 20
6.0376272773
 30
0.0
 10
119.8805831938
 20
6.1818872941
 30
0.0
 10
119.8484869448
 20
6.4746700639
 30
0.0
 10
119.656145382
 20
7.0523391215
 30
0.0
 10
119.3778858982
 20
7.4370773667
 30
0.0
 10
119.157191371
 20
7.659946428
 30
0.0
  0
SPLINE
  5
483
100
AcDbEntity
  8
0
100
AcDbSpline
 62
7
  6
CONTINUOUS
 70
0
 71
3
 72
19
 73
15
 74
0
 42
0.0000001
 43
0.0000001
 44
0.0000000001
 40
0.0
 40
0.0
 40
0.0
 40
0.0
 40
0.0517234907
 40
0.1053372095
 40
0.1622487312
 40
0.2232163938
 40
0.3564752704
 40
0.5
 40
0.6435247296
 40
0.7767836062
 40
0.8377512688
 40
0.8946627905
 40
0.9482765093
 40
1.0
 40
1.0
 40
1.0
 40
1.0
 10
92.8274100468
 20
39.9455636463
 30
0.0
 10
92.8274100468
 20
39.8398282387
 30
0.0
 10
92.8581172065
 20
39.6234001865
 30
0.0
 10
92.9923686844
 20
39.3162807264
 30
0.0
 10
93.2078232094
 20
39.0358193428
 30
0.0
 10
93.6014709494
 20
38.7014419238
 30
0.0
 10
94.2433472204
 20
38.4114254663
 30
0.0
 10
95.105064191
 20
38.2953987487
 30
0.0
 10
95.9667811616
 20
38.4114254663
 30
0.0
 10
96.6086574327
 20
38.7014419238
 30
0.0
 10
97.0023051726
 20
39.0358193428
 30
0.0
 10
97.2177596976
 20
39.3162807264
 30
0.0
 10
97.3520111755
 20
39.6234001865
 30
0.0
 10
97.3827183352
 20
39.8398282387
 30
0.0
 10
97.3827183352
 20
39.9455636463
 30
0.0
  0
SPLINE
  5
484
100
AcDbEntity
  8
0
100
AcDbSpline
 62
7
  6
CONTINUOUS
 70
0
 71
3
 72
11
 73
7
 74
0
 42
0.0000001
 43
0.0000001
 44
0.0000000001
 40
0.0
 40
0.0
 40
0.0
 40
0.0
 40
0.2880052506
 40
0.5553344723
 40
0.7905070702
 40
1.0
 40
1.0
 40
1.0
 40
1.0
 10
85.0307690056
 20
38.3249680088
 30
0.0
 10
85.0926082316
 20
38.3249680088
 30
0.0
 10
85.2126049668
 20
38.3411213284
 30
0.0
 10
85.3696874809
 20
38.4121973529
 30
0.0
 10
85.4815668252
 20
38.5227822685
 30
0.0
 10
85.5107690056
 20
38.6193978594
 30
0.0
 10
85.5107690056
 20
38.6643792638
 30
0.0
  0
SPLINE
  5
485
100
AcDbEntity
  8
0
100
AcDbSpline
 62
7
  6
CONTINUOUS
 70
0
 71
3
 72
11
 73
7
 74
0
 42
0.0000001
 43
0.0000001
 44
0.0000000001
 40
0.0
 40
0.0
 40
0.0
 40
0.0
 40
0.2092798753
 40
0.444592951
 40
0.7123432609
 40
1.0
 40
1.0
 40
1.0
 40
1.0
 10
82.6307690056
 20
41.0232874858
 30
0.0
 10
82.6307690056
 20
41.0143015931
 30
0.0
 10
82.6366603619
 20
40.9950111062
 30
0.0
 10
82.6589560218
 20
40.9728036329
 30
0.0
 10
82.6904379219
 20
40.9586873884
 30
0.0
 10
82.7144178295
 20
40.9554052348
 30
0.0
 10
82.7267690056
 20
40.9554052348
 30
0.0
  0
SPLINE
  5
486
100
AcDbEntity
  8
0
100
AcDbSpline
 62
7
  6
CONTINUOUS
 70
0
 71
3
 72
11
 73
7
 74
0
 42
0.0000001
 43
0.0000001
 44
0.0000000001
 40
0.0
 40
0.0
 40
0.0
 40
0.0
 40
0.2879697432
 40
0.5553440702
 40
0.7905331502
 40
1.0
 40
1.0
 40
1.0
 40
1.0
 10
82.5107690056
 20
40.3614355386
 30
0.0
 10
82.479852988
 20
40.3614355386
 30
0.0
 10
82.4198566913
 20
40.3533527139
 30
0.0
 10
82.3412986991
 20
40.3178356721
 30
0.0
 10
82.285373376
 20
40.2625211284
 30
0.0
 10
82.2707690056
 20
40.214217971
 30
0.0
 10
82.2707690056
 20
40.1917299111
 30
0.0
  0
SPLINE
  5
487
100
AcDbEntity
  8
0
100
AcDbSpline
 62
7
  6
CONTINUOUS
 70
0
 71
3
 72
11
 73
7
 74
0
 42
0.0000001
 43
0.0000001
 44
0.0000000001
 40
0.0
 40
0.0
 40
0.0
 40
0.0
 40
0.2094668498
 40
0.4446559298
 40
0.7120302568
 40
1.0
 40
1.0
 40
1.0
 40
1.0
 10
83.9507690056
 20
41.888786186
 30
0.0
 10
83.9507690056
 20
41.9112742458
 30
0.0
 10
83.9361646352
 20
41.9595774032
 30
0.0
 10
83.8802393121
 20
42.0148919469
 30
0.0
 10
83.8016813199
 20
42.0504089887
 30
0.0
 10
83.7416850232
 20
42.0584918135
 30
0.0
 10
83.7107690056
 20
42.0584918135
 30
0.0
  0
SPLINE
  5
488
100
AcDbEntity
  8
0
100
AcDbSpline
 62
7
  6
CONTINUOUS
 70
0
 71
3
 72
11
 73
7
 74
0
 42
0.0000001
 43
0.0000001
 44
0.0000000001
 40
0.0
 40
0.0
 40
0.0
 40
0.0
 40
0.2092798753
 40
0.444592951
 40
0.7123432609
 40
1.0
 40
1.0
 40
1.0
 40
1.0
 10
82.6307690056
 20
41.3061301983
 30
0.0
 10
82.6307690056
 20
41.2971443056
 30
0.0
 10
82.6366603619
 20
41.2778538186
 30
0.0
 10
82.6589560218
 20
41.2556463454
 30
0.0
 10
82.6904379219
 20
41.2415301009
 30
0.0
 10
82.7144178295
 20
41.2382479473
 30
0.0
 10
82.7267690056
 20
41.2382479473
 30
0.0
  0
SPLINE
  5
489
100
AcDbEntity
  8
0
100
AcDbSpline
 62
7
  6
CONTINUOUS
 70
0
 71
3
 72
11
 73
7
 74
0
 42
0.0000001
 43
0.0000001
 44
0.0000000001
 40
0.0
 40
0.0
 40
0.0
 40
0.0
 40
0.2879697432
 40
0.5553440702
 40
0.7905331502
 40
1.0
 40
1.0
 40
1.0
 40
1.0
 10
82.5107690056
 20
42.0584918135
 30
0.0
 10
82.479852988
 20
42.0584918135
 30
0.0
 10
82.4198566913
 20
42.0504089887
 30
0.0
 10
82.3412986991
 20
42.0148919469
 30
0.0
 10
82.285373376
 20
41.9595774032
 30
0.0
 10
82.2707690056
 20
41.9112742458
 30
0.0
 10
82.2707690056
 20
41.888786186
 30
0.0
  0
SPLINE
  5
48A
100
AcDbEntity
  8
0
100
AcDbSpline
 62
7
  6
CONTINUOUS
 70
0
 71
3
 72
19
 73
15
 74
0
 42
0.0000001
 43
0.0000001
 44
0.0000000001
 40
0.0
 40
0.0
 40
0.0
 40
0.0
 40
0.051855061
 40
0.1061589371
 40
0.1638754827
 40
0.2253669227
 40
0.3583203672
 40
0.5
 40
0.6416796328
 40
0.7746330773
 40
0.8361245173
 40
0.8938410629
 40
0.948144939
 40
1.0
 40
1.0
 40
1.0
 40
1.0
 10
92.844303621
 20
40.0328805729
 30
0.0
 10
92.8612323414
 20
39.9350391277
 30
0.0
 10
92.9219888616
 20
39.738486542
 30
0.0
 10
93.0839542866
 20
39.4668244001
 30
0.0
 10
93.3113924277
 20
39.2215915093
 30
0.0
 10
93.7010047638
 20
38.9326062519
 30
0.0
 10
94.3058861025
 20
38.6836721474
 30
0.0
 10
95.105064191
 20
38.5839330667
 30
0.0
 10
95.9042422796
 20
38.6836721474
 30
0.0
 10
96.5091236182
 20
38.9326062519
 30
0.0
 10
96.8987359544
 20
39.2215915093
 30
0.0
 10
97.1261740954
 20
39.4668244001
 30
0.0
 10
97.2881395204
 20
39.738486542
 30
0.0
 10
97.3488960406
 20
39.9350391277
 30
0.0
 10
97.365824761
 20
40.0328805729
 30
0.0
  0
SPLINE
  5
48B
100
AcDbEntity
  8
0
100
AcDbSpline
 62
7
  6
CONTINUOUS
 70
0
 71
3
 72
11
 73
7
 74
0
 42
0.0000001
 43
0.0000001
 44
0.0000000001
 40
0.0
 40
0.0
 40
0.0
 40
0.0
 40
0.2876567391
 40
0.555407049
 40
0.7907201247
 40
1.0
 40
1.0
 40
1.0
 40
1.0
 10
83.0267690056
 20
41.1251108623
 30
0.0
 10
83.0144178295
 20
41.1251108623
 30
0.0
 10
82.9904379219
 20
41.1218287087
 30
0.0
 10
82.9589560218
 20
41.1077124642
 30
0.0
 10
82.9366603619
 20
41.085504991
 30
0.0
 10
82.9307690056
 20
41.066214504
 30
0.0
 10
82.9307690056
 20
41.0572286113
 30
0.0
  0
SPLINE
  5
48C
100
AcDbEntity
  8
0
100
AcDbSpline
 62
7
  6
CONTINUOUS
 70
0
 71
3
 72
11
 73
7
 74
0
 42
0.0000001
 43
0.0000001
 44
0.0000000001
 40
0.0
 40
0.0
 40
0.0
 40
0.0
 40
0.2876567391
 40
0.555407049
 40
0.7907201247
 40
1.0
 40
1.0
 40
1.0
 40
1.0
 10
83.4947690056
 20
40.9554052348
 30
0.0
 10
83.5071201816
 20
40.9554052348
 30
0.0
 10
83.5311000892
 20
40.9586873884
 30
0.0
 10
83.5625819894
 20
40.9728036329
 30
0.0
 10
83.5848776493
 20
40.9950111062
 30
0.0
 10
83.5907690056
 20
41.0143015931
 30
0.0
 10
83.5907690056
 20
41.0232874858
 30
0.0
  0
SPLINE
  5
48D
100
AcDbEntity
  8
BEZUGSACHSEN
100
AcDbSpline
 62
7
  6
CONTINUOUS
 70
0
 71
3
 72
21
 73
17
 74
0
 42
0.0000001
 43
0.0000001
 44
0.0000000001
 40
0.0
 40
0.0
 40
0.0
 40
0.0
 40
0.0516917069
 40
0.1052581238
 40
0.1621321515
 40
0.2230548859
 40
0.3562183375
 40
0.4274220929
 40
0.5
 40
0.5725779071
 40
0.6437816625
 40
0.7769451141
 40
0.8378678485
 40
0.8947418762
 40
0.9483082931
 40
1.0
 40
1.0
 40
1.0
 40
1.0
 10
87.3805831938
 20
47.0376864258
 30
0.0
 10
87.3805831938
 20
46.8055461868
 30
0.0
 10
87.4479475189
 20
46.3304323765
 30
0.0
 10
87.7427386872
 20
45.6562738225
 30
0.0
 10
88.2156659243
 20
45.0405359825
 30
0.0
 10
89.0795986863
 20
44.30664088
 30
0.0
 10
90.1890942481
 20
43.8054340556
 30
0.0
 10
91.4078139237
 20
43.5468490323
 30
0.0
 10
92.3805831938
 20
43.4796069851
 30
0.0
 10
93.3533524639
 20
43.5468490323
 30
0.0
 10
94.5720721395
 20
43.8054340556
 30
0.0
 10
95.6815677013
 20
44.30664088
 30
0.0
 10
96.5455004633
 20
45.0405359825
 30
0.0
 10
97.0184277004
 20
45.6562738225
 30
0.0
 10
97.3132188687
 20
46.3304323765
 30
0.0
 10
97.3805831938
 20
46.8055461868
 30
0.0
 10
97.3805831938
 20
47.0376864258
 30
0.0
  0
SPLINE
  5
48E
100
AcDbEntity
  8
0
100
AcDbSpline
 62
7
  6
CONTINUOUS
 70
0
 71
3
 72
11
 73
7
 74
0
 42
0.0000001
 43
0.0000001
 44
0.0000000001
 40
0.0
 40
0.0
 40
0.0
 40
0.0
 40
0.2876567391
 40
0.555407049
 40
0.7907201247
 40
1.0
 40
1.0
 40
1.0
 40
1.0
 10
83.4947690056
 20
39.25834896
 30
0.0
 10
83.5071201816
 20
39.25834896
 30
0.0
 10
83.5311000892
 20
39.2616311136
 30
0.0
 10
83.5625819894
 20
39.275747358
 30
0.0
 10
83.5848776493
 20
39.2979548313
 30
0.0
 10
83.5907690056
 20
39.3172453183
 30
0.0
 10
83.5907690056
 20
39.326231211
 30
0.0
  0
SPLINE
  5
48F
100
AcDbEntity
  8
0
100
AcDbSpline
 62
7
  6
CONTINUOUS
 70
0
 71
3
 72
11
 73
7
 74
0
 42
0.0000001
 43
0.0000001
 44
0.0000000001
 40
0.0
 40
0.0
 40
0.0
 40
0.0
 40
0.2094929298
 40
0.4446655277
 40
0.7119947494
 40
1.0
 40
1.0
 40
1.0
 40
1.0
 10
80.7107690056
 20
38.6643792638
 30
0.0
 10
80.7107690056
 20
38.6193978594
 30
0.0
 10
80.7399711859
 20
38.5227822685
 30
0.0
 10
80.8518505303
 20
38.4121973529
 30
0.0
 10
81.0089330443
 20
38.3411213284
 30
0.0
 10
81.1289297796
 20
38.3249680088
 30
0.0
 10
81.1907690056
 20
38.3249680088
 30
0.0
  0
SPLINE
  5
490
100
AcDbEntity
  8
0
100
AcDbSpline
 62
7
  6
CONTINUOUS
 70
0
 71
3
 72
12
 73
8
 74
0
 42
0.0000001
 43
0.0000001
 44
0.0000000001
 40
0.0
 40
0.0
 40
0.0
 40
0.0
 40
0.2861430251
 40
0.547729335
 40
0.7823897905
 40
0.8924618245
 40
1.0
 40
1.0
 40
1.0
 40
1.0
 10
90.573128862
 20
40.538638432
 30
0.0
 10
90.7260759605
 20
40.5741718256
 30
0.0
 10
91.0128142223
 20
40.6754257357
 30
0.0
 10
91.3714559367
 20
40.9213866593
 30
0.0
 10
91.5756556934
 20
41.1948059299
 30
0.0
 10
91.6565145225
 20
41.4312263936
 30
0.0
 10
91.6699488472
 20
41.5510509163
 30
0.0
 10
91.6699399947
 20
41.6100623067
 30
0.0
  0
SPLINE
  5
491
100
AcDbEntity
  8
0
100
AcDbSpline
 62
7
  6
CONTINUOUS
 70
0
 71
3
 72
9
 73
5
 74
0
 42
0.0000001
 43
0.0000001
 44
0.0000000001
 40
0.0
 40
0.0
 40
0.0
 40
0.0
 40
0.2445376398
 40
1.0
 40
1.0
 40
1.0
 40
1.0
 10
80.7107690056
 20
38.9472219763
 30
0.0
 10
80.7107690056
 20
38.936149398
 30
0.0
 10
80.7139492776
 20
38.8908847783
 30
0.0
 10
80.7300365245
 20
38.8468621905
 30
0.0
 10
80.74730683
 20
38.8173349122
 30
0.0
  0
SPLINE
  5
492
100
AcDbEntity
  8
0
100
AcDbSpline
 62
7
  6
CONTINUOUS
 70
0
 71
3
 72
9
 73
5
 74
0
 42
0.0000001
 43
0.0000001
 44
0.0000000001
 40
0.0
 40
0.0
 40
0.0
 40
0.0
 40
0.461013727
 40
1.0
 40
1.0
 40
1.0
 40
1.0
 10
80.74730683
 20
38.8173349122
 30
0.0
 10
80.7865720195
 20
38.7502026791
 30
0.0
 10
80.9292586807
 20
38.6397305113
 30
0.0
 10
81.0998431499
 20
38.6078107213
 30
0.0
 10
81.1907690056
 20
38.6078107213
 30
0.0
  0
SPLINE
  5
493
100
AcDbEntity
  8
0
100
AcDbSpline
 62
7
  6
CONTINUOUS
 70
0
 71
3
 72
12
 73
8
 74
0
 42
0.0000001
 43
0.0000001
 44
0.0000000001
 40
0.0
 40
0.0
 40
0.0
 40
0.0
 40
0.1035915243
 40
0.2109480279
 40
0.4456988124
 40
0.7125399145
 40
1.0
 40
1.0
 40
1.0
 40
1.0
 10
90.9419284542
 20
41.609808968
 30
0.0
 10
90.9419284542
 20
41.6500386612
 30
0.0
 10
90.9302555425
 20
41.7323800474
 30
0.0
 10
90.8602416164
 20
41.8926414814
 30
0.0
 10
90.6873154435
 20
42.0656409379
 30
0.0
 10
90.4036571623
 20
42.1931843328
 30
0.0
 10
90.1870449624
 20
42.2225405867
 30
0.0
 10
90.0754100468
 20
42.2225405867
 30
0.0
  0
SPLINE
  5
494
100
AcDbEntity
  8
RUNDUNGEN
100
AcDbSpline
 62
7
  6
CONTINUOUS
 70
0
 71
3
 72
11
 73
7
 74
0
 42
0.0000001
 43
0.0000001
 44
0.0000000001
 40
0.0
 40
0.0
 40
0.0
 40
0.0
 40
0.2256941656
 40
0.4632959394
 40
0.7206237852
 40
1.0
 40
1.0
 40
1.0
 40
1.0
 10
128.5157320478
 20
51.7347690649
 30
0.0
 10
128.5156875268
 20
51.8029323771
 30
0.0
 10
128.4908980462
 20
51.9438358668
 30
0.0
 10
128.3847648595
 20
52.1375193586
 30
0.0
 10
128.2185496505
 20
52.3055558783
 30
0.0
 10
128.0796487803
 20
52.3919174359
 30
0.0
 10
128.0040334493
 20
52.429356212
 30
0.0
  0
SPLINE
  5
495
100
AcDbEntity
  8
0
100
AcDbSpline
 62
7
  6
CONTINUOUS
 70
0
 71
3
 72
11
 73
7
 74
0
 42
0.0000001
 43
0.0000001
 44
0.0000000001
 40
0.0
 40
0.0
 40
0.0
 40
0.0
 40
0.227142142
 40
0.4653047767
 40
0.7220182825
 40
1.0
 40
1.0
 40
1.0
 40
1.0
 10
103.1367949448
 20
40.5424548746
 30
0.0
 10
103.1367949448
 20
40.6987903743
 30
0.0
 10
103.0829982929
 20
41.0211743215
 30
0.0
 10
102.8506423936
 20
41.468183563
 30
0.0
 10
102.4843347105
 20
41.8613397188
 30
0.0
 10
102.1760843623
 20
42.0681824639
 30
0.0
 10
102.0078404293
 20
42.159286671
 30
0.0
  0
SPLINE
  5
496
100
AcDbEntity
  8
0
100
AcDbSpline
 62
7
  6
CONTINUOUS
 70
0
 71
3
 72
9
 73
5
 74
0
 42
0.0000001
 43
0.0000001
 44
0.0000000001
 40
0.0
 40
0.0
 40
0.0
 40
0.0
 40
0.2536121958
 40
1.0
 40
1.0
 40
1.0
 40
1.0
 10
101.8450919893
 20
38.6078107213
 30
0.0
 10
101.8615181231
 20
38.6078107213
 30
0.0
 10
101.9262563897
 20
38.6101574193
 30
0.0
 10
101.9907281728
 20
38.6218530006
 30
0.0
 10
102.0369252503
 20
38.6360949925
 30
0.0
  0
SPLINE
  5
497
100
AcDbEntity
  8
0
100
AcDbSpline
 62
7
  6
CONTINUOUS
 70
0
 71
3
 72
9
 73
5
 74
0
 42
0.0000001
 43
0.0000001
 44
0.0000000001
 40
0.0
 40
0.0
 40
0.0
 40
0.0
 40
0.2536121958
 40
1.0
 40
1.0
 40
1.0
 40
1.0
 10
101.8450919893
 20
38.3249680088
 30
0.0
 10
101.8615181231
 20
38.3249680088
 30
0.0
 10
101.9262563897
 20
38.3273147068
 30
0.0
 10
101.9907281728
 20
38.3390102881
 30
0.0
 10
102.0369252503
 20
38.3532522801
 30
0.0
  0
SPLINE
  5
498
100
AcDbEntity
  8
0
100
AcDbSpline
 62
7
  6
CONTINUOUS
 70
0
 71
3
 72
12
 73
8
 74
0
 42
0.0000001
 43
0.0000001
 44
0.0000000001
 40
0.0
 40
0.0
 40
0.0
 40
0.0
 40
0.2844670851
 40
0.5445747
 40
0.7798379195
 40
0.8910272787
 40
1.0
 40
1.0
 40
1.0
 40
1.0
 10
102.0369252503
 20
38.3532522801
 30
0.0
 10
102.3238014845
 20
38.4416927021
 30
0.0
 10
102.8577034168
 20
38.6706938169
 30
0.0
 10
103.5163828838
 20
39.1805665737
 30
0.0
 10
103.8845411041
 20
39.7220807322
 30
0.0
 10
104.0298928658
 20
40.1831114128
 30
0.0
 10
104.0540754608
 20
40.4161417597
 30
0.0
 10
104.0540754608
 20
40.5311411661
 30
0.0
  0
SPLINE
  5
499
100
AcDbEntity
  8
0
100
AcDbSpline
 62
7
  6
CONTINUOUS
 70
0
 71
3
 72
9
 73
5
 74
0
 42
0.0000001
 43
0.0000001
 44
0.0000000001
 40
0.0
 40
0.0
 40
0.0
 40
0.0
 40
0.239729366
 40
1.0
 40
1.0
 40
1.0
 40
1.0
 10
102.0078404293
 20
42.159286671
 30
0.0
 10
101.9972353032
 20
42.1650293542
 30
0.0
 10
101.9512898629
 20
42.1857751491
 30
0.0
 10
101.900168361
 20
42.1942563155
 30
0.0
 10
101.8619211717
 20
42.1942563155
 30
0.0
  0
SPLINE
  5
49A
100
AcDbEntity
  8
0
100
AcDbSpline
 62
7
  6
CONTINUOUS
 70
0
 71
3
 72
11
 73
7
 74
0
 42
0.0000001
 43
0.0000001
 44
0.0000000001
 40
0.0
 40
0.0
 40
0.0
 40
0.0
 40
0.2816347582
 40
0.5420479832
 40
0.7798483853
 40
1.0
 40
1.0
 40
1.0
 40
1.0
 10
102.0369252503
 20
38.6360949925
 30
0.0
 10
102.2960253722
 20
38.7159723801
 30
0.0
 10
102.7818545008
 20
38.9184116162
 30
0.0
 10
103.398591909
 20
39.3593738203
 30
0.0
 10
103.8403990152
 20
39.9040040474
 30
0.0
 10
103.996402959
 20
40.3277737744
 30
0.0
 10
104.0311296974
 20
40.5368521525
 30
0.0
  0
SPLINE
  5
49B
100
AcDbEntity
  8
0
100
AcDbSpline
 62
7
  6
CONTINUOUS
 70
0
 71
3
 72
9
 73
5
 74
0
 42
0.0000001
 43
0.0000001
 44
0.0000000001
 40
0.0
 40
0.0
 40
0.0
 40
0.0
 40
0.2591205677
 40
1.0
 40
1.0
 40
1.0
 40
1.0
 10
101.8619211717
 20
42.4770990279
 30
0.0
 10
101.8749529683
 20
42.4770990279
 30
0.0
 10
101.9251558385
 20
42.4742228121
 30
0.0
 10
101.9750751982
 20
42.459871779
 30
0.0
 10
102.0078404293
 20
42.4421293835
 30
0.0
  0
SPLINE
  5
49C
100
AcDbEntity
  8
0
100
AcDbSpline
 62
7
  6
CONTINUOUS
 70
0
 71
3
 72
11
 73
7
 74
0
 42
0.0000001
 43
0.0000001
 44
0.0000000001
 40
0.0
 40
0.0
 40
0.0
 40
0.0
 40
0.2779697373
 40
0.5346991835
 40
0.7728568778
 40
1.0
 40
1.0
 40
1.0
 40
1.0
 10
102.0078404293
 20
42.4421293835
 30
0.0
 10
102.1760777142
 20
42.3510287763
 30
0.0
 10
102.4843243724
 20
42.1441772697
 30
0.0
 10
102.8506563904
 20
41.7510397528
 30
0.0
 10
103.0830034317
 20
41.3040141351
 30
0.0
 10
103.1368093376
 20
40.9816343216
 30
0.0
 10
103.1368093376
 20
40.8252975871
 30
0.0
  0
SPLINE
  5
49D
100
AcDbEntity
  8
0
100
AcDbSpline
 62
7
  6
CONTINUOUS
 70
0
 71
3
 72
11
 73
7
 74
0
 42
0.0000001
 43
0.0000001
 44
0.0000000001
 40
0.0
 40
0.0
 40
0.0
 40
0.0
 40
0.2782911642
 40
0.539206302
 40
0.7792454761
 40
1.0
 40
1.0
 40
1.0
 40
1.0
 10
90.573128862
 20
40.8214811445
 30
0.0
 10
90.6947696694
 20
40.8497413124
 30
0.0
 10
90.9262911418
 20
40.9257058712
 30
0.0
 10
91.2323669343
 20
41.100287552
 30
0.0
 10
91.4712369372
 20
41.3238772121
 30
0.0
 10
91.57882047
 20
41.5049723176
 30
0.0
 10
91.6143018319
 20
41.5974614528
 30
0.0
  0
SPLINE
  5
49E
100
AcDbEntity
  8
0
100
AcDbSpline
 62
7
  6
CONTINUOUS
 70
0
 71
3
 72
9
 73
5
 74
0
 42
0.0000001
 43
0.0000001
 44
0.0000000001
 40
0.0
 40
0.0
 40
0.0
 40
0.0
 40
0.2525773098
 40
1.0
 40
1.0
 40
1.0
 40
1.0
 10
91.6143018319
 20
41.5974614528
 30
0.0
 10
91.6189419291
 20
41.6095567769
 30
0.0
 10
91.6362591689
 20
41.6578404134
 30
0.0
 10
91.649257628
 20
41.7076856303
 30
0.0
 10
91.6562813148
 20
41.745372409
 30
0.0
  0
SPLINE
  5
49F
100
AcDbEntity
  8
0
100
AcDbSpline
 62
7
  6
CONTINUOUS
 70
0
 71
3
 72
11
 73
7
 74
0
 42
0.0000001
 43
0.0000001
 44
0.0000000001
 40
0.0
 40
0.0
 40
0.0
 40
0.0
 40
0.2092798753
 40
0.444592951
 40
0.7123432609
 40
1.0
 40
1.0
 40
1.0
 40
1.0
 10
82.6307690056
 20
39.326231211
 30
0.0
 10
82.6307690056
 20
39.3172453183
 30
0.0
 10
82.6366603619
 20
39.2979548313
 30
0.0
 10
82.6589560218
 20
39.275747358
 30
0.0
 10
82.6904379219
 20
39.2616311136
 30
0.0
 10
82.7144178295
 20
39.25834896
 30
0.0
 10
82.7267690056
 20
39.25834896
 30
0.0
  0
SPLINE
  5
4A0
100
AcDbEntity
  8
0
100
AcDbSpline
 62
7
  6
CONTINUOUS
 70
0
 71
3
 72
12
 73
8
 74
0
 42
0.0000001
 43
0.0000001
 44
0.0000000001
 40
0.0
 40
0.0
 40
0.0
 40
0.0
 40
0.2874678609
 40
0.554294436
 40
0.7890536075
 40
0.8964041367
 40
1.0
 40
1.0
 40
1.0
 40
1.0
 10
90.0754100468
 20
42.5053832992
 30
0.0
 10
90.1870470883
 20
42.5053832992
 30
0.0
 10
90.4036618163
 20
42.476039313
 30
0.0
 10
90.6872926361
 20
42.3484618914
 30
0.0
 10
90.8602488804
 20
42.1754889941
 30
0.0
 10
90.9302257818
 20
42.0152157946
 30
0.0
 10
90.9419434121
 20
41.9328827367
 30
0.0
 10
90.9419434121
 20
41.8926516804
 30
0.0
  0
SPLINE
  5
4A1
100
AcDbEntity
  8
0
100
AcDbSpline
 62
7
  6
CONTINUOUS
 70
0
 71
3
 72
11
 73
7
 74
0
 42
0.0000001
 43
0.0000001
 44
0.0000000001
 40
0.0
 40
0.0
 40
0.0
 40
0.0
 40
0.2876567391
 40
0.555407049
 40
0.7907201247
 40
1.0
 40
1.0
 40
1.0
 40
1.0
 10
83.4947690056
 20
39.5411916725
 30
0.0
 10
83.5071201816
 20
39.5411916725
 30
0.0
 10
83.5311000892
 20
39.5444738261
 30
0.0
 10
83.5625819894
 20
39.5585900705
 30
0.0
 10
83.5848776493
 20
39.5807975438
 30
0.0
 10
83.5907690056
 20
39.6000880308
 30
0.0
 10
83.5907690056
 20
39.6090739235
 30
0.0
  0
SPLINE
  5
4A2
100
AcDbEntity
  8
0
100
AcDbSpline
 62
7
  6
CONTINUOUS
 70
0
 71
3
 72
11
 73
7
 74
0
 42
0.0000001
 43
0.0000001
 44
0.0000000001
 40
0.0
 40
0.0
 40
0.0
 40
0.0
 40
0.2092798753
 40
0.444592951
 40
0.7123432609
 40
1.0
 40
1.0
 40
1.0
 40
1.0
 10
82.9307690056
 20
41.3400713238
 30
0.0
 10
82.9307690056
 20
41.3490572165
 30
0.0
 10
82.9366603619
 20
41.3683477035
 30
0.0
 10
82.9589560218
 20
41.3905551767
 30
0.0
 10
82.9904379219
 20
41.4046714212
 30
0.0
 10
83.0144178295
 20
41.4079535748
 30
0.0
 10
83.0267690056
 20
41.4079535748
 30
0.0
  0
SPLINE
  5
4A3
100
AcDbEntity
  8
0
100
AcDbSpline
 62
7
  6
CONTINUOUS
 70
0
 71
3
 72
11
 73
7
 74
0
 42
0.0000001
 43
0.0000001
 44
0.0000000001
 40
0.0
 40
0.0
 40
0.0
 40
0.0
 40
0.2876567391
 40
0.555407049
 40
0.7907201247
 40
1.0
 40
1.0
 40
1.0
 40
1.0
 10
83.1947690056
 20
41.4079535748
 30
0.0
 10
83.2071201816
 20
41.4079535748
 30
0.0
 10
83.2311000892
 20
41.4046714212
 30
0.0
 10
83.2625819894
 20
41.3905551767
 30
0.0
 10
83.2848776493
 20
41.3683477035
 30
0.0
 10
83.2907690056
 20
41.3490572165
 30
0.0
 10
83.2907690056
 20
41.3400713238
 30
0.0
  0
SPLINE
  5
4A4
100
AcDbEntity
  8
0
100
AcDbSpline
 62
7
  6
CONTINUOUS
 70
0
 71
3
 72
11
 73
7
 74
0
 42
0.0000001
 43
0.0000001
 44
0.0000000001
 40
0.0
 40
0.0
 40
0.0
 40
0.0
 40
0.2876567391
 40
0.555407049
 40
0.7907201247
 40
1.0
 40
1.0
 40
1.0
 40
1.0
 10
83.4947690056
 20
41.2382479473
 30
0.0
 10
83.5071201816
 20
41.2382479473
 30
0.0
 10
83.5311000892
 20
41.2415301009
 30
0.0
 10
83.5625819894
 20
41.2556463454
 30
0.0
 10
83.5848776493
 20
41.2778538186
 30
0.0
 10
83.5907690056
 20
41.2971443056
 30
0.0
 10
83.5907690056
 20
41.3061301983
 30
0.0
  0
SPLINE
  5
4A5
100
AcDbEntity
  8
0
100
AcDbSpline
 62
7
  6
CONTINUOUS
 70
0
 71
3
 72
11
 73
7
 74
0
 42
0.0000001
 43
0.0000001
 44
0.0000000001
 40
0.0
 40
0.0
 40
0.0
 40
0.0
 40
0.2876567391
 40
0.555407049
 40
0.7907201247
 40
1.0
 40
1.0
 40
1.0
 40
1.0
 10
83.7107690056
 20
42.341334526
 30
0.0
 10
83.7416469457
 20
42.341334526
 30
0.0
 10
83.8015967147
 20
42.3331291419
 30
0.0
 10
83.880301465
 20
42.2978385308
 30
0.0
 10
83.9360406149
 20
42.2423198476
 30
0.0
 10
83.9507690056
 20
42.1940936302
 30
0.0
 10
83.9507690056
 20
42.1716288985
 30
0.0
  0
SPLINE
  5
4A6
100
AcDbEntity
  8
0
100
AcDbSpline
 62
7
  6
CONTINUOUS
 70
0
 71
3
 72
8
 73
4
 74
0
 42
0.0000001
 43
0.0000001
 44
0.0000000001
 40
0.0
 40
0.0
 40
0.0
 40
0.0
 40
1.0
 40
1.0
 40
1.0
 40
1.0
 10
83.7748646363
 20
40.6380272699
 30
0.0
 10
83.7939289708
 20
40.6342852753
 30
0.0
 10
83.812769708
 20
40.6288547818
 30
0.0
 10
83.8307690056
 20
40.6215420082
 30
0.0
  0
SPLINE
  5
4A7
100
AcDbEntity
  8
0
100
AcDbSpline
 62
7
  6
CONTINUOUS
 70
0
 71
3
 72
9
 73
5
 74
0
 42
0.0000001
 43
0.0000001
 44
0.0000000001
 40
0.0
 40
0.0
 40
0.0
 40
0.0
 40
0.5424756321
 40
1.0
 40
1.0
 40
1.0
 40
1.0
 10
83.8307690056
 20
40.6215420082
 30
0.0
 10
83.8639945342
 20
40.6080431055
 30
0.0
 10
83.9225865628
 20
40.5712958081
 30
0.0
 10
83.9507690056
 20
40.5048195215
 30
0.0
 10
83.9507690056
 20
40.4745726236
 30
0.0
  0
SPLINE
  5
4A8
100
AcDbEntity
  8
0
100
AcDbSpline
 62
7
  6
CONTINUOUS
 70
0
 71
3
 72
9
 73
5
 74
0
 42
0.0000001
 43
0.0000001
 44
0.0000000001
 40
0.0
 40
0.0
 40
0.0
 40
0.0
 40
0.4575243679
 40
1.0
 40
1.0
 40
1.0
 40
1.0
 10
82.2707690056
 20
40.4745726236
 30
0.0
 10
82.2707690056
 20
40.5048195215
 30
0.0
 10
82.2989514484
 20
40.5712958081
 30
0.0
 10
82.357543477
 20
40.6080431055
 30
0.0
 10
82.3907690056
 20
40.6215420082
 30
0.0
  0
SPLINE
  5
4A9
100
AcDbEntity
  8
0
100
AcDbSpline
 62
7
  6
CONTINUOUS
 70
0
 71
3
 72
9
 73
5
 74
0
 42
0.0000001
 43
0.0000001
 44
0.0000000001
 40
0.0
 40
0.0
 40
0.0
 40
0.0
 40
0.2441493338
 40
1.0
 40
1.0
 40
1.0
 40
1.0
 10
82.3907690056
 20
40.6215420082
 30
0.0
 10
82.4000094513
 20
40.6252962262
 30
0.0
 10
82.4386823141
 20
40.638580055
 30
0.0
 10
82.4798910655
 20
40.6442782511
 30
0.0
 10
82.5107690056
 20
40.6442782511
 30
0.0
  0
SPLINE
  5
4AA
100
AcDbEntity
  8
0
100
AcDbSpline
 62
7
  6
CONTINUOUS
 70
0
 71
3
 72
11
 73
7
 74
0
 42
0.0000001
 43
0.0000001
 44
0.0000000001
 40
0.0
 40
0.0
 40
0.0
 40
0.0
 40
0.2092798753
 40
0.444592951
 40
0.7123432609
 40
1.0
 40
1.0
 40
1.0
 40
1.0
 10
82.2707690056
 20
42.1716288985
 30
0.0
 10
82.2707690056
 20
42.1940936302
 30
0.0
 10
82.2854973963
 20
42.2423198476
 30
0.0
 10
82.3412365462
 20
42.2978385308
 30
0.0
 10
82.4199412965
 20
42.3331291419
 30
0.0
 10
82.4798910655
 20
42.341334526
 30
0.0
 10
82.5107690056
 20
42.341334526
 30
0.0
  0
SPLINE
  5
4AB
100
AcDbEntity
  8
0
100
AcDbSpline
 62
7
  6
CONTINUOUS
 70
0
 71
3
 72
9
 73
5
 74
0
 42
0.0000001
 43
0.0000001
 44
0.0000000001
 40
0.0
 40
0.0
 40
0.0
 40
0.0
 40
0.538986273
 40
1.0
 40
1.0
 40
1.0
 40
1.0
 10
85.0307690056
 20
38.6078107213
 30
0.0
 10
85.1216948613
 20
38.6078107213
 30
0.0
 10
85.2922793305
 20
38.6397305113
 30
0.0
 10
85.4349659917
 20
38.7502026791
 30
0.0
 10
85.4742311812
 20
38.8173349122
 30
0.0
  0
SPLINE
  5
4AC
100
AcDbEntity
  8
0
100
AcDbSpline
 62
7
  6
CONTINUOUS
 70
0
 71
3
 72
9
 73
5
 74
0
 42
0.0000001
 43
0.0000001
 44
0.0000000001
 40
0.0
 40
0.0
 40
0.0
 40
0.0
 40
0.2592261758
 40
1.0
 40
1.0
 40
1.0
 40
1.0
 10
85.4742311812
 20
38.8173349122
 30
0.0
 10
85.480155904
 20
38.827464492
 30
0.0
 10
85.5006545725
 20
38.8678475382
 30
0.0
 10
85.5107690056
 20
38.913687567
 30
0.0
 10
85.5107690056
 20
38.9472219763
 30
0.0
  0
SPLINE
  5
4AD
100
AcDbEntity
  8
RUNDUNGEN
100
AcDbSpline
 62
7
  6
CONTINUOUS
 70
0
 71
3
 72
11
 73
7
 74
0
 42
0.0000001
 43
0.0000001
 44
0.0000000001
 40
0.0
 40
0.0
 40
0.0
 40
0.0
 40
0.2660806488
 40
0.5190943636
 40
0.7622194616
 40
1.0
 40
1.0
 40
1.0
 40
1.0
 10
106.9662504376
 20
19.9710064104
 30
0.0
 10
106.6254874049
 20
20.3151270289
 30
0.0
 10
106.0121353825
 20
21.0408189753
 30
0.0
 10
105.3177783511
 20
22.2513080851
 30
0.0
 10
104.8920826437
 20
23.5270929653
 30
0.0
 10
104.7960749537
 20
24.4051813803
 30
0.0
 10
104.796074969
 20
24.8379642233
 30
0.0
  0
SPLINE
  5
4AE
100
AcDbEntity
  8
RUNDUNGEN
100
AcDbSpline
 62
7
  6
CONTINUOUS
 70
0
 71
3
 72
12
 73
8
 74
0
 42
0.0000001
 43
0.0000001
 44
0.0000000001
 40
0.0
 40
0.0
 40
0.0
 40
0.0
 40
0.252259356
 40
0.5153839756
 40
0.6451803977
 40
0.7704553584
 40
1.0
 40
1.0
 40
1.0
 40
1.0
 10
82.2210577804
 20
49.891229125
 30
0.0
 10
81.7741358525
 20
49.6699484703
 30
0.0
 10
80.7806536716
 20
49.3728996678
 30
0.0
 10
79.4894165399
 20
49.3542490135
 30
0.0
 10
78.4804249784
 20
49.5518714252
 30
0.0
 10
77.5759982742
 20
49.8719831124
 30
0.0
 10
76.9694498076
 20
50.2633697197
 30
0.0
 10
76.6501438579
 20
50.5858218357
 30
0.0
  0
SPLINE
  5
4AF
100
AcDbEntity
  8
RUNDUNGEN
100
AcDbSpline
 62
7
  6
CONTINUOUS
 70
0
 71
3
 72
12
 73
8
 74
0
 42
0.0000001
 43
0.0000001
 44
0.0000000001
 40
0.0
 40
0.0
 40
0.0
 40
0.0
 40
0.2295488423
 40
0.3548243544
 40
0.4846199331
 40
0.7477426437
 40
1.0
 40
1.0
 40
1.0
 40
1.0
 10
113.3535956132
 20
47.9901111946
 30
0.0
 10
113.0342838245
 20
47.6676531821
 30
0.0
 10
112.4277254607
 20
47.2762628059
 30
0.0
 10
111.5232895224
 20
46.95615425
 30
0.0
 10
110.5143014456
 20
46.7585372313
 30
0.0
 10
109.2230741115
 20
46.7771920472
 30
0.0
 10
108.2296000697
 20
47.0742395863
 30
0.0
 10
107.7826816906
 20
47.2955184839
 30
0.0
  0
SPLINE
  5
4B0
100
AcDbEntity
  8
RUNDUNGEN
100
AcDbSpline
 62
7
  6
CONTINUOUS
 70
0
 71
3
 72
10
 73
6
 74
0
 42
0.0000001
 43
0.0000001
 44
0.0000000001
 40
0.0
 40
0.0
 40
0.0
 40
0.0
 40
0.4921466003
 40
0.7448860733
 40
1.0
 40
1.0
 40
1.0
 40
1.0
 10
82.9591871008
 20
115.4028213619
 30
0.0
 10
82.2088572038
 20
115.4028213619
 30
0.0
 10
81.073617032
 20
115.3598228255
 30
0.0
 10
79.5498624338
 20
115.3108885705
 30
0.0
 10
78.7755473956
 20
115.3010351918
 30
0.0
 10
78.3865990492
 20
115.3010351918
 30
0.0
  0
SPLINE
  5
4B1
100
AcDbEntity
  8
KONSTRUKTIONSELEMENTE
100
AcDbSpline
 62
7
  6
CONTINUOUS
 70
0
 71
3
 72
9
 73
5
 74
0
 42
0.0000001
 43
0.0000001
 44
0.0000000001
 40
0.0
 40
0.0
 40
0.0
 40
0.0
 40
0.479507891
 40
1.0
 40
1.0
 40
1.0
 40
1.0
 10
108.1043046946
 20
78.1528213619
 30
0.0
 10
108.1165120201
 20
78.1528213619
 30
0.0
 10
108.1424967304
 20
78.1590136812
 30
0.0
 10
108.1617595187
 20
78.1770746375
 30
0.0
 10
108.169965323
 20
78.1874787667
 30
0.0
  0
SPLINE
  5
4B2
100
AcDbEntity
  8
KONSTRUKTIONSELEMENTE
100
AcDbSpline
 62
7
  6
CONTINUOUS
 70
0
 71
3
 72
21
 73
17
 74
0
 42
0.0000001
 43
0.0000001
 44
0.0000000001
 40
0.0
 40
0.0
 40
0.0
 40
0.0
 40
0.0053166595
 40
0.0124270584
 40
0.0215455055
 40
0.0327520286
 40
0.0615127469
 40
0.0986478275
 40
0.1438603301
 40
0.1967097028
 40
0.2566628089
 40
0.3230985835
 40
0.4726242288
 40
0.6393519206
 40
0.8170971932
 40
1.0
 40
1.0
 40
1.0
 40
1.0
 10
108.169965323
 20
78.1874787667
 30
0.0
 10
108.1827930681
 20
78.2037430489
 30
0.0
 10
108.2040063267
 20
78.2483214947
 30
0.0
 10
108.2233495038
 20
78.3301513936
 30
0.0
 10
108.2350753983
 20
78.4366306435
 30
0.0
 10
108.2405458128
 20
78.6278982525
 30
0.0
 10
108.2233005488
 20
78.9282409801
 30
0.0
 10
108.1735748764
 20
79.3583376006
 30
0.0
 10
108.0919232244
 20
79.8788463933
 30
0.0
 10
107.9782373108
 20
80.483963295
 30
0.0
 10
107.8322313901
 20
81.1669279887
 30
0.0
 10
107.5842476427
 20
82.2129940855
 30
0.0
 10
107.1938777871
 20
83.6524505398
 30
0.0
 10
106.6138005509
 20
85.4882500369
 30
0.0
 10
105.9041000662
 20
87.417342719
 30
0.0
 10
105.3467880827
 20
88.7083626138
 30
0.0
 10
105.0426819457
 20
89.3528213619
 30
0.0
  0
SPLINE
  5
4B3
100
AcDbEntity
  8
KONSTRUKTIONSELEMENTE
100
AcDbSpline
 62
7
  6
CONTINUOUS
 70
0
 71
3
 72
9
 73
5
 74
0
 42
0.0000001
 43
0.0000001
 44
0.0000000001
 40
0.0
 40
0.0
 40
0.0
 40
0.0
 40
0.2510778321
 40
1.0
 40
1.0
 40
1.0
 40
1.0
 10
97.3805831938
 20
101.1351728046
 30
0.0
 10
97.7214803597
 20
101.0774807462
 30
0.0
 10
99.0749932603
 20
100.8236617043
 30
0.0
 10
100.4106382569
 20
100.4726974007
 30
0.0
 10
101.3910728417
 20
100.1528213619
 30
0.0
  0
SPLINE
  5
4B4
100
AcDbEntity
  8
KONSTRUKTIONSELEMENTE
100
AcDbSpline
 62
7
  6
CONTINUOUS
 70
0
 71
3
 72
9
 73
5
 74
0
 42
0.0000001
 43
0.0000001
 44
0.0000000001
 40
0.0
 40
0.0
 40
0.0
 40
0.0
 40
0.248984136
 40
1.0
 40
1.0
 40
1.0
 40
1.0
 10
83.3700935459
 20
100.1528213619
 30
0.0
 10
83.6960503551
 20
100.259167848
 30
0.0
 10
85.0134530476
 20
100.6606856579
 30
0.0
 10
86.3608875226
 20
100.9626036309
 30
0.0
 10
87.3805831938
 20
101.1351728046
 30
0.0
  0
SPLINE
  5
4B5
100
AcDbEntity
  8
KONSTRUKTIONSELEMENTE
100
AcDbSpline
 62
7
  6
CONTINUOUS
 70
0
 71
3
 72
13
 73
9
 74
0
 42
0.0000001
 43
0.0000001
 44
0.0000000001
 40
0.0
 40
0.0
 40
0.0
 40
0.0
 40
0.1249922982
 40
0.250000124
 40
0.3750360511
 40
0.500088215
 40
0.7499603233
 40
1.0
 40
1.0
 40
1.0
 40
1.0
 10
80.4242011323
 20
95.9932213619
 30
0.0
 10
80.4242011323
 20
96.2142817757
 30
0.0
 10
80.4714277488
 20
96.6577282677
 30
0.0
 10
80.6725664178
 20
97.2936119954
 30
0.0
 10
80.9786446942
 20
97.8852472887
 30
0.0
 10
81.4920806017
 20
98.6078460094
 30
0.0
 10
82.280078012
 20
99.3934391213
 30
0.0
 10
82.9975753034
 20
99.9145208525
 30
0.0
 10
83.3700935459
 20
100.1528213619
 30
0.0
  0
SPLINE
  5
4B6
100
AcDbEntity
  8
KONSTRUKTIONSELEMENTE
100
AcDbSpline
 62
7
  6
CONTINUOUS
 70
0
 71
3
 72
10
 73
6
 74
0
 42
0.0000001
 43
0.0000001
 44
0.0000000001
 40
0.0
 40
0.0
 40
0.0
 40
0.0
 40
0.4997344889
 40
0.7498860004
 40
1.0
 40
1.0
 40
1.0
 40
1.0
 10
79.7184844419
 20
89.3528213619
 30
0.0
 10
79.9287244627
 20
89.7983599556
 30
0.0
 10
80.1963259758
 20
90.4938010268
 30
0.0
 10
80.3904493617
 20
91.4624282767
 30
0.0
 10
80.4242011323
 20
91.9562523519
 30
0.0
 10
80.4242011323
 20
92.2028213619
 30
0.0
  0
SPLINE
  5
4B7
100
AcDbEntity
  8
KONSTRUKTIONSELEMENTE
100
AcDbSpline
 62
7
  6
CONTINUOUS
 70
0
 71
3
 72
10
 73
6
 74
0
 42
0.0000001
 43
0.0000001
 44
0.0000000001
 40
0.0
 40
0.0
 40
0.0
 40
0.0
 40
0.2501139996
 40
0.5002655111
 40
1.0
 40
1.0
 40
1.0
 40
1.0
 10
104.3369652553
 20
92.2028213619
 30
0.0
 10
104.3369652553
 20
91.9562523519
 30
0.0
 10
104.3707170259
 20
91.4624282767
 30
0.0
 10
104.5648404118
 20
90.4938010268
 30
0.0
 10
104.8324419249
 20
89.7983599556
 30
0.0
 10
105.0426819457
 20
89.3528213619
 30
0.0
  0
SPLINE
  5
4B8
100
AcDbEntity
  8
KONSTRUKTIONSELEMENTE
100
AcDbSpline
 62
7
  6
CONTINUOUS
 70
0
 71
3
 72
13
 73
9
 74
0
 42
0.0000001
 43
0.0000001
 44
0.0000000001
 40
0.0
 40
0.0
 40
0.0
 40
0.0
 40
0.2500391972
 40
0.4999110847
 40
0.6249632831
 40
0.7499993906
 40
0.875007397
 40
1.0
 40
1.0
 40
1.0
 40
1.0
 10
101.3910728417
 20
100.1528213619
 30
0.0
 10
101.7635903696
 20
99.9145213096
 30
0.0
 10
102.4810866935
 20
99.3934403856
 30
0.0
 10
103.2690836097
 20
98.6078484937
 30
0.0
 10
103.7825199607
 20
97.8852500968
 30
0.0
 10
104.0885989013
 20
97.2936143696
 30
0.0
 10
104.2897385332
 20
96.6577296938
 30
0.0
 10
104.3369652553
 20
96.2142823147
 30
0.0
 10
104.3369652553
 20
95.9932213619
 30
0.0
  0
SPLINE
  5
4B9
100
AcDbEntity
  8
RUNDUNGEN
100
AcDbSpline
 62
7
  6
CONTINUOUS
 70
0
 71
3
 72
16
 73
12
 74
0
 42
0.0000001
 43
0.0000001
 44
0.0000000001
 40
0.0
 40
0.0
 40
0.0
 40
0.0
 40
0.0242874348
 40
0.0512771385
 40
0.082901453
 40
0.1202969766
 40
0.2141635644
 40
0.3338260053
 40
0.4770520394
 40
0.6397399996
 40
1.0
 40
1.0
 40
1.0
 40
1.0
 10
115.3805831938
 20
99.1882042691
 30
0.0
 10
115.3805831938
 20
99.219677275
 30
0.0
 10
115.3677757836
 20
99.2865452548
 30
0.0
 10
115.31374476
 20
99.380982982
 30
0.0
 10
115.2274213371
 20
99.4717531333
 30
0.0
 10
115.057304523
 20
99.5979146105
 30
0.0
 10
114.7617862313
 20
99.7391027484
 30
0.0
 10
114.3209288724
 20
99.8801397613
 30
0.0
 10
113.7812819753
 20
99.9974765747
 30
0.0
 10
112.9261966971
 20
100.1191134809
 30
0.0
 10
112.2474280963
 20
100.1528213619
 30
0.0
 10
111.7805831938
 20
100.1528213619
 30
0.0
  0
SPLINE
  5
4BA
100
AcDbEntity
  8
RUNDUNGEN
100
AcDbSpline
 62
7
  6
CONTINUOUS
 70
0
 71
3
 72
16
 73
12
 74
0
 42
0.0000001
 43
0.0000001
 44
0.0000000001
 40
0.0
 40
0.0
 40
0.0
 40
0.0
 40
0.0242874348
 40
0.0512771385
 40
0.082901453
 40
0.1202969766
 40
0.2141635644
 40
0.3338260053
 40
0.4770520394
 40
0.6397399996
 40
1.0
 40
1.0
 40
1.0
 40
1.0
 10
115.3805831938
 20
104.3843566918
 30
0.0
 10
115.3805831938
 20
104.4158296977
 30
0.0
 10
115.3677757836
 20
104.4826976775
 30
0.0
 10
115.31374476
 20
104.5771354047
 30
0.0
 10
115.2274213371
 20
104.667905556
 30
0.0
 10
115.057304523
 20
104.7940670332
 30
0.0
 10
114.7617862313
 20
104.9352551711
 30
0.0
 10
114.3209288724
 20
105.076292184
 30
0.0
 10
113.7812819753
 20
105.1936289974
 30
0.0
 10
112.9261966971
 20
105.3152659036
 30
0.0
 10
112.2474280963
 20
105.3489737846
 30
0.0
 10
111.7805831938
 20
105.3489737846
 30
0.0
  0
SPLINE
  5
4BB
100
AcDbEntity
  8
RUNDUNGEN
100
AcDbSpline
 62
7
  6
CONTINUOUS
 70
0
 71
3
 72
9
 73
5
 74
0
 42
0.0000001
 43
0.0000001
 44
0.0000000001
 40
0.0
 40
0.0
 40
0.0
 40
0.0
 40
0.4847438183
 40
1.0
 40
1.0
 40
1.0
 40
1.0
 10
111.8337943071
 20
114.8763781525
 30
0.0
 10
111.4619766936
 20
115.0356068995
 30
0.0
 10
110.6478374708
 20
115.2558460934
 30
0.0
 10
109.8108276952
 20
115.3122365961
 30
0.0
 10
109.3809506944
 20
115.305019315
 30
0.0
  0
SPLINE
  5
4BC
100
AcDbEntity
  8
KONSTRUKTIONSELEMENTE
100
AcDbSpline
 62
7
  6
CONTINUOUS
 70
0
 71
3
 72
25
 73
21
 74
0
 42
0.0000001
 43
0.0000001
 44
0.0000000001
 40
0.0
 40
0.0
 40
0.0
 40
0.0
 40
0.1909707776
 40
0.3759533983
 40
0.4641013487
 40
0.5481534307
 40
0.6272170623
 40
0.7004235274
 40
0.7669433979
 40
0.8260210664
 40
0.8769818435
 40
0.9192661429
 40
0.937021355
 40
0.952466139
 40
0.9655806471
 40
0.9763782016
 40
0.9849111964
 40
0.9913276338
 40
0.9960309752
 40
1.0
 40
1.0
 40
1.0
 40
1.0
 10
79.7184844419
 20
89.3528213619
 30
0.0
 10
79.3988964788
 20
88.6755536794
 30
0.0
 10
78.8163944351
 20
87.3199163465
 30
0.0
 10
78.1943712838
 20
85.6087012087
 30
0.0
 10
77.7646041355
 20
84.2754730995
 30
0.0
 10
77.4837394477
 20
83.3309413657
 30
0.0
 10
77.2390216891
 20
82.4370343463
 30
0.0
 10
77.0303686281
 20
81.6047451147
 30
0.0
 10
76.857651759
 20
80.8444476419
 30
0.0
 10
76.7207073056
 20
80.1656727805
 30
0.0
 10
76.6193836281
 20
79.57692014
 30
0.0
 10
76.5611453753
 20
79.1453743705
 30
0.0
 10
76.5341508655
 20
78.8505508323
 30
0.0
 10
76.5240136153
 20
78.6691689974
 30
0.0
 10
76.5226720958
 20
78.5147477586
 30
0.0
 10
76.5300101303
 20
78.387634904
 30
0.0
 10
76.5459951725
 20
78.2875747079
 30
0.0
 10
76.5705377497
 20
78.2142214015
 30
0.0
 10
76.6064320336
 20
78.1643727743
 30
0.0
 10
76.6412973165
 20
78.1528213619
 30
0.0
 10
76.656861693
 20
78.1528213619
 30
0.0
  0
SPLINE
  5
4BD
100
AcDbEntity
  8
RUNDUNGEN
100
AcDbSpline
 62
7
  6
CONTINUOUS
 70
0
 71
3
 72
10
 73
6
 74
0
 42
0.0000001
 43
0.0000001
 44
0.0000000001
 40
0.0
 40
0.0
 40
0.0
 40
0.0
 40
0.2551138715
 40
0.5078532373
 40
1.0
 40
1.0
 40
1.0
 40
1.0
 10
106.3745673384
 20
115.3010351918
 30
0.0
 10
105.9856179777
 20
115.3010351918
 30
0.0
 10
105.2113009987
 20
115.3108885373
 30
0.0
 10
103.6875421071
 20
115.3598232909
 30
0.0
 10
102.5522986305
 20
115.4028213619
 30
0.0
 10
101.8019663667
 20
115.4028213619
 30
0.0
  0
SPLINE
  5
4BE
100
AcDbEntity
  8
RUNDUNGEN
100
AcDbSpline
 62
7
  6
CONTINUOUS
 70
0
 71
3
 72
16
 73
12
 74
0
 42
0.0000001
 43
0.0000001
 44
0.0000000001
 40
0.0
 40
0.0
 40
0.0
 40
0.0
 40
0.0242874348
 40
0.0512771385
 40
0.082901453
 40
0.1202969766
 40
0.2141635644
 40
0.3338260053
 40
0.4770520394
 40
0.6397399996
 40
1.0
 40
1.0
 40
1.0
 40
1.0
 10
69.3805831938
 20
104.3843566918
 30
0.0
 10
69.3805831938
 20
104.4158296977
 30
0.0
 10
69.393390604
 20
104.4826976775
 30
0.0
 10
69.4474216276
 20
104.5771354047
 30
0.0
 10
69.5337450505
 20
104.667905556
 30
0.0
 10
69.7038618646
 20
104.7940670332
 30
0.0
 10
69.9993801563
 20
104.9352551711
 30
0.0
 10
70.4402375152
 20
105.076292184
 30
0.0
 10
70.9798844123
 20
105.1936289974
 30
0.0
 10
71.8349696905
 20
105.3152659036
 30
0.0
 10
72.5137382913
 20
105.3489737846
 30
0.0
 10
72.9805831938
 20
105.3489737846
 30
0.0
  0
SPLINE
  5
4BF
100
AcDbEntity
  8
RUNDUNGEN
100
AcDbSpline
 62
7
  6
CONTINUOUS
 70
0
 71
3
 72
9
 73
5
 74
0
 42
0.0000001
 43
0.0000001
 44
0.0000000001
 40
0.0
 40
0.0
 40
0.0
 40
0.0
 40
0.5152567055
 40
1.0
 40
1.0
 40
1.0
 40
1.0
 10
75.3805831938
 20
115.3050131246
 30
0.0
 10
74.9506432945
 20
115.312252675
 30
0.0
 10
74.1135081489
 20
115.2558861436
 30
0.0
 10
73.2992436259
 20
115.0356299955
 30
0.0
 10
72.9273720805
 20
114.8763781525
 30
0.0
  0
SPLINE
  5
4C0
100
AcDbEntity
  8
RUNDUNGEN
100
AcDbSpline
 62
7
  6
CONTINUOUS
 70
0
 71
3
 72
16
 73
12
 74
0
 42
0.0000001
 43
0.0000001
 44
0.0000000001
 40
0.0
 40
0.0
 40
0.0
 40
0.0
 40
0.3602600004
 40
0.5229479606
 40
0.6661739947
 40
0.7858364356
 40
0.8797030234
 40
0.917098547
 40
0.9487228615
 40
0.9757125652
 40
1.0
 40
1.0
 40
1.0
 40
1.0
 10
72.9805831938
 20
100.1528213619
 30
0.0
 10
72.5137382913
 20
100.1528213619
 30
0.0
 10
71.8349696905
 20
100.1191134809
 30
0.0
 10
70.9798844123
 20
99.9974765747
 30
0.0
 10
70.4402375152
 20
99.8801397613
 30
0.0
 10
69.9993801563
 20
99.7391027484
 30
0.0
 10
69.7038618646
 20
99.5979146105
 30
0.0
 10
69.5337450505
 20
99.4717531333
 30
0.0
 10
69.4474216276
 20
99.380982982
 30
0.0
 10
69.393390604
 20
99.2865452548
 30
0.0
 10
69.3805831938
 20
99.219677275
 30
0.0
 10
69.3805831938
 20
99.1882042691
 30
0.0
  0
ELLIPSE
  5
4C1
100
AcDbEntity
  8
0
100
AcDbEllipse
 62
7
  6
CONTINUOUS
 10
344.1743655907
 20
109.4028213619
 30
0.0
 11
-0.9758284841
 21
5.9793501608
 31
0.0
 40
0.5096845585
 41
-1.6537856735
 42
-0.5409540901
  0
ELLIPSE
  5
4C2
100
AcDbEntity
  8
RUNDUNGEN
100
AcDbEllipse
 62
7
  6
CONTINUOUS
 10
356.4401006624
 20
109.4028213619
 30
0.0
 11
0.9758284841
 21
5.9793501608
 31
0.0
 40
0.5096845585
 41
0.5409540901
 42
1.6537856735
  0
ENDSEC
  0
SECTION
  2
OBJECTS
  0
DICTIONARY
  5
C
100
AcDbDictionary
280
0
281
1
  3
ACAD_GROUP
350
D
  3
ACAD_MLINESTYLE
350
17
  3
ACAD_LAYOUT
350
1A
  3
ACAD_PLOTSETTINGS
350
19
  3
ACAD_PLOTSTYLENAME
350
E
  0
DICTIONARY
  5
D
102
{ACAD_REACTORS
330
C
102
}
100
AcDbDictionary
280
0
281
1
  0
ACDBDICTIONARYWDFLT
  5
E
102
{ACAD_REACTORS
330
C
102
}
100
AcDbDictionary
281
1
  3
Normal
350
F
100
AcDbDictionaryWithDefault
340
F
  0
DICTIONARY
  5
17
102
{ACAD_REACTORS
330
C
102
}
100
AcDbDictionary
280
0
281
1
  3
Standard
350
18
  0
DICTIONARY
  5
19
102
{ACAD_REACTORS
330
C
102
}
100
AcDbDictionary
281
1
  0
DICTIONARY
  5
1A
102
{ACAD_REACTORS
330
C
102
}
100
AcDbDictionary
281
1
  3
Model
350
4C3
  3
Layout1
350
4C4
  0
ACDBPLACEHOLDER
  5
F
102
{ACAD_REACTORS
330
E
102
}
  0
MLINESTYLE
  5
18
102
{ACAD_REACTORS
330
17
102
}
100
AcDbMlineStyle
  2
STANDARD
 70
0
  3

 62
256
 51
90.0
 52
90.0
 71
2
 49
0.5
 62
256
  6
BYLAYER
 49
-0.5
 62
256
  6
BYLAYER
  0
LAYOUT
  5
4C3
102
{ACAD_REACTORS
330
1A
102
}
100
AcDbPlotSettings
  1

  2
none_device
  4
ISO_A3_(420.00_x_297.00_MM)
  6

 40
0.0
 41
0.0
 42
0.0
 43
0.0
 44
420.0
 45
297.0
 46
0.0
 47
0.0
 48
0.0
 49
0.0
140
0.0
141
0.0
142
1.0
143
1.0
 70
1024
 72
1
 73
0
 74
0
  7

 75
0
147
1.0
148
0.0
149
0.0
100
AcDbLayout
  1
Model
 70
0
 71
0
 10
0.0
 20
0.0
 11
420.0
 21
297.0
 12
0.0
 22
0.0
 32
0.0
 14
0.0
 24
0.0
 34
0.0
 15
0.0
 25
0.0
 35
0.0
146
0.0
 13
0.0
 23
0.0
 33
0.0
 16
1.0
 26
0.0
 36
0.0
 17
0.0
 27
1.0
 37
0.0
 76
0
330
20A
345
0
346
0
  0
LAYOUT
  5
4C4
102
{ACAD_REACTORS
330
1A
102
}
100
AcDbPlotSettings
  1

  2
none_device
  4
ISO_A3_(420.00_x_297.00_MM)
  6

 40
0.0
 41
0.0
 42
0.0
 43
0.0
 44
420.0
 45
297.0
 46
0.0
 47
0.0
 48
0.0
 49
0.0
140
0.0
141
0.0
142
1.0
143
1.0
 70
0
 72
1
 73
0
 74
0
  7

 75
0
147
1.0
148
0.0
149
0.0
100
AcDbLayout
  1
Layout1
 70
0
 71
1
 10
0.0
 20
0.0
 11
420.0
 21
297.0
 12
0.0
 22
0.0
 32
0.0
 14
0.0
 24
0.0
 34
0.0
 15
0.0
 25
0.0
 35
0.0
146
0.0
 13
0.0
 23
0.0
 33
0.0
 16
1.0
 26
0.0
 36
0.0
 17
0.0
 27
1.0
 37
0.0
 76
0
330
20B
345
0
346
0
  0
ENDSEC
  0
EOF
