999
DXF file: IAK-RG-1-6_7903009_M34539-P-1.dxf
999
Pro/ENGINEER 2010140 by Parametric Technology Corporation
  0
SECTION
  2
HEADER
  9
$ACADVER
  1
AC1015
  9
$DWGCODEPAGE
  3
ANSI_1252
  9
$EXTMAX
 10
420.0
 20
297.0
 30
0.0
  9
$EXTMIN
 10
0.0
 20
0.0
 30
0.0
  9
$LIMMIN
 10
0.0
 20
0.0
  9
$LIMMAX
 10
420.0
 20
297.0
  9
$VIEWCTR
 10
210.0
 20
148.5
  9
$VIEWSIZE
 40
297.0
  9
$CLAYER
  8
0
  9
$LTSCALE
 40
23.1
  9
$CELTYPE
  6
BYLAYER
  9
$DIMSCALE
 40
1.0
  9
$DIMASZ
 40
3.5
  9
$DIMEXO
 40
2.625
  9
$DIMDLI
 40
15.96
  9
$DIMEXE
 40
7.56
  9
$DIMCEN
 40
3.78
  9
$DIMLFAC
 40
1.0
  9
$DIMBLK
  1
_FILLED
  9
$DIMTXT
 40
3.5
  9
$DIMTOL
 70
1
  9
$DIMLIM
 70
0
  9
$DIMTFAC
 40
1.0
  9
$DIMTP
 40
0.005
  9
$DIMTM
 40
0.005
  9
$PDMODE
 70
3
  9
$PDSIZE
 40
0.3125
  9
$HANDSEED
  5
4C2
  9
$TILEMODE
 70
1
  9
$MEASUREMENT
 70
1
  9
$INSUNITS
 70
4
  0
ENDSEC
  0
SECTION
  2
CLASSES
  0
CLASS
  1
ACDBDICTIONARYWDFLT
  2
AcDbDictionaryWithDefault
  3
AutoCAD 2000
 90
0
280
0
281
0
  0
CLASS
  1
ACDBPLACEHOLDER
  2
AcDbPlaceHolder
  3
AutoCAD 2000
 90
0
280
0
281
0
  0
CLASS
  1
LAYOUT
  2
AcDbLayout
  3
AutoCAD 2000
 90
0
280
0
281
0
  0
ENDSEC
  0
SECTION
  2
TABLES
  0
TABLE
  2
VPORT
  5
8
100
AcDbSymbolTable
 70
2
  0
VPORT
  5
1F4
100
AcDbSymbolTableRecord
100
AcDbViewportTableRecord
  2
*ACTIVE
 70
0
 10
0.0
 20
0.0
 11
1.0
 21
1.0
 12
210.0
 22
148.5
 13
0.0
 23
0.0
 14
1.0
 24
1.0
 15
0.0
 25
0.0
 16
0.0
 26
0.0
 36
1.0
 17
0.0
 27
0.0
 37
0.0
 40
297.0
 41
1.4141414141
 42
50.0
 43
0.0
 44
0.0
 50
0.0
 51
0.0
 71
0
 72
100
 73
1
 74
1
 75
0
 76
0
 77
0
 78
0
  0
ENDTAB
  0
TABLE
  2
LTYPE
  5
5
100
AcDbSymbolTable
 70
6
  0
LTYPE
  5
14
100
AcDbSymbolTableRecord
100
AcDbLinetypeTableRecord
  2
BYBLOCK
 70
0
  3

 72
65
 73
0
 40
0.0
  0
LTYPE
  5
15
100
AcDbSymbolTableRecord
100
AcDbLinetypeTableRecord
  2
BYLAYER
 70
0
  3

 72
65
 73
0
 40
0.0
  0
LTYPE
  5
16
100
AcDbSymbolTableRecord
100
AcDbLinetypeTableRecord
  2
CONTINUOUS
 70
64
  3
Solid line
 72
65
 73
0
 40
0.0
  0
LTYPE
  5
1F5
100
AcDbSymbolTableRecord
100
AcDbLinetypeTableRecord
  2
CENTER
 70
64
  3
____ _ ____ _ ____ _ ____ _ ____ _ ____ _ ____
 72
65
 73
4
 40
0.6
 49
0.375
 74
0
 49
-0.075
 74
0
 49
0.075
 74
0
 49
-0.075
 74
0
  0
LTYPE
  5
1F6
100
AcDbSymbolTableRecord
100
AcDbLinetypeTableRecord
  2
HIDDEN
 70
64
  3
- - - - - - - - - - - - - - - - - - - -
 72
65
 73
2
 40
0.2
 49
0.1
 74
0
 49
-0.1
 74
0
  0
LTYPE
  5
1F7
100
AcDbSymbolTableRecord
100
AcDbLinetypeTableRecord
  2
PHANTOM
 70
64
  3
_____ _ _ _____ _ _ _____ _ _ _____
 72
65
 73
6
 40
0.8
 49
0.45
 74
0
 49
-0.05
 74
0
 49
0.1
 74
0
 49
-0.05
 74
0
 49
0.1
 74
0
 49
-0.05
 74
0
  0
LTYPE
  5
1F8
100
AcDbSymbolTableRecord
100
AcDbLinetypeTableRecord
  2
DOT
 70
64
  3
. . . . . . . . . . . . . . . . . . . .
 72
65
 73
2
 40
0.2
 49
0.1
 74
0
 49
-0.1
 74
0
  0
LTYPE
  5
1F9
100
AcDbSymbolTableRecord
100
AcDbLinetypeTableRecord
  2
DASHED
 70
64
  3
- - - - - - - - - - - - - - - - - - - -
 72
65
 73
2
 40
0.2
 49
0.1
 74
0
 49
-0.1
 74
0
  0
ENDTAB
  0
TABLE
  2
LAYER
  5
2
100
AcDbSymbolTable
 70
36
  0
LAYER
  5
10
100
AcDbSymbolTableRecord
100
AcDbLayerTableRecord
  2
0
 70
0
 62
7
  6
CONTINUOUS
370
-3
390
F
  0
LAYER
  5
1FA
100
AcDbSymbolTableRecord
100
AcDbLayerTableRecord
  2
DEFAULT_1
 70
0
 62
7
  6
CENTER
370
-3
390
F
  0
LAYER
  5
1FB
100
AcDbSymbolTableRecord
100
AcDbLayerTableRecord
  2
DEFAULT_2
 70
0
 62
8
  6
HIDDEN
370
-3
390
F
  0
LAYER
  5
1FC
100
AcDbSymbolTableRecord
100
AcDbLayerTableRecord
  2
DEFAULT_3
 70
0
 62
7
  6
PHANTOM
370
-3
390
F
  0
LAYER
  5
1FD
100
AcDbSymbolTableRecord
100
AcDbLayerTableRecord
  2
BEZUGSACHSEN
 70
0
 62
7
  6
CONTINUOUS
370
-3
390
F
  0
LAYER
  5
1FE
100
AcDbSymbolTableRecord
100
AcDbLayerTableRecord
  2
BEZUGSEBENEN
 70
0
 62
7
  6
CONTINUOUS
370
-3
390
F
  0
LAYER
  5
1FF
100
AcDbSymbolTableRecord
100
AcDbLayerTableRecord
  2
BG_STARTBEZUEGE
 70
0
 62
7
  6
CONTINUOUS
370
-3
390
F
  0
LAYER
  5
200
100
AcDbSymbolTableRecord
100
AcDbLayerTableRecord
  2
FASEN
 70
0
 62
7
  6
CONTINUOUS
370
-3
390
F
  0
LAYER
  5
201
100
AcDbSymbolTableRecord
100
AcDbLayerTableRecord
  2
HILFEN
 70
0
 62
7
  6
CONTINUOUS
370
-3
390
F
  0
LAYER
  5
202
100
AcDbSymbolTableRecord
100
AcDbLayerTableRecord
  2
KONSTRUKTIONSELEMENTE
 70
0
 62
7
  6
CONTINUOUS
370
-3
390
F
  0
LAYER
  5
203
100
AcDbSymbolTableRecord
100
AcDbLayerTableRecord
  2
NORM
 70
0
 62
7
  6
CONTINUOUS
370
-3
390
F
  0
LAYER
  5
204
100
AcDbSymbolTableRecord
100
AcDbLayerTableRecord
  2
PLATZIERUNG
 70
0
 62
7
  6
CONTINUOUS
370
-3
390
F
  0
LAYER
  5
205
100
AcDbSymbolTableRecord
100
AcDbLayerTableRecord
  2
RUNDUNGEN
 70
0
 62
7
  6
CONTINUOUS
370
-3
390
F
  0
LAYER
  5
206
100
AcDbSymbolTableRecord
100
AcDbLayerTableRecord
  2
TEIL_STARTBEZUEGE
 70
0
 62
7
  6
CONTINUOUS
370
-3
390
F
  0
LAYER
  5
207
100
AcDbSymbolTableRecord
100
AcDbLayerTableRecord
  2
T_STARTBEZUEGE
 70
0
 62
7
  6
CONTINUOUS
370
-3
390
F
  0
ENDTAB
  0
TABLE
  2
STYLE
  5
3
100
AcDbSymbolTable
 70
1
  0
STYLE
  5
11
100
AcDbSymbolTableRecord
100
AcDbTextStyleTableRecord
  2
STANDARD
 70
0
 40
0.0
 41
0.7
 50
0.0
 71
0
 42
0.2
  3
txt
  4

  0
STYLE
  5
208
100
AcDbSymbolTableRecord
100
AcDbTextStyleTableRecord
  2
TEXTSTYLE_1
 70
0
 40
0.0
 41
0.8
 50
0.0
 71
0
 42
0.2
  3
gdt
  4

  0
ENDTAB
  0
TABLE
  2
VIEW
  5
6
100
AcDbSymbolTable
 70
0
  0
ENDTAB
  0
TABLE
  2
UCS
  5
7
100
AcDbSymbolTable
 70
0
  0
ENDTAB
  0
TABLE
  2
APPID
  5
9
100
AcDbSymbolTable
 70
1
  0
APPID
  5
209
100
AcDbSymbolTableRecord
100
AcDbRegAppTableRecord
  2
ACAD
 70
0
  0
ENDTAB
  0
TABLE
  2
BLOCK_RECORD
  5
1
100
AcDbSymbolTable
 70
0
  0
BLOCK_RECORD
  5
20A
100
AcDbSymbolTableRecord
100
AcDbBlockTableRecord
  2
*Model_Space
  0
BLOCK_RECORD
  5
20B
100
AcDbSymbolTableRecord
100
AcDbBlockTableRecord
  2
*Paper_Space
  0
ENDTAB
  0
TABLE
  2
DIMSTYLE
  5
A
100
AcDbSymbolTable
 70
1
100
AcDbDimStyleTable
 71
0
  0
DIMSTYLE
105
20C
100
AcDbSymbolTableRecord
100
AcDbDimStyleTableRecord
  2
STANDARD
 70
0
  3

  4

 40
1.0
 41
3.5
 42
0.0625
 43
0.38
 44
0.18
 45
0.0
 46
0.0
 47
0.005
 48
0.005
140
3.5
141
0.09
142
0.0
143
25.4
144
1.0
145
0.0
146
1.0
147
0.09
 71
1.0
 72
0.0
 73
0
 74
0
 75
0
 76
0
 77
1
 78
8
170
0
171
2
172
0
173
0
174
0
175
0
176
0
177
0
178
5
270
2
271
3
272
3
273
2
274
2
275
0
280
0
281
0
282
0
283
1
284
8
285
0
286
0
287
3
288
0
340
11
  0
ENDTAB
  0
ENDSEC
  0
SECTION
  2
BLOCKS
  0
BLOCK
  5
20
100
AcDbEntity
  8
0
100
AcDbBlockBegin
  2
*Model_Space
 70
0
 10
0.0
 20
0.0
 30
0.0
  3
*Model_Space
  1

  0
ENDBLK
  5
21
100
AcDbEntity
  8
0
100
AcDbBlockEnd
  0
BLOCK
  5
1C
100
AcDbEntity
  8
0
100
AcDbBlockBegin
  2
*Paper_Space
 70
0
 10
0.0
 20
0.0
 30
0.0
  3
*Paper_Space
  1

  0
ENDBLK
  5
1D
100
AcDbEntity
  8
0
100
AcDbBlockEnd
  0
ENDSEC
  0
SECTION
  2
ENTITIES
  0
MTEXT
  5
20D
100
AcDbEntity
  8
0
100
AcDbMText
 62
5
  6
CONTINUOUS
  7
STANDARD
 71
1
 72
1
 10
290.4875191176
 20
194.3852308824
 30
0.0
 11
0.0
 21
1.0
 31
0.0
 44
0.9
  1
RUD
 40
5.0
 41
13.3333333333
  0
MTEXT
  5
20E
100
AcDbEntity
  8
0
100
AcDbMText
 62
5
  6
CONTINUOUS
  7
STANDARD
 71
1
 72
1
 10
363.6426691176
 20
184.3588602941
 30
0.0
 11
0.0
 21
1.0
 31
0.0
 44
0.9
  1
IAK-RG 1-6
 40
5.0
 41
38.0952380952
  0
MTEXT
  5
20F
100
AcDbEntity
  8
0
100
AcDbMText
 62
5
  6
CONTINUOUS
  7
STANDARD
 71
1
 72
1
 10
80.6638088235
 20
172.9354779412
 30
0.0
 11
0.0
 21
1.0
 31
0.0
 44
0.9
  1
RUD IAK-RG 1-6
 40
5.0
 41
54.4047619048
  0
LINE
  5
210
100
AcDbEntity
  8
0
100
AcDbLine
 62
7
  6
CONTINUOUS
 10
0.0
 20
0.0
 11
0.0
 21
297.0
  0
LINE
  5
211
100
AcDbEntity
  8
0
100
AcDbLine
 62
7
  6
CONTINUOUS
 10
0.0
 20
0.0
 11
420.0
 21
0.0
  0
LINE
  5
212
100
AcDbEntity
  8
0
100
AcDbLine
 62
7
  6
CONTINUOUS
 10
0.0
 20
297.0
 11
420.0
 21
297.0
  0
LINE
  5
213
100
AcDbEntity
  8
0
100
AcDbLine
 62
7
  6
CONTINUOUS
 10
420.0
 20
0.0
 11
420.0
 21
297.0
  0
LINE
  5
214
100
AcDbEntity
  8
RUNDUNGEN
100
AcDbLine
 62
7
  6
CONTINUOUS
 10
172.3837550337
 20
18.3649111725
 11
168.8482211278
 21
21.9004450784
  0
LINE
  5
215
100
AcDbEntity
  8
RUNDUNGEN
100
AcDbLine
 62
7
  6
CONTINUOUS
 10
204.6417437638
 20
57.6939677144
 11
208.1772776697
 21
54.1584338084
  0
LINE
  5
216
100
AcDbEntity
  8
RUNDUNGEN
100
AcDbLine
 62
7
  6
CONTINUOUS
 10
214.3956010438
 20
60.3767571825
 11
210.8600671378
 21
63.9122910884
  0
LINE
  5
217
100
AcDbEntity
  8
RUNDUNGEN
100
AcDbLine
 62
7
  6
CONTINUOUS
 10
210.9788648961
 20
64.0310888467
 11
214.514398802
 21
60.4955549407
  0
LINE
  5
218
100
AcDbEntity
  8
KONSTRUKTIONSELEMENTE
100
AcDbLine
 62
7
  6
CONTINUOUS
 10
212.2645774927
 20
68.2159392461
 11
208.7290435867
 21
71.7514731521
  0
LINE
  5
219
100
AcDbEntity
  8
KONSTRUKTIONSELEMENTE
100
AcDbLine
 62
7
  6
CONTINUOUS
 10
212.6181308832
 20
68.5694926367
 11
209.0825969773
 21
72.1050265426
  0
LINE
  5
21A
100
AcDbEntity
  8
0
100
AcDbLine
 62
7
  6
CONTINUOUS
 10
330.6028818134
 20
99.0195718581
 11
328.4028818134
 21
99.0195718581
  0
LINE
  5
21B
100
AcDbEntity
  8
0
100
AcDbLine
 62
7
  6
CONTINUOUS
 10
328.4028818134
 20
99.0289788567
 11
330.6028818134
 21
99.0289788567
  0
LINE
  5
21C
100
AcDbEntity
  8
0
100
AcDbLine
 62
7
  6
CONTINUOUS
 10
324.6693220941
 20
103.5182218581
 11
334.3364415327
 21
103.5182218581
  0
LINE
  5
21D
100
AcDbEntity
  8
0
100
AcDbLine
 62
7
  6
CONTINUOUS
 10
328.1903818134
 20
114.5646444608
 11
330.8153818134
 21
114.5646444608
  0
LINE
  5
21E
100
AcDbEntity
  8
0
100
AcDbLine
 62
7
  6
CONTINUOUS
 10
330.8153818134
 20
122.6588938698
 11
328.1903818134
 21
122.6588938698
  0
LINE
  5
21F
100
AcDbEntity
  8
0
100
AcDbLine
 62
7
  6
CONTINUOUS
 10
327.4725981199
 20
127.1315338735
 11
331.5331655068
 21
127.1315338735
  0
LINE
  5
220
100
AcDbEntity
  8
0
100
AcDbLine
 62
7
  6
CONTINUOUS
 10
327.7930189308
 20
138.5195718581
 11
331.2127446959
 21
138.5195718581
  0
LINE
  5
221
100
AcDbEntity
  8
KONSTRUKTIONSELEMENTE
100
AcDbLine
 62
7
  6
CONTINUOUS
 10
273.4293140653
 20
129.3806758188
 11
269.8937801594
 21
132.9162097247
  0
LINE
  5
222
100
AcDbEntity
  8
KONSTRUKTIONSELEMENTE
100
AcDbLine
 62
7
  6
CONTINUOUS
 10
273.7828674559
 20
129.7342292094
 11
270.2473335499
 21
133.2697631153
  0
LINE
  5
223
100
AcDbEntity
  8
KONSTRUKTIONSELEMENTE
100
AcDbLine
 62
7
  6
CONTINUOUS
 10
274.2778422027
 20
137.300271768
 11
270.2473335499
 21
133.2697631153
  0
LINE
  5
224
100
AcDbEntity
  8
KONSTRUKTIONSELEMENTE
100
AcDbLine
 62
7
  6
CONTINUOUS
 10
269.8937801594
 20
132.9162097247
 11
265.8632715066
 21
128.8857010719
  0
LINE
  5
225
100
AcDbEntity
  8
KONSTRUKTIONSELEMENTE
100
AcDbLine
 62
7
  6
CONTINUOUS
 10
213.1131056301
 20
76.1355351954
 11
209.0825969773
 21
72.1050265426
  0
LINE
  5
226
100
AcDbEntity
  8
KONSTRUKTIONSELEMENTE
100
AcDbLine
 62
7
  6
CONTINUOUS
 10
208.7290435867
 20
71.7514731521
 11
204.698534934
 21
67.7209644993
  0
LINE
  5
227
100
AcDbEntity
  8
KONSTRUKTIONSELEMENTE
100
AcDbLine
 62
7
  6
CONTINUOUS
 10
245.7107282428
 20
106.5411267864
 11
235.104126525
 21
95.9345250686
  0
LINE
  5
228
100
AcDbEntity
  8
0
100
AcDbLine
 62
7
  6
CONTINUOUS
 10
327.7930189308
 20
149.9076098426
 11
331.2127446959
 21
149.9076098426
  0
LINE
  5
229
100
AcDbEntity
  8
0
100
AcDbLine
 62
7
  6
CONTINUOUS
 10
286.5028818134
 20
179.0195718581
 11
286.5028818134
 21
229.0195718581
  0
LINE
  5
22A
100
AcDbEntity
  8
KONSTRUKTIONSELEMENTE
100
AcDbLine
 62
7
  6
CONTINUOUS
 10
277.8133761086
 20
133.7647378621
 11
273.7828674559
 21
129.7342292094
  0
LINE
  5
22B
100
AcDbEntity
  8
KONSTRUKTIONSELEMENTE
100
AcDbLine
 62
7
  6
CONTINUOUS
 10
273.4293140653
 20
129.3806758188
 11
269.3988054125
 21
125.350167166
  0
LINE
  5
22C
100
AcDbEntity
  8
KONSTRUKTIONSELEMENTE
100
AcDbLine
 62
7
  6
CONTINUOUS
 10
216.648639536
 20
72.6000012895
 11
212.6181308832
 21
68.5694926367
  0
LINE
  5
22D
100
AcDbEntity
  8
KONSTRUKTIONSELEMENTE
100
AcDbLine
 62
7
  6
CONTINUOUS
 10
212.2645774927
 20
68.2159392461
 11
208.2340688399
 21
64.1854305934
  0
LINE
  5
22E
100
AcDbEntity
  8
KONSTRUKTIONSELEMENTE
100
AcDbLine
 62
7
  6
CONTINUOUS
 10
248.8927087581
 20
103.3591462711
 11
238.2861070403
 21
92.7525445533
  0
LINE
  5
22F
100
AcDbEntity
  8
KONSTRUKTIONSELEMENTE
100
AcDbLine
 62
7
  6
CONTINUOUS
 10
279.2983003491
 20
133.0576310809
 11
308.2401682506
 21
161.9994989824
  0
LINE
  5
230
100
AcDbEntity
  8
RUNDUNGEN
100
AcDbLine
 62
7
  6
CONTINUOUS
 10
168.8482211278
 20
21.9004450784
 11
210.9787770525
 21
64.0310010031
  0
LINE
  5
231
100
AcDbEntity
  8
KONSTRUKTIONSELEMENTE
100
AcDbLine
 62
7
  6
CONTINUOUS
 10
219.5477773389
 20
72.2464478989
 11
238.2564623141
 21
90.9551328741
  0
LINE
  5
232
100
AcDbEntity
  8
KONSTRUKTIONSELEMENTE
100
AcDbLine
 62
7
  6
CONTINUOUS
 10
250.6604757111
 20
103.3591462711
 11
269.3691606863
 21
122.0678312463
  0
LINE
  5
233
100
AcDbEntity
  8
KONSTRUKTIONSELEMENTE
100
AcDbLine
 62
7
  6
CONTINUOUS
 10
222.7297578542
 20
69.0644673835
 11
241.4384428294
 21
87.7731523587
  0
LINE
  5
234
100
AcDbEntity
  8
KONSTRUKTIONSELEMENTE
100
AcDbLine
 62
7
  6
CONTINUOUS
 10
253.8424562264
 20
100.1771657558
 11
272.5511412016
 21
118.8858507309
  0
LINE
  5
235
100
AcDbEntity
  8
RUNDUNGEN
100
AcDbLine
 62
7
  6
CONTINUOUS
 10
172.3837550337
 20
18.3649111725
 11
214.514298714
 21
60.4954548528
  0
LINE
  5
236
100
AcDbEntity
  8
KONSTRUKTIONSELEMENTE
100
AcDbLine
 62
7
  6
CONTINUOUS
 10
283.5904511635
 20
128.864500521
 11
312.4828089377
 21
157.7568582953
  0
LINE
  5
237
100
AcDbEntity
  8
KONSTRUKTIONSELEMENTE
100
AcDbLine
 62
7
  6
CONTINUOUS
 10
243.2358545086
 20
87.802797085
 11
253.8424562264
 21
98.4093988028
  0
LINE
  5
238
100
AcDbEntity
  8
KONSTRUKTIONSELEMENTE
100
AcDbLine
 62
7
  6
CONTINUOUS
 10
214.6687405487
 20
57.7507588846
 11
223.0833112448
 21
66.1653295807
  0
LINE
  5
239
100
AcDbEntity
  8
KONSTRUKTIONSELEMENTE
100
AcDbLine
 62
7
  6
CONTINUOUS
 10
275.8334771213
 20
118.9154954572
 11
284.2480478174
 21
127.3300661533
  0
LINE
  5
23A
100
AcDbEntity
  8
0
100
AcDbLine
 62
7
  6
CONTINUOUS
 10
327.7930189308
 20
158.2442322458
 11
331.2127446959
 21
158.2442322458
  0
LINE
  5
23B
100
AcDbEntity
  8
0
100
AcDbLine
 62
7
  6
CONTINUOUS
 10
331.2127446959
 20
161.2956478271
 11
327.7930189308
 21
161.2956478271
  0
LINE
  5
23C
100
AcDbEntity
  8
0
100
AcDbLine
 62
7
  6
CONTINUOUS
 10
299.5028818134
 20
179.0195718581
 11
299.5028818134
 21
229.0195718581
  0
LINE
  5
23D
100
AcDbEntity
  8
KONSTRUKTIONSELEMENTE
100
AcDbLine
 62
7
  6
CONTINUOUS
 10
246.417835024
 20
84.6208165697
 11
257.0244367418
 21
95.2274182874
  0
LINE
  5
23E
100
AcDbEntity
  8
KONSTRUKTIONSELEMENTE
100
AcDbLine
 62
7
  6
CONTINUOUS
 10
218.2042744546
 20
54.2152249786
 11
226.6188451507
 21
62.6297956747
  0
LINE
  5
23F
100
AcDbEntity
  8
KONSTRUKTIONSELEMENTE
100
AcDbLine
 62
7
  6
CONTINUOUS
 10
279.3690110273
 20
115.3799615513
 11
287.7835817234
 21
123.7945322474
  0
LINE
  5
240
100
AcDbEntity
  8
0
100
AcDbLine
 62
7
  6
CONTINUOUS
 10
325.1197704231
 20
156.4254676456
 11
327.7930189308
 21
161.2956478271
  0
LINE
  5
241
100
AcDbEntity
  8
RUNDUNGEN
100
AcDbLine
 62
7
  6
CONTINUOUS
 10
339.0028818134
 20
115.0195718581
 11
336.5028818134
 21
119.349698877
  0
LINE
  5
242
100
AcDbEntity
  8
0
100
AcDbLine
 62
7
  6
CONTINUOUS
 10
320.0028818134
 20
107.4195718581
 11
320.0028818134
 21
115.0195718581
  0
LINE
  5
243
100
AcDbEntity
  8
0
100
AcDbLine
 62
7
  6
CONTINUOUS
 10
322.5028818134
 20
125.0195718581
 11
322.5028818134
 21
119.349698877
  0
LINE
  5
244
100
AcDbEntity
  8
0
100
AcDbLine
 62
7
  6
CONTINUOUS
 10
324.5028818134
 20
133.9875930545
 11
324.5028818134
 21
127.799755669
  0
LINE
  5
245
100
AcDbEntity
  8
BEZUGSACHSEN
100
AcDbLine
 62
7
  6
CONTINUOUS
 10
324.5028818134
 20
133.9878104349
 11
324.5028818134
 21
154.0195718581
  0
LINE
  5
246
100
AcDbEntity
  8
0
100
AcDbLine
 62
7
  6
CONTINUOUS
 10
328.1903818134
 20
114.5646444608
 11
326.8335077949
 21
123.0195718581
  0
LINE
  5
247
100
AcDbEntity
  8
0
100
AcDbLine
 62
7
  6
CONTINUOUS
 10
328.1903818134
 20
122.6588938698
 11
327.4725981199
 21
127.1315338735
  0
LINE
  5
248
100
AcDbEntity
  8
0
100
AcDbLine
 62
7
  6
CONTINUOUS
 10
327.374390532
 20
132.083473657
 11
327.4725981199
 21
127.1315338735
  0
LINE
  5
249
100
AcDbEntity
  8
0
100
AcDbLine
 62
7
  6
CONTINUOUS
 10
328.1903818134
 20
122.6588938698
 11
328.1903818134
 21
114.5646444608
  0
LINE
  5
24A
100
AcDbEntity
  8
0
100
AcDbLine
 62
7
  6
CONTINUOUS
 10
330.8153818134
 20
122.6588938698
 11
330.8153818134
 21
114.5646444608
  0
LINE
  5
24B
100
AcDbEntity
  8
RUNDUNGEN
100
AcDbLine
 62
7
  6
CONTINUOUS
 10
334.5028818134
 20
133.9875930545
 11
334.5028818134
 21
127.799755669
  0
LINE
  5
24C
100
AcDbEntity
  8
BEZUGSACHSEN
100
AcDbLine
 62
7
  6
CONTINUOUS
 10
334.5028818134
 20
133.9878104349
 11
334.5028818134
 21
154.0195718581
  0
LINE
  5
24D
100
AcDbEntity
  8
RUNDUNGEN
100
AcDbLine
 62
7
  6
CONTINUOUS
 10
336.5028818134
 20
125.0195718581
 11
336.5028818134
 21
119.349698877
  0
LINE
  5
24E
100
AcDbEntity
  8
0
100
AcDbLine
 62
7
  6
CONTINUOUS
 10
331.6313730948
 20
132.083473657
 11
331.5331655068
 21
127.1315338735
  0
LINE
  5
24F
100
AcDbEntity
  8
0
100
AcDbLine
 62
7
  6
CONTINUOUS
 10
330.8153818134
 20
122.6588938698
 11
331.5331655068
 21
127.1315338735
  0
LINE
  5
250
100
AcDbEntity
  8
RUNDUNGEN
100
AcDbLine
 62
7
  6
CONTINUOUS
 10
330.8153818134
 20
114.5646444608
 11
332.1722558318
 21
123.0195718581
  0
LINE
  5
251
100
AcDbEntity
  8
0
100
AcDbLine
 62
7
  6
CONTINUOUS
 10
320.0028818134
 20
115.0195718581
 11
322.5028818134
 21
119.349698877
  0
LINE
  5
252
100
AcDbEntity
  8
KONSTRUKTIONSELEMENTE
100
AcDbLine
 62
7
  6
CONTINUOUS
 10
331.2127446959
 20
161.2956478271
 11
333.8859932037
 21
156.4254676456
  0
LINE
  5
253
100
AcDbEntity
  8
RUNDUNGEN
100
AcDbLine
 62
7
  6
CONTINUOUS
 10
339.0028818134
 20
107.4195718581
 11
339.0028818134
 21
115.0195718581
  0
LINE
  5
254
100
AcDbEntity
  8
0
100
AcDbLine
 62
7
  6
CONTINUOUS
 10
359.5028818134
 20
229.0195718581
 11
359.5028818134
 21
179.0195718581
  0
LINE
  5
255
100
AcDbEntity
  8
0
100
AcDbLine
 62
7
  6
CONTINUOUS
 10
372.5028818134
 20
229.0195718581
 11
372.5028818134
 21
179.0195718581
  0
LINE
  5
256
100
AcDbEntity
  8
RUNDUNGEN
100
AcDbLine
 62
7
  6
CONTINUOUS
 10
66.017653462
 20
18.3649111725
 11
67.217653462
 21
18.3649111725
  0
LINE
  5
257
100
AcDbEntity
  8
RUNDUNGEN
100
AcDbLine
 62
7
  6
CONTINUOUS
 10
99.617653462
 20
18.3649111725
 11
100.817653462
 21
18.3649111725
  0
LINE
  5
258
100
AcDbEntity
  8
RUNDUNGEN
100
AcDbLine
 62
7
  6
CONTINUOUS
 10
70.517653462
 20
23.456079997
 11
74.8448738067
 21
23.456079997
  0
LINE
  5
259
100
AcDbEntity
  8
RUNDUNGEN
100
AcDbLine
 62
7
  6
CONTINUOUS
 10
91.9904331173
 20
23.456079997
 11
96.317653462
 21
23.456079997
  0
LINE
  5
25A
100
AcDbEntity
  8
0
100
AcDbLine
 62
7
  6
CONTINUOUS
 10
75.0252928209
 20
48.0633959823
 11
77.9052928209
 21
48.0633959823
  0
LINE
  5
25B
100
AcDbEntity
  8
0
100
AcDbLine
 62
7
  6
CONTINUOUS
 10
79.4327736018
 20
48.0633959823
 11
80.0087736018
 21
48.0633959823
  0
LINE
  5
25C
100
AcDbEntity
  8
0
100
AcDbLine
 62
7
  6
CONTINUOUS
 10
82.7525459519
 20
48.0633959823
 11
83.417653462
 21
48.0633959823
  0
LINE
  5
25D
100
AcDbEntity
  8
0
100
AcDbLine
 62
7
  6
CONTINUOUS
 10
88.4292548181
 20
48.0633959823
 11
90.5160350587
 21
48.0633959823
  0
LINE
  5
25E
100
AcDbEntity
  8
0
100
AcDbLine
 62
7
  6
CONTINUOUS
 10
75.0252928209
 20
48.2755280167
 11
77.9052928209
 21
48.2755280167
  0
LINE
  5
25F
100
AcDbEntity
  8
0
100
AcDbLine
 62
7
  6
CONTINUOUS
 10
79.4327736018
 20
48.2755280167
 11
80.0087736018
 21
48.2755280167
  0
LINE
  5
260
100
AcDbEntity
  8
0
100
AcDbLine
 62
7
  6
CONTINUOUS
 10
82.7525459519
 20
48.2755280167
 11
83.2444483813
 21
48.2755280167
  0
LINE
  5
261
100
AcDbEntity
  8
0
100
AcDbLine
 62
7
  6
CONTINUOUS
 10
88.4292548181
 20
48.2755280167
 11
90.5160350587
 21
48.2755280167
  0
LINE
  5
262
100
AcDbEntity
  8
0
100
AcDbLine
 62
7
  6
CONTINUOUS
 10
90.5286569454
 20
48.487660051
 11
89.0052548181
 21
48.487660051
  0
LINE
  5
263
100
AcDbEntity
  8
0
100
AcDbLine
 62
7
  6
CONTINUOUS
 10
76.9152928209
 20
48.5725128648
 11
76.0152928209
 21
48.5725128648
  0
LINE
  5
264
100
AcDbEntity
  8
0
100
AcDbLine
 62
7
  6
CONTINUOUS
 10
76.1772928209
 20
48.7634316957
 11
76.7532928209
 21
48.7634316957
  0
LINE
  5
265
100
AcDbEntity
  8
0
100
AcDbLine
 62
7
  6
CONTINUOUS
 10
76.1772928209
 20
48.97556373
 11
76.7532928209
 21
48.97556373
  0
LINE
  5
266
100
AcDbEntity
  8
0
100
AcDbLine
 62
7
  6
CONTINUOUS
 10
76.5282928209
 20
49.2725485781
 11
76.4022928209
 21
49.2725485781
  0
LINE
  5
267
100
AcDbEntity
  8
0
100
AcDbLine
 62
7
  6
CONTINUOUS
 10
76.7532928209
 20
49.3998277987
 11
76.6002928209
 21
49.3998277987
  0
LINE
  5
268
100
AcDbEntity
  8
0
100
AcDbLine
 62
7
  6
CONTINUOUS
 10
76.3302928209
 20
49.3998277987
 11
76.1772928209
 21
49.3998277987
  0
LINE
  5
269
100
AcDbEntity
  8
0
100
AcDbLine
 62
7
  6
CONTINUOUS
 10
76.0152928209
 20
49.5907466297
 11
76.3302928209
 21
49.5907466297
  0
LINE
  5
26A
100
AcDbEntity
  8
0
100
AcDbLine
 62
7
  6
CONTINUOUS
 10
76.6002928209
 20
49.5907466297
 11
76.9152928209
 21
49.5907466297
  0
LINE
  5
26B
100
AcDbEntity
  8
0
100
AcDbLine
 62
7
  6
CONTINUOUS
 10
80.0087736018
 20
49.6601844816
 11
81.4487736018
 21
49.6601844816
  0
LINE
  5
26C
100
AcDbEntity
  8
0
100
AcDbLine
 62
7
  6
CONTINUOUS
 10
76.0152928209
 20
49.802878664
 11
76.3302928209
 21
49.802878664
  0
LINE
  5
26D
100
AcDbEntity
  8
0
100
AcDbLine
 62
7
  6
CONTINUOUS
 10
76.6002928209
 20
49.802878664
 11
76.9152928209
 21
49.802878664
  0
LINE
  5
26E
100
AcDbEntity
  8
0
100
AcDbLine
 62
7
  6
CONTINUOUS
 10
76.9152928209
 20
49.8453050709
 11
76.6002928209
 21
49.8453050709
  0
LINE
  5
26F
100
AcDbEntity
  8
0
100
AcDbLine
 62
7
  6
CONTINUOUS
 10
76.3302928209
 20
49.8453050709
 11
76.0152928209
 21
49.8453050709
  0
LINE
  5
270
100
AcDbEntity
  8
0
100
AcDbLine
 62
7
  6
CONTINUOUS
 10
80.0087736018
 20
49.872316516
 11
81.4487736018
 21
49.872316516
  0
LINE
  5
271
100
AcDbEntity
  8
0
100
AcDbLine
 62
7
  6
CONTINUOUS
 10
76.1772928209
 20
50.0362239018
 11
76.3302928209
 21
50.0362239018
  0
LINE
  5
272
100
AcDbEntity
  8
0
100
AcDbLine
 62
7
  6
CONTINUOUS
 10
76.6002928209
 20
50.0362239018
 11
76.7532928209
 21
50.0362239018
  0
LINE
  5
273
100
AcDbEntity
  8
0
100
AcDbLine
 62
7
  6
CONTINUOUS
 10
81.6887736018
 20
50.0674779876
 11
80.0087736018
 21
50.0674779876
  0
LINE
  5
274
100
AcDbEntity
  8
0
100
AcDbLine
 62
7
  6
CONTINUOUS
 10
76.4022928209
 20
50.1635031224
 11
76.5282928209
 21
50.1635031224
  0
LINE
  5
275
100
AcDbEntity
  8
0
100
AcDbLine
 62
7
  6
CONTINUOUS
 10
76.1772928209
 20
50.2483559362
 11
76.3302928209
 21
50.2483559362
  0
LINE
  5
276
100
AcDbEntity
  8
0
100
AcDbLine
 62
7
  6
CONTINUOUS
 10
76.6002928209
 20
50.2483559362
 11
76.7532928209
 21
50.2483559362
  0
LINE
  5
277
100
AcDbEntity
  8
0
100
AcDbLine
 62
7
  6
CONTINUOUS
 10
76.4022928209
 20
50.3756351568
 11
76.5282928209
 21
50.3756351568
  0
LINE
  5
278
100
AcDbEntity
  8
0
100
AcDbLine
 62
7
  6
CONTINUOUS
 10
89.0052548181
 20
50.6089803946
 11
88.4292548181
 21
50.6089803946
  0
LINE
  5
279
100
AcDbEntity
  8
0
100
AcDbLine
 62
7
  6
CONTINUOUS
 10
80.0087736018
 20
50.630193598
 11
79.4327736018
 21
50.630193598
  0
LINE
  5
27A
100
AcDbEntity
  8
0
100
AcDbLine
 62
7
  6
CONTINUOUS
 10
76.7532928209
 20
50.6726200049
 11
76.1772928209
 21
50.6726200049
  0
LINE
  5
27B
100
AcDbEntity
  8
0
100
AcDbLine
 62
7
  6
CONTINUOUS
 10
76.0152928209
 20
50.8635388358
 11
76.9152928209
 21
50.8635388358
  0
LINE
  5
27C
100
AcDbEntity
  8
0
100
AcDbLine
 62
7
  6
CONTINUOUS
 10
88.4292548181
 20
50.9653622123
 11
90.5286569454
 21
50.9653622123
  0
LINE
  5
27D
100
AcDbEntity
  8
0
100
AcDbLine
 62
7
  6
CONTINUOUS
 10
79.4327736018
 20
50.9865754157
 11
81.6887736018
 21
50.9865754157
  0
LINE
  5
27E
100
AcDbEntity
  8
0
100
AcDbLine
 62
7
  6
CONTINUOUS
 10
76.0152928209
 20
51.0756708702
 11
76.9152928209
 21
51.0756708702
  0
LINE
  5
27F
100
AcDbEntity
  8
0
100
AcDbLine
 62
7
  6
CONTINUOUS
 10
88.4292548181
 20
51.1774942467
 11
90.5286569454
 21
51.1774942467
  0
LINE
  5
280
100
AcDbEntity
  8
0
100
AcDbLine
 62
7
  6
CONTINUOUS
 10
79.4327736018
 20
51.1987074501
 11
81.6887736018
 21
51.1987074501
  0
LINE
  5
281
100
AcDbEntity
  8
0
100
AcDbLine
 62
7
  6
CONTINUOUS
 10
90.5160350587
 20
51.3726557183
 11
88.4292548181
 21
51.3726557183
  0
LINE
  5
282
100
AcDbEntity
  8
0
100
AcDbLine
 62
7
  6
CONTINUOUS
 10
87.1692548181
 20
51.3726557183
 11
86.5932548181
 21
51.3726557183
  0
LINE
  5
283
100
AcDbEntity
  8
0
100
AcDbLine
 62
7
  6
CONTINUOUS
 10
84.3287736018
 20
51.3726557183
 11
83.7527736018
 21
51.3726557183
  0
LINE
  5
284
100
AcDbEntity
  8
0
100
AcDbLine
 62
7
  6
CONTINUOUS
 10
81.6887736018
 20
51.3726557183
 11
79.4327736018
 21
51.3726557183
  0
LINE
  5
285
100
AcDbEntity
  8
0
100
AcDbLine
 62
7
  6
CONTINUOUS
 10
77.9052928209
 20
51.3726557183
 11
75.0252928209
 21
51.3726557183
  0
LINE
  5
286
100
AcDbEntity
  8
RUNDUNGEN
100
AcDbLine
 62
7
  6
CONTINUOUS
 10
58.2085582396
 20
55.993723609
 11
59.7572146178
 21
54.4298081026
  0
LINE
  5
287
100
AcDbEntity
  8
RUNDUNGEN
100
AcDbLine
 62
7
  6
CONTINUOUS
 10
64.2311108213
 20
49.9118299729
 11
72.4784030292
 21
41.5832760394
  0
LINE
  5
288
100
AcDbEntity
  8
RUNDUNGEN
100
AcDbLine
 62
7
  6
CONTINUOUS
 10
86.3666008215
 20
27.5582358885
 11
89.5329769845
 21
24.3606609776
  0
LINE
  5
289
100
AcDbEntity
  8
RUNDUNGEN
100
AcDbLine
 62
7
  6
CONTINUOUS
 10
66.7864571866
 20
53.2487600706
 11
65.0657278776
 21
54.9864439666
  0
LINE
  5
28A
100
AcDbEntity
  8
RUNDUNGEN
100
AcDbLine
 62
7
  6
CONTINUOUS
 10
94.7234817214
 20
54.8978978527
 11
88.5798413892
 21
57.9397462603
  0
LINE
  5
28B
100
AcDbEntity
  8
RUNDUNGEN
100
AcDbLine
 62
7
  6
CONTINUOUS
 10
88.5798413892
 20
61.4752801662
 11
94.7234817214
 21
58.4334317587
  0
LINE
  5
28C
100
AcDbEntity
  8
RUNDUNGEN
100
AcDbLine
 62
7
  6
CONTINUOUS
 10
103.2751095949
 20
25.276761831
 11
94.3569038949
 21
34.2828398613
  0
LINE
  5
28D
100
AcDbEntity
  8
RUNDUNGEN
100
AcDbLine
 62
7
  6
CONTINUOUS
 10
71.6198239601
 20
57.2439514303
 11
70.9062649528
 21
57.9645412344
  0
LINE
  5
28E
100
AcDbEntity
  8
RUNDUNGEN
100
AcDbLine
 62
7
  6
CONTINUOUS
 10
103.2751095949
 20
28.812295737
 11
94.3569038949
 21
37.8183737672
  0
LINE
  5
28F
100
AcDbEntity
  8
RUNDUNGEN
100
AcDbLine
 62
7
  6
CONTINUOUS
 10
71.6198239601
 20
60.7794853362
 11
70.9062649528
 21
61.5000751403
  0
LINE
  5
290
100
AcDbEntity
  8
RUNDUNGEN
100
AcDbLine
 62
7
  6
CONTINUOUS
 10
109.5283259492
 20
58.1369872927
 11
105.0229897056
 21
60.3676761249
  0
LINE
  5
291
100
AcDbEntity
  8
RUNDUNGEN
100
AcDbLine
 62
7
  6
CONTINUOUS
 10
109.5283259492
 20
61.6725211986
 11
105.0229897056
 21
63.9032100308
  0
LINE
  5
292
100
AcDbEntity
  8
0
100
AcDbLine
 62
7
  6
CONTINUOUS
 10
81.4487736018
 20
49.6601844816
 11
82.7525459519
 21
48.0633959823
  0
LINE
  5
293
100
AcDbEntity
  8
0
100
AcDbLine
 62
7
  6
CONTINUOUS
 10
81.4487736018
 20
49.872316516
 11
82.7525459519
 21
48.2755280167
  0
LINE
  5
294
100
AcDbEntity
  8
0
100
AcDbLine
 62
7
  6
CONTINUOUS
 10
83.417653462
 20
48.0633959823
 11
82.0620627132
 21
49.7236487997
  0
LINE
  5
295
100
AcDbEntity
  8
RUNDUNGEN
100
AcDbLine
 62
7
  6
CONTINUOUS
 10
97.9050423843
 20
99.0289788567
 11
97.667653462
 21
99.0195718581
  0
LINE
  5
296
100
AcDbEntity
  8
RUNDUNGEN
100
AcDbLine
 62
7
  6
CONTINUOUS
 10
97.667653462
 20
99.0195718581
 11
94.3090996008
 21
99.0195718581
  0
LINE
  5
297
100
AcDbEntity
  8
0
100
AcDbLine
 62
7
  6
CONTINUOUS
 10
94.3090996008
 20
99.0195718581
 11
94.210805119
 21
99.0195718581
  0
LINE
  5
298
100
AcDbEntity
  8
0
100
AcDbLine
 62
7
  6
CONTINUOUS
 10
72.624501805
 20
99.0195718581
 11
72.5262073233
 21
99.0195718581
  0
LINE
  5
299
100
AcDbEntity
  8
RUNDUNGEN
100
AcDbLine
 62
7
  6
CONTINUOUS
 10
72.5262073233
 20
99.0195718581
 11
69.167653462
 21
99.0195718581
  0
LINE
  5
29A
100
AcDbEntity
  8
RUNDUNGEN
100
AcDbLine
 62
7
  6
CONTINUOUS
 10
69.167653462
 20
99.0195718581
 11
68.9302645398
 21
99.0289788567
  0
LINE
  5
29B
100
AcDbEntity
  8
BEZUGSACHSEN
100
AcDbLine
 62
7
  6
CONTINUOUS
 10
79.717653462
 20
105.1820718581
 11
87.117653462
 21
105.1820718581
  0
LINE
  5
29C
100
AcDbEntity
  8
BEZUGSACHSEN
100
AcDbLine
 62
7
  6
CONTINUOUS
 10
79.717653462
 20
107.4462735405
 11
87.117653462
 21
107.4462735405
  0
LINE
  5
29D
100
AcDbEntity
  8
BEZUGSACHSEN
100
AcDbLine
 62
7
  6
CONTINUOUS
 10
79.717653462
 20
111.3928701756
 11
87.117653462
 21
111.3928701756
  0
LINE
  5
29E
100
AcDbEntity
  8
RUNDUNGEN
100
AcDbLine
 62
7
  6
CONTINUOUS
 10
68.9302645398
 20
99.0289788567
 11
66.167653462
 21
103.5182218581
  0
LINE
  5
29F
100
AcDbEntity
  8
RUNDUNGEN
100
AcDbLine
 62
7
  6
CONTINUOUS
 10
57.6660143725
 20
57.210462972
 11
57.6660143725
 21
60.745996878
  0
LINE
  5
2A0
100
AcDbEntity
  8
0
100
AcDbLine
 62
7
  6
CONTINUOUS
 10
96.1337941093
 20
121.4368359943
 11
96.393329976
 21
121.4977015243
  0
LINE
  5
2A1
100
AcDbEntity
  8
0
100
AcDbLine
 62
7
  6
CONTINUOUS
 10
91.410234028
 20
121.4368359943
 11
91.6697701917
 21
121.4977015243
  0
LINE
  5
2A2
100
AcDbEntity
  8
BEZUGSACHSEN
100
AcDbLine
 62
7
  6
CONTINUOUS
 10
79.717653462
 20
113.6570718581
 11
87.117653462
 21
113.6570718581
  0
LINE
  5
2A3
100
AcDbEntity
  8
RUNDUNGEN
100
AcDbLine
 62
7
  6
CONTINUOUS
 10
69.167653462
 20
115.0195718581
 11
79.717653462
 21
115.0195718581
  0
LINE
  5
2A4
100
AcDbEntity
  8
RUNDUNGEN
100
AcDbLine
 62
7
  6
CONTINUOUS
 10
87.117653462
 20
115.0195718581
 11
97.667653462
 21
115.0195718581
  0
LINE
  5
2A5
100
AcDbEntity
  8
RUNDUNGEN
100
AcDbLine
 62
7
  6
CONTINUOUS
 10
97.667653462
 20
119.349698877
 11
86.9713611491
 21
119.349698877
  0
LINE
  5
2A6
100
AcDbEntity
  8
RUNDUNGEN
100
AcDbLine
 62
7
  6
CONTINUOUS
 10
79.863945775
 20
119.349698877
 11
69.167653462
 21
119.349698877
  0
LINE
  5
2A7
100
AcDbEntity
  8
0
100
AcDbLine
 62
7
  6
CONTINUOUS
 10
74.0909308094
 20
121.4977015243
 11
74.3889181957
 21
121.4368359943
  0
LINE
  5
2A8
100
AcDbEntity
  8
0
100
AcDbLine
 62
7
  6
CONTINUOUS
 10
74.3889181957
 20
121.8020291849
 11
74.150528423
 21
121.8628947096
  0
LINE
  5
2A9
100
AcDbEntity
  8
0
100
AcDbLine
 62
7
  6
CONTINUOUS
 10
73.8525406957
 20
121.6194325896
 11
74.0909308094
 21
121.4977015243
  0
LINE
  5
2AA
100
AcDbEntity
  8
0
100
AcDbLine
 62
7
  6
CONTINUOUS
 10
63.6929930743
 20
122.6588938698
 11
66.167653462
 21
114.5646444608
  0
LINE
  5
2AB
100
AcDbEntity
  8
RUNDUNGEN
100
AcDbLine
 62
7
  6
CONTINUOUS
 10
63.017653462
 20
20.486231516
 11
63.017653462
 21
27.5955563739
  0
LINE
  5
2AC
100
AcDbEntity
  8
0
100
AcDbLine
 62
7
  6
CONTINUOUS
 10
63.6929930743
 20
122.6588938698
 11
63.6929930743
 21
127.1315338735
  0
LINE
  5
2AD
100
AcDbEntity
  8
RUNDUNGEN
100
AcDbLine
 62
7
  6
CONTINUOUS
 10
64.0683476612
 20
50.2768517819
 11
64.0683476612
 21
53.8123856878
  0
LINE
  5
2AE
100
AcDbEntity
  8
RUNDUNGEN
100
AcDbLine
 62
7
  6
CONTINUOUS
 10
66.167653462
 20
103.5182218581
 11
66.167653462
 21
123.0195718581
  0
LINE
  5
2AF
100
AcDbEntity
  8
RUNDUNGEN
100
AcDbLine
 62
7
  6
CONTINUOUS
 10
67.517653462
 20
18.5770432068
 11
67.517653462
 21
21.3347596535
  0
LINE
  5
2B0
100
AcDbEntity
  8
0
100
AcDbLine
 62
7
  6
CONTINUOUS
 10
63.6929930743
 20
149.9076098426
 11
60.641577493
 21
138.5195718581
  0
LINE
  5
2B1
100
AcDbEntity
  8
0
100
AcDbLine
 62
7
  6
CONTINUOUS
 10
72.0296154775
 20
158.2442322458
 11
63.6929930743
 21
149.9076098426
  0
LINE
  5
2B2
100
AcDbEntity
  8
0
100
AcDbLine
 62
7
  6
CONTINUOUS
 10
77.726378082
 20
121.8628947096
 11
77.4879883094
 21
121.8020291849
  0
LINE
  5
2B3
100
AcDbEntity
  8
0
100
AcDbLine
 62
7
  6
CONTINUOUS
 10
74.865698423
 20
121.8628947096
 11
74.6273083094
 21
121.8020291849
  0
LINE
  5
2B4
100
AcDbEntity
  8
0
100
AcDbLine
 62
7
  6
CONTINUOUS
 10
95.8742576485
 20
123.2628019046
 11
95.6147211877
 21
123.20193638
  0
LINE
  5
2B5
100
AcDbEntity
  8
0
100
AcDbLine
 62
7
  6
CONTINUOUS
 10
95.8742576485
 20
124.2975159943
 11
95.6147211877
 21
124.2366504697
  0
LINE
  5
2B6
100
AcDbEntity
  8
0
100
AcDbLine
 62
7
  6
CONTINUOUS
 10
90.943068755
 20
124.2975159943
 11
90.6835322942
 21
124.2366504697
  0
LINE
  5
2B7
100
AcDbEntity
  8
0
100
AcDbLine
 62
7
  6
CONTINUOUS
 10
77.4879883094
 20
121.4368359943
 11
77.7859760367
 21
121.4977015243
  0
LINE
  5
2B8
100
AcDbEntity
  8
0
100
AcDbLine
 62
7
  6
CONTINUOUS
 10
74.6273083094
 20
121.4368359943
 11
74.9252956957
 21
121.4977015243
  0
LINE
  5
2B9
100
AcDbEntity
  8
0
100
AcDbLine
 62
7
  6
CONTINUOUS
 10
70.6938733094
 20
121.4368359943
 11
71.0514583094
 21
121.4368359943
  0
LINE
  5
2BA
100
AcDbEntity
  8
0
100
AcDbLine
 62
7
  6
CONTINUOUS
 10
72.5413957525
 20
121.4368359943
 11
72.9585783662
 21
121.4368359943
  0
LINE
  5
2BB
100
AcDbEntity
  8
0
100
AcDbLine
 62
7
  6
CONTINUOUS
 10
74.3889181957
 20
121.4368359943
 11
74.6273083094
 21
121.4368359943
  0
LINE
  5
2BC
100
AcDbEntity
  8
0
100
AcDbLine
 62
7
  6
CONTINUOUS
 10
76.0576483094
 20
121.4368359943
 11
77.4879883094
 21
121.4368359943
  0
LINE
  5
2BD
100
AcDbEntity
  8
0
100
AcDbLine
 62
7
  6
CONTINUOUS
 10
86.998117462
 20
121.4368359943
 11
87.3095609773
 21
121.4368359943
  0
LINE
  5
2BE
100
AcDbEntity
  8
0
100
AcDbLine
 62
7
  6
CONTINUOUS
 10
87.724818973
 20
121.4368359943
 11
88.0362624883
 21
121.4368359943
  0
LINE
  5
2BF
100
AcDbEntity
  8
0
100
AcDbLine
 62
7
  6
CONTINUOUS
 10
89.3339438269
 20
121.4368359943
 11
89.6972946938
 21
121.4368359943
  0
LINE
  5
2C0
100
AcDbEntity
  8
0
100
AcDbLine
 62
7
  6
CONTINUOUS
 10
90.943068755
 20
121.4368359943
 11
91.410234028
 21
121.4368359943
  0
LINE
  5
2C1
100
AcDbEntity
  8
0
100
AcDbLine
 62
7
  6
CONTINUOUS
 10
95.8742576485
 20
121.4368359943
 11
96.1337941093
 21
121.4368359943
  0
LINE
  5
2C2
100
AcDbEntity
  8
0
100
AcDbLine
 62
7
  6
CONTINUOUS
 10
96.1857011638
 20
121.7411636603
 11
95.822350594
 21
121.7411636603
  0
LINE
  5
2C3
100
AcDbEntity
  8
0
100
AcDbLine
 62
7
  6
CONTINUOUS
 10
91.410234028
 20
121.8020291849
 11
90.943068755
 21
121.8020291849
  0
LINE
  5
2C4
100
AcDbEntity
  8
0
100
AcDbLine
 62
7
  6
CONTINUOUS
 10
77.4879883094
 20
121.8020291849
 11
76.4152333094
 21
121.8020291849
  0
LINE
  5
2C5
100
AcDbEntity
  8
0
100
AcDbLine
 62
7
  6
CONTINUOUS
 10
74.6273083094
 20
121.8020291849
 11
74.3889181957
 21
121.8020291849
  0
LINE
  5
2C6
100
AcDbEntity
  8
0
100
AcDbLine
 62
7
  6
CONTINUOUS
 10
91.3583266764
 20
122.654146658
 11
91.8254919494
 21
122.654146658
  0
LINE
  5
2C7
100
AcDbEntity
  8
0
100
AcDbLine
 62
7
  6
CONTINUOUS
 10
71.0514583094
 20
122.7150121827
 11
72.0646157809
 21
122.7150121827
  0
LINE
  5
2C8
100
AcDbEntity
  8
0
100
AcDbLine
 62
7
  6
CONTINUOUS
 10
88.0362624883
 20
122.7150121827
 11
88.918685757
 21
122.7150121827
  0
LINE
  5
2C9
100
AcDbEntity
  8
0
100
AcDbLine
 62
7
  6
CONTINUOUS
 10
95.822350594
 20
122.9584742813
 11
96.1857011638
 21
122.9584742813
  0
LINE
  5
2CA
100
AcDbEntity
  8
0
100
AcDbLine
 62
7
  6
CONTINUOUS
 10
92.1369354647
 20
123.019339806
 11
91.3583266764
 21
123.019339806
  0
LINE
  5
2CB
100
AcDbEntity
  8
0
100
AcDbLine
 62
7
  6
CONTINUOUS
 10
89.0225003116
 20
123.0802053307
 11
88.0362624883
 21
123.0802053307
  0
LINE
  5
2CC
100
AcDbEntity
  8
0
100
AcDbLine
 62
7
  6
CONTINUOUS
 10
72.1838107525
 20
123.0802053307
 11
71.0514583094
 21
123.0802053307
  0
LINE
  5
2CD
100
AcDbEntity
  8
0
100
AcDbLine
 62
7
  6
CONTINUOUS
 10
96.1337941093
 20
123.2628019046
 11
95.8742576485
 21
123.2628019046
  0
LINE
  5
2CE
100
AcDbEntity
  8
0
100
AcDbLine
 62
7
  6
CONTINUOUS
 10
91.8254919494
 20
123.5671295279
 11
92.1369354647
 21
123.5671295279
  0
LINE
  5
2CF
100
AcDbEntity
  8
0
100
AcDbLine
 62
7
  6
CONTINUOUS
 10
96.5490517337
 20
123.6279952231
 11
96.8085881944
 21
123.6279952231
  0
LINE
  5
2D0
100
AcDbEntity
  8
0
100
AcDbLine
 62
7
  6
CONTINUOUS
 10
76.4152333094
 20
123.9323228464
 11
77.4879883094
 21
123.9323228464
  0
LINE
  5
2D1
100
AcDbEntity
  8
0
100
AcDbLine
 62
7
  6
CONTINUOUS
 10
90.943068755
 20
123.9323228464
 11
91.410234028
 21
123.9323228464
  0
LINE
  5
2D2
100
AcDbEntity
  8
0
100
AcDbLine
 62
7
  6
CONTINUOUS
 10
71.0514583094
 20
123.9931883711
 11
72.1838107525
 21
123.9931883711
  0
LINE
  5
2D3
100
AcDbEntity
  8
0
100
AcDbLine
 62
7
  6
CONTINUOUS
 10
88.0362624883
 20
123.9931883711
 11
89.0225003116
 21
123.9931883711
  0
LINE
  5
2D4
100
AcDbEntity
  8
0
100
AcDbLine
 62
7
  6
CONTINUOUS
 10
95.822350594
 20
123.9931883711
 11
96.1337941093
 21
123.9931883711
  0
LINE
  5
2D5
100
AcDbEntity
  8
0
100
AcDbLine
 62
7
  6
CONTINUOUS
 10
96.0818864607
 20
124.2975159943
 11
95.8742576485
 21
124.2975159943
  0
LINE
  5
2D6
100
AcDbEntity
  8
0
100
AcDbLine
 62
7
  6
CONTINUOUS
 10
91.410234028
 20
124.2975159943
 11
90.943068755
 21
124.2975159943
  0
LINE
  5
2D7
100
AcDbEntity
  8
0
100
AcDbLine
 62
7
  6
CONTINUOUS
 10
88.9705931085
 20
124.2975159943
 11
87.724818973
 21
124.2975159943
  0
LINE
  5
2D8
100
AcDbEntity
  8
0
100
AcDbLine
 62
7
  6
CONTINUOUS
 10
87.3095609773
 20
124.2975159943
 11
86.998117462
 21
124.2975159943
  0
LINE
  5
2D9
100
AcDbEntity
  8
0
100
AcDbLine
 62
7
  6
CONTINUOUS
 10
77.4879883094
 20
124.2975159943
 11
76.0576483094
 21
124.2975159943
  0
LINE
  5
2DA
100
AcDbEntity
  8
0
100
AcDbLine
 62
7
  6
CONTINUOUS
 10
75.580868423
 20
124.2975159943
 11
75.223283423
 21
124.2975159943
  0
LINE
  5
2DB
100
AcDbEntity
  8
0
100
AcDbLine
 62
7
  6
CONTINUOUS
 10
73.792943423
 20
124.2975159943
 11
73.4353582525
 21
124.2975159943
  0
LINE
  5
2DC
100
AcDbEntity
  8
0
100
AcDbLine
 62
7
  6
CONTINUOUS
 10
72.1242133094
 20
124.2975159943
 11
70.6938733094
 21
124.2975159943
  0
LINE
  5
2DD
100
AcDbEntity
  8
RUNDUNGEN
100
AcDbLine
 62
7
  6
CONTINUOUS
 10
72.1763220298
 20
127.8479989828
 11
71.167653462
 21
127.8479989828
  0
LINE
  5
2DE
100
AcDbEntity
  8
RUNDUNGEN
100
AcDbLine
 62
7
  6
CONTINUOUS
 10
94.6589848942
 20
127.8479989828
 11
95.6679831343
 21
127.8479989828
  0
LINE
  5
2DF
100
AcDbEntity
  8
RUNDUNGEN
100
AcDbLine
 62
7
  6
CONTINUOUS
 10
76.6353234789
 20
128.0195718581
 11
90.1999834452
 21
128.0195718581
  0
LINE
  5
2E0
100
AcDbEntity
  8
0
100
AcDbLine
 62
7
  6
CONTINUOUS
 10
72.4222008662
 20
124.2366504697
 11
72.1242133094
 21
124.2975159943
  0
LINE
  5
2E1
100
AcDbEntity
  8
0
100
AcDbLine
 62
7
  6
CONTINUOUS
 10
77.7859760367
 20
124.2366504697
 11
77.4879883094
 21
124.2975159943
  0
LINE
  5
2E2
100
AcDbEntity
  8
0
100
AcDbLine
 62
7
  6
CONTINUOUS
 10
90.6835322942
 20
121.4977015243
 11
90.943068755
 21
121.4368359943
  0
LINE
  5
2E3
100
AcDbEntity
  8
0
100
AcDbLine
 62
7
  6
CONTINUOUS
 10
95.6147211877
 20
121.4977015243
 11
95.8742576485
 21
121.4368359943
  0
LINE
  5
2E4
100
AcDbEntity
  8
0
100
AcDbLine
 62
7
  6
CONTINUOUS
 10
89.2301292723
 20
124.2366504697
 11
88.9705931085
 21
124.2975159943
  0
LINE
  5
2E5
100
AcDbEntity
  8
0
100
AcDbLine
 62
7
  6
CONTINUOUS
 10
91.6697701917
 20
124.2366504697
 11
91.410234028
 21
124.2975159943
  0
LINE
  5
2E6
100
AcDbEntity
  8
0
100
AcDbLine
 62
7
  6
CONTINUOUS
 10
96.393329976
 20
123.20193638
 11
96.1337941093
 21
123.2628019046
  0
LINE
  5
2E7
100
AcDbEntity
  8
0
100
AcDbLine
 62
7
  6
CONTINUOUS
 10
96.3414229215
 20
124.2366504697
 11
96.0818864607
 21
124.2975159943
  0
LINE
  5
2E8
100
AcDbEntity
  8
0
100
AcDbLine
 62
7
  6
CONTINUOUS
 10
77.4879883094
 20
123.9323228464
 11
77.726378082
 21
123.8714573217
  0
LINE
  5
2E9
100
AcDbEntity
  8
0
100
AcDbLine
 62
7
  6
CONTINUOUS
 10
90.943068755
 20
121.8020291849
 11
90.7354396458
 21
121.8628947096
  0
LINE
  5
2EA
100
AcDbEntity
  8
0
100
AcDbLine
 62
7
  6
CONTINUOUS
 10
91.410234028
 20
123.9323228464
 11
91.6178628402
 21
123.8714573217
  0
LINE
  5
2EB
100
AcDbEntity
  8
0
100
AcDbLine
 62
7
  6
CONTINUOUS
 10
72.1838107525
 20
123.9931883711
 11
72.3626032525
 21
123.9323228464
  0
LINE
  5
2EC
100
AcDbEntity
  8
0
100
AcDbLine
 62
7
  6
CONTINUOUS
 10
89.0225003116
 20
123.9931883711
 11
89.1782220692
 21
123.9323228464
  0
LINE
  5
2ED
100
AcDbEntity
  8
0
100
AcDbLine
 62
7
  6
CONTINUOUS
 10
95.822350594
 20
121.7411636603
 11
95.6666288363
 21
121.8020291849
  0
LINE
  5
2EE
100
AcDbEntity
  8
0
100
AcDbLine
 62
7
  6
CONTINUOUS
 10
96.1857011638
 20
122.9584742813
 11
96.3414229215
 21
122.8976087567
  0
LINE
  5
2EF
100
AcDbEntity
  8
0
100
AcDbLine
 62
7
  6
CONTINUOUS
 10
78.0243658094
 20
124.1149194204
 11
77.7859760367
 21
124.2366504697
  0
LINE
  5
2F0
100
AcDbEntity
  8
0
100
AcDbLine
 62
7
  6
CONTINUOUS
 10
90.475903482
 20
121.6194325896
 11
90.6835322942
 21
121.4977015243
  0
LINE
  5
2F1
100
AcDbEntity
  8
0
100
AcDbLine
 62
7
  6
CONTINUOUS
 10
74.150528423
 20
121.8628947096
 11
73.971735923
 21
121.9846258015
  0
LINE
  5
2F2
100
AcDbEntity
  8
0
100
AcDbLine
 62
7
  6
CONTINUOUS
 10
77.726378082
 20
123.8714573217
 11
77.905170582
 21
123.7497262724
  0
LINE
  5
2F3
100
AcDbEntity
  8
0
100
AcDbLine
 62
7
  6
CONTINUOUS
 10
72.6605908094
 20
124.0540538957
 11
72.4222008662
 21
124.2366504697
  0
LINE
  5
2F4
100
AcDbEntity
  8
0
100
AcDbLine
 62
7
  6
CONTINUOUS
 10
73.614150923
 20
121.8628947096
 11
73.8525406957
 21
121.6194325896
  0
LINE
  5
2F5
100
AcDbEntity
  8
0
100
AcDbLine
 62
7
  6
CONTINUOUS
 10
72.3626032525
 20
123.9323228464
 11
72.4817983094
 21
123.8105917971
  0
LINE
  5
2F6
100
AcDbEntity
  8
0
100
AcDbLine
 62
7
  6
CONTINUOUS
 10
78.262755582
 20
123.8714573217
 11
78.0243658094
 21
124.1149194204
  0
LINE
  5
2F7
100
AcDbEntity
  8
0
100
AcDbLine
 62
7
  6
CONTINUOUS
 10
72.8393833094
 20
123.8105917971
 11
72.6605908094
 21
124.0540538957
  0
LINE
  5
2F8
100
AcDbEntity
  8
0
100
AcDbLine
 62
7
  6
CONTINUOUS
 10
73.971735923
 20
121.9846258015
 11
73.8525406957
 21
122.1672223755
  0
LINE
  5
2F9
100
AcDbEntity
  8
0
100
AcDbLine
 62
7
  6
CONTINUOUS
 10
77.905170582
 20
123.7497262724
 11
78.0243658094
 21
123.5671295279
  0
LINE
  5
2FA
100
AcDbEntity
  8
0
100
AcDbLine
 62
7
  6
CONTINUOUS
 10
73.4949558662
 20
122.1063568509
 11
73.614150923
 21
121.8628947096
  0
LINE
  5
2FB
100
AcDbEntity
  8
0
100
AcDbLine
 62
7
  6
CONTINUOUS
 10
72.9585783662
 20
121.4368359943
 11
72.4222008662
 21
122.836743232
  0
LINE
  5
2FC
100
AcDbEntity
  8
0
100
AcDbLine
 62
7
  6
CONTINUOUS
 10
72.0646157809
 20
122.7150121827
 11
72.5413957525
 21
121.4368359943
  0
LINE
  5
2FD
100
AcDbEntity
  8
0
100
AcDbLine
 62
7
  6
CONTINUOUS
 10
72.4817983094
 20
123.8105917971
 11
72.5413957525
 21
123.6279952231
  0
LINE
  5
2FE
100
AcDbEntity
  8
0
100
AcDbLine
 62
7
  6
CONTINUOUS
 10
72.8989807525
 20
123.6279952231
 11
72.8393833094
 21
123.8105917971
  0
LINE
  5
2FF
100
AcDbEntity
  8
0
100
AcDbLine
 62
7
  6
CONTINUOUS
 10
60.641577493
 20
138.5195718581
 11
63.6929930743
 21
127.1315338735
  0
LINE
  5
300
100
AcDbEntity
  8
0
100
AcDbLine
 62
7
  6
CONTINUOUS
 10
70.6938733094
 20
124.2975159943
 11
70.6938733094
 21
121.4368359943
  0
LINE
  5
301
100
AcDbEntity
  8
0
100
AcDbLine
 62
7
  6
CONTINUOUS
 10
71.0514583094
 20
121.4368359943
 11
71.0514583094
 21
122.7150121827
  0
LINE
  5
302
100
AcDbEntity
  8
0
100
AcDbLine
 62
7
  6
CONTINUOUS
 10
71.0514583094
 20
123.0802053307
 11
71.0514583094
 21
123.9931883711
  0
LINE
  5
303
100
AcDbEntity
  8
0
100
AcDbLine
 62
7
  6
CONTINUOUS
 10
72.5413957525
 20
123.6279952231
 11
72.5413957525
 21
123.4453984786
  0
LINE
  5
304
100
AcDbEntity
  8
0
100
AcDbLine
 62
7
  6
CONTINUOUS
 10
72.8989807525
 20
123.3845329539
 11
72.8989807525
 21
123.6279952231
  0
LINE
  5
305
100
AcDbEntity
  8
0
100
AcDbLine
 62
7
  6
CONTINUOUS
 10
73.4353582525
 20
124.2975159943
 11
73.4353582525
 21
122.4106844741
  0
LINE
  5
306
100
AcDbEntity
  8
0
100
AcDbLine
 62
7
  6
CONTINUOUS
 10
73.792943423
 20
122.4106844741
 11
73.792943423
 21
124.2975159943
  0
LINE
  5
307
100
AcDbEntity
  8
0
100
AcDbLine
 62
7
  6
CONTINUOUS
 10
74.6652928209
 20
51.118097277
 11
74.6652928209
 21
48.3179544235
  0
LINE
  5
308
100
AcDbEntity
  8
KONSTRUKTIONSELEMENTE
100
AcDbLine
 62
7
  6
CONTINUOUS
 10
74.7865079992
 20
109.6105718581
 11
74.7865079992
 21
110.9695718581
  0
LINE
  5
309
100
AcDbEntity
  8
0
100
AcDbLine
 62
7
  6
CONTINUOUS
 10
75.223283423
 20
124.2975159943
 11
75.223283423
 21
122.4106844741
  0
LINE
  5
30A
100
AcDbEntity
  8
KONSTRUKTIONSELEMENTE
100
AcDbLine
 62
7
  6
CONTINUOUS
 10
75.417653462
 20
74.721321633
 11
75.417653462
 21
85.3279233508
  0
LINE
  5
30B
100
AcDbEntity
  8
0
100
AcDbLine
 62
7
  6
CONTINUOUS
 10
75.580868423
 20
122.4106844741
 11
75.580868423
 21
124.2975159943
  0
LINE
  5
30C
100
AcDbEntity
  8
0
100
AcDbLine
 62
7
  6
CONTINUOUS
 10
75.8352928209
 20
48.6997920854
 11
75.8352928209
 21
49.6755994434
  0
LINE
  5
30D
100
AcDbEntity
  8
0
100
AcDbLine
 62
7
  6
CONTINUOUS
 10
75.8352928209
 20
49.9725842915
 11
75.8352928209
 21
50.9483916495
  0
LINE
  5
30E
100
AcDbEntity
  8
0
100
AcDbLine
 62
7
  6
CONTINUOUS
 10
76.0576483094
 20
124.2975159943
 11
76.0576483094
 21
121.4368359943
  0
LINE
  5
30F
100
AcDbEntity
  8
0
100
AcDbLine
 62
7
  6
CONTINUOUS
 10
76.1052928209
 20
50.6217083166
 11
76.1052928209
 21
50.0871355901
  0
LINE
  5
310
100
AcDbEntity
  8
0
100
AcDbLine
 62
7
  6
CONTINUOUS
 10
76.1052928209
 20
49.3489161105
 11
76.1052928209
 21
48.8143433839
  0
LINE
  5
311
100
AcDbEntity
  8
0
100
AcDbLine
 62
7
  6
CONTINUOUS
 10
76.3302928209
 20
49.3234602664
 11
76.3302928209
 21
49.3998277987
  0
LINE
  5
312
100
AcDbEntity
  8
0
100
AcDbLine
 62
7
  6
CONTINUOUS
 10
76.3302928209
 20
49.5907466297
 11
76.3302928209
 21
49.8453050709
  0
LINE
  5
313
100
AcDbEntity
  8
0
100
AcDbLine
 62
7
  6
CONTINUOUS
 10
76.3302928209
 20
50.0362239018
 11
76.3302928209
 21
50.3247234685
  0
LINE
  5
314
100
AcDbEntity
  8
0
100
AcDbLine
 62
7
  6
CONTINUOUS
 10
96.1337941093
 20
123.9931883711
 11
96.2895158669
 21
123.9323228464
  0
LINE
  5
315
100
AcDbEntity
  8
0
100
AcDbLine
 62
7
  6
CONTINUOUS
 10
91.877399301
 20
124.1149194204
 11
91.6697701917
 21
124.2366504697
  0
LINE
  5
316
100
AcDbEntity
  8
0
100
AcDbLine
 62
7
  6
CONTINUOUS
 10
95.355185321
 20
121.6802981143
 11
95.6147211877
 21
121.4977015243
  0
LINE
  5
317
100
AcDbEntity
  8
0
100
AcDbLine
 62
7
  6
CONTINUOUS
 10
96.6528664368
 20
123.019339806
 11
96.393329976
 21
123.20193638
  0
LINE
  5
318
100
AcDbEntity
  8
0
100
AcDbLine
 62
7
  6
CONTINUOUS
 10
96.6009593822
 20
124.0540538957
 11
96.3414229215
 21
124.2366504697
  0
LINE
  5
319
100
AcDbEntity
  8
0
100
AcDbLine
 62
7
  6
CONTINUOUS
 10
90.7354396458
 20
121.8628947096
 11
90.5797178881
 21
121.9846258015
  0
LINE
  5
31A
100
AcDbEntity
  8
0
100
AcDbLine
 62
7
  6
CONTINUOUS
 10
91.6178628402
 20
123.8714573217
 11
91.7735845978
 21
123.7497262724
  0
LINE
  5
31B
100
AcDbEntity
  8
0
100
AcDbLine
 62
7
  6
CONTINUOUS
 10
95.6666288363
 20
121.8020291849
 11
95.5109070786
 21
121.9237602342
  0
LINE
  5
31C
100
AcDbEntity
  8
0
100
AcDbLine
 62
7
  6
CONTINUOUS
 10
96.3414229215
 20
122.8976087567
 11
96.4971446791
 21
122.7758777074
  0
LINE
  5
31D
100
AcDbEntity
  8
0
100
AcDbLine
 62
7
  6
CONTINUOUS
 10
96.2895158669
 20
123.9323228464
 11
96.4452376246
 21
123.8105917971
  0
LINE
  5
31E
100
AcDbEntity
  8
0
100
AcDbLine
 62
7
  6
CONTINUOUS
 10
89.4377583815
 20
124.0540538957
 11
89.2301292723
 21
124.2366504697
  0
LINE
  5
31F
100
AcDbEntity
  8
0
100
AcDbLine
 62
7
  6
CONTINUOUS
 10
90.2682743728
 20
121.8628947096
 11
90.475903482
 21
121.6194325896
  0
LINE
  5
320
100
AcDbEntity
  8
0
100
AcDbLine
 62
7
  6
CONTINUOUS
 10
89.1782220692
 20
123.9323228464
 11
89.2820366238
 21
123.8105917971
  0
LINE
  5
321
100
AcDbEntity
  8
0
100
AcDbLine
 62
7
  6
CONTINUOUS
 10
92.0850284102
 20
123.8714573217
 11
91.877399301
 21
124.1149194204
  0
LINE
  5
322
100
AcDbEntity
  8
0
100
AcDbLine
 62
7
  6
CONTINUOUS
 10
78.3819508094
 20
123.6279952231
 11
78.262755582
 21
123.8714573217
  0
LINE
  5
323
100
AcDbEntity
  8
0
100
AcDbLine
 62
7
  6
CONTINUOUS
 10
73.8525406957
 20
122.1672223755
 11
73.792943423
 21
122.4106844741
  0
LINE
  5
324
100
AcDbEntity
  8
0
100
AcDbLine
 62
7
  6
CONTINUOUS
 10
78.0243658094
 20
123.5671295279
 11
78.083963082
 21
123.3236674293
  0
LINE
  5
325
100
AcDbEntity
  8
0
100
AcDbLine
 62
7
  6
CONTINUOUS
 10
73.4353582525
 20
122.4106844741
 11
73.4949558662
 21
122.1063568509
  0
LINE
  5
326
100
AcDbEntity
  8
0
100
AcDbLine
 62
7
  6
CONTINUOUS
 10
78.441548082
 20
123.3236674293
 11
78.3819508094
 21
123.6279952231
  0
LINE
  5
327
100
AcDbEntity
  8
0
100
AcDbLine
 62
7
  6
CONTINUOUS
 10
76.4152333094
 20
121.8020291849
 11
76.4152333094
 21
123.9323228464
  0
LINE
  5
328
100
AcDbEntity
  8
0
100
AcDbLine
 62
7
  6
CONTINUOUS
 10
76.6002928209
 20
50.3247234685
 11
76.6002928209
 21
50.0362239018
  0
LINE
  5
329
100
AcDbEntity
  8
0
100
AcDbLine
 62
7
  6
CONTINUOUS
 10
76.6002928209
 20
49.8453050709
 11
76.6002928209
 21
49.5907466297
  0
LINE
  5
32A
100
AcDbEntity
  8
0
100
AcDbLine
 62
7
  6
CONTINUOUS
 10
76.6002928209
 20
49.3998277987
 11
76.6002928209
 21
49.3234602664
  0
LINE
  5
32B
100
AcDbEntity
  8
0
100
AcDbLine
 62
7
  6
CONTINUOUS
 10
76.8252928209
 20
48.8143433839
 11
76.8252928209
 21
49.3489161105
  0
LINE
  5
32C
100
AcDbEntity
  8
0
100
AcDbLine
 62
7
  6
CONTINUOUS
 10
76.8252928209
 20
50.0871355901
 11
76.8252928209
 21
50.6217083166
  0
LINE
  5
32D
100
AcDbEntity
  8
0
100
AcDbLine
 62
7
  6
CONTINUOUS
 10
76.917653462
 20
265.457819635
 11
76.917653462
 21
142.5813240812
  0
LINE
  5
32E
100
AcDbEntity
  8
0
100
AcDbLine
 62
7
  6
CONTINUOUS
 10
77.0952928209
 20
50.9483916495
 11
77.0952928209
 21
49.9725842915
  0
LINE
  5
32F
100
AcDbEntity
  8
0
100
AcDbLine
 62
7
  6
CONTINUOUS
 10
77.0952928209
 20
49.6755994434
 11
77.0952928209
 21
48.6997920854
  0
LINE
  5
330
100
AcDbEntity
  8
0
100
AcDbLine
 62
7
  6
CONTINUOUS
 10
78.083963082
 20
123.3236674293
 11
78.083963082
 21
122.4106844741
  0
LINE
  5
331
100
AcDbEntity
  8
0
100
AcDbLine
 62
7
  6
CONTINUOUS
 10
78.2652928209
 20
48.3179544235
 11
78.2652928209
 21
51.118097277
  0
LINE
  5
332
100
AcDbEntity
  8
0
100
AcDbLine
 62
7
  6
CONTINUOUS
 10
78.441548082
 20
122.4106844741
 11
78.441548082
 21
123.3236674293
  0
LINE
  5
333
100
AcDbEntity
  8
0
100
AcDbLine
 62
7
  6
CONTINUOUS
 10
79.4327736018
 20
51.3726557183
 11
79.4327736018
 21
50.9865754157
  0
LINE
  5
334
100
AcDbEntity
  8
0
100
AcDbLine
 62
7
  6
CONTINUOUS
 10
79.4327736018
 20
50.630193598
 11
79.4327736018
 21
48.0633959823
  0
LINE
  5
335
100
AcDbEntity
  8
0
100
AcDbLine
 62
7
  6
CONTINUOUS
 10
79.717653462
 20
109.6105718581
 11
79.717653462
 21
101.5912170823
  0
LINE
  5
336
100
AcDbEntity
  8
KONSTRUKTIONSELEMENTE
100
AcDbLine
 62
7
  6
CONTINUOUS
 10
79.717653462
 20
109.6105718581
 11
79.717653462
 21
118.3195718581
  0
LINE
  5
337
100
AcDbEntity
  8
KONSTRUKTIONSELEMENTE
100
AcDbLine
 62
7
  6
CONTINUOUS
 10
79.917653462
 20
74.721321633
 11
79.917653462
 21
85.3279233508
  0
LINE
  5
338
100
AcDbEntity
  8
KONSTRUKTIONSELEMENTE
100
AcDbLine
 62
7
  6
CONTINUOUS
 10
79.917653462
 20
113.6570718581
 11
79.917653462
 21
116.440621723
  0
LINE
  5
339
100
AcDbEntity
  8
0
100
AcDbLine
 62
7
  6
CONTINUOUS
 10
80.0087736018
 20
48.0633959823
 11
80.0087736018
 21
49.872316516
  0
LINE
  5
33A
100
AcDbEntity
  8
0
100
AcDbLine
 62
7
  6
CONTINUOUS
 10
80.0087736018
 20
50.0674779876
 11
80.0087736018
 21
50.630193598
  0
LINE
  5
33B
100
AcDbEntity
  8
KONSTRUKTIONSELEMENTE
100
AcDbLine
 62
7
  6
CONTINUOUS
 10
80.917653462
 20
53.918094739
 11
80.917653462
 21
76.3723517078
  0
LINE
  5
33C
100
AcDbEntity
  8
KONSTRUKTIONSELEMENTE
100
AcDbLine
 62
7
  6
CONTINUOUS
 10
80.917653462
 20
115.0828313116
 11
80.917653462
 21
121.0459304383
  0
LINE
  5
33D
100
AcDbEntity
  8
KONSTRUKTIONSELEMENTE
100
AcDbLine
 62
7
  6
CONTINUOUS
 10
80.917653462
 20
128.3266465634
 11
80.917653462
 21
136.5255856575
  0
LINE
  5
33E
100
AcDbEntity
  8
KONSTRUKTIONSELEMENTE
100
AcDbLine
 62
7
  6
CONTINUOUS
 10
81.167653462
 20
84.5768628662
 11
81.167653462
 21
105.1820718581
  0
LINE
  5
33F
100
AcDbEntity
  8
0
100
AcDbLine
 62
7
  6
CONTINUOUS
 10
81.4487736018
 20
49.6601844816
 11
81.4487736018
 21
49.872316516
  0
LINE
  5
340
100
AcDbEntity
  8
0
100
AcDbLine
 62
7
  6
CONTINUOUS
 10
82.0620627132
 20
49.7236487997
 11
82.0620627132
 21
49.935780834
  0
LINE
  5
341
100
AcDbEntity
  8
0
100
AcDbLine
 62
7
  6
CONTINUOUS
 10
82.3386736258
 20
50.739158736
 11
82.3386736258
 21
50.5270267017
  0
LINE
  5
342
100
AcDbEntity
  8
0
100
AcDbLine
 62
7
  6
CONTINUOUS
 10
82.7525459519
 20
48.0633959823
 11
82.7525459519
 21
48.2755280167
  0
LINE
  5
343
100
AcDbEntity
  8
0
100
AcDbLine
 62
7
  6
CONTINUOUS
 10
83.7527736018
 20
51.3726557183
 11
83.7527736018
 21
49.2788427104
  0
LINE
  5
344
100
AcDbEntity
  8
0
100
AcDbLine
 62
7
  6
CONTINUOUS
 10
84.3287736018
 20
49.2788427104
 11
84.3287736018
 21
51.3726557183
  0
LINE
  5
345
100
AcDbEntity
  8
0
100
AcDbLine
 62
7
  6
CONTINUOUS
 10
75.5212708094
 20
122.1063568509
 11
75.580868423
 21
122.4106844741
  0
LINE
  5
346
100
AcDbEntity
  8
0
100
AcDbLine
 62
7
  6
CONTINUOUS
 10
78.3819508094
 20
122.1063568509
 11
78.441548082
 21
122.4106844741
  0
LINE
  5
347
100
AcDbEntity
  8
0
100
AcDbLine
 62
7
  6
CONTINUOUS
 10
75.223283423
 20
122.4106844741
 11
75.1636858094
 21
122.1672223755
  0
LINE
  5
348
100
AcDbEntity
  8
0
100
AcDbLine
 62
7
  6
CONTINUOUS
 10
78.083963082
 20
122.4106844741
 11
78.0243658094
 21
122.1672223755
  0
LINE
  5
349
100
AcDbEntity
  8
0
100
AcDbLine
 62
7
  6
CONTINUOUS
 10
72.5413957525
 20
123.4453984786
 11
72.4817983094
 21
123.2628019046
  0
LINE
  5
34A
100
AcDbEntity
  8
0
100
AcDbLine
 62
7
  6
CONTINUOUS
 10
72.8393833094
 20
123.20193638
 11
72.8989807525
 21
123.3845329539
  0
LINE
  5
34B
100
AcDbEntity
  8
0
100
AcDbLine
 62
7
  6
CONTINUOUS
 10
96.4971446791
 20
122.7758777074
 11
96.6009593822
 21
122.654146658
  0
LINE
  5
34C
100
AcDbEntity
  8
0
100
AcDbLine
 62
7
  6
CONTINUOUS
 10
96.8085881944
 20
122.836743232
 11
96.6528664368
 21
123.019339806
  0
LINE
  5
34D
100
AcDbEntity
  8
0
100
AcDbLine
 62
7
  6
CONTINUOUS
 10
89.5934799906
 20
123.8105917971
 11
89.4377583815
 21
124.0540538957
  0
LINE
  5
34E
100
AcDbEntity
  8
0
100
AcDbLine
 62
7
  6
CONTINUOUS
 10
95.1994635633
 20
121.9237602342
 11
95.355185321
 21
121.6802981143
  0
LINE
  5
34F
100
AcDbEntity
  8
0
100
AcDbLine
 62
7
  6
CONTINUOUS
 10
96.7566811399
 20
123.8105917971
 11
96.6009593822
 21
124.0540538957
  0
LINE
  5
350
100
AcDbEntity
  8
0
100
AcDbLine
 62
7
  6
CONTINUOUS
 10
90.5797178881
 20
121.9846258015
 11
90.475903482
 21
122.1672223755
  0
LINE
  5
351
100
AcDbEntity
  8
0
100
AcDbLine
 62
7
  6
CONTINUOUS
 10
95.5109070786
 20
121.9237602342
 11
95.4070923755
 21
122.1063568509
  0
LINE
  5
352
100
AcDbEntity
  8
0
100
AcDbLine
 62
7
  6
CONTINUOUS
 10
96.4452376246
 20
123.8105917971
 11
96.5490517337
 21
123.6279952231
  0
LINE
  5
353
100
AcDbEntity
  8
0
100
AcDbLine
 62
7
  6
CONTINUOUS
 10
90.1644599667
 20
122.1063568509
 11
90.2682743728
 21
121.8628947096
  0
LINE
  5
354
100
AcDbEntity
  8
0
100
AcDbLine
 62
7
  6
CONTINUOUS
 10
89.6972946938
 20
121.4368359943
 11
89.2301292723
 21
122.836743232
  0
LINE
  5
355
100
AcDbEntity
  8
0
100
AcDbLine
 62
7
  6
CONTINUOUS
 10
88.918685757
 20
122.7150121827
 11
89.3339438269
 21
121.4368359943
  0
LINE
  5
356
100
AcDbEntity
  8
0
100
AcDbLine
 62
7
  6
CONTINUOUS
 10
89.2820366238
 20
123.8105917971
 11
89.3339438269
 21
123.6279952231
  0
LINE
  5
357
100
AcDbEntity
  8
0
100
AcDbLine
 62
7
  6
CONTINUOUS
 10
89.6453873422
 20
123.6279952231
 11
89.5934799906
 21
123.8105917971
  0
LINE
  5
358
100
AcDbEntity
  8
KONSTRUKTIONSELEMENTE
100
AcDbLine
 62
7
  6
CONTINUOUS
 10
85.667653462
 20
84.5768628662
 11
85.667653462
 21
105.1820718581
  0
LINE
  5
359
100
AcDbEntity
  8
KONSTRUKTIONSELEMENTE
100
AcDbLine
 62
7
  6
CONTINUOUS
 10
85.917653462
 20
53.918094739
 11
85.917653462
 21
76.3723517078
  0
LINE
  5
35A
100
AcDbEntity
  8
KONSTRUKTIONSELEMENTE
100
AcDbLine
 62
7
  6
CONTINUOUS
 10
85.917653462
 20
115.0828313116
 11
85.917653462
 21
121.0459304383
  0
LINE
  5
35B
100
AcDbEntity
  8
KONSTRUKTIONSELEMENTE
100
AcDbLine
 62
7
  6
CONTINUOUS
 10
85.917653462
 20
128.3266465634
 11
85.917653462
 21
136.5255856575
  0
LINE
  5
35C
100
AcDbEntity
  8
0
100
AcDbLine
 62
7
  6
CONTINUOUS
 10
86.5932548181
 20
51.3726557183
 11
86.5932548181
 21
49.2788427104
  0
LINE
  5
35D
100
AcDbEntity
  8
KONSTRUKTIONSELEMENTE
100
AcDbLine
 62
7
  6
CONTINUOUS
 10
86.917653462
 20
116.440621723
 11
86.917653462
 21
113.6570718581
  0
LINE
  5
35E
100
AcDbEntity
  8
KONSTRUKTIONSELEMENTE
100
AcDbLine
 62
7
  6
CONTINUOUS
 10
86.917653462
 20
85.3279233508
 11
86.917653462
 21
74.721321633
  0
LINE
  5
35F
100
AcDbEntity
  8
0
100
AcDbLine
 62
7
  6
CONTINUOUS
 10
86.998117462
 20
124.2975159943
 11
86.998117462
 21
121.4368359943
  0
LINE
  5
360
100
AcDbEntity
  8
0
100
AcDbLine
 62
7
  6
CONTINUOUS
 10
87.117653462
 20
101.5912170823
 11
87.117653462
 21
109.6105718581
  0
LINE
  5
361
100
AcDbEntity
  8
KONSTRUKTIONSELEMENTE
100
AcDbLine
 62
7
  6
CONTINUOUS
 10
87.117653462
 20
109.6105718581
 11
87.117653462
 21
118.3195718581
  0
LINE
  5
362
100
AcDbEntity
  8
0
100
AcDbLine
 62
7
  6
CONTINUOUS
 10
87.1692548181
 20
49.2788427104
 11
87.1692548181
 21
51.3726557183
  0
LINE
  5
363
100
AcDbEntity
  8
0
100
AcDbLine
 62
7
  6
CONTINUOUS
 10
87.3095609773
 20
121.4368359943
 11
87.3095609773
 21
124.2975159943
  0
LINE
  5
364
100
AcDbEntity
  8
0
100
AcDbLine
 62
7
  6
CONTINUOUS
 10
87.724818973
 20
124.2975159943
 11
87.724818973
 21
121.4368359943
  0
LINE
  5
365
100
AcDbEntity
  8
0
100
AcDbLine
 62
7
  6
CONTINUOUS
 10
88.0362624883
 20
121.4368359943
 11
88.0362624883
 21
122.7150121827
  0
LINE
  5
366
100
AcDbEntity
  8
0
100
AcDbLine
 62
7
  6
CONTINUOUS
 10
88.0362624883
 20
123.0802053307
 11
88.0362624883
 21
123.9931883711
  0
LINE
  5
367
100
AcDbEntity
  8
0
100
AcDbLine
 62
7
  6
CONTINUOUS
 10
88.4292548181
 20
51.3726557183
 11
88.4292548181
 21
50.9653622123
  0
LINE
  5
368
100
AcDbEntity
  8
0
100
AcDbLine
 62
7
  6
CONTINUOUS
 10
88.4292548181
 20
50.6089803946
 11
88.4292548181
 21
48.0633959823
  0
LINE
  5
369
100
AcDbEntity
  8
0
100
AcDbLine
 62
7
  6
CONTINUOUS
 10
89.0052548181
 20
48.487660051
 11
89.0052548181
 21
50.6089803946
  0
LINE
  5
36A
100
AcDbEntity
  8
0
100
AcDbLine
 62
7
  6
CONTINUOUS
 10
89.3339438269
 20
123.6279952231
 11
89.3339438269
 21
123.4453984786
  0
LINE
  5
36B
100
AcDbEntity
  8
0
100
AcDbLine
 62
7
  6
CONTINUOUS
 10
89.6453873422
 20
123.3845329539
 11
89.6453873422
 21
123.6279952231
  0
LINE
  5
36C
100
AcDbEntity
  8
0
100
AcDbLine
 62
7
  6
CONTINUOUS
 10
89.917653462
 20
265.457819635
 11
89.917653462
 21
142.5813240812
  0
LINE
  5
36D
100
AcDbEntity
  8
0
100
AcDbLine
 62
7
  6
CONTINUOUS
 10
90.1125526152
 20
123.3236674293
 11
90.1125526152
 21
122.4106844741
  0
LINE
  5
36E
100
AcDbEntity
  8
0
100
AcDbLine
 62
7
  6
CONTINUOUS
 10
90.4239961305
 20
122.4106844741
 11
90.4239961305
 21
123.3236674293
  0
LINE
  5
36F
100
AcDbEntity
  8
0
100
AcDbLine
 62
7
  6
CONTINUOUS
 10
91.3583266764
 20
123.019339806
 11
91.3583266764
 21
122.654146658
  0
LINE
  5
370
100
AcDbEntity
  8
KONSTRUKTIONSELEMENTE
100
AcDbLine
 62
7
  6
CONTINUOUS
 10
91.417653462
 20
85.3279233508
 11
91.417653462
 21
74.721321633
  0
LINE
  5
371
100
AcDbEntity
  8
0
100
AcDbLine
 62
7
  6
CONTINUOUS
 10
91.4848230698
 20
49.938643166
 11
91.4848230698
 21
49.7265111317
  0
LINE
  5
372
100
AcDbEntity
  8
0
100
AcDbLine
 62
7
  6
CONTINUOUS
 10
91.8254919494
 20
122.654146658
 11
91.8254919494
 21
122.1672223755
  0
LINE
  5
373
100
AcDbEntity
  8
KONSTRUKTIONSELEMENTE
100
AcDbLine
 62
7
  6
CONTINUOUS
 10
92.0487989248
 20
109.6105718581
 11
92.0487989248
 21
110.9695718581
  0
LINE
  5
374
100
AcDbEntity
  8
0
100
AcDbLine
 62
7
  6
CONTINUOUS
 10
92.1369354647
 20
122.1063568509
 11
92.1369354647
 21
123.019339806
  0
LINE
  5
375
100
AcDbEntity
  8
0
100
AcDbLine
 62
7
  6
CONTINUOUS
 10
75.402075923
 20
121.8628947096
 11
75.5212708094
 21
122.1063568509
  0
LINE
  5
376
100
AcDbEntity
  8
0
100
AcDbLine
 62
7
  6
CONTINUOUS
 10
78.262755582
 20
121.8628947096
 11
78.3819508094
 21
122.1063568509
  0
LINE
  5
377
100
AcDbEntity
  8
0
100
AcDbLine
 62
7
  6
CONTINUOUS
 10
75.1636858094
 20
122.1672223755
 11
75.044490923
 21
121.9846258015
  0
LINE
  5
378
100
AcDbEntity
  8
0
100
AcDbLine
 62
7
  6
CONTINUOUS
 10
78.0243658094
 20
122.1672223755
 11
77.905170582
 21
121.9846258015
  0
LINE
  5
379
100
AcDbEntity
  8
0
100
AcDbLine
 62
7
  6
CONTINUOUS
 10
72.6605908094
 20
122.9584742813
 11
72.8393833094
 21
123.20193638
  0
LINE
  5
37A
100
AcDbEntity
  8
0
100
AcDbLine
 62
7
  6
CONTINUOUS
 10
72.4817983094
 20
123.2628019046
 11
72.3626032525
 21
123.1410708553
  0
LINE
  5
37B
100
AcDbEntity
  8
0
100
AcDbLine
 62
7
  6
CONTINUOUS
 10
95.0956488602
 20
122.2280879002
 11
95.1994635633
 21
121.9237602342
  0
LINE
  5
37C
100
AcDbEntity
  8
0
100
AcDbLine
 62
7
  6
CONTINUOUS
 10
96.9124028976
 20
122.5324156087
 11
96.8085881944
 21
122.836743232
  0
LINE
  5
37D
100
AcDbEntity
  8
0
100
AcDbLine
 62
7
  6
CONTINUOUS
 10
91.7735845978
 20
123.7497262724
 11
91.8254919494
 21
123.5671295279
  0
LINE
  5
37E
100
AcDbEntity
  8
0
100
AcDbLine
 62
7
  6
CONTINUOUS
 10
95.4070923755
 20
122.1063568509
 11
95.355185321
 21
122.2889534248
  0
LINE
  5
37F
100
AcDbEntity
  8
0
100
AcDbLine
 62
7
  6
CONTINUOUS
 10
96.6009593822
 20
122.654146658
 11
96.6528664368
 21
122.4715499988
  0
LINE
  5
380
100
AcDbEntity
  8
0
100
AcDbLine
 62
7
  6
CONTINUOUS
 10
96.8085881944
 20
123.6279952231
 11
96.7566811399
 21
123.8105917971
  0
LINE
  5
381
100
AcDbEntity
  8
0
100
AcDbLine
 62
7
  6
CONTINUOUS
 10
90.475903482
 20
122.1672223755
 11
90.4239961305
 21
122.4106844741
  0
LINE
  5
382
100
AcDbEntity
  8
0
100
AcDbLine
 62
7
  6
CONTINUOUS
 10
90.1125526152
 20
122.4106844741
 11
90.1644599667
 21
122.1063568509
  0
LINE
  5
383
100
AcDbEntity
  8
0
100
AcDbLine
 62
7
  6
CONTINUOUS
 10
92.1369354647
 20
123.5671295279
 11
92.0850284102
 21
123.8714573217
  0
LINE
  5
384
100
AcDbEntity
  8
0
100
AcDbLine
 62
7
  6
CONTINUOUS
 10
95.0437418057
 20
122.654146658
 11
95.0956488602
 21
122.2280879002
  0
LINE
  5
385
100
AcDbEntity
  8
0
100
AcDbLine
 62
7
  6
CONTINUOUS
 10
95.0437418057
 20
123.0802053307
 11
95.0437418057
 21
122.654146658
  0
LINE
  5
386
100
AcDbEntity
  8
0
100
AcDbLine
 62
7
  6
CONTINUOUS
 10
95.3032776724
 20
122.9584742813
 11
95.3032776724
 21
123.0802053307
  0
LINE
  5
387
100
AcDbEntity
  8
0
100
AcDbLine
 62
7
  6
CONTINUOUS
 10
95.355185321
 20
122.2889534248
 11
95.355185321
 21
122.4715499988
  0
LINE
  5
388
100
AcDbEntity
  8
0
100
AcDbLine
 62
7
  6
CONTINUOUS
 10
96.6528664368
 20
122.4715499988
 11
96.6528664368
 21
122.2889534248
  0
LINE
  5
389
100
AcDbEntity
  8
0
100
AcDbLine
 62
7
  6
CONTINUOUS
 10
96.9124028976
 20
122.2280879002
 11
96.9124028976
 21
122.5324156087
  0
LINE
  5
38A
100
AcDbEntity
  8
RUNDUNGEN
100
AcDbLine
 62
7
  6
CONTINUOUS
 10
99.317653462
 20
21.3347596535
 11
99.317653462
 21
18.5770432068
  0
LINE
  5
38B
100
AcDbEntity
  8
RUNDUNGEN
100
AcDbLine
 62
7
  6
CONTINUOUS
 10
100.667653462
 20
103.5182218581
 11
100.667653462
 21
123.0195718581
  0
LINE
  5
38C
100
AcDbEntity
  8
0
100
AcDbLine
 62
7
  6
CONTINUOUS
 10
95.0956488602
 20
123.5062640033
 11
95.0437418057
 21
123.0802053307
  0
LINE
  5
38D
100
AcDbEntity
  8
0
100
AcDbLine
 62
7
  6
CONTINUOUS
 10
95.3032776724
 20
123.0802053307
 11
95.355185321
 21
123.4453984786
  0
LINE
  5
38E
100
AcDbEntity
  8
0
100
AcDbLine
 62
7
  6
CONTINUOUS
 10
90.1644599667
 20
123.6279952231
 11
90.1125526152
 21
123.3236674293
  0
LINE
  5
38F
100
AcDbEntity
  8
0
100
AcDbLine
 62
7
  6
CONTINUOUS
 10
90.4239961305
 20
123.3236674293
 11
90.475903482
 21
123.5671295279
  0
LINE
  5
390
100
AcDbEntity
  8
0
100
AcDbLine
 62
7
  6
CONTINUOUS
 10
92.0850284102
 20
121.8628947096
 11
92.1369354647
 21
122.1063568509
  0
LINE
  5
391
100
AcDbEntity
  8
0
100
AcDbLine
 62
7
  6
CONTINUOUS
 10
89.3339438269
 20
123.4453984786
 11
89.2820366238
 21
123.2628019046
  0
LINE
  5
392
100
AcDbEntity
  8
0
100
AcDbLine
 62
7
  6
CONTINUOUS
 10
89.5934799906
 20
123.20193638
 11
89.6453873422
 21
123.3845329539
  0
LINE
  5
393
100
AcDbEntity
  8
0
100
AcDbLine
 62
7
  6
CONTINUOUS
 10
91.8254919494
 20
122.1672223755
 11
91.7735845978
 21
121.9846258015
  0
LINE
  5
394
100
AcDbEntity
  8
0
100
AcDbLine
 62
7
  6
CONTINUOUS
 10
95.355185321
 20
123.4453984786
 11
95.4070923755
 21
123.6279952231
  0
LINE
  5
395
100
AcDbEntity
  8
0
100
AcDbLine
 62
7
  6
CONTINUOUS
 10
95.355185321
 20
122.4715499988
 11
95.4070923755
 21
122.654146658
  0
LINE
  5
396
100
AcDbEntity
  8
0
100
AcDbLine
 62
7
  6
CONTINUOUS
 10
95.1994635633
 20
123.8105917971
 11
95.0956488602
 21
123.5062640033
  0
LINE
  5
397
100
AcDbEntity
  8
0
100
AcDbLine
 62
7
  6
CONTINUOUS
 10
90.2682743728
 20
123.8714573217
 11
90.1644599667
 21
123.6279952231
  0
LINE
  5
398
100
AcDbEntity
  8
0
100
AcDbLine
 62
7
  6
CONTINUOUS
 10
90.475903482
 20
123.5671295279
 11
90.5797178881
 21
123.7497262724
  0
LINE
  5
399
100
AcDbEntity
  8
0
100
AcDbLine
 62
7
  6
CONTINUOUS
 10
89.4377583815
 20
122.9584742813
 11
89.5934799906
 21
123.20193638
  0
LINE
  5
39A
100
AcDbEntity
  8
0
100
AcDbLine
 62
7
  6
CONTINUOUS
 10
89.2820366238
 20
123.2628019046
 11
89.1782220692
 21
123.1410708553
  0
LINE
  5
39B
100
AcDbEntity
  8
0
100
AcDbLine
 62
7
  6
CONTINUOUS
 10
75.1636858094
 20
121.6194325896
 11
75.402075923
 21
121.8628947096
  0
LINE
  5
39C
100
AcDbEntity
  8
0
100
AcDbLine
 62
7
  6
CONTINUOUS
 10
78.0243658094
 20
121.6194325896
 11
78.262755582
 21
121.8628947096
  0
LINE
  5
39D
100
AcDbEntity
  8
0
100
AcDbLine
 62
7
  6
CONTINUOUS
 10
75.044490923
 20
121.9846258015
 11
74.865698423
 21
121.8628947096
  0
LINE
  5
39E
100
AcDbEntity
  8
0
100
AcDbLine
 62
7
  6
CONTINUOUS
 10
77.905170582
 20
121.9846258015
 11
77.726378082
 21
121.8628947096
  0
LINE
  5
39F
100
AcDbEntity
  8
0
100
AcDbLine
 62
7
  6
CONTINUOUS
 10
72.4222008662
 20
122.836743232
 11
72.6605908094
 21
122.9584742813
  0
LINE
  5
3A0
100
AcDbEntity
  8
0
100
AcDbLine
 62
7
  6
CONTINUOUS
 10
74.9252956957
 20
121.4977015243
 11
75.1636858094
 21
121.6194325896
  0
LINE
  5
3A1
100
AcDbEntity
  8
0
100
AcDbLine
 62
7
  6
CONTINUOUS
 10
77.7859760367
 20
121.4977015243
 11
78.0243658094
 21
121.6194325896
  0
LINE
  5
3A2
100
AcDbEntity
  8
0
100
AcDbLine
 62
7
  6
CONTINUOUS
 10
72.3626032525
 20
123.1410708553
 11
72.1838107525
 21
123.0802053307
  0
LINE
  5
3A3
100
AcDbEntity
  8
0
100
AcDbLine
 62
7
  6
CONTINUOUS
 10
76.917653462
 20
159.5539780763
 11
72.0296154775
 21
158.2442322458
  0
LINE
  5
3A4
100
AcDbEntity
  8
0
100
AcDbLine
 62
7
  6
CONTINUOUS
 10
94.8056914465
 20
158.2442322458
 11
89.917653462
 21
159.5539780763
  0
LINE
  5
3A5
100
AcDbEntity
  8
0
100
AcDbLine
 62
7
  6
CONTINUOUS
 10
103.1423138497
 20
149.9076098426
 11
94.8056914465
 21
158.2442322458
  0
LINE
  5
3A6
100
AcDbEntity
  8
0
100
AcDbLine
 62
7
  6
CONTINUOUS
 10
103.1423138497
 20
122.6588938698
 11
103.1423138497
 21
127.1315338735
  0
LINE
  5
3A7
100
AcDbEntity
  8
RUNDUNGEN
100
AcDbLine
 62
7
  6
CONTINUOUS
 10
103.817653462
 20
20.486231516
 11
103.817653462
 21
27.5955563739
  0
LINE
  5
3A8
100
AcDbEntity
  8
RUNDUNGEN
100
AcDbLine
 62
7
  6
CONTINUOUS
 10
109.9547495129
 20
57.5577593274
 11
109.9547495129
 21
61.0932932333
  0
LINE
  5
3A9
100
AcDbEntity
  8
0
100
AcDbLine
 62
7
  6
CONTINUOUS
 10
103.1423138497
 20
127.1315338735
 11
106.1937294311
 21
138.5195718581
  0
LINE
  5
3AA
100
AcDbEntity
  8
0
100
AcDbLine
 62
7
  6
CONTINUOUS
 10
96.6528664368
 20
122.2889534248
 11
96.6009593822
 21
122.1063568509
  0
LINE
  5
3AB
100
AcDbEntity
  8
0
100
AcDbLine
 62
7
  6
CONTINUOUS
 10
103.1423138497
 20
122.6588938698
 11
100.667653462
 21
114.5646444608
  0
LINE
  5
3AC
100
AcDbEntity
  8
0
100
AcDbLine
 62
7
  6
CONTINUOUS
 10
96.8085881944
 20
121.9237602342
 11
96.9124028976
 21
122.2280879002
  0
LINE
  5
3AD
100
AcDbEntity
  8
0
100
AcDbLine
 62
7
  6
CONTINUOUS
 10
95.4070923755
 20
123.6279952231
 11
95.5109070786
 21
123.8105917971
  0
LINE
  5
3AE
100
AcDbEntity
  8
0
100
AcDbLine
 62
7
  6
CONTINUOUS
 10
96.6009593822
 20
122.1063568509
 11
96.4971446791
 21
121.9237602342
  0
LINE
  5
3AF
100
AcDbEntity
  8
0
100
AcDbLine
 62
7
  6
CONTINUOUS
 10
95.355185321
 20
124.0540538957
 11
95.1994635633
 21
123.8105917971
  0
LINE
  5
3B0
100
AcDbEntity
  8
0
100
AcDbLine
 62
7
  6
CONTINUOUS
 10
96.6528664368
 20
121.6802981143
 11
96.8085881944
 21
121.9237602342
  0
LINE
  5
3B1
100
AcDbEntity
  8
0
100
AcDbLine
 62
7
  6
CONTINUOUS
 10
90.475903482
 20
124.1149194204
 11
90.2682743728
 21
123.8714573217
  0
LINE
  5
3B2
100
AcDbEntity
  8
0
100
AcDbLine
 62
7
  6
CONTINUOUS
 10
91.877399301
 20
121.6194325896
 11
92.0850284102
 21
121.8628947096
  0
LINE
  5
3B3
100
AcDbEntity
  8
0
100
AcDbLine
 62
7
  6
CONTINUOUS
 10
95.4070923755
 20
122.654146658
 11
95.5109070786
 21
122.7758777074
  0
LINE
  5
3B4
100
AcDbEntity
  8
0
100
AcDbLine
 62
7
  6
CONTINUOUS
 10
90.5797178881
 20
123.7497262724
 11
90.7354396458
 21
123.8714573217
  0
LINE
  5
3B5
100
AcDbEntity
  8
0
100
AcDbLine
 62
7
  6
CONTINUOUS
 10
91.7735845978
 20
121.9846258015
 11
91.6178628402
 21
121.8628947096
  0
LINE
  5
3B6
100
AcDbEntity
  8
0
100
AcDbLine
 62
7
  6
CONTINUOUS
 10
95.5109070786
 20
123.8105917971
 11
95.6666288363
 21
123.9323228464
  0
LINE
  5
3B7
100
AcDbEntity
  8
0
100
AcDbLine
 62
7
  6
CONTINUOUS
 10
95.6147211877
 20
123.20193638
 11
95.3032776724
 21
122.9584742813
  0
LINE
  5
3B8
100
AcDbEntity
  8
0
100
AcDbLine
 62
7
  6
CONTINUOUS
 10
95.5109070786
 20
122.7758777074
 11
95.6666288363
 21
122.8976087567
  0
LINE
  5
3B9
100
AcDbEntity
  8
0
100
AcDbLine
 62
7
  6
CONTINUOUS
 10
96.4971446791
 20
121.9237602342
 11
96.3414229215
 21
121.8020291849
  0
LINE
  5
3BA
100
AcDbEntity
  8
0
100
AcDbLine
 62
7
  6
CONTINUOUS
 10
95.6147211877
 20
124.2366504697
 11
95.355185321
 21
124.0540538957
  0
LINE
  5
3BB
100
AcDbEntity
  8
0
100
AcDbLine
 62
7
  6
CONTINUOUS
 10
96.393329976
 20
121.4977015243
 11
96.6528664368
 21
121.6802981143
  0
LINE
  5
3BC
100
AcDbEntity
  8
0
100
AcDbLine
 62
7
  6
CONTINUOUS
 10
90.6835322942
 20
124.2366504697
 11
90.475903482
 21
124.1149194204
  0
LINE
  5
3BD
100
AcDbEntity
  8
0
100
AcDbLine
 62
7
  6
CONTINUOUS
 10
89.2301292723
 20
122.836743232
 11
89.4377583815
 21
122.9584742813
  0
LINE
  5
3BE
100
AcDbEntity
  8
0
100
AcDbLine
 62
7
  6
CONTINUOUS
 10
91.6697701917
 20
121.4977015243
 11
91.877399301
 21
121.6194325896
  0
LINE
  5
3BF
100
AcDbEntity
  8
0
100
AcDbLine
 62
7
  6
CONTINUOUS
 10
89.1782220692
 20
123.1410708553
 11
89.0225003116
 21
123.0802053307
  0
LINE
  5
3C0
100
AcDbEntity
  8
0
100
AcDbLine
 62
7
  6
CONTINUOUS
 10
95.6666288363
 20
123.9323228464
 11
95.822350594
 21
123.9931883711
  0
LINE
  5
3C1
100
AcDbEntity
  8
0
100
AcDbLine
 62
7
  6
CONTINUOUS
 10
95.6666288363
 20
122.8976087567
 11
95.822350594
 21
122.9584742813
  0
LINE
  5
3C2
100
AcDbEntity
  8
0
100
AcDbLine
 62
7
  6
CONTINUOUS
 10
96.3414229215
 20
121.8020291849
 11
96.1857011638
 21
121.7411636603
  0
LINE
  5
3C3
100
AcDbEntity
  8
0
100
AcDbLine
 62
7
  6
CONTINUOUS
 10
90.7354396458
 20
123.8714573217
 11
90.943068755
 21
123.9323228464
  0
LINE
  5
3C4
100
AcDbEntity
  8
0
100
AcDbLine
 62
7
  6
CONTINUOUS
 10
91.6178628402
 20
121.8628947096
 11
91.410234028
 21
121.8020291849
  0
LINE
  5
3C5
100
AcDbEntity
  8
0
100
AcDbLine
 62
7
  6
CONTINUOUS
 10
106.1937294311
 20
138.5195718581
 11
103.1423138497
 21
149.9076098426
  0
LINE
  5
3C6
100
AcDbEntity
  8
RUNDUNGEN
100
AcDbLine
 62
7
  6
CONTINUOUS
 10
100.667653462
 20
103.5182218581
 11
97.9050423843
 21
99.0289788567
  0
LINE
  5
3C7
100
AcDbEntity
  8
RUNDUNGEN
100
AcDbLine
 62
7
  6
CONTINUOUS
 10
72.4784030292
 20
37.8183737672
 11
63.5601973292
 21
28.812295737
  0
LINE
  5
3C8
100
AcDbEntity
  8
RUNDUNGEN
100
AcDbLine
 62
7
  6
CONTINUOUS
 10
72.4784030292
 20
34.2828398613
 11
63.5601973292
 21
25.276761831
  0
LINE
  5
3C9
100
AcDbEntity
  8
RUNDUNGEN
100
AcDbLine
 62
7
  6
CONTINUOUS
 10
59.7644371077
 20
62.8892605617
 11
58.9452850634
 21
62.483680774
  0
LINE
  5
3CA
100
AcDbEntity
  8
RUNDUNGEN
100
AcDbLine
 62
7
  6
CONTINUOUS
 10
59.7644371077
 20
59.3537266557
 11
58.9452850634
 21
58.948146868
  0
LINE
  5
3CB
100
AcDbEntity
  8
RUNDUNGEN
100
AcDbLine
 62
7
  6
CONTINUOUS
 10
98.9016671633
 20
58.9543762917
 11
103.630261225
 21
63.7295618532
  0
LINE
  5
3CC
100
AcDbEntity
  8
RUNDUNGEN
100
AcDbLine
 62
7
  6
CONTINUOUS
 10
98.9016671633
 20
55.4188423857
 11
103.630261225
 21
60.1940279472
  0
LINE
  5
3CD
100
AcDbEntity
  8
RUNDUNGEN
100
AcDbLine
 62
7
  6
CONTINUOUS
 10
62.9766351566
 20
55.2469162331
 11
61.0106702503
 21
54.2735247427
  0
LINE
  5
3CE
100
AcDbEntity
  8
RUNDUNGEN
100
AcDbLine
 62
7
  6
CONTINUOUS
 10
78.2554655349
 20
61.4752801662
 11
75.798009402
 21
60.2585408032
  0
LINE
  5
3CF
100
AcDbEntity
  8
RUNDUNGEN
100
AcDbLine
 62
7
  6
CONTINUOUS
 10
64.4521288684
 20
54.3336908566
 11
65.2975902892
 21
54.7522969822
  0
LINE
  5
3D0
100
AcDbEntity
  8
RUNDUNGEN
100
AcDbLine
 62
7
  6
CONTINUOUS
 10
78.2554655349
 20
57.9397462603
 11
75.798009402
 21
56.7230068973
  0
LINE
  5
3D1
100
AcDbEntity
  8
RUNDUNGEN
100
AcDbLine
 62
7
  6
CONTINUOUS
 10
64.4521288684
 20
50.7981569507
 11
66.4180937747
 21
51.7715484411
  0
LINE
  5
3D2
100
AcDbEntity
  8
RUNDUNGEN
100
AcDbLine
 62
7
  6
CONTINUOUS
 10
77.3023299396
 20
24.3606609776
 11
80.4687061026
 21
27.5582358885
  0
LINE
  5
3D3
100
AcDbEntity
  8
RUNDUNGEN
100
AcDbLine
 62
7
  6
CONTINUOUS
 10
94.3569038949
 20
41.5832760394
 11
109.7739015571
 21
57.1521795397
  0
ARC
  5
3D4
100
AcDbEntity
  8
KONSTRUKTIONSELEMENTE
100
AcDbCircle
 62
7
  6
CONTINUOUS
 10
211.4514046943
 20
60.968094739
 40
9.55
100
AcDbArc
 50
135.0
 51
209.8048644765
  0
ARC
  5
3D5
100
AcDbEntity
  8
KONSTRUKTIONSELEMENTE
100
AcDbCircle
 62
7
  6
CONTINUOUS
 10
211.4514046943
 20
60.968094739
 40
9.55
100
AcDbArc
 50
240.1951355235
 51
315.0
  0
ARC
  5
3D6
100
AcDbEntity
  8
KONSTRUKTIONSELEMENTE
100
AcDbCircle
 62
7
  6
CONTINUOUS
 10
219.8659753904
 20
69.3826654351
 40
9.55
100
AcDbArc
 50
315.0
 51
31.3702929546
  0
ARC
  5
3D7
100
AcDbEntity
  8
KONSTRUKTIONSELEMENTE
100
AcDbCircle
 62
7
  6
CONTINUOUS
 10
219.8659753904
 20
69.3826654351
 40
9.55
100
AcDbArc
 50
58.6297070454
 51
135.0
  0
ARC
  5
3D8
100
AcDbEntity
  8
KONSTRUKTIONSELEMENTE
100
AcDbCircle
 62
7
  6
CONTINUOUS
 10
211.4514046943
 20
60.968094739
 40
4.55
100
AcDbArc
 50
135.0
 51
191.6416672297
  0
ARC
  5
3D9
100
AcDbEntity
  8
KONSTRUKTIONSELEMENTE
100
AcDbCircle
 62
7
  6
CONTINUOUS
 10
211.4514046943
 20
60.968094739
 40
4.55
100
AcDbArc
 50
258.3583327703
 51
315.0
  0
ARC
  5
3DA
100
AcDbEntity
  8
KONSTRUKTIONSELEMENTE
100
AcDbCircle
 62
7
  6
CONTINUOUS
 10
219.8659753904
 20
69.3826654351
 40
4.55
100
AcDbArc
 50
315.0
 51
15.3477978529
  0
ARC
  5
3DB
100
AcDbEntity
  8
KONSTRUKTIONSELEMENTE
100
AcDbCircle
 62
7
  6
CONTINUOUS
 10
219.8659753904
 20
69.3826654351
 40
4.55
100
AcDbArc
 50
74.6522021471
 51
135.0
  0
ARC
  5
3DC
100
AcDbEntity
  8
KONSTRUKTIONSELEMENTE
100
AcDbCircle
 62
7
  6
CONTINUOUS
 10
221.1387675965
 20
70.6554576412
 40
2.25
100
AcDbArc
 50
135.0
 51
315.0
  0
ARC
  5
3DD
100
AcDbEntity
  8
KONSTRUKTIONSELEMENTE
100
AcDbCircle
 62
7
  6
CONTINUOUS
 10
240.7609807745
 20
90.2776708191
 40
8.0
100
AcDbArc
 50
135.0
 51
208.6357041722
  0
ARC
  5
3DE
100
AcDbEntity
  8
KONSTRUKTIONSELEMENTE
100
AcDbCircle
 62
7
  6
CONTINUOUS
 10
240.7609807745
 20
90.2776708191
 40
8.0
100
AcDbArc
 50
241.3642958278
 51
315.0
  0
ARC
  5
3DF
100
AcDbEntity
  8
KONSTRUKTIONSELEMENTE
100
AcDbCircle
 62
7
  6
CONTINUOUS
 10
240.7609807745
 20
90.2776708191
 40
3.5
100
AcDbArc
 50
135.0
 51
184.8461224921
  0
ARC
  5
3E0
100
AcDbEntity
  8
KONSTRUKTIONSELEMENTE
100
AcDbCircle
 62
7
  6
CONTINUOUS
 10
240.7609807745
 20
90.2776708191
 40
3.5
100
AcDbArc
 50
265.1538775079
 51
315.0
  0
ARC
  5
3E1
100
AcDbEntity
  8
KONSTRUKTIONSELEMENTE
100
AcDbCircle
 62
7
  6
CONTINUOUS
 10
239.877097298
 20
89.3937873427
 40
2.25
100
AcDbArc
 50
315.0
 51
135.0
  0
ARC
  5
3E2
100
AcDbEntity
  8
KONSTRUKTIONSELEMENTE
100
AcDbCircle
 62
7
  6
CONTINUOUS
 10
251.3675824923
 20
100.8842725369
 40
8.0
100
AcDbArc
 50
315.0
 51
28.6357041722
  0
ARC
  5
3E3
100
AcDbEntity
  8
KONSTRUKTIONSELEMENTE
100
AcDbCircle
 62
7
  6
CONTINUOUS
 10
251.3675824923
 20
100.8842725369
 40
8.0
100
AcDbArc
 50
61.3642958278
 51
135.0
  0
ARC
  5
3E4
100
AcDbEntity
  8
KONSTRUKTIONSELEMENTE
100
AcDbCircle
 62
7
  6
CONTINUOUS
 10
251.3675824923
 20
100.8842725369
 40
3.5
100
AcDbArc
 50
315.0
 51
4.8461224921
  0
ARC
  5
3E5
100
AcDbEntity
  8
KONSTRUKTIONSELEMENTE
100
AcDbCircle
 62
7
  6
CONTINUOUS
 10
251.3675824923
 20
100.8842725369
 40
3.5
100
AcDbArc
 50
85.1538775079
 51
135.0
  0
ARC
  5
3E6
100
AcDbEntity
  8
KONSTRUKTIONSELEMENTE
100
AcDbCircle
 62
7
  6
CONTINUOUS
 10
270.9897956702
 20
120.5064857149
 40
2.25
100
AcDbArc
 50
315.0
 51
135.0
  0
ARC
  5
3E7
100
AcDbEntity
  8
KONSTRUKTIONSELEMENTE
100
AcDbCircle
 62
7
  6
CONTINUOUS
 10
252.2514659687
 20
101.7681560134
 40
2.25
100
AcDbArc
 50
135.0
 51
315.0
  0
ARC
  5
3E8
100
AcDbEntity
  8
KONSTRUKTIONSELEMENTE
100
AcDbCircle
 62
7
  6
CONTINUOUS
 10
272.6161412669
 20
122.1328313116
 40
9.55
100
AcDbArc
 50
135.0
 51
211.3702929546
  0
ARC
  5
3E9
100
AcDbEntity
  8
KONSTRUKTIONSELEMENTE
100
AcDbCircle
 62
7
  6
CONTINUOUS
 10
272.6161412669
 20
122.1328313116
 40
9.55
100
AcDbArc
 50
238.6297070454
 51
315.0
  0
ARC
  5
3EA
100
AcDbEntity
  8
KONSTRUKTIONSELEMENTE
100
AcDbCircle
 62
7
  6
CONTINUOUS
 10
281.030711963
 20
130.5474020077
 40
9.55
100
AcDbArc
 50
315.0
 51
26.6609039942
  0
ARC
  5
3EB
100
AcDbEntity
  8
KONSTRUKTIONSELEMENTE
100
AcDbCircle
 62
7
  6
CONTINUOUS
 10
281.030711963
 20
130.5474020077
 40
9.55
100
AcDbArc
 50
63.3390960058
 51
135.0
  0
ARC
  5
3EC
100
AcDbEntity
  8
KONSTRUKTIONSELEMENTE
100
AcDbCircle
 62
7
  6
CONTINUOUS
 10
272.6161412669
 20
122.1328313116
 40
4.55
100
AcDbArc
 50
135.0
 51
195.3477978529
  0
ARC
  5
3ED
100
AcDbEntity
  8
KONSTRUKTIONSELEMENTE
100
AcDbCircle
 62
7
  6
CONTINUOUS
 10
272.6161412669
 20
122.1328313116
 40
4.55
100
AcDbArc
 50
254.6522021471
 51
315.0
  0
ARC
  5
3EE
100
AcDbEntity
  8
KONSTRUKTIONSELEMENTE
100
AcDbCircle
 62
7
  6
CONTINUOUS
 10
281.030711963
 20
130.5474020077
 40
4.55
100
AcDbArc
 50
315.0
 51
3.7275989874
  0
ARC
  5
3EF
100
AcDbEntity
  8
KONSTRUKTIONSELEMENTE
100
AcDbCircle
 62
7
  6
CONTINUOUS
 10
281.030711963
 20
130.5474020077
 40
4.55
100
AcDbArc
 50
86.2724010126
 51
135.0
  0
ARC
  5
3F0
100
AcDbEntity
  8
KONSTRUKTIONSELEMENTE
100
AcDbCircle
 62
7
  6
CONTINUOUS
 10
281.4196206927
 20
130.9363107374
 40
3.0
100
AcDbArc
 50
135.0
 51
315.0
  0
ARC
  5
3F1
100
AcDbEntity
  8
0
100
AcDbCircle
 62
7
  6
CONTINUOUS
 10
328.4028818134
 20
107.4195718581
 40
8.4
100
AcDbArc
 50
180.0
 51
270.0
  0
ARC
  5
3F2
100
AcDbEntity
  8
RUNDUNGEN
100
AcDbCircle
 62
7
  6
CONTINUOUS
 10
330.6028818134
 20
107.4195718581
 40
8.4
100
AcDbArc
 50
270.0
 51
360.0
  0
CIRCLE
  5
3F3
100
AcDbEntity
  8
BEZUGSACHSEN
100
AcDbCircle
 62
7
  6
CONTINUOUS
 10
329.5028818134
 20
109.4195718581
 40
4.26795
  0
ARC
  5
3F4
100
AcDbEntity
  8
0
100
AcDbCircle
 62
7
  6
CONTINUOUS
 10
325.5028818134
 20
125.0195718581
 40
3.0
100
AcDbArc
 50
109.4712206345
 51
179.9999856999
  0
ARC
  5
3F5
100
AcDbEntity
  8
RUNDUNGEN
100
AcDbCircle
 62
7
  6
CONTINUOUS
 10
333.5028818134
 20
125.0195718581
 40
3.0
100
AcDbArc
 50
0.0000143001
 51
70.5287793655
  0
ARC
  5
3F6
100
AcDbEntity
  8
0
100
AcDbCircle
 62
7
  6
CONTINUOUS
 10
329.5028818134
 20
179.0195718581
 40
43.0
100
AcDbArc
 50
276.6788363413
 51
360.0
  0
ARC
  5
3F7
100
AcDbEntity
  8
0
100
AcDbCircle
 62
7
  6
CONTINUOUS
 10
329.5028818134
 20
179.0195718581
 40
43.0
100
AcDbArc
 50
229.0023834851
 51
263.3211636587
  0
ARC
  5
3F8
100
AcDbEntity
  8
0
100
AcDbCircle
 62
7
  6
CONTINUOUS
 10
329.5028818134
 20
179.0195718581
 40
43.0
100
AcDbArc
 50
180.0
 51
220.9976165149
  0
ARC
  5
3F9
100
AcDbEntity
  8
0
100
AcDbCircle
 62
7
  6
CONTINUOUS
 10
329.5028818134
 20
229.0195718581
 40
43.0
100
AcDbArc
 50
0.0
 51
180.0
  0
ARC
  5
3FA
100
AcDbEntity
  8
0
100
AcDbCircle
 62
7
  6
CONTINUOUS
 10
329.5028818134
 20
179.0195718581
 40
30.0
100
AcDbArc
 50
279.59814603
 51
360.0
  0
ARC
  5
3FB
100
AcDbEntity
  8
0
100
AcDbCircle
 62
7
  6
CONTINUOUS
 10
329.5028818134
 20
179.0195718581
 40
30.0
100
AcDbArc
 50
230.7403077435
 51
260.40185397
  0
ARC
  5
3FC
100
AcDbEntity
  8
0
100
AcDbCircle
 62
7
  6
CONTINUOUS
 10
329.5028818134
 20
179.0195718581
 40
30.0
100
AcDbArc
 50
180.0
 51
219.2596922565
  0
ARC
  5
3FD
100
AcDbEntity
  8
0
100
AcDbCircle
 62
7
  6
CONTINUOUS
 10
329.5028818134
 20
229.0195718581
 40
30.0
100
AcDbArc
 50
0.0
 51
180.0
  0
ARC
  5
3FE
100
AcDbEntity
  8
BEZUGSACHSEN
100
AcDbCircle
 62
7
  6
CONTINUOUS
 10
329.5028818134
 20
154.0195718581
 40
5.0
100
AcDbArc
 50
0.0
 51
28.7624430017
  0
ARC
  5
3FF
100
AcDbEntity
  8
BEZUGSACHSEN
100
AcDbCircle
 62
7
  6
CONTINUOUS
 10
329.5028818134
 20
154.0195718581
 40
5.0
100
AcDbArc
 50
151.2375569983
 51
180.0
  0
ARC
  5
400
100
AcDbEntity
  8
KONSTRUKTIONSELEMENTE
100
AcDbCircle
 62
7
  6
CONTINUOUS
 10
310.4109987213
 20
159.927688766
 40
3.0
100
AcDbArc
 50
315.0
 51
135.0
  0
ARC
  5
401
100
AcDbEntity
  8
KONSTRUKTIONSELEMENTE
100
AcDbCircle
 62
7
  6
CONTINUOUS
 10
83.417653462
 20
80.3170518581
 40
21.59352
100
AcDbArc
 50
59.9775906644
 51
80.1338135404
  0
ARC
  5
402
100
AcDbEntity
  8
KONSTRUKTIONSELEMENTE
100
AcDbCircle
 62
7
  6
CONTINUOUS
 10
83.417653462
 20
80.3170518581
 40
21.59352
100
AcDbArc
 50
99.8661864596
 51
120.0224093356
  0
ARC
  5
403
100
AcDbEntity
  8
BEZUGSACHSEN
100
AcDbCircle
 62
7
  6
CONTINUOUS
 10
83.417653462
 20
138.5195718581
 40
10.5
100
AcDbArc
 50
128.2550249251
 51
51.7449750749
  0
ARC
  5
404
100
AcDbEntity
  8
0
100
AcDbCircle
 62
7
  6
CONTINUOUS
 10
83.417653462
 20
265.5195718581
 40
6.5
100
AcDbArc
 50
0.0
 51
180.0
  0
ARC
  5
405
100
AcDbEntity
  8
0
100
AcDbCircle
 62
7
  6
CONTINUOUS
 10
83.417653462
 20
142.5195718581
 40
6.5
100
AcDbArc
 50
180.0
 51
360.0
  0
ARC
  5
406
100
AcDbEntity
  8
RUNDUNGEN
100
AcDbCircle
 62
7
  6
CONTINUOUS
 10
71.167653462
 20
123.0195718581
 40
5.0
100
AcDbArc
 50
135.1299088003
 51
180.0
  0
ARC
  5
407
100
AcDbEntity
  8
RUNDUNGEN
100
AcDbCircle
 62
7
  6
CONTINUOUS
 10
95.667653462
 20
123.0195718581
 40
5.0
100
AcDbArc
 50
0.0
 51
44.8700911997
  0
ARC
  5
408
100
AcDbEntity
  8
RUNDUNGEN
100
AcDbCircle
 62
7
  6
CONTINUOUS
 10
71.167653462
 20
123.0195718581
 40
4.8284271247
100
AcDbArc
 50
90.0
 51
98.1061684603
  0
ARC
  5
409
100
AcDbEntity
  8
RUNDUNGEN
100
AcDbCircle
 62
7
  6
CONTINUOUS
 10
95.667653462
 20
123.0195718581
 40
4.8284271247
100
AcDbArc
 50
81.8938367256
 51
89.996087995
  0
ARC
  5
40A
100
AcDbEntity
  8
BEZUGSACHSEN
100
AcDbCircle
 62
7
  6
CONTINUOUS
 10
82.9162838852
 20
59.4227984482
 40
4.0565540471
100
AcDbArc
 50
239.8204512709
 51
240.4446380906
  0
ARC
  5
40B
100
AcDbEntity
  8
BEZUGSACHSEN
100
AcDbCircle
 62
7
  6
CONTINUOUS
 10
83.9190230387
 20
59.4227984485
 40
4.0565540475
100
AcDbArc
 50
299.5553619094
 51
300.1795487291
  0
ARC
  5
40C
100
AcDbEntity
  8
KONSTRUKTIONSELEMENTE
100
AcDbCircle
 62
7
  6
CONTINUOUS
 10
83.417653462
 20
118.3195718581
 40
3.7
100
AcDbArc
 50
0.0
 51
180.0
  0
ARC
  5
40D
100
AcDbEntity
  8
RUNDUNGEN
100
AcDbCircle
 62
7
  6
CONTINUOUS
 10
97.667653462
 20
102.0195718581
 40
3.0
100
AcDbArc
 50
270.0
 51
274.5385392233
  0
ARC
  5
40E
100
AcDbEntity
  8
RUNDUNGEN
100
AcDbCircle
 62
7
  6
CONTINUOUS
 10
69.167653462
 20
102.0195718581
 40
3.0
100
AcDbArc
 50
265.4614607767
 51
270.0
  0
ARC
  5
40F
100
AcDbEntity
  8
KONSTRUKTIONSELEMENTE
100
AcDbCircle
 62
7
  6
CONTINUOUS
 10
83.417653462
 20
53.918094739
 40
2.5
100
AcDbArc
 50
180.0
 51
360.0
  0
ARC
  5
410
100
AcDbEntity
  8
KONSTRUKTIONSELEMENTE
100
AcDbCircle
 62
7
  6
CONTINUOUS
 10
83.417653462
 20
76.4326654351
 40
2.5
100
AcDbArc
 50
0.0
 51
180.0
  0
ARC
  5
411
100
AcDbEntity
  8
KONSTRUKTIONSELEMENTE
100
AcDbCircle
 62
7
  6
CONTINUOUS
 10
83.417653462
 20
115.0828313116
 40
2.5
100
AcDbArc
 50
325.1759298095
 51
360.0
  0
ARC
  5
412
100
AcDbEntity
  8
KONSTRUKTIONSELEMENTE
100
AcDbCircle
 62
7
  6
CONTINUOUS
 10
83.417653462
 20
115.0828313116
 40
2.5
100
AcDbArc
 50
180.0
 51
214.8240701905
  0
ARC
  5
413
100
AcDbEntity
  8
KONSTRUKTIONSELEMENTE
100
AcDbCircle
 62
7
  6
CONTINUOUS
 10
83.417653462
 20
84.5276708191
 40
2.25
100
AcDbArc
 50
180.0
 51
360.0
  0
CIRCLE
  5
414
100
AcDbEntity
  8
BEZUGSACHSEN
100
AcDbCircle
 62
7
  6
CONTINUOUS
 10
72.417653462
 20
109.4195718581
 40
1.5
  0
ARC
  5
415
100
AcDbEntity
  8
0
100
AcDbCircle
 62
7
  6
CONTINUOUS
 10
90.8953231364
 20
49.9317611807
 40
1.2775271224
100
AcDbArc
 50
350.5636876715
 51
355.3957076166
  0
ARC
  5
416
100
AcDbEntity
  8
0
100
AcDbCircle
 62
7
  6
CONTINUOUS
 10
76.9151586832
 20
49.5527028374
 40
0.2501758626
100
AcDbArc
 50
78.8903114984
 51
89.9692795104
  0
SPLINE
  5
417
100
AcDbEntity
  8
0
100
AcDbSpline
 62
7
  6
CONTINUOUS
 70
0
 71
3
 72
13
 73
9
 74
0
 42
0.0000001
 43
0.0000001
 44
0.0000000001
 40
0.0
 40
0.0
 40
0.0
 40
0.0
 40
0.2578502816
 40
0.3800272365
 40
0.5000000009
 40
0.6199727654
 40
0.7421497198
 40
1.0
 40
1.0
 40
1.0
 40
1.0
 10
331.2127446959
 20
161.2956478271
 30
0.0
 10
331.34498982
 20
161.0547208872
 30
0.0
 10
331.5078403297
 20
160.6786647766
 30
0.0
 10
331.6200875724
 20
160.1562576394
 30
0.0
 10
331.6479721222
 20
159.7699400334
 30
0.0
 10
331.6200875681
 20
159.3836224286
 30
0.0
 10
331.5078403329
 20
158.8612152917
 30
0.0
 10
331.3449898193
 20
158.4851591843
 30
0.0
 10
331.2127446959
 20
158.2442322458
 30
0.0
  0
SPLINE
  5
418
100
AcDbEntity
  8
0
100
AcDbSpline
 62
7
  6
CONTINUOUS
 70
0
 71
3
 72
13
 73
9
 74
0
 42
0.0000001
 43
0.0000001
 44
0.0000000001
 40
0.0
 40
0.0
 40
0.0
 40
0.0
 40
0.2578502816
 40
0.3800272365
 40
0.5000000009
 40
0.6199727654
 40
0.7421497198
 40
1.0
 40
1.0
 40
1.0
 40
1.0
 10
327.7930189308
 20
161.2956478271
 30
0.0
 10
327.6607738067
 20
161.0547208872
 30
0.0
 10
327.4979232971
 20
160.6786647766
 30
0.0
 10
327.3856760544
 20
160.1562576394
 30
0.0
 10
327.3577915046
 20
159.7699400334
 30
0.0
 10
327.3856760587
 20
159.3836224286
 30
0.0
 10
327.4979232939
 20
158.8612152917
 30
0.0
 10
327.6607738074
 20
158.4851591843
 30
0.0
 10
327.7930189308
 20
158.2442322458
 30
0.0
  0
SPLINE
  5
419
100
AcDbEntity
  8
0
100
AcDbSpline
 62
7
  6
CONTINUOUS
 70
0
 71
3
 72
9
 73
5
 74
0
 42
0.0000001
 43
0.0000001
 44
0.0000000001
 40
0.0
 40
0.0
 40
0.0
 40
0.0
 40
0.500095873
 40
1.0
 40
1.0
 40
1.0
 40
1.0
 10
331.2127446959
 20
138.5195718581
 30
0.0
 10
331.3693294172
 20
137.4549322313
 30
0.0
 10
331.6019210418
 20
135.3131788725
 30
0.0
 10
331.6527019521
 20
133.158942662
 30
0.0
 10
331.6313730948
 20
132.083473657
 30
0.0
  0
SPLINE
  5
41A
100
AcDbEntity
  8
0
100
AcDbSpline
 62
7
  6
CONTINUOUS
 70
0
 71
3
 72
11
 73
7
 74
0
 42
0.0000001
 43
0.0000001
 44
0.0000000001
 40
0.0
 40
0.0
 40
0.0
 40
0.0
 40
0.2500485047
 40
0.5000000009
 40
0.7499514969
 40
1.0
 40
1.0
 40
1.0
 40
1.0
 10
331.2127446959
 20
149.9076098426
 30
0.0
 10
331.3513423356
 20
148.9652666927
 30
0.0
 10
331.5654744191
 20
147.0708852314
 30
0.0
 10
331.6753564555
 20
144.2135908409
 30
0.0
 10
331.5654744202
 20
141.3562964561
 30
0.0
 10
331.3513423348
 20
139.461915002
 30
0.0
 10
331.2127446959
 20
138.5195718581
 30
0.0
  0
SPLINE
  5
41B
100
AcDbEntity
  8
0
100
AcDbSpline
 62
7
  6
CONTINUOUS
 70
0
 71
3
 72
11
 73
7
 74
0
 42
0.0000001
 43
0.0000001
 44
0.0000000001
 40
0.0
 40
0.0
 40
0.0
 40
0.0
 40
0.2506353974
 40
0.5000000009
 40
0.7493646041
 40
1.0
 40
1.0
 40
1.0
 40
1.0
 10
331.2127446959
 20
158.2442322458
 30
0.0
 10
331.35082129
 20
157.5569825861
 30
0.0
 10
331.565059397
 20
156.1725646044
 30
0.0
 10
331.6754774483
 20
154.0759210373
 30
0.0
 10
331.5650593981
 20
151.9792774743
 30
0.0
 10
331.3508212892
 20
150.5948594979
 30
0.0
 10
331.2127446959
 20
149.9076098426
 30
0.0
  0
LINE
  5
41C
100
AcDbEntity
  8
0
100
AcDbLine
 62
7
  6
CONTINUOUS
 10
325.5028818134
 20
118.5458512997
 11
322.5028818134
 21
119.349698877
  0
SPLINE
  5
41D
100
AcDbEntity
  8
0
100
AcDbSpline
 62
7
  6
CONTINUOUS
 70
0
 71
3
 72
9
 73
5
 74
0
 42
0.0000001
 43
0.0000001
 44
0.0000000001
 40
0.0
 40
0.0
 40
0.0
 40
0.0
 40
0.2637741096
 40
1.0
 40
1.0
 40
1.0
 40
1.0
 10
325.5028818134
 20
126.5470804388
 30
0.0
 10
325.4726777055
 20
126.5913015163
 30
0.0
 10
325.3550821822
 20
126.7567719654
 30
0.0
 10
325.2244940145
 20
126.9133661537
 30
0.0
 10
325.1197704231
 20
127.0200156558
 30
0.0
  0
SPLINE
  5
41E
100
AcDbEntity
  8
0
100
AcDbSpline
 62
7
  6
CONTINUOUS
 70
0
 71
3
 72
13
 73
9
 74
0
 42
0.0000001
 43
0.0000001
 44
0.0000000001
 40
0.0
 40
0.0
 40
0.0
 40
0.0
 40
0.0519586623
 40
0.1227005438
 40
0.2143857084
 40
0.3279011679
 40
0.6211317425
 40
1.0
 40
1.0
 40
1.0
 40
1.0
 10
324.5028818134
 20
127.799755669
 30
0.0
 10
324.5028818239
 20
127.7823500001
 30
0.0
 10
324.5127425263
 20
127.7415424977
 30
0.0
 10
324.5441781954
 20
127.6768577246
 30
0.0
 10
324.594745309
 20
127.5992207623
 30
0.0
 10
324.6967338348
 20
127.4669261309
 30
0.0
 10
324.8736624346
 20
127.271704274
 30
0.0
 10
325.0308476966
 20
127.1105737086
 30
0.0
 10
325.1197704231
 20
127.0200156558
 30
0.0
  0
LINE
  5
41F
100
AcDbEntity
  8
0
100
AcDbLine
 62
7
  6
CONTINUOUS
 10
323.0028818134
 20
114.2157242808
 11
320.0028818134
 21
115.0195718581
  0
SPLINE
  5
420
100
AcDbEntity
  8
0
100
AcDbSpline
 62
7
  6
CONTINUOUS
 70
0
 71
3
 72
9
 73
5
 74
0
 42
0.0000001
 43
0.0000001
 44
0.0000000001
 40
0.0
 40
0.0
 40
0.0
 40
0.0
 40
0.500095873
 40
1.0
 40
1.0
 40
1.0
 40
1.0
 10
327.7930189308
 20
138.5195718581
 30
0.0
 10
327.6364342096
 20
137.4549322313
 30
0.0
 10
327.4038425849
 20
135.3131788725
 30
0.0
 10
327.3530616747
 20
133.158942662
 30
0.0
 10
327.374390532
 20
132.083473657
 30
0.0
  0
SPLINE
  5
421
100
AcDbEntity
  8
0
100
AcDbSpline
 62
7
  6
CONTINUOUS
 70
0
 71
3
 72
11
 73
7
 74
0
 42
0.0000001
 43
0.0000001
 44
0.0000000001
 40
0.0
 40
0.0
 40
0.0
 40
0.0
 40
0.2500485047
 40
0.5000000009
 40
0.7499514969
 40
1.0
 40
1.0
 40
1.0
 40
1.0
 10
327.7930189308
 20
149.9076098426
 30
0.0
 10
327.6544212911
 20
148.9652666927
 30
0.0
 10
327.4402892077
 20
147.0708852314
 30
0.0
 10
327.3304071713
 20
144.2135908409
 30
0.0
 10
327.4402892065
 20
141.3562964561
 30
0.0
 10
327.654421292
 20
139.461915002
 30
0.0
 10
327.7930189308
 20
138.5195718581
 30
0.0
  0
SPLINE
  5
422
100
AcDbEntity
  8
0
100
AcDbSpline
 62
7
  6
CONTINUOUS
 70
0
 71
3
 72
11
 73
7
 74
0
 42
0.0000001
 43
0.0000001
 44
0.0000000001
 40
0.0
 40
0.0
 40
0.0
 40
0.0
 40
0.2506353974
 40
0.5000000009
 40
0.7493646041
 40
1.0
 40
1.0
 40
1.0
 40
1.0
 10
327.7930189308
 20
158.2442322458
 30
0.0
 10
327.6549423367
 20
157.5569825861
 30
0.0
 10
327.4407042297
 20
156.1725646044
 30
0.0
 10
327.3302861785
 20
154.0759210373
 30
0.0
 10
327.4407042286
 20
151.9792774743
 30
0.0
 10
327.6549423376
 20
150.5948594979
 30
0.0
 10
327.7930189308
 20
149.9076098426
 30
0.0
  0
LINE
  5
423
100
AcDbEntity
  8
RUNDUNGEN
100
AcDbLine
 62
7
  6
CONTINUOUS
 10
333.5028818134
 20
118.5458512997
 11
336.5028818134
 21
119.349698877
  0
SPLINE
  5
424
100
AcDbEntity
  8
RUNDUNGEN
100
AcDbSpline
 62
7
  6
CONTINUOUS
 70
0
 71
3
 72
13
 73
9
 74
0
 42
0.0000001
 43
0.0000001
 44
0.0000000001
 40
0.0
 40
0.0
 40
0.0
 40
0.0
 40
0.0519586623
 40
0.1227005438
 40
0.2143857084
 40
0.3279011679
 40
0.6211317425
 40
1.0
 40
1.0
 40
1.0
 40
1.0
 10
334.5028818134
 20
127.799755669
 30
0.0
 10
334.5028818028
 20
127.7823500001
 30
0.0
 10
334.4930211005
 20
127.7415424977
 30
0.0
 10
334.4615854314
 20
127.6768577246
 30
0.0
 10
334.4110183177
 20
127.5992207623
 30
0.0
 10
334.3090297919
 20
127.4669261309
 30
0.0
 10
334.1321011922
 20
127.271704274
 30
0.0
 10
333.9749159302
 20
127.1105737086
 30
0.0
 10
333.8859932037
 20
127.0200156558
 30
0.0
  0
SPLINE
  5
425
100
AcDbEntity
  8
RUNDUNGEN
100
AcDbSpline
 62
7
  6
CONTINUOUS
 70
0
 71
3
 72
9
 73
5
 74
0
 42
0.0000001
 43
0.0000001
 44
0.0000000001
 40
0.0
 40
0.0
 40
0.0
 40
0.0
 40
0.2637741096
 40
1.0
 40
1.0
 40
1.0
 40
1.0
 10
333.5028818134
 20
126.5470804388
 30
0.0
 10
333.5330859212
 20
126.5913015163
 30
0.0
 10
333.6506814445
 20
126.7567719654
 30
0.0
 10
333.7812696122
 20
126.9133661537
 30
0.0
 10
333.8859932037
 20
127.0200156558
 30
0.0
  0
LINE
  5
426
100
AcDbEntity
  8
RUNDUNGEN
100
AcDbLine
 62
7
  6
CONTINUOUS
 10
336.0028818134
 20
114.2157242808
 11
339.0028818134
 21
115.0195718581
  0
SPLINE
  5
427
100
AcDbEntity
  8
0
100
AcDbSpline
 62
7
  6
CONTINUOUS
 70
0
 71
3
 72
24
 73
20
 74
0
 42
0.0000001
 43
0.0000001
 44
0.0000000001
 40
0.0
 40
0.0
 40
0.0
 40
0.0
 40
0.1325367287
 40
0.2638739511
 40
0.3927528325
 40
0.455920943
 40
0.5179481019
 40
0.5786546273
 40
0.6379015311
 40
0.6956649624
 40
0.7522607548
 40
0.7805927531
 40
0.8092812622
 40
0.8387558883
 40
0.8693761345
 40
0.9011686732
 40
0.9337888009
 40
0.9668267246
 40
1.0
 40
1.0
 40
1.0
 40
1.0
 10
328.4028818134
 20
99.0289788567
 30
0.0
 10
328.0033678116
 20
99.0289788567
 30
0.0
 10
327.2065514288
 20
99.0885819188
 30
0.0
 10
326.0490890585
 20
99.3582311234
 30
0.0
 10
325.1448582774
 20
99.7388053198
 30
0.0
 10
324.4909815764
 20
100.1400695656
 30
0.0
 10
324.0486759909
 20
100.4864417388
 30
0.0
 10
323.6635671221
 20
100.8796503293
 30
0.0
 10
323.3517242846
 20
101.318634441
 30
0.0
 10
323.1356578298
 20
101.7995300892
 30
0.0
 10
323.0649698522
 20
102.2316457024
 30
0.0
 10
323.1025401166
 20
102.5741905053
 30
0.0
 10
323.1862618743
 20
102.8235890207
 30
0.0
 10
323.3321868685
 20
103.0514274707
 30
0.0
 10
323.5385778627
 20
103.2406612987
 30
0.0
 10
323.7920611708
 20
103.3791755452
 30
0.0
 10
324.074135632
 20
103.4664123459
 30
0.0
 10
324.3695727486
 20
103.5105421117
 30
0.0
 10
324.5693257525
 20
103.5182218581
 30
0.0
 10
324.6693220941
 20
103.5182218581
 30
0.0
  0
SPLINE
  5
428
100
AcDbEntity
  8
RUNDUNGEN
100
AcDbSpline
 62
7
  6
CONTINUOUS
 70
0
 71
3
 72
24
 73
20
 74
0
 42
0.0000001
 43
0.0000001
 44
0.0000000001
 40
0.0
 40
0.0
 40
0.0
 40
0.0
 40
0.1325367287
 40
0.2638739511
 40
0.3927528325
 40
0.455920943
 40
0.5179481019
 40
0.5786546273
 40
0.6379015311
 40
0.6956649624
 40
0.7522607548
 40
0.7805927531
 40
0.8092812622
 40
0.8387558883
 40
0.8693761345
 40
0.9011686732
 40
0.9337888009
 40
0.9668267246
 40
1.0
 40
1.0
 40
1.0
 40
1.0
 10
330.6028818134
 20
99.0289788567
 30
0.0
 10
331.0023958151
 20
99.0289788567
 30
0.0
 10
331.799212198
 20
99.0885819188
 30
0.0
 10
332.9566745682
 20
99.3582311234
 30
0.0
 10
333.8609053494
 20
99.7388053198
 30
0.0
 10
334.5147820503
 20
100.1400695656
 30
0.0
 10
334.9570876358
 20
100.4864417388
 30
0.0
 10
335.3421965046
 20
100.8796503293
 30
0.0
 10
335.6540393421
 20
101.318634441
 30
0.0
 10
335.8701057969
 20
101.7995300892
 30
0.0
 10
335.9407937746
 20
102.2316457024
 30
0.0
 10
335.9032235102
 20
102.5741905053
 30
0.0
 10
335.8195017525
 20
102.8235890207
 30
0.0
 10
335.6735767583
 20
103.0514274707
 30
0.0
 10
335.467185764
 20
103.2406612987
 30
0.0
 10
335.2137024559
 20
103.3791755452
 30
0.0
 10
334.9316279948
 20
103.4664123459
 30
0.0
 10
334.6361908782
 20
103.5105421117
 30
0.0
 10
334.4364378743
 20
103.5182218581
 30
0.0
 10
334.3364415327
 20
103.5182218581
 30
0.0
  0
SPLINE
  5
429
100
AcDbEntity
  8
KONSTRUKTIONSELEMENTE
100
AcDbSpline
 62
7
  6
CONTINUOUS
 70
0
 71
3
 72
14
 73
10
 74
0
 42
0.0000001
 43
0.0000001
 44
0.0000000001
 40
0.0
 40
0.0
 40
0.0
 40
0.0
 40
0.1193894076
 40
0.2390957115
 40
0.3600148606
 40
0.4826457182
 40
0.6077304619
 40
0.7357412445
 40
1.0
 40
1.0
 40
1.0
 40
1.0
 10
75.417653462
 20
85.3279233508
 30
0.0
 10
75.417653462
 20
85.6865629621
 30
0.0
 10
75.4937439134
 20
86.4070670979
 30
0.0
 10
75.8293429108
 20
87.4425741359
 30
0.0
 10
76.3652426192
 20
88.4008518184
 30
0.0
 10
77.077483563
 20
89.2561645707
 30
0.0
 10
77.938454932
 20
89.9937553053
 30
0.0
 10
79.2627317286
 20
90.8153825193
 30
0.0
 10
80.389377289
 20
91.2181333264
 30
0.0
 10
81.1635411415
 20
91.3936894715
 30
0.0
  0
SPLINE
  5
42A
100
AcDbEntity
  8
KONSTRUKTIONSELEMENTE
100
AcDbSpline
 62
7
  6
CONTINUOUS
 70
0
 71
3
 72
14
 73
10
 74
0
 42
0.0000001
 43
0.0000001
 44
0.0000000001
 40
0.0
 40
0.0
 40
0.0
 40
0.0
 40
0.2642708626
 40
0.3922805637
 40
0.5173547468
 40
0.6399817364
 40
0.7608849187
 40
0.8806119843
 40
1.0
 40
1.0
 40
1.0
 40
1.0
 10
85.6698242408
 20
91.3941206838
 30
0.0
 10
86.4442215673
 20
91.2186405796
 30
0.0
 10
87.5712323182
 20
90.8160331895
 30
0.0
 10
88.8959387928
 20
89.9944398277
 30
0.0
 10
89.7571684946
 20
89.2568349655
 30
0.0
 10
90.469601827
 20
88.4014916887
 30
0.0
 10
91.0058337886
 20
87.4431118286
 30
0.0
 10
91.3414709106
 20
86.4073471501
 30
0.0
 10
91.417653462
 20
85.6866376211
 30
0.0
 10
91.417653462
 20
85.3279233508
 30
0.0
  0
SPLINE
  5
42B
100
AcDbEntity
  8
KONSTRUKTIONSELEMENTE
100
AcDbSpline
 62
7
  6
CONTINUOUS
 70
0
 71
3
 72
14
 73
10
 74
0
 42
0.0000001
 43
0.0000001
 44
0.0000000001
 40
0.0
 40
0.0
 40
0.0
 40
0.0
 40
0.0551359094
 40
0.1223699656
 40
0.2074507274
 40
0.3149057254
 40
0.4478676734
 40
0.6082995934
 40
1.0
 40
1.0
 40
1.0
 40
1.0
 10
79.917653462
 20
85.3279233508
 30
0.0
 10
79.917653462
 20
85.3629983486
 30
0.0
 10
79.9237445258
 20
85.4410184178
 30
0.0
 10
79.9578939313
 20
85.5692107448
 30
0.0
 10
80.0266272252
 20
85.7202167705
 30
0.0
 10
80.1395205997
 20
85.8946702928
 30
0.0
 10
80.3081526793
 20
86.087086205
 30
0.0
 10
80.6357657883
 20
86.3758587678
 30
0.0
 10
80.9409026004
 20
86.5576875152
 30
0.0
 10
81.1656615737
 20
86.6652756462
 30
0.0
  0
SPLINE
  5
42C
100
AcDbEntity
  8
KONSTRUKTIONSELEMENTE
100
AcDbSpline
 62
7
  6
CONTINUOUS
 70
0
 71
3
 72
14
 73
10
 74
0
 42
0.0000001
 43
0.0000001
 44
0.0000000001
 40
0.0
 40
0.0
 40
0.0
 40
0.0
 40
0.3917172299
 40
0.5521555057
 40
0.6851138818
 40
0.7925516428
 40
0.877642207
 40
0.9448879032
 40
1.0
 40
1.0
 40
1.0
 40
1.0
 10
85.6694026975
 20
86.6653875742
 30
0.0
 10
85.8942106035
 20
86.5577976736
 30
0.0
 10
86.1994120642
 20
86.375948287
 30
0.0
 10
86.5270847121
 20
86.0871363354
 30
0.0
 10
86.6957637421
 20
85.894727944
 30
0.0
 10
86.808677364
 20
85.7202587029
 30
0.0
 10
86.8773916568
 20
85.5692158941
 30
0.0
 10
86.9115469208
 20
85.4410101288
 30
0.0
 10
86.917653462
 20
85.3629880117
 30
0.0
 10
86.917653462
 20
85.3279233508
 30
0.0
  0
SPLINE
  5
42D
100
AcDbEntity
  8
KONSTRUKTIONSELEMENTE
100
AcDbSpline
 62
7
  6
CONTINUOUS
 70
0
 71
3
 72
12
 73
8
 74
0
 42
0.0000001
 43
0.0000001
 44
0.0000000001
 40
0.0
 40
0.0
 40
0.0
 40
0.0
 40
0.1282453638
 40
0.2146169864
 40
0.321985829
 40
0.6101725692
 40
1.0
 40
1.0
 40
1.0
 40
1.0
 10
86.917653462
 20
74.721321633
 30
0.0
 10
86.917653462
 20
74.6520586232
 30
0.0
 10
86.8979904763
 20
74.5355147736
 30
0.0
 10
86.8313005826
 20
74.3744912497
 30
0.0
 10
86.7001356919
 20
74.1486800756
 30
0.0
 10
86.4088412315
 20
73.8337056323
 30
0.0
 10
86.1065438281
 20
73.6223383902
 30
0.0
 10
85.924007527
 20
73.5174237938
 30
0.0
  0
SPLINE
  5
42E
100
AcDbEntity
  8
KONSTRUKTIONSELEMENTE
100
AcDbSpline
 62
7
  6
CONTINUOUS
 70
0
 71
3
 72
12
 73
8
 74
0
 42
0.0000001
 43
0.0000001
 44
0.0000000001
 40
0.0
 40
0.0
 40
0.0
 40
0.0
 40
0.3898396094
 40
0.6780156338
 40
0.7853729626
 40
0.8717632718
 40
1.0
 40
1.0
 40
1.0
 40
1.0
 10
80.9112078609
 20
73.5174762649
 30
0.0
 10
80.7286806175
 20
73.6223916744
 30
0.0
 10
80.4264328538
 20
73.8337810121
 30
0.0
 10
80.1351278777
 20
74.1486989297
 30
0.0
 10
80.0039897193
 20
74.3745073917
 30
0.0
 10
79.9373439122
 20
74.5355331261
 30
0.0
 10
79.917653462
 20
74.6520679007
 30
0.0
 10
79.917653462
 20
74.721321633
 30
0.0
  0
SPLINE
  5
42F
100
AcDbEntity
  8
KONSTRUKTIONSELEMENTE
100
AcDbSpline
 62
7
  6
CONTINUOUS
 70
0
 71
3
 72
14
 73
10
 74
0
 42
0.0000001
 43
0.0000001
 44
0.0000000001
 40
0.0
 40
0.0
 40
0.0
 40
0.0
 40
0.1196424727
 40
0.2395631224
 40
0.3606430533
 40
0.4833332762
 40
0.6083558391
 40
0.7361852119
 40
1.0
 40
1.0
 40
1.0
 40
1.0
 10
91.417653462
 20
74.721321633
 30
0.0
 10
91.417653462
 20
74.3721079309
 30
0.0
 10
91.3455547621
 20
73.6707692943
 30
0.0
 10
91.0272471646
 20
72.6605401931
 30
0.0
 10
90.5179464258
 20
71.7220023409
 30
0.0
 10
89.8395384154
 20
70.8794207438
 30
0.0
 10
89.0174723206
 20
70.1471782517
 30
0.0
 10
87.7499747809
 20
69.3225046059
 30
0.0
 10
86.6673023196
 20
68.9055067814
 30
0.0
 10
85.921077798
 20
68.7155382908
 30
0.0
  0
SPLINE
  5
430
100
AcDbEntity
  8
KONSTRUKTIONSELEMENTE
100
AcDbSpline
 62
7
  6
CONTINUOUS
 70
0
 71
3
 72
14
 73
10
 74
0
 42
0.0000001
 43
0.0000001
 44
0.0000000001
 40
0.0
 40
0.0
 40
0.0
 40
0.0
 40
0.2638203492
 40
0.3916464215
 40
0.5166578653
 40
0.6393440549
 40
0.7604112963
 40
0.8803567455
 40
1.0
 40
1.0
 40
1.0
 40
1.0
 10
80.9133256595
 20
68.7157854804
 30
0.0
 10
80.1671858372
 20
68.9058200817
 30
0.0
 10
79.084652422
 20
69.3228458106
 30
0.0
 10
77.8173809751
 20
70.1475276276
 30
0.0
 10
76.9955077975
 20
70.8797281139
 30
0.0
 10
76.3172632531
 20
71.7221791765
 30
0.0
 10
75.807955571
 20
72.6606164717
 30
0.0
 10
75.4897964681
 20
73.6708153296
 30
0.0
 10
75.417653462
 20
74.3721428356
 30
0.0
 10
75.417653462
 20
74.721321633
 30
0.0
  0
SPLINE
  5
431
100
AcDbEntity
  8
KONSTRUKTIONSELEMENTE
100
AcDbSpline
 62
7
  6
CONTINUOUS
 70
0
 71
3
 72
12
 73
8
 74
0
 42
0.0000001
 43
0.0000001
 44
0.0000000001
 40
0.0
 40
0.0
 40
0.0
 40
0.0
 40
0.1282453638
 40
0.2146169864
 40
0.321985829
 40
0.6101725692
 40
1.0
 40
1.0
 40
1.0
 40
1.0
 10
79.917653462
 20
116.440621723
 30
0.0
 10
79.917653462
 20
116.5098847329
 30
0.0
 10
79.9373164477
 20
116.6264285825
 30
0.0
 10
80.0040063414
 20
116.7874521064
 30
0.0
 10
80.1351712322
 20
117.0132632804
 30
0.0
 10
80.4264656926
 20
117.3282377238
 30
0.0
 10
80.728763096
 20
117.5396049659
 30
0.0
 10
80.911299397
 20
117.6445195623
 30
0.0
  0
SPLINE
  5
432
100
AcDbEntity
  8
KONSTRUKTIONSELEMENTE
100
AcDbSpline
 62
7
  6
CONTINUOUS
 70
0
 71
3
 72
12
 73
8
 74
0
 42
0.0000001
 43
0.0000001
 44
0.0000000001
 40
0.0
 40
0.0
 40
0.0
 40
0.0
 40
0.3898396094
 40
0.6780156338
 40
0.7853729626
 40
0.8717632718
 40
1.0
 40
1.0
 40
1.0
 40
1.0
 10
85.9240990631
 20
117.6444670912
 30
0.0
 10
86.1066263066
 20
117.5395516817
 30
0.0
 10
86.4088740703
 20
117.3281623439
 30
0.0
 10
86.7001790464
 20
117.0132444264
 30
0.0
 10
86.8313172047
 20
116.7874359644
 30
0.0
 10
86.8979630118
 20
116.62641023
 30
0.0
 10
86.917653462
 20
116.5098754554
 30
0.0
 10
86.917653462
 20
116.440621723
 30
0.0
  0
SPLINE
  5
433
100
AcDbEntity
  8
KONSTRUKTIONSELEMENTE
100
AcDbSpline
 62
7
  6
CONTINUOUS
 70
0
 71
3
 72
9
 73
5
 74
0
 42
0.0000001
 43
0.0000001
 44
0.0000000001
 40
0.0
 40
0.0
 40
0.0
 40
0.0
 40
0.4414228424
 40
1.0
 40
1.0
 40
1.0
 40
1.0
 10
86.6209837109
 20
105.1841205427
 30
0.0
 10
86.5072722067
 20
105.0529842615
 30
0.0
 10
86.2096042142
 20
104.7905585349
 30
0.0
 10
85.8677553693
 20
104.5914994595
 30
0.0
 10
85.6696453503
 20
104.4966677099
 30
0.0
  0
SPLINE
  5
434
100
AcDbEntity
  8
KONSTRUKTIONSELEMENTE
100
AcDbSpline
 62
7
  6
CONTINUOUS
 70
0
 71
3
 72
9
 73
5
 74
0
 42
0.0000001
 43
0.0000001
 44
0.0000000001
 40
0.0
 40
0.0
 40
0.0
 40
0.0
 40
0.5585802653
 40
1.0
 40
1.0
 40
1.0
 40
1.0
 10
81.1659042265
 20
104.4965557819
 30
0.0
 10
80.9677477449
 20
104.5913906858
 30
0.0
 10
80.625822133
 20
104.7904735682
 30
0.0
 10
80.3280936173
 20
105.0529412141
 30
0.0
 10
80.214346492
 20
105.1840889712
 30
0.0
  0
SPLINE
  5
435
100
AcDbEntity
  8
KONSTRUKTIONSELEMENTE
100
AcDbSpline
 62
7
  6
CONTINUOUS
 70
0
 71
3
 72
9
 73
5
 74
0
 42
0.0000001
 43
0.0000001
 44
0.0000000001
 40
0.0
 40
0.0
 40
0.0
 40
0.0
 40
0.4916834567
 40
1.0
 40
1.0
 40
1.0
 40
1.0
 10
88.8843008823
 20
101.1951527009
 30
0.0
 10
88.4171147857
 20
100.8529377155
 30
0.0
 10
87.3834711562
 20
100.2666162751
 30
0.0
 10
86.2556467972
 20
99.9006598343
 30
0.0
 10
85.6717657825
 20
99.7682538846
 30
0.0
  0
SPLINE
  5
436
100
AcDbEntity
  8
KONSTRUKTIONSELEMENTE
100
AcDbSpline
 62
7
  6
CONTINUOUS
 70
0
 71
3
 72
9
 73
5
 74
0
 42
0.0000001
 43
0.0000001
 44
0.0000000001
 40
0.0
 40
0.0
 40
0.0
 40
0.0
 40
0.5083531298
 40
1.0
 40
1.0
 40
1.0
 40
1.0
 10
81.1654826832
 20
99.7678226723
 30
0.0
 10
80.5803070889
 20
99.9004247239
 30
0.0
 10
79.4500561432
 20
100.2670986613
 30
0.0
 10
78.4144415435
 20
100.855140558
 30
0.0
 10
77.9465637234
 20
101.1984047759
 30
0.0
  0
SPLINE
  5
437
100
AcDbEntity
  8
0
100
AcDbSpline
 62
7
  6
CONTINUOUS
 70
0
 71
3
 72
12
 73
8
 74
0
 42
0.0000001
 43
0.0000001
 44
0.0000000001
 40
0.0
 40
0.0
 40
0.0
 40
0.0
 40
0.1089727213
 40
0.2201620805
 40
0.4554253
 40
0.7155329149
 40
1.0
 40
1.0
 40
1.0
 40
1.0
 10
92.1727726623
 20
49.7180258503
 30
0.0
 10
92.1727726623
 20
49.8042754051
 30
0.0
 10
92.154635716
 20
49.9790481653
 30
0.0
 10
92.0456218948
 20
50.3248211758
 30
0.0
 10
91.7695032296
 20
50.7309567946
 30
0.0
 10
91.2754936293
 20
51.1133613622
 30
0.0
 10
90.87506718
 20
51.2851121983
 30
0.0
 10
90.6599100044
 20
51.3514425148
 30
0.0
  0
SPLINE
  5
438
100
AcDbEntity
  8
0
100
AcDbSpline
 62
7
  6
CONTINUOUS
 70
0
 71
3
 72
19
 73
15
 74
0
 42
0.0000001
 43
0.0000001
 44
0.0000000001
 40
0.0
 40
0.0
 40
0.0
 40
0.0
 40
0.0517123707
 40
0.1053415175
 40
0.1622467977
 40
0.2232148443
 40
0.3564757697
 40
0.5
 40
0.6435242303
 40
0.7767851557
 40
0.8377532023
 40
0.8946584825
 40
0.9482876293
 40
1.0
 40
1.0
 40
1.0
 40
1.0
 10
84.3287736018
 20
49.2788427104
 30
0.0
 10
84.3287736018
 20
49.2262922784
 30
0.0
 10
84.3440642049
 20
49.118706173
 30
0.0
 10
84.4107640629
 20
48.9660217868
 30
0.0
 10
84.517890205
 20
48.8266051758
 30
0.0
 10
84.7135536995
 20
48.6603671795
 30
0.0
 10
85.032654182
 20
48.5162288382
 30
0.0
 10
85.4610142099
 20
48.4585225798
 30
0.0
 10
85.8893742379
 20
48.5162288382
 30
0.0
 10
86.2084747204
 20
48.6603671795
 30
0.0
 10
86.4041382149
 20
48.8266051758
 30
0.0
 10
86.511264357
 20
48.9660217868
 30
0.0
 10
86.5779642149
 20
49.118706173
 30
0.0
 10
86.5932548181
 20
49.2262922784
 30
0.0
 10
86.5932548181
 20
49.2788427104
 30
0.0
  0
SPLINE
  5
439
100
AcDbEntity
  8
0
100
AcDbSpline
 62
7
  6
CONTINUOUS
 70
0
 71
3
 72
13
 73
9
 74
0
 42
0.0000001
 43
0.0000001
 44
0.0000000001
 40
0.0
 40
0.0
 40
0.0
 40
0.0
 40
0.1034557072
 40
0.2106700021
 40
0.3244995741
 40
0.4464358475
 40
0.7129373538
 40
1.0
 40
1.0
 40
1.0
 40
1.0
 10
82.8846710627
 20
50.5272167057
 30
0.0
 10
82.8846627347
 20
50.5827320737
 30
0.0
 10
82.8684928321
 20
50.6963498575
 30
0.0
 10
82.7979597363
 20
50.8575589642
 30
0.0
 10
82.6848544671
 20
51.0047978861
 30
0.0
 10
82.4781391343
 20
51.1803089292
 30
0.0
 10
82.1413774996
 20
51.3325494309
 30
0.0
 10
81.8428142926
 20
51.3726557183
 30
0.0
 10
81.6887736018
 20
51.3726557183
 30
0.0
  0
SPLINE
  5
43A
100
AcDbEntity
  8
0
100
AcDbSpline
 62
7
  6
CONTINUOUS
 70
0
 71
3
 72
11
 73
7
 74
0
 42
0.0000001
 43
0.0000001
 44
0.0000000001
 40
0.0
 40
0.0
 40
0.0
 40
0.0
 40
0.2092798753
 40
0.444592951
 40
0.7123432609
 40
1.0
 40
1.0
 40
1.0
 40
1.0
 10
76.3302928209
 20
49.3234602664
 30
0.0
 10
76.3302928209
 20
49.3167208469
 30
0.0
 10
76.3347113381
 20
49.3022529816
 30
0.0
 10
76.351433083
 20
49.2855973767
 30
0.0
 10
76.3750445081
 20
49.2750101933
 30
0.0
 10
76.3930294388
 20
49.2725485781
 30
0.0
 10
76.4022928209
 20
49.2725485781
 30
0.0
  0
SPLINE
  5
43B
100
AcDbEntity
  8
0
100
AcDbSpline
 62
7
  6
CONTINUOUS
 70
0
 71
3
 72
11
 73
7
 74
0
 42
0.0000001
 43
0.0000001
 44
0.0000000001
 40
0.0
 40
0.0
 40
0.0
 40
0.0
 40
0.2092798753
 40
0.444592951
 40
0.7123432609
 40
1.0
 40
1.0
 40
1.0
 40
1.0
 10
76.8252928209
 20
49.3489161105
 30
0.0
 10
76.8252928209
 20
49.35565553
 30
0.0
 10
76.8208743037
 20
49.3701233952
 30
0.0
 10
76.8041525587
 20
49.3867790002
 30
0.0
 10
76.7805411336
 20
49.3973661835
 30
0.0
 10
76.7625562029
 20
49.3998277987
 30
0.0
 10
76.7532928209
 20
49.3998277987
 30
0.0
  0
SPLINE
  5
43C
100
AcDbEntity
  8
0
100
AcDbSpline
 62
7
  6
CONTINUOUS
 70
0
 71
3
 72
11
 73
7
 74
0
 42
0.0000001
 43
0.0000001
 44
0.0000000001
 40
0.0
 40
0.0
 40
0.0
 40
0.0
 40
0.2092798753
 40
0.444592951
 40
0.7123432609
 40
1.0
 40
1.0
 40
1.0
 40
1.0
 10
76.8252928209
 20
50.6217083166
 30
0.0
 10
76.8252928209
 20
50.6284477361
 30
0.0
 10
76.8208743037
 20
50.6429156014
 30
0.0
 10
76.8041525587
 20
50.6595712063
 30
0.0
 10
76.7805411336
 20
50.6701583897
 30
0.0
 10
76.7625562029
 20
50.6726200049
 30
0.0
 10
76.7532928209
 20
50.6726200049
 30
0.0
  0
SPLINE
  5
43D
100
AcDbEntity
  8
0
100
AcDbSpline
 62
7
  6
CONTINUOUS
 70
0
 71
3
 72
11
 73
7
 74
0
 42
0.0000001
 43
0.0000001
 44
0.0000000001
 40
0.0
 40
0.0
 40
0.0
 40
0.0
 40
0.2094668498
 40
0.4446559298
 40
0.7120302568
 40
1.0
 40
1.0
 40
1.0
 40
1.0
 10
75.8352928209
 20
49.9725842915
 30
0.0
 10
75.8352928209
 20
49.9557182467
 30
0.0
 10
75.8462460987
 20
49.9194908786
 30
0.0
 10
75.888190091
 20
49.8780049708
 30
0.0
 10
75.9471085851
 20
49.8513671895
 30
0.0
 10
75.9921058077
 20
49.8453050709
 30
0.0
 10
76.0152928209
 20
49.8453050709
 30
0.0
  0
SPLINE
  5
43E
100
AcDbEntity
  8
0
100
AcDbSpline
 62
7
  6
CONTINUOUS
 70
0
 71
3
 72
11
 73
7
 74
0
 42
0.0000001
 43
0.0000001
 44
0.0000000001
 40
0.0
 40
0.0
 40
0.0
 40
0.0
 40
0.2094668498
 40
0.4446559298
 40
0.7120302568
 40
1.0
 40
1.0
 40
1.0
 40
1.0
 10
75.8352928209
 20
48.6997920854
 30
0.0
 10
75.8352928209
 20
48.6829260405
 30
0.0
 10
75.8462460987
 20
48.6466986724
 30
0.0
 10
75.888190091
 20
48.6052127647
 30
0.0
 10
75.9471085851
 20
48.5785749833
 30
0.0
 10
75.9921058077
 20
48.5725128648
 30
0.0
 10
76.0152928209
 20
48.5725128648
 30
0.0
  0
SPLINE
  5
43F
100
AcDbEntity
  8
0
100
AcDbSpline
 62
7
  6
CONTINUOUS
 70
0
 71
3
 72
9
 73
5
 74
0
 42
0.0000001
 43
0.0000001
 44
0.0000000001
 40
0.0
 40
0.0
 40
0.0
 40
0.0
 40
0.4873302954
 40
1.0
 40
1.0
 40
1.0
 40
1.0
 10
78.2652928209
 20
51.118097277
 30
0.0
 10
78.2652928209
 20
51.1381705661
 30
0.0
 10
78.2581600082
 20
51.1796142575
 30
0.0
 10
78.2384017095
 20
51.2165325669
 30
0.0
 10
78.2260557909
 20
51.2336646169
 30
0.0
  0
SPLINE
  5
440
100
AcDbEntity
  8
0
100
AcDbSpline
 62
7
  6
CONTINUOUS
 70
0
 71
3
 72
9
 73
5
 74
0
 42
0.0000001
 43
0.0000001
 44
0.0000000001
 40
0.0
 40
0.0
 40
0.0
 40
0.0
 40
0.4654299385
 40
1.0
 40
1.0
 40
1.0
 40
1.0
 10
78.2260557909
 20
51.2336646169
 30
0.0
 10
78.1935086873
 20
51.2788292272
 30
0.0
 10
78.0899796581
 20
51.3511428907
 30
0.0
 10
77.9692327329
 20
51.3726557183
 30
0.0
 10
77.9052928209
 20
51.3726557183
 30
0.0
  0
SPLINE
  5
441
100
AcDbEntity
  8
RUNDUNGEN
100
AcDbSpline
 62
7
  6
CONTINUOUS
 70
0
 71
3
 72
11
 73
7
 74
0
 42
0.0000001
 43
0.0000001
 44
0.0000000001
 40
0.0
 40
0.0
 40
0.0
 40
0.0
 40
0.2256934588
 40
0.4632957354
 40
0.7206235605
 40
1.0
 40
1.0
 40
1.0
 40
1.0
 10
64.0683548586
 20
53.8127402587
 30
0.0
 10
64.0683870763
 20
53.8638633458
 30
0.0
 10
64.0869773096
 20
53.9695429607
 30
0.0
 10
64.1665766506
 20
54.1148087898
 30
0.0
 10
64.2912392811
 20
54.240839015
 30
0.0
 10
64.3954164789
 20
54.3056113333
 30
0.0
 10
64.4521288684
 20
54.3336908566
 30
0.0
  0
SPLINE
  5
442
100
AcDbEntity
  8
RUNDUNGEN
100
AcDbSpline
 62
7
  6
CONTINUOUS
 70
0
 71
3
 72
9
 73
5
 74
0
 42
0.0000001
 43
0.0000001
 44
0.0000000001
 40
0.0
 40
0.0
 40
0.0
 40
0.0
 40
0.4805181646
 40
1.0
 40
1.0
 40
1.0
 40
1.0
 10
64.0683540831
 20
50.2771810402
 30
0.0
 10
64.0683171734
 20
50.2118491494
 30
0.0
 10
64.0993630392
 20
50.0746055955
 30
0.0
 10
64.1814136914
 20
49.9620167756
 30
0.0
 10
64.2311108213
 20
49.9118299729
 30
0.0
  0
SPLINE
  5
443
100
AcDbEntity
  8
RUNDUNGEN
100
AcDbSpline
 62
7
  6
CONTINUOUS
 70
0
 71
3
 72
11
 73
7
 74
0
 42
0.0000001
 43
0.0000001
 44
0.0000000001
 40
0.0
 40
0.0
 40
0.0
 40
0.0
 40
0.2256919297
 40
0.4632773963
 40
0.7205986282
 40
1.0
 40
1.0
 40
1.0
 40
1.0
 10
57.6660158281
 20
60.7456135261
 30
0.0
 10
57.6659829289
 20
60.9161391365
 30
0.0
 10
57.7276504457
 20
61.2686957779
 30
0.0
 10
57.9928897816
 20
61.7534010918
 30
0.0
 10
58.4086022346
 20
62.1739165838
 30
0.0
 10
58.756097707
 20
62.3900100466
 30
0.0
 10
58.9452850634
 20
62.483680774
 30
0.0
  0
SPLINE
  5
444
100
AcDbEntity
  8
RUNDUNGEN
100
AcDbSpline
 62
7
  6
CONTINUOUS
 70
0
 71
3
 72
10
 73
6
 74
0
 42
0.0000001
 43
0.0000001
 44
0.0000000001
 40
0.0
 40
0.0
 40
0.0
 40
0.0
 40
0.2382860828
 40
0.4819052527
 40
1.0
 40
1.0
 40
1.0
 40
1.0
 10
57.6660158281
 20
57.2100796202
 30
0.0
 10
57.6660366964
 20
57.1019134486
 30
0.0
 10
57.6901809869
 20
56.8824066078
 30
0.0
 10
57.8344214345
 20
56.4492913431
 30
0.0
 10
58.043077508
 20
56.1608348455
 30
0.0
 10
58.2085582396
 20
55.993723609
 30
0.0
  0
SPLINE
  5
445
100
AcDbEntity
  8
RUNDUNGEN
100
AcDbSpline
 62
7
  6
CONTINUOUS
 70
0
 71
3
 72
11
 73
7
 74
0
 42
0.0000001
 43
0.0000001
 44
0.0000000001
 40
0.0
 40
0.0
 40
0.0
 40
0.0
 40
0.237780559
 40
0.4809056754
 40
0.7339193747
 40
1.0
 40
1.0
 40
1.0
 40
1.0
 10
92.7292722935
 20
37.933058221
 30
0.0
 10
92.729272305
 20
38.2576453388
 30
0.0
 10
92.8012781643
 20
38.916211609
 30
0.0
 10
93.1205500076
 20
39.8730501369
 30
0.0
 10
93.641317739
 20
40.7809168
 30
0.0
 10
94.1013316765
 20
41.3251856322
 30
0.0
 10
94.3569038949
 20
41.5832760394
 30
0.0
  0
SPLINE
  5
446
100
AcDbEntity
  8
RUNDUNGEN
100
AcDbSpline
 62
7
  6
CONTINUOUS
 70
0
 71
3
 72
9
 73
5
 74
0
 42
0.0000001
 43
0.0000001
 44
0.0000000001
 40
0.0
 40
0.0
 40
0.0
 40
0.0
 40
0.4865850801
 40
1.0
 40
1.0
 40
1.0
 40
1.0
 10
93.0839180887
 20
39.699731874
 30
0.0
 10
93.224110072
 20
39.3570872867
 30
0.0
 10
93.5912157326
 20
38.6835007604
 30
0.0
 10
94.0820454419
 20
38.0959404391
 30
0.0
 10
94.3569038949
 20
37.8183737672
 30
0.0
  0
SPLINE
  5
447
100
AcDbEntity
  8
RUNDUNGEN
100
AcDbSpline
 62
7
  6
CONTINUOUS
 70
0
 71
3
 72
10
 73
6
 74
0
 42
0.0000001
 43
0.0000001
 44
0.0000000001
 40
0.0
 40
0.0
 40
0.0
 40
0.0
 40
0.2382826319
 40
0.4819247904
 40
1.0
 40
1.0
 40
1.0
 40
1.0
 10
63.017653462
 20
27.5955563739
 30
0.0
 10
63.017653462
 20
27.7037513462
 30
0.0
 10
63.0417256263
 20
27.9233383524
 30
0.0
 10
63.1859817601
 20
28.3565901566
 30
0.0
 10
63.3946763842
 20
28.6451438909
 30
0.0
 10
63.5601973292
 20
28.812295737
 30
0.0
  0
SPLINE
  5
448
100
AcDbEntity
  8
BEZUGSACHSEN
100
AcDbSpline
 62
7
  6
CONTINUOUS
 70
0
 71
3
 72
9
 73
5
 74
0
 42
0.0000001
 43
0.0000001
 44
0.0000000001
 40
0.0
 40
0.0
 40
0.0
 40
0.0
 40
0.243640565
 40
1.0
 40
1.0
 40
1.0
 40
1.0
 10
80.2970444788
 20
56.3312808056
 30
0.0
 10
80.340529908
 20
56.292932179
 30
0.0
 10
80.5231602236
 20
56.1402671963
 30
0.0
 10
80.7214144248
 20
56.006578084
 30
0.0
 10
80.8770078455
 20
55.9160928759
 30
0.0
  0
SPLINE
  5
449
100
AcDbEntity
  8
BEZUGSACHSEN
100
AcDbSpline
 62
7
  6
CONTINUOUS
 70
0
 71
3
 72
9
 73
5
 74
0
 42
0.0000001
 43
0.0000001
 44
0.0000000001
 40
0.0
 40
0.0
 40
0.0
 40
0.0
 40
0.2565853179
 40
1.0
 40
1.0
 40
1.0
 40
1.0
 10
85.9582990785
 20
55.9160928759
 30
0.0
 10
86.0110804482
 20
55.946787832
 30
0.0
 10
86.2140321174
 20
56.0710482547
 30
0.0
 10
86.4055807075
 20
56.2142723613
 30
0.0
 10
86.5382624452
 20
56.3312808056
 30
0.0
  0
SPLINE
  5
44A
100
AcDbEntity
  8
BEZUGSACHSEN
100
AcDbSpline
 62
7
  6
CONTINUOUS
 70
0
 71
3
 72
11
 73
7
 74
0
 42
0.0000001
 43
0.0000001
 44
0.0000000001
 40
0.0
 40
0.0
 40
0.0
 40
0.0
 40
0.2279232111
 40
0.4663851525
 40
0.7228056147
 40
1.0
 40
1.0
 40
1.0
 40
1.0
 10
87.417653462
 20
54.5651722033
 30
0.0
 10
87.417653462
 20
54.7769836775
 30
0.0
 10
87.3467386054
 20
55.2131656051
 30
0.0
 10
87.0396545694
 20
55.8205539712
 30
0.0
 10
86.5541039099
 20
56.3584204298
 30
0.0
 10
86.1440558493
 20
56.6447261319
 30
0.0
 10
85.9199763686
 20
56.7717930164
 30
0.0
  0
SPLINE
  5
44B
100
AcDbEntity
  8
BEZUGSACHSEN
100
AcDbSpline
 62
7
  6
CONTINUOUS
 70
0
 71
3
 72
11
 73
7
 74
0
 42
0.0000001
 43
0.0000001
 44
0.0000000001
 40
0.0
 40
0.0
 40
0.0
 40
0.0
 40
0.2771943853
 40
0.5336148475
 40
0.7720767889
 40
1.0
 40
1.0
 40
1.0
 40
1.0
 10
80.9153305554
 20
56.7717930164
 30
0.0
 10
80.6912510748
 20
56.6447261319
 30
0.0
 10
80.2812030141
 20
56.3584204298
 30
0.0
 10
79.7956523546
 20
55.8205539712
 30
0.0
 10
79.4885683187
 20
55.2131656051
 30
0.0
 10
79.417653462
 20
54.7769836775
 30
0.0
 10
79.417653462
 20
54.5651722033
 30
0.0
  0
SPLINE
  5
44C
100
AcDbEntity
  8
RUNDUNGEN
100
AcDbSpline
 62
7
  6
CONTINUOUS
 70
0
 71
3
 72
10
 73
6
 74
0
 42
0.0000001
 43
0.0000001
 44
0.0000000001
 40
0.0
 40
0.0
 40
0.0
 40
0.0
 40
0.5180750537
 40
0.7617172794
 40
1.0
 40
1.0
 40
1.0
 40
1.0
 10
103.2751095949
 20
28.812295737
 30
0.0
 10
103.4406304903
 20
28.645143941
 30
0.0
 10
103.6493251031
 20
28.3565902571
 30
0.0
 10
103.7935812753
 20
27.9233384639
 30
0.0
 10
103.817653462
 20
27.7037513866
 30
0.0
 10
103.817653462
 20
27.5955563739
 30
0.0
  0
SPLINE
  5
44D
100
AcDbEntity
  8
RUNDUNGEN
100
AcDbSpline
 62
7
  6
CONTINUOUS
 70
0
 71
3
 72
11
 73
7
 74
0
 42
0.0000001
 43
0.0000001
 44
0.0000000001
 40
0.0
 40
0.0
 40
0.0
 40
0.0
 40
0.2793753354
 40
0.5367191876
 40
0.7743210397
 40
1.0
 40
1.0
 40
1.0
 40
1.0
 10
109.5283259492
 20
61.6725211986
 30
0.0
 10
109.5913404746
 20
61.6413213524
 30
0.0
 10
109.7070975052
 20
61.5693484111
 30
0.0
 10
109.8456161634
 20
61.4293090707
 30
0.0
 10
109.9340557914
 20
61.2678964638
 30
0.0
 10
109.9547083056
 20
61.1504762063
 30
0.0
 10
109.9547422889
 20
61.0936755152
 30
0.0
  0
SPLINE
  5
44E
100
AcDbEntity
  8
RUNDUNGEN
100
AcDbSpline
 62
7
  6
CONTINUOUS
 70
0
 71
3
 72
11
 73
7
 74
0
 42
0.0000001
 43
0.0000001
 44
0.0000000001
 40
0.0
 40
0.0
 40
0.0
 40
0.0
 40
0.2297149365
 40
0.4842569271
 40
0.747560856
 40
1.0
 40
1.0
 40
1.0
 40
1.0
 10
103.630261225
 20
63.7295618532
 30
0.0
 10
103.7100905019
 20
63.8101776991
 30
0.0
 10
103.9164131549
 20
63.9432942172
 30
0.0
 10
104.2780259169
 20
64.0382195577
 30
0.0
 10
104.6628163934
 20
64.0328293073
 30
0.0
 10
104.9112585762
 20
63.958530515
 30
0.0
 10
105.0229897056
 20
63.9032100308
 30
0.0
  0
SPLINE
  5
44F
100
AcDbEntity
  8
0
100
AcDbSpline
 62
7
  6
CONTINUOUS
 70
0
 71
3
 72
9
 73
5
 74
0
 42
0.0000001
 43
0.0000001
 44
0.0000000001
 40
0.0
 40
0.0
 40
0.0
 40
0.0
 40
0.2432212797
 40
1.0
 40
1.0
 40
1.0
 40
1.0
 10
88.5798413892
 20
61.4752801662
 30
0.0
 10
88.375455694
 20
61.5764759179
 30
0.0
 10
87.5205887152
 20
61.9628419425
 30
0.0
 10
86.6145613952
 20
62.2331435767
 30
0.0
 10
85.9193421376
 20
62.3753947135
 30
0.0
  0
SPLINE
  5
450
100
AcDbEntity
  8
0
100
AcDbSpline
 62
7
  6
CONTINUOUS
 70
0
 71
3
 72
9
 73
5
 74
0
 42
0.0000001
 43
0.0000001
 44
0.0000000001
 40
0.0
 40
0.0
 40
0.0
 40
0.0
 40
0.2565045474
 40
1.0
 40
1.0
 40
1.0
 40
1.0
 10
80.9159647864
 20
62.3753947135
 30
0.0
 10
80.6803377946
 20
62.3271822869
 30
0.0
 10
79.7677353106
 20
62.1117284117
 30
0.0
 10
78.8802127546
 20
61.7846059458
 30
0.0
 10
78.2554655349
 20
61.4752801662
 30
0.0
  0
SPLINE
  5
451
100
AcDbEntity
  8
RUNDUNGEN
100
AcDbSpline
 62
7
  6
CONTINUOUS
 70
0
 71
3
 72
13
 73
9
 74
0
 42
0.0000001
 43
0.0000001
 44
0.0000000001
 40
0.0
 40
0.0
 40
0.0
 40
0.0
 40
0.2520973387
 40
0.3837531395
 40
0.5156914498
 40
0.6454036081
 40
0.7706002201
 40
1.0
 40
1.0
 40
1.0
 40
1.0
 10
59.7644371077
 20
62.8892605617
 30
0.0
 10
60.658275921
 20
63.3318193743
 30
0.0
 10
62.1422312453
 20
63.7753098606
 30
0.0
 10
64.1786450112
 20
63.946818741
 30
0.0
 10
65.7378578351
 20
63.8635966841
 30
0.0
 10
67.2457764684
 20
63.5678877037
 30
0.0
 10
69.0544791207
 20
62.927792163
 30
0.0
 10
70.2676495105
 20
62.1449829501
 30
0.0
 10
70.9062649528
 20
61.5000751403
 30
0.0
  0
SPLINE
  5
452
100
AcDbEntity
  8
0
100
AcDbSpline
 62
7
  6
CONTINUOUS
 70
0
 71
3
 72
11
 73
7
 74
0
 42
0.0000001
 43
0.0000001
 44
0.0000000001
 40
0.0
 40
0.0
 40
0.0
 40
0.0
 40
0.2880052506
 40
0.5553344723
 40
0.7905070702
 40
1.0
 40
1.0
 40
1.0
 40
1.0
 10
75.0252928209
 20
51.3726557183
 30
0.0
 10
74.9789134014
 20
51.3726557183
 30
0.0
 10
74.8889158499
 20
51.3605407286
 30
0.0
 10
74.7711039644
 20
51.3072337102
 30
0.0
 10
74.6871944561
 20
51.2242950235
 30
0.0
 10
74.6652928209
 20
51.1518333303
 30
0.0
 10
74.6652928209
 20
51.118097277
 30
0.0
  0
SPLINE
  5
453
100
AcDbEntity
  8
0
100
AcDbSpline
 62
7
  6
CONTINUOUS
 70
0
 71
3
 72
11
 73
7
 74
0
 42
0.0000001
 43
0.0000001
 44
0.0000000001
 40
0.0
 40
0.0
 40
0.0
 40
0.0
 40
0.2879697432
 40
0.5553440702
 40
0.7905331502
 40
1.0
 40
1.0
 40
1.0
 40
1.0
 10
76.9152928209
 20
49.8453050709
 30
0.0
 10
76.938479834
 20
49.8453050709
 30
0.0
 10
76.9834770566
 20
49.8513671895
 30
0.0
 10
77.0423955507
 20
49.8780049708
 30
0.0
 10
77.0843395431
 20
49.9194908786
 30
0.0
 10
77.0952928209
 20
49.9557182467
 30
0.0
 10
77.0952928209
 20
49.9725842915
 30
0.0
  0
SPLINE
  5
454
100
AcDbEntity
  8
0
100
AcDbSpline
 62
7
  6
CONTINUOUS
 70
0
 71
3
 72
11
 73
7
 74
0
 42
0.0000001
 43
0.0000001
 44
0.0000000001
 40
0.0
 40
0.0
 40
0.0
 40
0.0
 40
0.2879697432
 40
0.5553440702
 40
0.7905331502
 40
1.0
 40
1.0
 40
1.0
 40
1.0
 10
76.9152928209
 20
48.5725128648
 30
0.0
 10
76.938479834
 20
48.5725128648
 30
0.0
 10
76.9834770566
 20
48.5785749833
 30
0.0
 10
77.0423955507
 20
48.6052127647
 30
0.0
 10
77.0843395431
 20
48.6466986724
 30
0.0
 10
77.0952928209
 20
48.6829260405
 30
0.0
 10
77.0952928209
 20
48.6997920854
 30
0.0
  0
SPLINE
  5
455
100
AcDbEntity
  8
0
100
AcDbSpline
 62
7
  6
CONTINUOUS
 70
0
 71
3
 72
11
 73
7
 74
0
 42
0.0000001
 43
0.0000001
 44
0.0000000001
 40
0.0
 40
0.0
 40
0.0
 40
0.0
 40
0.2876567391
 40
0.555407049
 40
0.7907201247
 40
1.0
 40
1.0
 40
1.0
 40
1.0
 10
76.1772928209
 20
50.6726200049
 30
0.0
 10
76.1680294388
 20
50.6726200049
 30
0.0
 10
76.1500445081
 20
50.6701583897
 30
0.0
 10
76.126433083
 20
50.6595712063
 30
0.0
 10
76.1097113381
 20
50.6429156014
 30
0.0
 10
76.1052928209
 20
50.6284477361
 30
0.0
 10
76.1052928209
 20
50.6217083166
 30
0.0
  0
SPLINE
  5
456
100
AcDbEntity
  8
0
100
AcDbSpline
 62
7
  6
CONTINUOUS
 70
0
 71
3
 72
11
 73
7
 74
0
 42
0.0000001
 43
0.0000001
 44
0.0000000001
 40
0.0
 40
0.0
 40
0.0
 40
0.0
 40
0.2876567391
 40
0.555407049
 40
0.7907201247
 40
1.0
 40
1.0
 40
1.0
 40
1.0
 10
76.1772928209
 20
49.3998277987
 30
0.0
 10
76.1680294388
 20
49.3998277987
 30
0.0
 10
76.1500445081
 20
49.3973661835
 30
0.0
 10
76.126433083
 20
49.3867790002
 30
0.0
 10
76.1097113381
 20
49.3701233952
 30
0.0
 10
76.1052928209
 20
49.35565553
 30
0.0
 10
76.1052928209
 20
49.3489161105
 30
0.0
  0
SPLINE
  5
457
100
AcDbEntity
  8
0
100
AcDbSpline
 62
7
  6
CONTINUOUS
 70
0
 71
3
 72
11
 73
7
 74
0
 42
0.0000001
 43
0.0000001
 44
0.0000000001
 40
0.0
 40
0.0
 40
0.0
 40
0.0
 40
0.2876567391
 40
0.555407049
 40
0.7907201247
 40
1.0
 40
1.0
 40
1.0
 40
1.0
 10
76.5282928209
 20
49.2725485781
 30
0.0
 10
76.5375562029
 20
49.2725485781
 30
0.0
 10
76.5555411336
 20
49.2750101933
 30
0.0
 10
76.5791525587
 20
49.2855973767
 30
0.0
 10
76.5958743037
 20
49.3022529816
 30
0.0
 10
76.6002928209
 20
49.3167208469
 30
0.0
 10
76.6002928209
 20
49.3234602664
 30
0.0
  0
SPLINE
  5
458
100
AcDbEntity
  8
0
100
AcDbSpline
 62
7
  6
CONTINUOUS
 70
0
 71
3
 72
12
 73
8
 74
0
 42
0.0000001
 43
0.0000001
 44
0.0000000001
 40
0.0
 40
0.0
 40
0.0
 40
0.0
 40
0.2874600855
 40
0.5543011876
 40
0.7890519721
 40
0.8964084757
 40
1.0
 40
1.0
 40
1.0
 40
1.0
 10
81.6887736018
 20
50.0674779876
 30
0.0
 10
81.7724997885
 20
50.0674779876
 30
0.0
 10
81.9349589384
 20
50.089495178
 30
0.0
 10
82.1477026493
 20
50.1851527242
 30
0.0
 10
82.277397279
 20
50.3149023166
 30
0.0
 10
82.3299077236
 20
50.4350983921
 30
0.0
 10
82.3386624073
 20
50.4968544317
 30
0.0
 10
82.3386624073
 20
50.5270267017
 30
0.0
  0
SPLINE
  5
459
100
AcDbEntity
  8
0
100
AcDbSpline
 62
7
  6
CONTINUOUS
 70
0
 71
3
 72
9
 73
5
 74
0
 42
0.0000001
 43
0.0000001
 44
0.0000000001
 40
0.0
 40
0.0
 40
0.0
 40
0.0
 40
0.2457811574
 40
1.0
 40
1.0
 40
1.0
 40
1.0
 10
90.6599100044
 20
51.3514425148
 30
0.0
 10
90.6485001846
 20
51.3549600222
 30
0.0
 10
90.6015206995
 20
51.3674196007
 30
0.0
 10
90.5526739928
 20
51.3726557183
 30
0.0
 10
90.5160350587
 20
51.3726557183
 30
0.0
  0
SPLINE
  5
45A
100
AcDbEntity
  8
0
100
AcDbSpline
 62
7
  6
CONTINUOUS
 70
0
 71
3
 72
11
 73
7
 74
0
 42
0.0000001
 43
0.0000001
 44
0.0000000001
 40
0.0
 40
0.0
 40
0.0
 40
0.0
 40
0.2779817175
 40
0.5346952233
 40
0.772857858
 40
1.0
 40
1.0
 40
1.0
 40
1.0
 10
90.6380963887
 20
48.5138872844
 30
0.0
 10
90.7642793384
 20
48.5822154397
 30
0.0
 10
90.9954670996
 20
48.7373474985
 30
0.0
 10
91.2701978618
 20
49.0322146154
 30
0.0
 10
91.4444647863
 20
49.3674715465
 30
0.0
 10
91.4848122753
 20
49.6092595069
 30
0.0
 10
91.4848122753
 20
49.7265111317
 30
0.0
  0
SPLINE
  5
45B
100
AcDbEntity
  8
0
100
AcDbSpline
 62
7
  6
CONTINUOUS
 70
0
 71
3
 72
9
 73
5
 74
0
 42
0.0000001
 43
0.0000001
 44
0.0000000001
 40
0.0
 40
0.0
 40
0.0
 40
0.0
 40
0.2591205677
 40
1.0
 40
1.0
 40
1.0
 40
1.0
 10
90.5286569454
 20
48.487660051
 30
0.0
 10
90.5384307929
 20
48.487660051
 30
0.0
 10
90.5760829455
 20
48.4898172129
 30
0.0
 10
90.6135224653
 20
48.5005804877
 30
0.0
 10
90.6380963887
 20
48.5138872844
 30
0.0
  0
SPLINE
  5
45C
100
AcDbEntity
  8
RUNDUNGEN
100
AcDbSpline
 62
7
  6
CONTINUOUS
 70
0
 71
3
 72
11
 73
7
 74
0
 42
0.0000001
 43
0.0000001
 44
0.0000000001
 40
0.0
 40
0.0
 40
0.0
 40
0.0
 40
0.2880068215
 40
0.5553366529
 40
0.7905059061
 40
1.0
 40
1.0
 40
1.0
 40
1.0
 10
67.217653462
 20
18.3649111725
 30
0.0
 10
67.2563031942
 20
18.3649111725
 30
0.0
 10
67.3313013538
 20
18.3750073816
 30
0.0
 10
67.4294780888
 20
18.4194294059
 30
0.0
 10
67.4994019683
 20
18.488545301
 30
0.0
 10
67.517653462
 20
18.5489296692
 30
0.0
 10
67.517653462
 20
18.5770432068
 30
0.0
  0
SPLINE
  5
45D
100
AcDbEntity
  8
RUNDUNGEN
100
AcDbSpline
 62
7
  6
CONTINUOUS
 70
0
 71
3
 72
13
 73
9
 74
0
 42
0.0000001
 43
0.0000001
 44
0.0000000001
 40
0.0
 40
0.0
 40
0.0
 40
0.0
 40
0.1034546555
 40
0.2106690395
 40
0.3244963599
 40
0.4464318111
 40
0.7129511617
 40
1.0
 40
1.0
 40
1.0
 40
1.0
 10
63.017653462
 20
20.486231516
 30
0.0
 10
63.017653462
 20
20.3469518622
 30
0.0
 10
63.0580728902
 20
20.0618842597
 30
0.0
 10
63.2349459964
 20
19.657383251
 30
0.0
 10
63.5186689502
 20
19.2879518343
 30
0.0
 10
64.0372556905
 20
18.8475423136
 30
0.0
 10
64.882140025
 20
18.4655375945
 30
0.0
 10
65.6312033534
 20
18.3649111725
 30
0.0
 10
66.017653462
 20
18.3649111725
 30
0.0
  0
SPLINE
  5
45E
100
AcDbEntity
  8
RUNDUNGEN
100
AcDbSpline
 62
7
  6
CONTINUOUS
 70
0
 71
3
 72
11
 73
7
 74
0
 42
0.0000001
 43
0.0000001
 44
0.0000000001
 40
0.0
 40
0.0
 40
0.0
 40
0.0
 40
0.2297023479
 40
0.4842340123
 40
0.7475494683
 40
1.0
 40
1.0
 40
1.0
 40
1.0
 10
59.7572146178
 20
54.4298081026
 30
0.0
 10
59.8290570336
 20
54.3572578134
 30
0.0
 10
60.0147364679
 20
54.2374561017
 30
0.0
 10
60.340181462
 20
54.1520191034
 30
0.0
 10
60.6864989077
 20
54.156863764
 30
0.0
 10
60.9101076922
 20
54.2237340582
 30
0.0
 10
61.0106702503
 20
54.2735247427
 30
0.0
  0
SPLINE
  5
45F
100
AcDbEntity
  8
RUNDUNGEN
100
AcDbSpline
 62
7
  6
CONTINUOUS
 70
0
 71
3
 72
9
 73
5
 74
0
 42
0.0000001
 43
0.0000001
 44
0.0000000001
 40
0.0
 40
0.0
 40
0.0
 40
0.0
 40
0.5194815986
 40
1.0
 40
1.0
 40
1.0
 40
1.0
 10
109.7739015571
 20
57.1521795397
 30
0.0
 10
109.8291254712
 20
57.2079475827
 30
0.0
 10
109.920299901
 20
57.3330591453
 30
0.0
 10
109.9547891617
 20
57.485569043
 30
0.0
 10
109.9547414591
 20
57.558166514
 30
0.0
  0
SPLINE
  5
460
100
AcDbEntity
  8
RUNDUNGEN
100
AcDbSpline
 62
7
  6
CONTINUOUS
 70
0
 71
3
 72
13
 73
9
 74
0
 42
0.0000001
 43
0.0000001
 44
0.0000000001
 40
0.0
 40
0.0
 40
0.0
 40
0.0
 40
0.2870490624
 40
0.5535683755
 40
0.6755038246
 40
0.7893311355
 40
0.8965454157
 40
1.0
 40
1.0
 40
1.0
 40
1.0
 10
100.817653462
 20
18.3649111725
 30
0.0
 10
101.2041038722
 20
18.3649111725
 30
0.0
 10
101.9531674695
 20
18.4655376904
 30
0.0
 10
102.7980519279
 20
18.8475427425
 30
0.0
 10
103.3166385006
 20
19.2879523663
 30
0.0
 10
103.6003611994
 20
19.6573837805
 30
0.0
 10
103.7772341193
 20
20.0618845883
 30
0.0
 10
103.817653462
 20
20.346951958
 30
0.0
 10
103.817653462
 20
20.486231516
 30
0.0
  0
SPLINE
  5
461
100
AcDbEntity
  8
RUNDUNGEN
100
AcDbSpline
 62
7
  6
CONTINUOUS
 70
0
 71
3
 72
11
 73
7
 74
0
 42
0.0000001
 43
0.0000001
 44
0.0000000001
 40
0.0
 40
0.0
 40
0.0
 40
0.0
 40
0.2094942263
 40
0.444667264
 40
0.7119932261
 40
1.0
 40
1.0
 40
1.0
 40
1.0
 10
99.317653462
 20
18.5770432068
 30
0.0
 10
99.317653462
 20
18.5489296537
 30
0.0
 10
99.3359053063
 20
18.4885448219
 30
0.0
 10
99.4058293714
 20
18.4194290638
 30
0.0
 10
99.5040060854
 20
18.3750071746
 30
0.0
 10
99.5790037395
 20
18.3649111725
 30
0.0
 10
99.617653462
 20
18.3649111725
 30
0.0
  0
SPLINE
  5
462
100
AcDbEntity
  8
RUNDUNGEN
100
AcDbSpline
 62
7
  6
CONTINUOUS
 70
0
 71
3
 72
10
 73
6
 74
0
 42
0.0000001
 43
0.0000001
 44
0.0000000001
 40
0.0
 40
0.0
 40
0.0
 40
0.0
 40
0.47201694
 40
0.7322443513
 40
1.0
 40
1.0
 40
1.0
 40
1.0
 10
89.5329769845
 20
24.3606609776
 30
0.0
 10
89.8288859126
 20
24.0618364173
 30
0.0
 10
90.4168738899
 20
23.721360859
 30
0.0
 10
91.279869535
 20
23.4959550891
 30
0.0
 10
91.7518752898
 20
23.456079997
 30
0.0
 10
91.9904331173
 20
23.456079997
 30
0.0
  0
SPLINE
  5
463
100
AcDbEntity
  8
RUNDUNGEN
100
AcDbSpline
 62
7
  6
CONTINUOUS
 70
0
 71
3
 72
10
 73
6
 74
0
 42
0.0000001
 43
0.0000001
 44
0.0000000001
 40
0.0
 40
0.0
 40
0.0
 40
0.0
 40
0.2677558652
 40
0.5279833681
 40
1.0
 40
1.0
 40
1.0
 40
1.0
 10
74.8448738067
 20
23.456079997
 30
0.0
 10
75.0834318284
 20
23.456079997
 30
0.0
 10
75.5554378634
 20
23.4959551389
 30
0.0
 10
76.4184334778
 20
23.7213610759
 30
0.0
 10
77.0064212031
 20
24.0618366108
 30
0.0
 10
77.3023299396
 20
24.3606609776
 30
0.0
  0
SPLINE
  5
464
100
AcDbEntity
  8
RUNDUNGEN
100
AcDbSpline
 62
7
  6
CONTINUOUS
 70
0
 71
3
 72
13
 73
9
 74
0
 42
0.0000001
 43
0.0000001
 44
0.0000000001
 40
0.0
 40
0.0
 40
0.0
 40
0.0
 40
0.1034546555
 40
0.2106690395
 40
0.3244963599
 40
0.4464318111
 40
0.7129511617
 40
1.0
 40
1.0
 40
1.0
 40
1.0
 10
67.517653462
 20
21.3347596535
 30
0.0
 10
67.517653462
 20
21.4740393073
 30
0.0
 10
67.5580728902
 20
21.7591069098
 30
0.0
 10
67.7349459964
 20
22.1636079185
 30
0.0
 10
68.0186689502
 20
22.5330393352
 30
0.0
 10
68.5372556905
 20
22.9734488559
 30
0.0
 10
69.382140025
 20
23.3554535749
 30
0.0
 10
70.1312033534
 20
23.456079997
 30
0.0
 10
70.517653462
 20
23.456079997
 30
0.0
  0
SPLINE
  5
465
100
AcDbEntity
  8
RUNDUNGEN
100
AcDbSpline
 62
7
  6
CONTINUOUS
 70
0
 71
3
 72
13
 73
9
 74
0
 42
0.0000001
 43
0.0000001
 44
0.0000000001
 40
0.0
 40
0.0
 40
0.0
 40
0.0
 40
0.2870490624
 40
0.5535683755
 40
0.6755038246
 40
0.7893311355
 40
0.8965454157
 40
1.0
 40
1.0
 40
1.0
 40
1.0
 10
96.317653462
 20
23.456079997
 30
0.0
 10
96.7041038722
 20
23.456079997
 30
0.0
 10
97.4531674695
 20
23.3554534791
 30
0.0
 10
98.2980519279
 20
22.973448427
 30
0.0
 10
98.8166385006
 20
22.5330388032
 30
0.0
 10
99.1003611994
 20
22.163607389
 30
0.0
 10
99.2772341193
 20
21.7591065812
 30
0.0
 10
99.317653462
 20
21.4740392115
 30
0.0
 10
99.317653462
 20
21.3347596535
 30
0.0
  0
SPLINE
  5
466
100
AcDbEntity
  8
RUNDUNGEN
100
AcDbSpline
 62
7
  6
CONTINUOUS
 70
0
 71
3
 72
13
 73
9
 74
0
 42
0.0000001
 43
0.0000001
 44
0.0000000001
 40
0.0
 40
0.0
 40
0.0
 40
0.0
 40
0.2360077172
 40
0.3661261163
 40
0.500000078
 40
0.6338740716
 40
0.7639924399
 40
1.0
 40
1.0
 40
1.0
 40
1.0
 10
80.4687061026
 20
27.5582358885
 30
0.0
 10
80.8237956729
 20
27.9168242061
 30
0.0
 10
81.5292518474
 20
28.3254103243
 30
0.0
 10
82.5652342836
 20
28.5958724434
 30
0.0
 10
83.4176540473
 20
28.6680038572
 30
0.0
 10
84.2700737302
 20
28.5958722656
 30
0.0
 10
85.3060557901
 20
28.3254100027
 30
0.0
 10
86.0115114875
 20
27.9168239674
 30
0.0
 10
86.3666008215
 20
27.5582358885
 30
0.0
  0
SPLINE
  5
467
100
AcDbEntity
  8
RUNDUNGEN
100
AcDbSpline
 62
7
  6
CONTINUOUS
 70
0
 71
3
 72
9
 73
5
 74
0
 42
0.0000001
 43
0.0000001
 44
0.0000000001
 40
0.0
 40
0.0
 40
0.0
 40
0.0
 40
0.5134149467
 40
1.0
 40
1.0
 40
1.0
 40
1.0
 10
72.4784030292
 20
37.8183737672
 30
0.0
 10
72.7532624304
 20
38.0959413966
 30
0.0
 10
73.2440936651
 20
38.6835038804
 30
0.0
 10
73.6111998607
 20
39.3570931433
 30
0.0
 10
73.7513917817
 20
39.6997390932
 30
0.0
  0
SPLINE
  5
468
100
AcDbEntity
  8
RUNDUNGEN
100
AcDbSpline
 62
7
  6
CONTINUOUS
 70
0
 71
3
 72
11
 73
7
 74
0
 42
0.0000001
 43
0.0000001
 44
0.0000000001
 40
0.0
 40
0.0
 40
0.0
 40
0.0
 40
0.2660806488
 40
0.5190943636
 40
0.7622194616
 40
1.0
 40
1.0
 40
1.0
 40
1.0
 10
72.4784030292
 20
41.5832760394
 30
0.0
 10
72.7339753037
 20
41.3251855755
 30
0.0
 10
73.1939893205
 20
40.7809166158
 30
0.0
 10
73.7147570941
 20
39.8730497834
 30
0.0
 10
74.0340288746
 20
38.9162111232
 30
0.0
 10
74.1060346421
 20
38.257644812
 30
0.0
 10
74.1060346306
 20
37.9330576798
 30
0.0
  0
SPLINE
  5
469
100
AcDbEntity
  8
RUNDUNGEN
100
AcDbSpline
 62
7
  6
CONTINUOUS
 70
0
 71
3
 72
11
 73
7
 74
0
 42
0.0000001
 43
0.0000001
 44
0.0000000001
 40
0.0
 40
0.0
 40
0.0
 40
0.0
 40
0.2524507309
 40
0.5157647478
 40
0.7702968692
 40
1.0
 40
1.0
 40
1.0
 40
1.0
 10
62.9766351566
 20
55.2469162331
 30
0.0
 10
63.1442395544
 20
55.3299007737
 30
0.0
 10
63.5169200284
 20
55.4413508669
 30
0.0
 10
64.0941150626
 20
55.4494257451
 30
0.0
 10
64.636523491
 20
55.3070315026
 30
0.0
 10
64.9459901083
 20
55.1073615289
 30
0.0
 10
65.0657278776
 20
54.9864439666
 30
0.0
  0
SPLINE
  5
46A
100
AcDbEntity
  8
RUNDUNGEN
100
AcDbSpline
 62
7
  6
CONTINUOUS
 70
0
 71
3
 72
10
 73
6
 74
0
 42
0.0000001
 43
0.0000001
 44
0.0000000001
 40
0.0
 40
0.0
 40
0.0
 40
0.0
 40
0.5180905271
 40
0.761708294
 40
1.0
 40
1.0
 40
1.0
 40
1.0
 10
66.7864571866
 20
53.2487600706
 30
0.0
 10
66.8692928096
 20
53.1651082566
 30
0.0
 10
66.9737105134
 20
53.0206819918
 30
0.0
 10
67.0458120066
 20
52.8038288586
 30
0.0
 10
67.0577525011
 20
52.6939301042
 30
0.0
 10
67.0577171473
 20
52.6397830455
 30
0.0
  0
SPLINE
  5
46B
100
AcDbEntity
  8
RUNDUNGEN
100
AcDbSpline
 62
7
  6
CONTINUOUS
 70
0
 71
3
 72
12
 73
8
 74
0
 42
0.0000001
 43
0.0000001
 44
0.0000000001
 40
0.0
 40
0.0
 40
0.0
 40
0.0
 40
0.252259356
 40
0.5153839756
 40
0.6451803977
 40
0.7704553584
 40
1.0
 40
1.0
 40
1.0
 40
1.0
 10
94.7234817214
 20
58.4334317587
 30
0.0
 10
95.0586731673
 20
58.2674712677
 30
0.0
 10
95.803784803
 20
58.0446846658
 30
0.0
 10
96.7722126517
 20
58.0306966751
 30
0.0
 10
97.5289563229
 20
58.1789134838
 30
0.0
 10
98.2072763511
 20
58.4189972493
 30
0.0
 10
98.662187701
 20
58.7125372047
 30
0.0
 10
98.9016671633
 20
58.9543762917
 30
0.0
  0
SPLINE
  5
46C
100
AcDbEntity
  8
RUNDUNGEN
100
AcDbSpline
 62
7
  6
CONTINUOUS
 70
0
 71
3
 72
12
 73
8
 74
0
 42
0.0000001
 43
0.0000001
 44
0.0000000001
 40
0.0
 40
0.0
 40
0.0
 40
0.0
 40
0.2295488423
 40
0.3548243544
 40
0.4846199331
 40
0.7477426437
 40
1.0
 40
1.0
 40
1.0
 40
1.0
 10
71.6198239601
 20
60.7794853362
 30
0.0
 10
71.8593078016
 20
60.5376418268
 30
0.0
 10
72.3142265744
 20
60.2440990447
 30
0.0
 10
72.9925535282
 20
60.0040176278
 30
0.0
 10
73.7492945858
 20
59.8558048638
 30
0.0
 10
74.7177150864
 20
59.8697959757
 30
0.0
 10
75.4628206177
 20
60.09258163
 30
0.0
 10
75.798009402
 20
60.2585408032
 30
0.0
  0
SPLINE
  5
46D
100
AcDbEntity
  8
0
100
AcDbSpline
 62
7
  6
CONTINUOUS
 70
0
 71
3
 72
11
 73
7
 74
0
 42
0.0000001
 43
0.0000001
 44
0.0000000001
 40
0.0
 40
0.0
 40
0.0
 40
0.0
 40
0.2092798753
 40
0.444592951
 40
0.7123432609
 40
1.0
 40
1.0
 40
1.0
 40
1.0
 10
76.1052928209
 20
49.0264754183
 30
0.0
 10
76.1052928209
 20
49.0197359988
 30
0.0
 10
76.1097113381
 20
49.0052681335
 30
0.0
 10
76.126433083
 20
48.9886125286
 30
0.0
 10
76.1500445081
 20
48.9780253452
 30
0.0
 10
76.1680294388
 20
48.97556373
 30
0.0
 10
76.1772928209
 20
48.97556373
 30
0.0
  0
SPLINE
  5
46E
100
AcDbEntity
  8
0
100
AcDbSpline
 62
7
  6
CONTINUOUS
 70
0
 71
3
 72
19
 73
15
 74
0
 42
0.0000001
 43
0.0000001
 44
0.0000000001
 40
0.0
 40
0.0
 40
0.0
 40
0.0
 40
0.051855061
 40
0.1061589371
 40
0.1638754827
 40
0.2253669227
 40
0.3583203672
 40
0.5
 40
0.6416796328
 40
0.7746330773
 40
0.8361245173
 40
0.8938410629
 40
0.948144939
 40
1.0
 40
1.0
 40
1.0
 40
1.0
 10
83.7654437825
 20
49.3443304054
 30
0.0
 10
83.7781403228
 20
49.2709493215
 30
0.0
 10
83.8237077129
 20
49.1235348822
 30
0.0
 10
83.9451817816
 20
48.9197882758
 30
0.0
 10
84.1157603874
 20
48.7358636077
 30
0.0
 10
84.4079696395
 20
48.5191246646
 30
0.0
 10
84.8616306435
 20
48.3324240862
 30
0.0
 10
85.4610142099
 20
48.2576197757
 30
0.0
 10
86.0603977763
 20
48.3324240862
 30
0.0
 10
86.5140587803
 20
48.5191246646
 30
0.0
 10
86.8062680325
 20
48.7358636077
 30
0.0
 10
86.9768466383
 20
48.9197882758
 30
0.0
 10
87.098320707
 20
49.1235348822
 30
0.0
 10
87.1438880971
 20
49.2709493215
 30
0.0
 10
87.1565846374
 20
49.3443304054
 30
0.0
  0
SPLINE
  5
46F
100
AcDbEntity
  8
RUNDUNGEN
100
AcDbSpline
 62
7
  6
CONTINUOUS
 70
0
 71
3
 72
11
 73
7
 74
0
 42
0.0000001
 43
0.0000001
 44
0.0000000001
 40
0.0
 40
0.0
 40
0.0
 40
0.0
 40
0.2256927635
 40
0.4632951072
 40
0.7206222905
 40
1.0
 40
1.0
 40
1.0
 40
1.0
 10
67.0577171473
 20
52.6397830455
 30
0.0
 10
67.0576615158
 20
52.5545793804
 30
0.0
 10
67.0266751722
 20
52.3784501793
 30
0.0
 10
66.8940090349
 20
52.1363460103
 30
0.0
 10
66.686239999
 20
51.9262994275
 30
0.0
 10
66.5126135044
 20
51.8183471913
 30
0.0
 10
66.4180937747
 20
51.7715484411
 30
0.0
  0
SPLINE
  5
470
100
AcDbEntity
  8
0
100
AcDbSpline
 62
7
  6
CONTINUOUS
 70
0
 71
3
 72
11
 73
7
 74
0
 42
0.0000001
 43
0.0000001
 44
0.0000000001
 40
0.0
 40
0.0
 40
0.0
 40
0.0
 40
0.2092798753
 40
0.444592951
 40
0.7123432609
 40
1.0
 40
1.0
 40
1.0
 40
1.0
 10
76.6002928209
 20
50.1125914342
 30
0.0
 10
76.6002928209
 20
50.1193308537
 30
0.0
 10
76.5958743037
 20
50.1337987189
 30
0.0
 10
76.5791525587
 20
50.1504543239
 30
0.0
 10
76.5555411336
 20
50.1610415072
 30
0.0
 10
76.5375562029
 20
50.1635031224
 30
0.0
 10
76.5282928209
 20
50.1635031224
 30
0.0
  0
SPLINE
  5
471
100
AcDbEntity
  8
0
100
AcDbSpline
 62
7
  6
CONTINUOUS
 70
0
 71
3
 72
12
 73
8
 74
0
 42
0.0000001
 43
0.0000001
 44
0.0000000001
 40
0.0
 40
0.0
 40
0.0
 40
0.0
 40
0.1035915243
 40
0.2109480279
 40
0.4456988124
 40
0.7125399145
 40
1.0
 40
1.0
 40
1.0
 40
1.0
 10
82.3386624073
 20
50.5270267017
 30
0.0
 10
82.3386624073
 20
50.5571989716
 30
0.0
 10
82.3299077236
 20
50.6189550112
 30
0.0
 10
82.277397279
 20
50.7391510867
 30
0.0
 10
82.1477026493
 20
50.8689006791
 30
0.0
 10
81.9349589384
 20
50.9645582253
 30
0.0
 10
81.7724997885
 20
50.9865754157
 30
0.0
 10
81.6887736018
 20
50.9865754157
 30
0.0
  0
SPLINE
  5
472
100
AcDbEntity
  8
0
100
AcDbSpline
 62
7
  6
CONTINUOUS
 70
0
 71
3
 72
11
 73
7
 74
0
 42
0.0000001
 43
0.0000001
 44
0.0000000001
 40
0.0
 40
0.0
 40
0.0
 40
0.0
 40
0.2092798753
 40
0.444592951
 40
0.7123432609
 40
1.0
 40
1.0
 40
1.0
 40
1.0
 10
76.1052928209
 20
50.0871355901
 30
0.0
 10
76.1052928209
 20
50.0803961706
 30
0.0
 10
76.1097113381
 20
50.0659283053
 30
0.0
 10
76.126433083
 20
50.0492727004
 30
0.0
 10
76.1500445081
 20
50.038685517
 30
0.0
 10
76.1680294388
 20
50.0362239018
 30
0.0
 10
76.1772928209
 20
50.0362239018
 30
0.0
  0
SPLINE
  5
473
100
AcDbEntity
  8
0
100
AcDbSpline
 62
7
  6
CONTINUOUS
 70
0
 71
3
 72
11
 73
7
 74
0
 42
0.0000001
 43
0.0000001
 44
0.0000000001
 40
0.0
 40
0.0
 40
0.0
 40
0.0
 40
0.2094929298
 40
0.4446655277
 40
0.7119947494
 40
1.0
 40
1.0
 40
1.0
 40
1.0
 10
74.6652928209
 20
48.3179544235
 30
0.0
 10
74.6652928209
 20
48.2842183703
 30
0.0
 10
74.6871944561
 20
48.2117566771
 30
0.0
 10
74.7711039644
 20
48.1288179904
 30
0.0
 10
74.8889158499
 20
48.075510972
 30
0.0
 10
74.9789134014
 20
48.0633959823
 30
0.0
 10
75.0252928209
 20
48.0633959823
 30
0.0
  0
SPLINE
  5
474
100
AcDbEntity
  8
0
100
AcDbSpline
 62
7
  6
CONTINUOUS
 70
0
 71
3
 72
11
 73
7
 74
0
 42
0.0000001
 43
0.0000001
 44
0.0000000001
 40
0.0
 40
0.0
 40
0.0
 40
0.0
 40
0.2880052506
 40
0.5553344723
 40
0.7905070702
 40
1.0
 40
1.0
 40
1.0
 40
1.0
 10
77.9052928209
 20
48.0633959823
 30
0.0
 10
77.9516722404
 20
48.0633959823
 30
0.0
 10
78.0416697918
 20
48.075510972
 30
0.0
 10
78.1594816773
 20
48.1288179904
 30
0.0
 10
78.2433911856
 20
48.2117566771
 30
0.0
 10
78.2652928209
 20
48.2842183703
 30
0.0
 10
78.2652928209
 20
48.3179544235
 30
0.0
  0
SPLINE
  5
475
100
AcDbEntity
  8
0
100
AcDbSpline
 62
7
  6
CONTINUOUS
 70
0
 71
3
 72
11
 73
7
 74
0
 42
0.0000001
 43
0.0000001
 44
0.0000000001
 40
0.0
 40
0.0
 40
0.0
 40
0.0
 40
0.2094668498
 40
0.4446559298
 40
0.7120302568
 40
1.0
 40
1.0
 40
1.0
 40
1.0
 10
77.0952928209
 20
49.4634674091
 30
0.0
 10
77.0952928209
 20
49.4803334539
 30
0.0
 10
77.0843395431
 20
49.516560822
 30
0.0
 10
77.0423955507
 20
49.5580467298
 30
0.0
 10
76.9834770566
 20
49.5846845111
 30
0.0
 10
76.938479834
 20
49.5907466297
 30
0.0
 10
76.9152928209
 20
49.5907466297
 30
0.0
  0
SPLINE
  5
476
100
AcDbEntity
  8
0
100
AcDbSpline
 62
7
  6
CONTINUOUS
 70
0
 71
3
 72
9
 73
5
 74
0
 42
0.0000001
 43
0.0000001
 44
0.0000000001
 40
0.0
 40
0.0
 40
0.0
 40
0.0
 40
0.2445376398
 40
1.0
 40
1.0
 40
1.0
 40
1.0
 10
74.6652928209
 20
48.5300864579
 30
0.0
 10
74.6652928209
 20
48.5217820242
 30
0.0
 10
74.6676780249
 20
48.4878335594
 30
0.0
 10
74.67974346
 20
48.4548166186
 30
0.0
 10
74.6926961892
 20
48.4326711599
 30
0.0
  0
SPLINE
  5
477
100
AcDbEntity
  8
0
100
AcDbSpline
 62
7
  6
CONTINUOUS
 70
0
 71
3
 72
9
 73
5
 74
0
 42
0.0000001
 43
0.0000001
 44
0.0000000001
 40
0.0
 40
0.0
 40
0.0
 40
0.0
 40
0.461013727
 40
1.0
 40
1.0
 40
1.0
 40
1.0
 10
74.6926961892
 20
48.4326711599
 30
0.0
 10
74.7221450813
 20
48.382321985
 30
0.0
 10
74.8291600772
 20
48.2994678592
 30
0.0
 10
74.9570984291
 20
48.2755280167
 30
0.0
 10
75.0252928209
 20
48.2755280167
 30
0.0
  0
SPLINE
  5
478
100
AcDbEntity
  8
0
100
AcDbSpline
 62
7
  6
CONTINUOUS
 70
0
 71
3
 72
11
 73
7
 74
0
 42
0.0000001
 43
0.0000001
 44
0.0000000001
 40
0.0
 40
0.0
 40
0.0
 40
0.0
 40
0.2879697432
 40
0.5553440702
 40
0.7905331502
 40
1.0
 40
1.0
 40
1.0
 40
1.0
 10
76.0152928209
 20
49.5907466297
 30
0.0
 10
75.9921058077
 20
49.5907466297
 30
0.0
 10
75.9471085851
 20
49.5846845111
 30
0.0
 10
75.888190091
 20
49.5580467298
 30
0.0
 10
75.8462460987
 20
49.516560822
 30
0.0
 10
75.8352928209
 20
49.4803334539
 30
0.0
 10
75.8352928209
 20
49.4634674091
 30
0.0
  0
SPLINE
  5
479
100
AcDbEntity
  8
0
100
AcDbSpline
 62
7
  6
CONTINUOUS
 70
0
 71
3
 72
11
 73
7
 74
0
 42
0.0000001
 43
0.0000001
 44
0.0000000001
 40
0.0
 40
0.0
 40
0.0
 40
0.0
 40
0.2879697432
 40
0.5553440702
 40
0.7905331502
 40
1.0
 40
1.0
 40
1.0
 40
1.0
 10
76.0152928209
 20
50.8635388358
 30
0.0
 10
75.9921058077
 20
50.8635388358
 30
0.0
 10
75.9471085851
 20
50.8574767172
 30
0.0
 10
75.888190091
 20
50.8308389359
 30
0.0
 10
75.8462460987
 20
50.7893530281
 30
0.0
 10
75.8352928209
 20
50.75312566
 30
0.0
 10
75.8352928209
 20
50.7362596152
 30
0.0
  0
SPLINE
  5
47A
100
AcDbEntity
  8
0
100
AcDbSpline
 62
7
  6
CONTINUOUS
 70
0
 71
3
 72
11
 73
7
 74
0
 42
0.0000001
 43
0.0000001
 44
0.0000000001
 40
0.0
 40
0.0
 40
0.0
 40
0.0
 40
0.2876567391
 40
0.555407049
 40
0.7907201247
 40
1.0
 40
1.0
 40
1.0
 40
1.0
 10
76.4022928209
 20
50.1635031224
 30
0.0
 10
76.3930294388
 20
50.1635031224
 30
0.0
 10
76.3750445081
 20
50.1610415072
 30
0.0
 10
76.351433083
 20
50.1504543239
 30
0.0
 10
76.3347113381
 20
50.1337987189
 30
0.0
 10
76.3302928209
 20
50.1193308537
 30
0.0
 10
76.3302928209
 20
50.1125914342
 30
0.0
  0
SPLINE
  5
47B
100
AcDbEntity
  8
0
100
AcDbSpline
 62
7
  6
CONTINUOUS
 70
0
 71
3
 72
11
 73
7
 74
0
 42
0.0000001
 43
0.0000001
 44
0.0000000001
 40
0.0
 40
0.0
 40
0.0
 40
0.0
 40
0.2876567391
 40
0.555407049
 40
0.7907201247
 40
1.0
 40
1.0
 40
1.0
 40
1.0
 10
76.7532928209
 20
50.0362239018
 30
0.0
 10
76.7625562029
 20
50.0362239018
 30
0.0
 10
76.7805411336
 20
50.038685517
 30
0.0
 10
76.8041525587
 20
50.0492727004
 30
0.0
 10
76.8208743037
 20
50.0659283053
 30
0.0
 10
76.8252928209
 20
50.0803961706
 30
0.0
 10
76.8252928209
 20
50.0871355901
 30
0.0
  0
SPLINE
  5
47C
100
AcDbEntity
  8
0
100
AcDbSpline
 62
7
  6
CONTINUOUS
 70
0
 71
3
 72
11
 73
7
 74
0
 42
0.0000001
 43
0.0000001
 44
0.0000000001
 40
0.0
 40
0.0
 40
0.0
 40
0.0
 40
0.2876567391
 40
0.555407049
 40
0.7907201247
 40
1.0
 40
1.0
 40
1.0
 40
1.0
 10
76.7532928209
 20
48.7634316957
 30
0.0
 10
76.7625562029
 20
48.7634316957
 30
0.0
 10
76.7805411336
 20
48.7658933109
 30
0.0
 10
76.8041525587
 20
48.7764804942
 30
0.0
 10
76.8208743037
 20
48.7931360992
 30
0.0
 10
76.8252928209
 20
48.8076039644
 30
0.0
 10
76.8252928209
 20
48.8143433839
 30
0.0
  0
SPLINE
  5
47D
100
AcDbEntity
  8
RUNDUNGEN
100
AcDbSpline
 62
7
  6
CONTINUOUS
 70
0
 71
3
 72
11
 73
7
 74
0
 42
0.0000001
 43
0.0000001
 44
0.0000000001
 40
0.0
 40
0.0
 40
0.0
 40
0.0
 40
0.237780559
 40
0.4809056754
 40
0.7339193747
 40
1.0
 40
1.0
 40
1.0
 40
1.0
 10
74.1060346306
 20
37.9330576798
 30
0.0
 10
74.1060346191
 20
37.608470562
 30
0.0
 10
74.0340287598
 20
36.9499042918
 30
0.0
 10
73.7147569164
 20
35.9930657639
 30
0.0
 10
73.1939891851
 20
35.0851991008
 30
0.0
 10
72.7339752476
 20
34.5409302686
 30
0.0
 10
72.4784030292
 20
34.2828398613
 30
0.0
  0
SPLINE
  5
47E
100
AcDbEntity
  8
RUNDUNGEN
100
AcDbSpline
 62
7
  6
CONTINUOUS
 70
0
 71
3
 72
10
 73
6
 74
0
 42
0.0000001
 43
0.0000001
 44
0.0000000001
 40
0.0
 40
0.0
 40
0.0
 40
0.0
 40
0.2382827206
 40
0.4819249463
 40
1.0
 40
1.0
 40
1.0
 40
1.0
 10
103.817653462
 20
24.060022468
 30
0.0
 10
103.817653462
 20
24.1682174806
 30
0.0
 10
103.7935812753
 20
24.387804558
 30
0.0
 10
103.6493251031
 20
24.8210563512
 30
0.0
 10
103.4406304903
 20
25.109610035
 30
0.0
 10
103.2751095949
 20
25.276761831
 30
0.0
  0
SPLINE
  5
47F
100
AcDbEntity
  8
RUNDUNGEN
100
AcDbSpline
 62
7
  6
CONTINUOUS
 70
0
 71
3
 72
11
 73
7
 74
0
 42
0.0000001
 43
0.0000001
 44
0.0000000001
 40
0.0
 40
0.0
 40
0.0
 40
0.0
 40
0.2256939479
 40
0.4632958812
 40
0.7206236633
 40
1.0
 40
1.0
 40
1.0
 40
1.0
 10
109.9547414591
 20
57.558166514
 30
0.0
 10
109.954704135
 20
57.6149690825
 30
0.0
 10
109.9340459551
 20
57.7323882776
 30
0.0
 10
109.8456015401
 20
57.8937905811
 30
0.0
 10
109.707089077
 20
58.0338206059
 30
0.0
 10
109.5913386009
 20
58.1057883742
 30
0.0
 10
109.5283259492
 20
58.1369872927
 30
0.0
  0
SPLINE
  5
480
100
AcDbEntity
  8
0
100
AcDbSpline
 62
7
  6
CONTINUOUS
 70
0
 71
3
 72
12
 73
8
 74
0
 42
0.0000001
 43
0.0000001
 44
0.0000000001
 40
0.0
 40
0.0
 40
0.0
 40
0.0
 40
0.2861430251
 40
0.547729335
 40
0.7823897905
 40
0.8924618245
 40
1.0
 40
1.0
 40
1.0
 40
1.0
 10
82.0620627132
 20
49.7236487997
 30
0.0
 10
82.176773037
 20
49.7502988449
 30
0.0
 10
82.3918267334
 20
49.8262392774
 30
0.0
 10
82.6608080192
 20
50.0107099701
 30
0.0
 10
82.8139578367
 20
50.2157744231
 30
0.0
 10
82.8746019586
 20
50.3930897709
 30
0.0
 10
82.8846777021
 20
50.482958163
 30
0.0
 10
82.8846710627
 20
50.5272167057
 30
0.0
  0
SPLINE
  5
481
100
AcDbEntity
  8
0
100
AcDbSpline
 62
7
  6
CONTINUOUS
 70
0
 71
3
 72
11
 73
7
 74
0
 42
0.0000001
 43
0.0000001
 44
0.0000000001
 40
0.0
 40
0.0
 40
0.0
 40
0.0
 40
0.2092798753
 40
0.444592951
 40
0.7123432609
 40
1.0
 40
1.0
 40
1.0
 40
1.0
 10
76.1052928209
 20
50.2992676244
 30
0.0
 10
76.1052928209
 20
50.2925282049
 30
0.0
 10
76.1097113381
 20
50.2780603397
 30
0.0
 10
76.126433083
 20
50.2614047347
 30
0.0
 10
76.1500445081
 20
50.2508175514
 30
0.0
 10
76.1680294388
 20
50.2483559362
 30
0.0
 10
76.1772928209
 20
50.2483559362
 30
0.0
  0
SPLINE
  5
482
100
AcDbEntity
  8
0
100
AcDbSpline
 62
7
  6
CONTINUOUS
 70
0
 71
3
 72
9
 73
5
 74
0
 42
0.0000001
 43
0.0000001
 44
0.0000000001
 40
0.0
 40
0.0
 40
0.0
 40
0.0
 40
0.2536121958
 40
1.0
 40
1.0
 40
1.0
 40
1.0
 10
90.5160350587
 20
48.0633959823
 30
0.0
 10
90.528354659
 20
48.0633959823
 30
0.0
 10
90.576908359
 20
48.0651560058
 30
0.0
 10
90.6252621963
 20
48.0739276918
 30
0.0
 10
90.6599100044
 20
48.0846091857
 30
0.0
  0
SPLINE
  5
483
100
AcDbEntity
  8
0
100
AcDbSpline
 62
7
  6
CONTINUOUS
 70
0
 71
3
 72
12
 73
8
 74
0
 42
0.0000001
 43
0.0000001
 44
0.0000000001
 40
0.0
 40
0.0
 40
0.0
 40
0.0
 40
0.2844670851
 40
0.5445747
 40
0.7798379195
 40
0.8910272787
 40
1.0
 40
1.0
 40
1.0
 40
1.0
 10
90.6599100044
 20
48.0846091857
 30
0.0
 10
90.87506718
 20
48.1509395023
 30
0.0
 10
91.2754936293
 20
48.3226903384
 30
0.0
 10
91.7695032296
 20
48.705094906
 30
0.0
 10
92.0456218948
 20
49.1112305248
 30
0.0
 10
92.154635716
 20
49.4570035353
 30
0.0
 10
92.1727726623
 20
49.6317762954
 30
0.0
 10
92.1727726623
 20
49.7180258503
 30
0.0
  0
SPLINE
  5
484
100
AcDbEntity
  8
0
100
AcDbSpline
 62
7
  6
CONTINUOUS
 70
0
 71
3
 72
9
 73
5
 74
0
 42
0.0000001
 43
0.0000001
 44
0.0000000001
 40
0.0
 40
0.0
 40
0.0
 40
0.0
 40
0.239729366
 40
1.0
 40
1.0
 40
1.0
 40
1.0
 10
90.6380963887
 20
50.939134979
 30
0.0
 10
90.6301425441
 20
50.9434419913
 30
0.0
 10
90.5956834638
 20
50.9590013376
 30
0.0
 10
90.5573423374
 20
50.9653622123
 30
0.0
 10
90.5286569454
 20
50.9653622123
 30
0.0
  0
SPLINE
  5
485
100
AcDbEntity
  8
0
100
AcDbSpline
 62
7
  6
CONTINUOUS
 70
0
 71
3
 72
11
 73
7
 74
0
 42
0.0000001
 43
0.0000001
 44
0.0000000001
 40
0.0
 40
0.0
 40
0.0
 40
0.0
 40
0.2094668498
 40
0.4446559298
 40
0.7120302568
 40
1.0
 40
1.0
 40
1.0
 40
1.0
 10
77.0952928209
 20
50.7362596152
 30
0.0
 10
77.0952928209
 20
50.75312566
 30
0.0
 10
77.0843395431
 20
50.7893530281
 30
0.0
 10
77.0423955507
 20
50.8308389359
 30
0.0
 10
76.9834770566
 20
50.8574767172
 30
0.0
 10
76.938479834
 20
50.8635388358
 30
0.0
 10
76.9152928209
 20
50.8635388358
 30
0.0
  0
SPLINE
  5
486
100
AcDbEntity
  8
RUNDUNGEN
100
AcDbSpline
 62
7
  6
CONTINUOUS
 70
0
 71
3
 72
10
 73
6
 74
0
 42
0.0000001
 43
0.0000001
 44
0.0000000001
 40
0.0
 40
0.0
 40
0.0
 40
0.0
 40
0.5180752096
 40
0.7617173681
 40
1.0
 40
1.0
 40
1.0
 40
1.0
 10
63.5601973292
 20
25.276761831
 30
0.0
 10
63.3946763842
 20
25.109609985
 30
0.0
 10
63.1859817601
 20
24.8210562507
 30
0.0
 10
63.0417256263
 20
24.3878044465
 30
0.0
 10
63.017653462
 20
24.1682174402
 30
0.0
 10
63.017653462
 20
24.060022468
 30
0.0
  0
SPLINE
  5
487
100
AcDbEntity
  8
RUNDUNGEN
100
AcDbSpline
 62
7
  6
CONTINUOUS
 70
0
 71
3
 72
11
 73
7
 74
0
 42
0.0000001
 43
0.0000001
 44
0.0000000001
 40
0.0
 40
0.0
 40
0.0
 40
0.0
 40
0.2793752682
 40
0.5367194959
 40
0.7743217448
 40
1.0
 40
1.0
 40
1.0
 40
1.0
 10
64.4521288684
 20
50.7981569507
 30
0.0
 10
64.3954145872
 20
50.7700764908
 30
0.0
 10
64.2912310449
 20
50.7052991725
 30
0.0
 10
64.1665624258
 20
50.5792598029
 30
0.0
 10
64.0869675925
 20
50.4339837078
 30
0.0
 10
64.0683829646
 20
50.3283026048
 30
0.0
 10
64.0683540831
 20
50.2771810402
 30
0.0
  0
SPLINE
  5
488
100
AcDbEntity
  8
RUNDUNGEN
100
AcDbSpline
 62
7
  6
CONTINUOUS
 70
0
 71
3
 72
11
 73
7
 74
0
 42
0.0000001
 43
0.0000001
 44
0.0000000001
 40
0.0
 40
0.0
 40
0.0
 40
0.0
 40
0.2794013718
 40
0.5367226037
 40
0.7743080703
 40
1.0
 40
1.0
 40
1.0
 40
1.0
 10
58.9452850634
 20
58.948146868
 30
0.0
 10
58.756097707
 20
58.8544761406
 30
0.0
 10
58.4086022346
 20
58.6383826779
 30
0.0
 10
57.9928897816
 20
58.2178671859
 30
0.0
 10
57.7276504457
 20
57.733161872
 30
0.0
 10
57.6659829289
 20
57.3806052306
 30
0.0
 10
57.6660158281
 20
57.2100796202
 30
0.0
  0
SPLINE
  5
489
100
AcDbEntity
  8
RUNDUNGEN
100
AcDbSpline
 62
7
  6
CONTINUOUS
 70
0
 71
3
 72
13
 73
9
 74
0
 42
0.0000001
 43
0.0000001
 44
0.0000000001
 40
0.0
 40
0.0
 40
0.0
 40
0.0
 40
0.2294024404
 40
0.354599695
 40
0.4843111925
 40
0.6162488643
 40
0.7479039558
 40
1.0
 40
1.0
 40
1.0
 40
1.0
 10
70.9062649528
 20
57.9645412344
 30
0.0
 10
70.2676421252
 20
58.6094565022
 30
0.0
 10
69.0544572462
 20
59.3922693653
 30
0.0
 10
67.2457429876
 20
60.0323628925
 30
0.0
 10
65.7378259883
 20
60.32806626
 30
0.0
 10
64.1786210674
 20
60.41128444
 30
0.0
 10
62.1422181332
 20
60.2397725485
 30
0.0
 10
60.6582713017
 20
59.7962831813
 30
0.0
 10
59.7644371077
 20
59.3537266557
 30
0.0
  0
SPLINE
  5
48A
100
AcDbEntity
  8
0
100
AcDbSpline
 62
7
  6
CONTINUOUS
 70
0
 71
3
 72
9
 73
5
 74
0
 42
0.0000001
 43
0.0000001
 44
0.0000000001
 40
0.0
 40
0.0
 40
0.0
 40
0.0
 40
0.2432212797
 40
1.0
 40
1.0
 40
1.0
 40
1.0
 10
88.5798413892
 20
57.9397462603
 30
0.0
 10
88.375455694
 20
58.040942012
 30
0.0
 10
87.5205887152
 20
58.4273080366
 30
0.0
 10
86.6145613952
 20
58.6976096708
 30
0.0
 10
85.9193421376
 20
58.8398608076
 30
0.0
  0
SPLINE
  5
48B
100
AcDbEntity
  8
0
100
AcDbSpline
 62
7
  6
CONTINUOUS
 70
0
 71
3
 72
9
 73
5
 74
0
 42
0.0000001
 43
0.0000001
 44
0.0000000001
 40
0.0
 40
0.0
 40
0.0
 40
0.0
 40
0.2565045474
 40
1.0
 40
1.0
 40
1.0
 40
1.0
 10
80.9159647864
 20
58.8398608076
 30
0.0
 10
80.6803377946
 20
58.7916483809
 30
0.0
 10
79.7677353106
 20
58.5761945058
 30
0.0
 10
78.8802127546
 20
58.2490720399
 30
0.0
 10
78.2554655349
 20
57.9397462603
 30
0.0
  0
SPLINE
  5
48C
100
AcDbEntity
  8
RUNDUNGEN
100
AcDbSpline
 62
7
  6
CONTINUOUS
 70
0
 71
3
 72
11
 73
7
 74
0
 42
0.0000001
 43
0.0000001
 44
0.0000000001
 40
0.0
 40
0.0
 40
0.0
 40
0.0
 40
0.2524504596
 40
0.5157648056
 40
0.770297345
 40
1.0
 40
1.0
 40
1.0
 40
1.0
 10
105.0229897056
 20
60.3676761249
 30
0.0
 10
104.9112535609
 20
60.4229990923
 30
0.0
 10
104.6627999236
 20
60.4972992659
 30
0.0
 10
104.2780029734
 20
60.5026824728
 30
0.0
 10
103.9163972465
 20
60.4077528172
 30
0.0
 10
103.7100862389
 20
60.2746394882
 30
0.0
 10
103.630261225
 20
60.1940279472
 30
0.0
  0
SPLINE
  5
48D
100
AcDbEntity
  8
BEZUGSACHSEN
100
AcDbSpline
 62
7
  6
CONTINUOUS
 70
0
 71
3
 72
14
 73
10
 74
0
 42
0.0000001
 43
0.0000001
 44
0.0000000001
 40
0.0
 40
0.0
 40
0.0
 40
0.0
 40
0.1085558033
 40
0.2194059371
 40
0.3344342617
 40
0.4550845381
 40
0.5821195999
 40
0.7157009648
 40
1.0
 40
1.0
 40
1.0
 40
1.0
 10
79.417653462
 20
54.5651722033
 30
0.0
 10
79.417653462
 20
54.426540436
 30
0.0
 10
79.4471896235
 20
54.1455182766
 30
0.0
 10
79.5781332989
 20
53.7361654376
 30
0.0
 10
79.7923339924
 20
53.3460121166
 30
0.0
 10
80.0841355656
 20
52.9835433522
 30
0.0
 10
80.4469653598
 20
52.6559866221
 30
0.0
 10
81.0259927348
 20
52.2669265349
 30
0.0
 10
81.5250355708
 20
52.0591341061
 30
0.0
 10
81.8731747026
 20
51.956101229
 30
0.0
  0
SPLINE
  5
48E
100
AcDbEntity
  8
BEZUGSACHSEN
100
AcDbSpline
 62
7
  6
CONTINUOUS
 70
0
 71
3
 72
14
 73
10
 74
0
 42
0.0000001
 43
0.0000001
 44
0.0000000001
 40
0.0
 40
0.0
 40
0.0
 40
0.0
 40
0.2842990352
 40
0.4178804001
 40
0.5449154619
 40
0.6655657383
 40
0.7805940629
 40
0.8914441967
 40
1.0
 40
1.0
 40
1.0
 40
1.0
 10
84.9621322214
 20
51.956101229
 30
0.0
 10
85.3102713533
 20
52.0591341061
 30
0.0
 10
85.8093141892
 20
52.2669265349
 30
0.0
 10
86.3883415643
 20
52.6559866221
 30
0.0
 10
86.7511713585
 20
52.9835433522
 30
0.0
 10
87.0429729317
 20
53.3460121166
 30
0.0
 10
87.2571736252
 20
53.7361654376
 30
0.0
 10
87.3881173005
 20
54.1455182766
 30
0.0
 10
87.417653462
 20
54.426540436
 30
0.0
 10
87.417653462
 20
54.5651722033
 30
0.0
  0
SPLINE
  5
48F
100
AcDbEntity
  8
0
100
AcDbSpline
 62
7
  6
CONTINUOUS
 70
0
 71
3
 72
11
 73
7
 74
0
 42
0.0000001
 43
0.0000001
 44
0.0000000001
 40
0.0
 40
0.0
 40
0.0
 40
0.0
 40
0.227142142
 40
0.4653047767
 40
0.7220182825
 40
1.0
 40
1.0
 40
1.0
 40
1.0
 10
91.4848122753
 20
49.7265111317
 30
0.0
 10
91.4848122753
 20
49.8437627564
 30
0.0
 10
91.4444647863
 20
50.0855507168
 30
0.0
 10
91.2701978618
 20
50.4208076479
 30
0.0
 10
90.9954670996
 20
50.7156747648
 30
0.0
 10
90.7642793384
 20
50.8708068236
 30
0.0
 10
90.6380963887
 20
50.939134979
 30
0.0
  0
SPLINE
  5
490
100
AcDbEntity
  8
0
100
AcDbSpline
 62
7
  6
CONTINUOUS
 70
0
 71
3
 72
19
 73
15
 74
0
 42
0.0000001
 43
0.0000001
 44
0.0000000001
 40
0.0
 40
0.0
 40
0.0
 40
0.0
 40
0.0517234907
 40
0.1053372095
 40
0.1622487312
 40
0.2232163938
 40
0.3564752704
 40
0.5
 40
0.6435247296
 40
0.7767836062
 40
0.8377512688
 40
0.8946627905
 40
0.9482765093
 40
1.0
 40
1.0
 40
1.0
 40
1.0
 10
83.7527736018
 20
49.2788427104
 30
0.0
 10
83.7527736018
 20
49.1995411547
 30
0.0
 10
83.7758039716
 20
49.0372201155
 30
0.0
 10
83.87649258
 20
48.8068805205
 30
0.0
 10
84.0380834737
 20
48.5965344828
 30
0.0
 10
84.3333192787
 20
48.3457514186
 30
0.0
 10
84.814726482
 20
48.1282390754
 30
0.0
 10
85.4610142099
 20
48.0412190372
 30
0.0
 10
86.1073019379
 20
48.1282390754
 30
0.0
 10
86.5887091412
 20
48.3457514186
 30
0.0
 10
86.8839449461
 20
48.5965344828
 30
0.0
 10
87.0455358399
 20
48.8068805205
 30
0.0
 10
87.1462244483
 20
49.0372201155
 30
0.0
 10
87.1692548181
 20
49.1995411547
 30
0.0
 10
87.1692548181
 20
49.2788427104
 30
0.0
  0
SPLINE
  5
491
100
AcDbEntity
  8
0
100
AcDbSpline
 62
7
  6
CONTINUOUS
 70
0
 71
3
 72
11
 73
7
 74
0
 42
0.0000001
 43
0.0000001
 44
0.0000000001
 40
0.0
 40
0.0
 40
0.0
 40
0.0
 40
0.2092798753
 40
0.444592951
 40
0.7123432609
 40
1.0
 40
1.0
 40
1.0
 40
1.0
 10
76.1052928209
 20
48.8143433839
 30
0.0
 10
76.1052928209
 20
48.8076039644
 30
0.0
 10
76.1097113381
 20
48.7931360992
 30
0.0
 10
76.126433083
 20
48.7764804942
 30
0.0
 10
76.1500445081
 20
48.7658933109
 30
0.0
 10
76.1680294388
 20
48.7634316957
 30
0.0
 10
76.1772928209
 20
48.7634316957
 30
0.0
  0
SPLINE
  5
492
100
AcDbEntity
  8
0
100
AcDbSpline
 62
7
  6
CONTINUOUS
 70
0
 71
3
 72
9
 73
5
 74
0
 42
0.0000001
 43
0.0000001
 44
0.0000000001
 40
0.0
 40
0.0
 40
0.0
 40
0.0
 40
0.2536121958
 40
1.0
 40
1.0
 40
1.0
 40
1.0
 10
90.5160350587
 20
48.2755280167
 30
0.0
 10
90.528354659
 20
48.2755280167
 30
0.0
 10
90.576908359
 20
48.2772880402
 30
0.0
 10
90.6252621963
 20
48.2860597261
 30
0.0
 10
90.6599100044
 20
48.2967412201
 30
0.0
  0
SPLINE
  5
493
100
AcDbEntity
  8
0
100
AcDbSpline
 62
7
  6
CONTINUOUS
 70
0
 71
3
 72
11
 73
7
 74
0
 42
0.0000001
 43
0.0000001
 44
0.0000000001
 40
0.0
 40
0.0
 40
0.0
 40
0.0
 40
0.2816347582
 40
0.5420479832
 40
0.7798483853
 40
1.0
 40
1.0
 40
1.0
 40
1.0
 10
90.6599100044
 20
48.2967412201
 30
0.0
 10
90.8542350958
 20
48.3566492607
 30
0.0
 10
91.2186069423
 20
48.5084786879
 30
0.0
 10
91.6811599984
 20
48.8392003409
 30
0.0
 10
92.0125153281
 20
49.2476730112
 30
0.0
 10
92.1295182859
 20
49.5655003065
 30
0.0
 10
92.1555633397
 20
49.7223090901
 30
0.0
  0
SPLINE
  5
494
100
AcDbEntity
  8
0
100
AcDbSpline
 62
7
  6
CONTINUOUS
 70
0
 71
3
 72
9
 73
5
 74
0
 42
0.0000001
 43
0.0000001
 44
0.0000000001
 40
0.0
 40
0.0
 40
0.0
 40
0.0
 40
0.2591205677
 40
1.0
 40
1.0
 40
1.0
 40
1.0
 10
90.5286569454
 20
51.1774942467
 30
0.0
 10
90.5384307929
 20
51.1774942467
 30
0.0
 10
90.5760829455
 20
51.1753370847
 30
0.0
 10
90.6135224653
 20
51.1645738099
 30
0.0
 10
90.6380963887
 20
51.1512670133
 30
0.0
  0
SPLINE
  5
495
100
AcDbEntity
  8
0
100
AcDbSpline
 62
7
  6
CONTINUOUS
 70
0
 71
3
 72
11
 73
7
 74
0
 42
0.0000001
 43
0.0000001
 44
0.0000000001
 40
0.0
 40
0.0
 40
0.0
 40
0.0
 40
0.2779697373
 40
0.5346991835
 40
0.7728568778
 40
1.0
 40
1.0
 40
1.0
 40
1.0
 10
90.6380963887
 20
51.1512670133
 30
0.0
 10
90.7642743524
 20
51.0829415579
 30
0.0
 10
90.995459346
 20
50.927802928
 30
0.0
 10
91.2702083595
 20
50.6329497903
 30
0.0
 10
91.4444686404
 20
50.297680577
 30
0.0
 10
91.4848230698
 20
50.0558957169
 30
0.0
 10
91.4848230698
 20
49.938643166
 30
0.0
  0
SPLINE
  5
496
100
AcDbEntity
  8
0
100
AcDbSpline
 62
7
  6
CONTINUOUS
 70
0
 71
3
 72
11
 73
7
 74
0
 42
0.0000001
 43
0.0000001
 44
0.0000000001
 40
0.0
 40
0.0
 40
0.0
 40
0.0
 40
0.2782911642
 40
0.539206302
 40
0.7792454761
 40
1.0
 40
1.0
 40
1.0
 40
1.0
 10
82.0620627132
 20
49.935780834
 30
0.0
 10
82.1532933188
 20
49.95697596
 30
0.0
 10
82.326934423
 20
50.0139493791
 30
0.0
 10
82.5564912674
 20
50.1448856397
 30
0.0
 10
82.7356437696
 20
50.3125778848
 30
0.0
 10
82.8163314191
 20
50.4483992139
 30
0.0
 10
82.8429424406
 20
50.5177660653
 30
0.0
  0
SPLINE
  5
497
100
AcDbEntity
  8
0
100
AcDbSpline
 62
7
  6
CONTINUOUS
 70
0
 71
3
 72
9
 73
5
 74
0
 42
0.0000001
 43
0.0000001
 44
0.0000000001
 40
0.0
 40
0.0
 40
0.0
 40
0.0
 40
0.2525773098
 40
1.0
 40
1.0
 40
1.0
 40
1.0
 10
82.8429424406
 20
50.5177660653
 30
0.0
 10
82.8464225135
 20
50.5268375583
 30
0.0
 10
82.8594104434
 20
50.5630502857
 30
0.0
 10
82.8691592877
 20
50.6004341984
 30
0.0
 10
82.8744270527
 20
50.6286992824
 30
0.0
  0
SPLINE
  5
498
100
AcDbEntity
  8
0
100
AcDbSpline
 62
7
  6
CONTINUOUS
 70
0
 71
3
 72
12
 73
8
 74
0
 42
0.0000001
 43
0.0000001
 44
0.0000000001
 40
0.0
 40
0.0
 40
0.0
 40
0.0
 40
0.2874678609
 40
0.554294436
 40
0.7890536075
 40
0.8964041367
 40
1.0
 40
1.0
 40
1.0
 40
1.0
 10
81.6887736018
 20
51.1987074501
 30
0.0
 10
81.7725013829
 20
51.1987074501
 30
0.0
 10
81.9349624289
 20
51.1766994604
 30
0.0
 10
82.1476855438
 20
51.0810163943
 30
0.0
 10
82.277402727
 20
50.9512867213
 30
0.0
 10
82.329885403
 20
50.8310818217
 30
0.0
 10
82.3386736258
 20
50.7693320282
 30
0.0
 10
82.3386736258
 20
50.739158736
 30
0.0
  0
SPLINE
  5
499
100
AcDbEntity
  8
0
100
AcDbSpline
 62
7
  6
CONTINUOUS
 70
0
 71
3
 72
11
 73
7
 74
0
 42
0.0000001
 43
0.0000001
 44
0.0000000001
 40
0.0
 40
0.0
 40
0.0
 40
0.0
 40
0.2876567391
 40
0.555407049
 40
0.7907201247
 40
1.0
 40
1.0
 40
1.0
 40
1.0
 10
76.7532928209
 20
48.97556373
 30
0.0
 10
76.7625562029
 20
48.97556373
 30
0.0
 10
76.7805411336
 20
48.9780253452
 30
0.0
 10
76.8041525587
 20
48.9886125286
 30
0.0
 10
76.8208743037
 20
49.0052681335
 30
0.0
 10
76.8252928209
 20
49.0197359988
 30
0.0
 10
76.8252928209
 20
49.0264754183
 30
0.0
  0
SPLINE
  5
49A
100
AcDbEntity
  8
0
100
AcDbSpline
 62
7
  6
CONTINUOUS
 70
0
 71
3
 72
11
 73
7
 74
0
 42
0.0000001
 43
0.0000001
 44
0.0000000001
 40
0.0
 40
0.0
 40
0.0
 40
0.0
 40
0.2092798753
 40
0.444592951
 40
0.7123432609
 40
1.0
 40
1.0
 40
1.0
 40
1.0
 10
76.3302928209
 20
50.3247234685
 30
0.0
 10
76.3302928209
 20
50.331462888
 30
0.0
 10
76.3347113381
 20
50.3459307533
 30
0.0
 10
76.351433083
 20
50.3625863582
 30
0.0
 10
76.3750445081
 20
50.3731735416
 30
0.0
 10
76.3930294388
 20
50.3756351568
 30
0.0
 10
76.4022928209
 20
50.3756351568
 30
0.0
  0
SPLINE
  5
49B
100
AcDbEntity
  8
0
100
AcDbSpline
 62
7
  6
CONTINUOUS
 70
0
 71
3
 72
11
 73
7
 74
0
 42
0.0000001
 43
0.0000001
 44
0.0000000001
 40
0.0
 40
0.0
 40
0.0
 40
0.0
 40
0.2876567391
 40
0.555407049
 40
0.7907201247
 40
1.0
 40
1.0
 40
1.0
 40
1.0
 10
76.5282928209
 20
50.3756351568
 30
0.0
 10
76.5375562029
 20
50.3756351568
 30
0.0
 10
76.5555411336
 20
50.3731735416
 30
0.0
 10
76.5791525587
 20
50.3625863582
 30
0.0
 10
76.5958743037
 20
50.3459307533
 30
0.0
 10
76.6002928209
 20
50.331462888
 30
0.0
 10
76.6002928209
 20
50.3247234685
 30
0.0
  0
SPLINE
  5
49C
100
AcDbEntity
  8
0
100
AcDbSpline
 62
7
  6
CONTINUOUS
 70
0
 71
3
 72
11
 73
7
 74
0
 42
0.0000001
 43
0.0000001
 44
0.0000000001
 40
0.0
 40
0.0
 40
0.0
 40
0.0
 40
0.2876567391
 40
0.555407049
 40
0.7907201247
 40
1.0
 40
1.0
 40
1.0
 40
1.0
 10
76.7532928209
 20
50.2483559362
 30
0.0
 10
76.7625562029
 20
50.2483559362
 30
0.0
 10
76.7805411336
 20
50.2508175514
 30
0.0
 10
76.8041525587
 20
50.2614047347
 30
0.0
 10
76.8208743037
 20
50.2780603397
 30
0.0
 10
76.8252928209
 20
50.2925282049
 30
0.0
 10
76.8252928209
 20
50.2992676244
 30
0.0
  0
SPLINE
  5
49D
100
AcDbEntity
  8
0
100
AcDbSpline
 62
7
  6
CONTINUOUS
 70
0
 71
3
 72
11
 73
7
 74
0
 42
0.0000001
 43
0.0000001
 44
0.0000000001
 40
0.0
 40
0.0
 40
0.0
 40
0.0
 40
0.2876567391
 40
0.555407049
 40
0.7907201247
 40
1.0
 40
1.0
 40
1.0
 40
1.0
 10
76.9152928209
 20
51.0756708702
 30
0.0
 10
76.938451276
 20
51.0756708702
 30
0.0
 10
76.9834136027
 20
51.0695168321
 30
0.0
 10
77.0424421654
 20
51.0430488738
 30
0.0
 10
77.0842465278
 20
51.0014098614
 30
0.0
 10
77.0952928209
 20
50.9652401983
 30
0.0
 10
77.0952928209
 20
50.9483916495
 30
0.0
  0
SPLINE
  5
49E
100
AcDbEntity
  8
RUNDUNGEN
100
AcDbSpline
 62
7
  6
CONTINUOUS
 70
0
 71
3
 72
11
 73
7
 74
0
 42
0.0000001
 43
0.0000001
 44
0.0000000001
 40
0.0
 40
0.0
 40
0.0
 40
0.0
 40
0.2660806488
 40
0.5190943636
 40
0.7622194616
 40
1.0
 40
1.0
 40
1.0
 40
1.0
 10
94.3569038949
 20
34.2828398613
 30
0.0
 10
94.1013316204
 20
34.5409303252
 30
0.0
 10
93.6413176035
 20
35.085199285
 30
0.0
 10
93.12054983
 20
35.9930661174
 30
0.0
 10
92.8012780495
 20
36.9499047775
 30
0.0
 10
92.729272282
 20
37.6084710887
 30
0.0
 10
92.7292722935
 20
37.933058221
 30
0.0
  0
SPLINE
  5
49F
100
AcDbEntity
  8
0
100
AcDbSpline
 62
7
  6
CONTINUOUS
 70
0
 71
3
 72
8
 73
4
 74
0
 42
0.0000001
 43
0.0000001
 44
0.0000000001
 40
0.0
 40
0.0
 40
0.0
 40
0.0
 40
1.0
 40
1.0
 40
1.0
 40
1.0
 10
76.9633645439
 20
49.7981904281
 30
0.0
 10
76.9776627948
 20
49.7953839321
 30
0.0
 10
76.9917933476
 20
49.791311062
 30
0.0
 10
77.0052928209
 20
49.7858264818
 30
0.0
  0
SPLINE
  5
4A0
100
AcDbEntity
  8
0
100
AcDbSpline
 62
7
  6
CONTINUOUS
 70
0
 71
3
 72
9
 73
5
 74
0
 42
0.0000001
 43
0.0000001
 44
0.0000000001
 40
0.0
 40
0.0
 40
0.0
 40
0.0
 40
0.5424756321
 40
1.0
 40
1.0
 40
1.0
 40
1.0
 10
77.0052928209
 20
49.7858264818
 30
0.0
 10
77.0302119673
 20
49.7757023048
 30
0.0
 10
77.0741559888
 20
49.7481418317
 30
0.0
 10
77.0952928209
 20
49.6982846168
 30
0.0
 10
77.0952928209
 20
49.6755994434
 30
0.0
  0
SPLINE
  5
4A1
100
AcDbEntity
  8
RUNDUNGEN
100
AcDbSpline
 62
7
  6
CONTINUOUS
 70
0
 71
3
 72
12
 73
8
 74
0
 42
0.0000001
 43
0.0000001
 44
0.0000000001
 40
0.0
 40
0.0
 40
0.0
 40
0.0
 40
0.2295488423
 40
0.3548243544
 40
0.4846199331
 40
0.7477426437
 40
1.0
 40
1.0
 40
1.0
 40
1.0
 10
98.9016671633
 20
55.4188423857
 30
0.0
 10
98.6621833218
 20
55.1769988764
 30
0.0
 10
98.2072645489
 20
54.8834560942
 30
0.0
 10
97.5289375952
 20
54.6433746773
 30
0.0
 10
96.7721965376
 20
54.4951619133
 30
0.0
 10
95.803776037
 20
54.5091530252
 30
0.0
 10
95.0586705057
 20
54.7319386796
 30
0.0
 10
94.7234817214
 20
54.8978978527
 30
0.0
  0
SPLINE
  5
4A2
100
AcDbEntity
  8
RUNDUNGEN
100
AcDbSpline
 62
7
  6
CONTINUOUS
 70
0
 71
3
 72
12
 73
8
 74
0
 42
0.0000001
 43
0.0000001
 44
0.0000000001
 40
0.0
 40
0.0
 40
0.0
 40
0.0
 40
0.252259356
 40
0.5153839756
 40
0.6451803977
 40
0.7704553584
 40
1.0
 40
1.0
 40
1.0
 40
1.0
 10
75.798009402
 20
56.7230068973
 30
0.0
 10
75.4628179561
 20
56.5570464063
 30
0.0
 10
74.7177063204
 20
56.3342598044
 30
0.0
 10
73.7492784716
 20
56.3202718137
 30
0.0
 10
72.9925348005
 20
56.4684886224
 30
0.0
 10
72.3142147723
 20
56.7085723879
 30
0.0
 10
71.8593034224
 20
57.0021123433
 30
0.0
 10
71.6198239601
 20
57.2439514303
 30
0.0
  0
SPLINE
  5
4A3
100
AcDbEntity
  8
0
100
AcDbSpline
 62
7
  6
CONTINUOUS
 70
0
 71
3
 72
9
 73
5
 74
0
 42
0.0000001
 43
0.0000001
 44
0.0000000001
 40
0.0
 40
0.0
 40
0.0
 40
0.0
 40
0.4575243679
 40
1.0
 40
1.0
 40
1.0
 40
1.0
 10
75.8352928209
 20
49.6755994434
 30
0.0
 10
75.8352928209
 20
49.6982846168
 30
0.0
 10
75.856429653
 20
49.7481418317
 30
0.0
 10
75.9003736744
 20
49.7757023048
 30
0.0
 10
75.9252928209
 20
49.7858264818
 30
0.0
  0
SPLINE
  5
4A4
100
AcDbEntity
  8
0
100
AcDbSpline
 62
7
  6
CONTINUOUS
 70
0
 71
3
 72
9
 73
5
 74
0
 42
0.0000001
 43
0.0000001
 44
0.0000000001
 40
0.0
 40
0.0
 40
0.0
 40
0.0
 40
0.2441493338
 40
1.0
 40
1.0
 40
1.0
 40
1.0
 10
75.9252928209
 20
49.7858264818
 30
0.0
 10
75.9322231551
 20
49.7886421453
 30
0.0
 10
75.9612278022
 20
49.798605017
 30
0.0
 10
75.9921343658
 20
49.802878664
 30
0.0
 10
76.0152928209
 20
49.802878664
 30
0.0
  0
SPLINE
  5
4A5
100
AcDbEntity
  8
0
100
AcDbSpline
 62
7
  6
CONTINUOUS
 70
0
 71
3
 72
11
 73
7
 74
0
 42
0.0000001
 43
0.0000001
 44
0.0000000001
 40
0.0
 40
0.0
 40
0.0
 40
0.0
 40
0.2092798753
 40
0.444592951
 40
0.7123432609
 40
1.0
 40
1.0
 40
1.0
 40
1.0
 10
75.8352928209
 20
50.9483916495
 30
0.0
 10
75.8352928209
 20
50.9652401983
 30
0.0
 10
75.8463391139
 20
51.0014098614
 30
0.0
 10
75.8881434763
 20
51.0430488738
 30
0.0
 10
75.947172039
 20
51.0695168321
 30
0.0
 10
75.9921343658
 20
51.0756708702
 30
0.0
 10
76.0152928209
 20
51.0756708702
 30
0.0
  0
SPLINE
  5
4A6
100
AcDbEntity
  8
0
100
AcDbSpline
 62
7
  6
CONTINUOUS
 70
0
 71
3
 72
9
 73
5
 74
0
 42
0.0000001
 43
0.0000001
 44
0.0000000001
 40
0.0
 40
0.0
 40
0.0
 40
0.0
 40
0.538986273
 40
1.0
 40
1.0
 40
1.0
 40
1.0
 10
77.9052928209
 20
48.2755280167
 30
0.0
 10
77.9734872127
 20
48.2755280167
 30
0.0
 10
78.1014255645
 20
48.2994678592
 30
0.0
 10
78.2084405604
 20
48.382321985
 30
0.0
 10
78.2378894526
 20
48.4326711599
 30
0.0
  0
SPLINE
  5
4A7
100
AcDbEntity
  8
0
100
AcDbSpline
 62
7
  6
CONTINUOUS
 70
0
 71
3
 72
9
 73
5
 74
0
 42
0.0000001
 43
0.0000001
 44
0.0000000001
 40
0.0
 40
0.0
 40
0.0
 40
0.0
 40
0.2592261758
 40
1.0
 40
1.0
 40
1.0
 40
1.0
 10
78.2378894526
 20
48.4326711599
 30
0.0
 10
78.2423329947
 20
48.4402683447
 30
0.0
 10
78.2577069961
 20
48.4705556294
 30
0.0
 10
78.2652928209
 20
48.5049356509
 30
0.0
 10
78.2652928209
 20
48.5300864579
 30
0.0
  0
SPLINE
  5
4A8
100
AcDbEntity
  8
KONSTRUKTIONSELEMENTE
100
AcDbSpline
 62
7
  6
CONTINUOUS
 70
0
 71
3
 72
9
 73
5
 74
0
 42
0.0000001
 43
0.0000001
 44
0.0000000001
 40
0.0
 40
0.0
 40
0.0
 40
0.0
 40
0.4973385609
 40
1.0
 40
1.0
 40
1.0
 40
1.0
 10
106.917653462
 20
145.4319997517
 30
0.0
 10
106.917653462
 20
144.5153967324
 30
0.0
 10
106.7245188624
 20
142.6674132467
 30
0.0
 10
106.1592454819
 20
140.8989211982
 30
0.0
 10
105.7944748711
 20
140.0473439772
 30
0.0
  0
SPLINE
  5
4A9
100
AcDbEntity
  8
KONSTRUKTIONSELEMENTE
100
AcDbSpline
 62
7
  6
CONTINUOUS
 70
0
 71
3
 72
9
 73
5
 74
0
 42
0.0000001
 43
0.0000001
 44
0.0000000001
 40
0.0
 40
0.0
 40
0.0
 40
0.0
 40
0.5026606895
 40
1.0
 40
1.0
 40
1.0
 40
1.0
 10
61.0416108692
 20
140.0455144551
 30
0.0
 10
60.6765867275
 20
140.8973422811
 30
0.0
 10
60.1109352214
 20
142.6664212693
 30
0.0
 10
59.917653462
 20
144.5150672822
 30
0.0
 10
59.917653462
 20
145.4319997517
 30
0.0
  0
SPLINE
  5
4AA
100
AcDbEntity
  8
KONSTRUKTIONSELEMENTE
100
AcDbSpline
 62
7
  6
CONTINUOUS
 70
0
 71
3
 72
14
 73
10
 74
0
 42
0.0000001
 43
0.0000001
 44
0.0000000001
 40
0.0
 40
0.0
 40
0.0
 40
0.0
 40
0.1136224095
 40
0.2286339739
 40
0.3463591029
 40
0.4679405873
 40
0.5941509574
 40
0.725263091
 40
1.0
 40
1.0
 40
1.0
 40
1.0
 10
59.917653462
 20
145.4319997517
 30
0.0
 10
59.917653462
 20
146.4092379906
 30
0.0
 10
60.1380714862
 20
148.3823406328
 30
0.0
 10
61.1083079349
 20
151.2213397823
 30
0.0
 10
62.6682087034
 20
153.8622224671
 30
0.0
 10
64.7516788281
 20
156.2379521064
 30
0.0
 10
67.2903788867
 20
158.3040400391
 30
0.0
 10
71.243837199
 20
160.6330955197
 30
0.0
 10
74.6005092186
 20
161.7628553095
 30
0.0
 10
76.9121322778
 20
162.2526553763
 30
0.0
  0
SPLINE
  5
4AB
100
AcDbEntity
  8
KONSTRUKTIONSELEMENTE
100
AcDbSpline
 62
7
  6
CONTINUOUS
 70
0
 71
3
 72
14
 73
10
 74
0
 42
0.0000001
 43
0.0000001
 44
0.0000000001
 40
0.0
 40
0.0
 40
0.0
 40
0.0
 40
0.2747387362
 40
0.4058506222
 40
0.532059952
 40
0.6536403689
 40
0.7713644135
 40
0.8863759398
 40
1.0
 40
1.0
 40
1.0
 40
1.0
 10
89.9221617621
 20
162.2528781163
 30
0.0
 10
92.2339111828
 20
161.7631413892
 30
0.0
 10
95.5907665833
 20
160.6334248281
 30
0.0
 10
99.5444475964
 20
158.3043772442
 30
0.0
 10
102.0832896789
 20
156.2382872681
 30
0.0
 10
104.1668789797
 20
153.8625298093
 30
0.0
 10
105.7268916896
 20
151.2215917171
 30
0.0
 10
106.6972122095
 20
148.3824876251
 30
0.0
 10
106.917653462
 20
146.4092913833
 30
0.0
 10
106.917653462
 20
145.4319997517
 30
0.0
  0
SPLINE
  5
4AC
100
AcDbEntity
  8
KONSTRUKTIONSELEMENTE
100
AcDbSpline
 62
7
  6
CONTINUOUS
 70
0
 71
3
 72
9
 73
5
 74
0
 42
0.0000001
 43
0.0000001
 44
0.0000000001
 40
0.0
 40
0.0
 40
0.0
 40
0.0
 40
0.4867438068
 40
1.0
 40
1.0
 40
1.0
 40
1.0
 10
93.6515518555
 20
136.1520252793
 30
0.0
 10
92.4760090075
 20
135.586268994
 30
0.0
 10
89.9410175244
 20
134.6644006299
 30
0.0
 10
87.2892277224
 20
134.1904695755
 30
0.0
 10
85.9200204624
 20
134.0573825083
 30
0.0
  0
SPLINE
  5
4AD
100
AcDbEntity
  8
KONSTRUKTIONSELEMENTE
100
AcDbSpline
 62
7
  6
CONTINUOUS
 70
0
 71
3
 72
9
 73
5
 74
0
 42
0.0000001
 43
0.0000001
 44
0.0000000001
 40
0.0
 40
0.0
 40
0.0
 40
0.0
 40
0.513265252
 40
1.0
 40
1.0
 40
1.0
 40
1.0
 10
80.9156266351
 20
134.0573427339
 30
0.0
 10
79.5456604336
 20
134.190488986
 30
0.0
 10
76.8924510792
 20
134.6647672984
 30
0.0
 10
74.3562063114
 20
135.5874751109
 30
0.0
 10
73.1801652823
 20
136.1537514731
 30
0.0
  0
SPLINE
  5
4AE
100
AcDbEntity
  8
KONSTRUKTIONSELEMENTE
100
AcDbSpline
 62
7
  6
CONTINUOUS
 70
0
 71
3
 72
17
 73
13
 74
0
 42
0.0000001
 43
0.0000001
 44
0.0000000001
 40
0.0
 40
0.0
 40
0.0
 40
0.0
 40
0.0624824542
 40
0.124970712
 40
0.1874721605
 40
0.2499799163
 40
0.3748831941
 40
0.4998689354
 40
0.6248874345
 40
0.7499192178
 40
0.8749572444
 40
1.0
 40
1.0
 40
1.0
 40
1.0
 10
74.7865079992
 20
110.9695718581
 30
0.0
 10
74.7865079992
 20
111.1101769294
 30
0.0
 10
74.8160047535
 20
111.3921988784
 30
0.0
 10
74.9417799103
 20
111.7972383487
 30
0.0
 10
75.1334317037
 20
112.1750162885
 30
0.0
 10
75.4552731098
 20
112.6378492239
 30
0.0
 10
75.9497274604
 20
113.1439626463
 30
0.0
 10
76.6249823013
 20
113.653049666
 30
0.0
 10
77.3531372163
 20
114.0826271513
 30
0.0
 10
78.1170750774
 20
114.4438519392
 30
0.0
 10
78.9067074011
 20
114.7442815576
 30
0.0
 10
79.4458356094
 20
114.9073461895
 30
0.0
 10
79.717653462
 20
114.9800975135
 30
0.0
  0
SPLINE
  5
4AF
100
AcDbEntity
  8
KONSTRUKTIONSELEMENTE
100
AcDbSpline
 62
7
  6
CONTINUOUS
 70
0
 71
3
 72
10
 73
6
 74
0
 42
0.0000001
 43
0.0000001
 44
0.0000000001
 40
0.0
 40
0.0
 40
0.0
 40
0.0
 40
0.4997318856
 40
0.7498850186
 40
1.0
 40
1.0
 40
1.0
 40
1.0
 10
74.2357778796
 20
107.4195718581
 30
0.0
 10
74.3993847586
 20
107.7615916677
 30
0.0
 10
74.6081701323
 20
108.2957645549
 30
0.0
 10
74.7600633165
 20
109.0407558054
 30
0.0
 10
74.7865079992
 20
109.4208144857
 30
0.0
 10
74.7865079992
 20
109.6105718581
 30
0.0
  0
SPLINE
  5
4B0
100
AcDbEntity
  8
KONSTRUKTIONSELEMENTE
100
AcDbSpline
 62
7
  6
CONTINUOUS
 70
0
 71
3
 72
10
 73
6
 74
0
 42
0.0000001
 43
0.0000001
 44
0.0000000001
 40
0.0
 40
0.0
 40
0.0
 40
0.0
 40
0.2501149814
 40
0.5002681144
 40
1.0
 40
1.0
 40
1.0
 40
1.0
 10
92.0487989248
 20
109.6105718581
 30
0.0
 10
92.0487989248
 20
109.4208144857
 30
0.0
 10
92.0752436076
 20
109.0407558054
 30
0.0
 10
92.2271367917
 20
108.2957645549
 30
0.0
 10
92.4359221655
 20
107.7615916677
 30
0.0
 10
92.5995290444
 20
107.4195718581
 30
0.0
  0
SPLINE
  5
4B1
100
AcDbEntity
  8
KONSTRUKTIONSELEMENTE
100
AcDbSpline
 62
7
  6
CONTINUOUS
 70
0
 71
3
 72
17
 73
13
 74
0
 42
0.0000001
 43
0.0000001
 44
0.0000000001
 40
0.0
 40
0.0
 40
0.0
 40
0.0
 40
0.1250242168
 40
0.2500431567
 40
0.375054379
 40
0.5000503235
 40
0.6250176108
 40
0.7499166089
 40
0.8124342488
 40
0.874951449
 40
0.9374761906
 40
1.0
 40
1.0
 40
1.0
 40
1.0
 10
87.117653462
 20
114.9800975135
 30
0.0
 10
87.3894309851
 20
114.9073569836
 30
0.0
 10
87.9284784118
 20
114.7443181783
 30
0.0
 10
88.7179910778
 20
114.4439448534
 30
0.0
 10
89.4818195643
 20
114.0828170324
 30
0.0
 10
90.209870779
 20
113.6533383001
 30
0.0
 10
90.8850934176
 20
113.1443827345
 30
0.0
 10
91.3796025305
 20
112.6383654455
 30
0.0
 10
91.7015507422
 20
112.1755498492
 30
0.0
 10
91.8933561189
 20
111.7976920389
 30
0.0
 10
92.019251371
 20
111.3924665954
 30
0.0
 10
92.0487989248
 20
111.110269976
 30
0.0
 10
92.0487989248
 20
110.9695718581
 30
0.0
  0
SPLINE
  5
4B2
100
AcDbEntity
  8
RUNDUNGEN
100
AcDbSpline
 62
7
  6
CONTINUOUS
 70
0
 71
3
 72
9
 73
5
 74
0
 42
0.0000001
 43
0.0000001
 44
0.0000000001
 40
0.0
 40
0.0
 40
0.0
 40
0.0
 40
0.2519459173
 40
1.0
 40
1.0
 40
1.0
 40
1.0
 10
67.6241124064
 20
126.5470804388
 30
0.0
 10
67.6687450631
 20
126.59191596
 30
0.0
 10
67.8505408426
 20
126.765173558
 30
0.0
 10
68.051092157
 20
126.9188732299
 30
0.0
 10
68.2093729987
 20
127.0200156558
 30
0.0
  0
SPLINE
  5
4B3
100
AcDbEntity
  8
RUNDUNGEN
100
AcDbSpline
 62
7
  6
CONTINUOUS
 70
0
 71
3
 72
9
 73
5
 74
0
 42
0.0000001
 43
0.0000001
 44
0.0000000001
 40
0.0
 40
0.0
 40
0.0
 40
0.0
 40
0.2485467635
 40
1.0
 40
1.0
 40
1.0
 40
1.0
 10
98.6259339254
 20
127.0200156558
 30
0.0
 10
98.6785250597
 20
126.9864095993
 30
0.0
 10
98.8862753552
 20
126.8452502173
 30
0.0
 10
99.0780704911
 20
126.6808095411
 30
0.0
 10
99.2111945177
 20
126.5470804388
 30
0.0
  0
SPLINE
  5
4B4
100
AcDbEntity
  8
RUNDUNGEN
100
AcDbSpline
 62
7
  6
CONTINUOUS
 70
0
 71
3
 72
17
 73
13
 74
0
 42
0.0000001
 43
0.0000001
 44
0.0000000001
 40
0.0
 40
0.0
 40
0.0
 40
0.0
 40
0.0242802621
 40
0.0512676552
 40
0.0828903927
 40
0.1202775594
 40
0.1639986701
 40
0.2142369127
 40
0.3338828698
 40
0.4770935617
 40
0.6397631148
 40
1.0
 40
1.0
 40
1.0
 40
1.0
 10
66.167653462
 20
118.5458512997
 30
0.0
 10
66.167653462
 20
118.5720738701
 30
0.0
 10
66.1783361775
 20
118.6277892253
 30
0.0
 10
66.2233416317
 20
118.7064968794
 30
0.0
 10
66.2952932489
 20
118.7821177808
 30
0.0
 10
66.3933394429
 20
118.8549878375
 30
0.0
 10
66.5170242639
 20
118.9249945164
 30
0.0
 10
66.7277688354
 20
119.0194487312
 30
0.0
 10
67.0508423834
 20
119.1223901492
 30
0.0
 10
67.5002965703
 20
119.220259037
 30
0.0
 10
68.2129850826
 20
119.3215956687
 30
0.0
 10
68.7785992978
 20
119.349698877
 30
0.0
 10
69.167653462
 20
119.349698877
 30
0.0
  0
SPLINE
  5
4B5
100
AcDbEntity
  8
KONSTRUKTIONSELEMENTE
100
AcDbSpline
 62
7
  6
CONTINUOUS
 70
0
 71
3
 72
24
 73
20
 74
0
 42
0.0000001
 43
0.0000001
 44
0.0000000001
 40
0.0
 40
0.0
 40
0.0
 40
0.0
 40
0.1895472297
 40
0.3730731398
 40
0.46043327
 40
0.5436274366
 40
0.6217482281
 40
0.6939232281
 40
0.7593447659
 40
0.8172957912
 40
0.8671917714
 40
0.9086299276
 40
0.9414792261
 40
0.9547861621
 40
0.9661654962
 40
0.9758622321
 40
0.9842866076
 40
0.9920714713
 40
1.0
 40
1.0
 40
1.0
 40
1.0
 10
74.2357778796
 20
107.4195718581
 30
0.0
 10
73.9939865956
 20
106.9141077268
 30
0.0
 10
73.5606731498
 20
105.898492405
 30
0.0
 10
73.1163192823
 20
104.6109591791
 30
0.0
 10
72.8221412754
 20
103.6063110801
 30
0.0
 10
72.6370931268
 20
102.8947566678
 30
0.0
 10
72.4837194557
 20
102.2216839487
 30
0.0
 10
72.3618275824
 20
101.5956460982
 30
0.0
 10
72.271203129
 20
101.0245955216
 30
0.0
 10
72.2116293756
 20
100.5157209531
 30
0.0
 10
72.1827439718
 20
100.0750586822
 30
0.0
 10
72.1843881188
 20
99.7077102573
 30
0.0
 10
72.2119437554
 20
99.4492150984
 30
0.0
 10
72.2537308355
 20
99.284026358
 30
0.0
 10
72.2908707522
 20
99.1890365346
 30
0.0
 10
72.3363529249
 20
99.1139477587
 30
0.0
 10
72.3912059158
 20
99.0590827066
 30
0.0
 10
72.4558623482
 20
99.0260159549
 30
0.0
 10
72.5027698787
 20
99.0195718581
 30
0.0
 10
72.5262073233
 20
99.0195718581
 30
0.0
  0
SPLINE
  5
4B6
100
AcDbEntity
  8
RUNDUNGEN
100
AcDbSpline
 62
7
  6
CONTINUOUS
 70
0
 71
3
 72
11
 73
7
 74
0
 42
0.0000001
 43
0.0000001
 44
0.0000000001
 40
0.0
 40
0.0
 40
0.0
 40
0.0
 40
0.2573683187
 40
0.5111859331
 40
0.7587974319
 40
1.0
 40
1.0
 40
1.0
 40
1.0
 10
72.1763220298
 20
127.8479989828
 30
0.0
 10
72.5591867021
 20
127.8479989828
 30
0.0
 10
73.3197077274
 20
127.8648008375
 30
0.0
 10
74.4467645075
 20
127.9286438502
 30
0.0
 10
75.5493717784
 20
127.9967201465
 30
0.0
 10
76.2765137222
 20
128.0195718581
 30
0.0
 10
76.6353300002
 20
128.0195718581
 30
0.0
  0
SPLINE
  5
4B7
100
AcDbEntity
  8
KONSTRUKTIONSELEMENTE
100
AcDbSpline
 62
7
  6
CONTINUOUS
 70
0
 71
3
 72
24
 73
20
 74
0
 42
0.0000001
 43
0.0000001
 44
0.0000000001
 40
0.0
 40
0.0
 40
0.0
 40
0.0
 40
0.0079285287
 40
0.0157133924
 40
0.0241377679
 40
0.0338345038
 40
0.0452138379
 40
0.0585207739
 40
0.0913700724
 40
0.1328082286
 40
0.1827042088
 40
0.2406552341
 40
0.3060767719
 40
0.3782517719
 40
0.4563725634
 40
0.53956673
 40
0.6269268602
 40
0.8104527703
 40
1.0
 40
1.0
 40
1.0
 40
1.0
 10
94.3090996008
 20
99.0195718581
 30
0.0
 10
94.3325370454
 20
99.0195718581
 30
0.0
 10
94.3794445758
 20
99.0260159549
 30
0.0
 10
94.4441010083
 20
99.0590827066
 30
0.0
 10
94.4989539991
 20
99.1139477587
 30
0.0
 10
94.5444361718
 20
99.1890365346
 30
0.0
 10
94.5815760886
 20
99.284026358
 30
0.0
 10
94.6233631686
 20
99.4492150984
 30
0.0
 10
94.6509188052
 20
99.7077102573
 30
0.0
 10
94.6525629523
 20
100.0750586822
 30
0.0
 10
94.6236775484
 20
100.5157209531
 30
0.0
 10
94.5641037951
 20
101.0245955216
 30
0.0
 10
94.4734793416
 20
101.5956460982
 30
0.0
 10
94.3515874683
 20
102.2216839487
 30
0.0
 10
94.1982137973
 20
102.8947566678
 30
0.0
 10
94.0131656486
 20
103.6063110801
 30
0.0
 10
93.7189876417
 20
104.6109591791
 30
0.0
 10
93.2746337743
 20
105.898492405
 30
0.0
 10
92.8413203285
 20
106.9141077268
 30
0.0
 10
92.5995290444
 20
107.4195718581
 30
0.0
  0
SPLINE
  5
4B8
100
AcDbEntity
  8
RUNDUNGEN
100
AcDbSpline
 62
7
  6
CONTINUOUS
 70
0
 71
3
 72
17
 73
13
 74
0
 42
0.0000001
 43
0.0000001
 44
0.0000000001
 40
0.0
 40
0.0
 40
0.0
 40
0.0
 40
0.0242802621
 40
0.0512676552
 40
0.0828903927
 40
0.1202775594
 40
0.1639986701
 40
0.2142369127
 40
0.3338828698
 40
0.4770935617
 40
0.6397631148
 40
1.0
 40
1.0
 40
1.0
 40
1.0
 10
100.667653462
 20
114.2157242808
 30
0.0
 10
100.667653462
 20
114.2419468512
 30
0.0
 10
100.6569707466
 20
114.2976622064
 30
0.0
 10
100.6119652924
 20
114.3763698604
 30
0.0
 10
100.5400136752
 20
114.4519907619
 30
0.0
 10
100.4419674812
 20
114.5248608186
 30
0.0
 10
100.3182826601
 20
114.5948674975
 30
0.0
 10
100.1075380886
 20
114.6893217123
 30
0.0
 10
99.7844645407
 20
114.7922631303
 30
0.0
 10
99.3350103537
 20
114.890132018
 30
0.0
 10
98.6223218415
 20
114.9914686498
 30
0.0
 10
98.0567076262
 20
115.0195718581
 30
0.0
 10
97.667653462
 20
115.0195718581
 30
0.0
  0
SPLINE
  5
4B9
100
AcDbEntity
  8
RUNDUNGEN
100
AcDbSpline
 62
7
  6
CONTINUOUS
 70
0
 71
3
 72
17
 73
13
 74
0
 42
0.0000001
 43
0.0000001
 44
0.0000000001
 40
0.0
 40
0.0
 40
0.0
 40
0.0
 40
0.0242802621
 40
0.0512676552
 40
0.0828903927
 40
0.1202775594
 40
0.1639986701
 40
0.2142369127
 40
0.3338828698
 40
0.4770935617
 40
0.6397631148
 40
1.0
 40
1.0
 40
1.0
 40
1.0
 10
100.667653462
 20
118.5458512997
 30
0.0
 10
100.667653462
 20
118.5720738701
 30
0.0
 10
100.6569707466
 20
118.6277892253
 30
0.0
 10
100.6119652924
 20
118.7064968794
 30
0.0
 10
100.5400136752
 20
118.7821177808
 30
0.0
 10
100.4419674812
 20
118.8549878375
 30
0.0
 10
100.3182826601
 20
118.9249945164
 30
0.0
 10
100.1075380886
 20
119.0194487312
 30
0.0
 10
99.7844645407
 20
119.1223901492
 30
0.0
 10
99.3350103537
 20
119.220259037
 30
0.0
 10
98.6223218415
 20
119.3215956687
 30
0.0
 10
98.0567076262
 20
119.349698877
 30
0.0
 10
97.667653462
 20
119.349698877
 30
0.0
  0
SPLINE
  5
4BA
100
AcDbEntity
  8
RUNDUNGEN
100
AcDbSpline
 62
7
  6
CONTINUOUS
 70
0
 71
3
 72
17
 73
13
 74
0
 42
0.0000001
 43
0.0000001
 44
0.0000000001
 40
0.0
 40
0.0
 40
0.0
 40
0.0
 40
0.0242802621
 40
0.0512676552
 40
0.0828903927
 40
0.1202775594
 40
0.1639986701
 40
0.2142369127
 40
0.3338828698
 40
0.4770935617
 40
0.6397631148
 40
1.0
 40
1.0
 40
1.0
 40
1.0
 10
66.167653462
 20
114.2157242808
 30
0.0
 10
66.167653462
 20
114.2419468512
 30
0.0
 10
66.1783361775
 20
114.2976622064
 30
0.0
 10
66.2233416317
 20
114.3763698604
 30
0.0
 10
66.2952932489
 20
114.4519907619
 30
0.0
 10
66.3933394429
 20
114.5248608186
 30
0.0
 10
66.5170242639
 20
114.5948674975
 30
0.0
 10
66.7277688354
 20
114.6893217123
 30
0.0
 10
67.0508423834
 20
114.7922631303
 30
0.0
 10
67.5002965703
 20
114.890132018
 30
0.0
 10
68.2129850826
 20
114.9914686498
 30
0.0
 10
68.7785992978
 20
115.0195718581
 30
0.0
 10
69.167653462
 20
115.0195718581
 30
0.0
  0
SPLINE
  5
4BB
100
AcDbEntity
  8
RUNDUNGEN
100
AcDbSpline
 62
7
  6
CONTINUOUS
 70
0
 71
3
 72
10
 73
6
 74
0
 42
0.0000001
 43
0.0000001
 44
0.0000000001
 40
0.0
 40
0.0
 40
0.0
 40
0.0
 40
0.2601847318
 40
0.5162467885
 40
1.0
 40
1.0
 40
1.0
 40
1.0
 10
96.3484989978
 20
127.7997557306
 30
0.0
 10
96.5564021143
 20
127.7701439181
 30
0.0
 10
96.9667906143
 20
127.6935276467
 30
0.0
 10
97.7439903067
 20
127.4756346376
 30
0.0
 10
98.2969216523
 20
127.2302565107
 30
0.0
 10
98.6259339254
 20
127.0200156558
 30
0.0
  0
SPLINE
  5
4BC
100
AcDbEntity
  8
RUNDUNGEN
100
AcDbSpline
 62
7
  6
CONTINUOUS
 70
0
 71
3
 72
10
 73
6
 74
0
 42
0.0000001
 43
0.0000001
 44
0.0000000001
 40
0.0
 40
0.0
 40
0.0
 40
0.0
 40
0.2601847325
 40
0.5162467884
 40
1.0
 40
1.0
 40
1.0
 40
1.0
 10
70.4868074936
 20
127.799755669
 30
0.0
 10
70.2789044158
 20
127.7701438491
 30
0.0
 10
69.868515994
 20
127.6935275702
 30
0.0
 10
69.0913164501
 20
127.4756345686
 30
0.0
 10
68.5383852127
 20
127.230256473
 30
0.0
 10
68.2093729987
 20
127.0200156558
 30
0.0
  0
SPLINE
  5
4BD
100
AcDbEntity
  8
RUNDUNGEN
100
AcDbSpline
 62
7
  6
CONTINUOUS
 70
0
 71
3
 72
11
 73
7
 74
0
 42
0.0000001
 43
0.0000001
 44
0.0000000001
 40
0.0
 40
0.0
 40
0.0
 40
0.0
 40
0.2573681869
 40
0.5111855059
 40
0.758797108
 40
1.0
 40
1.0
 40
1.0
 40
1.0
 10
94.6589848942
 20
127.8479989828
 30
0.0
 10
94.2761180089
 20
127.8479989828
 30
0.0
 10
93.5155928277
 20
127.8648009313
 30
0.0
 10
92.3885294761
 20
127.9286449384
 30
0.0
 10
91.2859150197
 20
127.9967210342
 30
0.0
 10
90.5587678452
 20
128.0195718581
 30
0.0
 10
90.1999488276
 20
128.0195718581
 30
0.0
  0
ELLIPSE
  5
4BE
100
AcDbEntity
  8
0
100
AcDbEllipse
 62
7
  6
CONTINUOUS
 10
324.2089229064
 20
123.0195718581
 30
0.0
 11
-1.0868367001
 21
4.9695299996
 31
0.0
 40
0.5071182934
 41
-1.6812517444
 42
-0.8981209173
  0
ELLIPSE
  5
4BF
100
AcDbEntity
  8
RUNDUNGEN
100
AcDbEllipse
 62
7
  6
CONTINUOUS
 10
334.7968407204
 20
123.0195718581
 30
0.0
 11
1.0868367001
 21
4.9695299996
 31
0.0
 40
0.5071182934
 41
0.8981209173
 42
1.6812517444
  0
ENDSEC
  0
SECTION
  2
OBJECTS
  0
DICTIONARY
  5
C
100
AcDbDictionary
280
0
281
1
  3
ACAD_GROUP
350
D
  3
ACAD_MLINESTYLE
350
17
  3
ACAD_LAYOUT
350
1A
  3
ACAD_PLOTSETTINGS
350
19
  3
ACAD_PLOTSTYLENAME
350
E
  0
DICTIONARY
  5
D
102
{ACAD_REACTORS
330
C
102
}
100
AcDbDictionary
280
0
281
1
  0
ACDBDICTIONARYWDFLT
  5
E
102
{ACAD_REACTORS
330
C
102
}
100
AcDbDictionary
281
1
  3
Normal
350
F
100
AcDbDictionaryWithDefault
340
F
  0
DICTIONARY
  5
17
102
{ACAD_REACTORS
330
C
102
}
100
AcDbDictionary
280
0
281
1
  3
Standard
350
18
  0
DICTIONARY
  5
19
102
{ACAD_REACTORS
330
C
102
}
100
AcDbDictionary
281
1
  0
DICTIONARY
  5
1A
102
{ACAD_REACTORS
330
C
102
}
100
AcDbDictionary
281
1
  3
Model
350
4C0
  3
Layout1
350
4C1
  0
ACDBPLACEHOLDER
  5
F
102
{ACAD_REACTORS
330
E
102
}
  0
MLINESTYLE
  5
18
102
{ACAD_REACTORS
330
17
102
}
100
AcDbMlineStyle
  2
STANDARD
 70
0
  3

 62
256
 51
90.0
 52
90.0
 71
2
 49
0.5
 62
256
  6
BYLAYER
 49
-0.5
 62
256
  6
BYLAYER
  0
LAYOUT
  5
4C0
102
{ACAD_REACTORS
330
1A
102
}
100
AcDbPlotSettings
  1

  2
none_device
  4
ISO_A3_(420.00_x_297.00_MM)
  6

 40
0.0
 41
0.0
 42
0.0
 43
0.0
 44
420.0
 45
297.0
 46
0.0
 47
0.0
 48
0.0
 49
0.0
140
0.0
141
0.0
142
1.0
143
1.0
 70
1024
 72
1
 73
0
 74
0
  7

 75
0
147
1.0
148
0.0
149
0.0
100
AcDbLayout
  1
Model
 70
0
 71
0
 10
0.0
 20
0.0
 11
420.0
 21
297.0
 12
0.0
 22
0.0
 32
0.0
 14
0.0
 24
0.0
 34
0.0
 15
0.0
 25
0.0
 35
0.0
146
0.0
 13
0.0
 23
0.0
 33
0.0
 16
1.0
 26
0.0
 36
0.0
 17
0.0
 27
1.0
 37
0.0
 76
0
330
20A
345
0
346
0
  0
LAYOUT
  5
4C1
102
{ACAD_REACTORS
330
1A
102
}
100
AcDbPlotSettings
  1

  2
none_device
  4
ISO_A3_(420.00_x_297.00_MM)
  6

 40
0.0
 41
0.0
 42
0.0
 43
0.0
 44
420.0
 45
297.0
 46
0.0
 47
0.0
 48
0.0
 49
0.0
140
0.0
141
0.0
142
1.0
143
1.0
 70
0
 72
1
 73
0
 74
0
  7

 75
0
147
1.0
148
0.0
149
0.0
100
AcDbLayout
  1
Layout1
 70
0
 71
1
 10
0.0
 20
0.0
 11
420.0
 21
297.0
 12
0.0
 22
0.0
 32
0.0
 14
0.0
 24
0.0
 34
0.0
 15
0.0
 25
0.0
 35
0.0
146
0.0
 13
0.0
 23
0.0
 33
0.0
 16
1.0
 26
0.0
 36
0.0
 17
0.0
 27
1.0
 37
0.0
 76
0
330
20B
345
0
346
0
  0
ENDSEC
  0
EOF
