999
DXF file: IAK-RG-1-16_7903013_M34539-P-5.dxf
999
Pro/ENGINEER 2010140 by Parametric Technology Corporation
  0
SECTION
  2
HEADER
  9
$ACADVER
  1
AC1015
  9
$DWGCODEPAGE
  3
ANSI_1252
  9
$EXTMAX
 10
841.0
 20
594.0
 30
0.0
  9
$EXTMIN
 10
0.0
 20
0.0
 30
0.0
  9
$LIMMIN
 10
0.0
 20
0.0
  9
$LIMMAX
 10
841.0
 20
594.0
  9
$VIEWCTR
 10
420.5
 20
297.0
  9
$VIEWSIZE
 40
594.0
  9
$CLAYER
  8
0
  9
$LTSCALE
 40
46.255
  9
$CELTYPE
  6
BYLAYER
  9
$DIMSCALE
 40
1.0
  9
$DIMASZ
 40
3.5
  9
$DIMEXO
 40
5.25625
  9
$DIMDLI
 40
31.958
  9
$DIMEXE
 40
15.138
  9
$DIMCEN
 40
7.569
  9
$DIMLFAC
 40
1.0
  9
$DIMBLK
  1
_FILLED
  9
$DIMTXT
 40
3.5
  9
$DIMTOL
 70
1
  9
$DIMLIM
 70
0
  9
$DIMTFAC
 40
1.0
  9
$DIMTP
 40
0.005
  9
$DIMTM
 40
0.005
  9
$PDMODE
 70
3
  9
$PDSIZE
 40
0.3125
  9
$HANDSEED
  5
461
  9
$TILEMODE
 70
1
  9
$MEASUREMENT
 70
1
  9
$INSUNITS
 70
4
  0
ENDSEC
  0
SECTION
  2
CLASSES
  0
CLASS
  1
ACDBDICTIONARYWDFLT
  2
AcDbDictionaryWithDefault
  3
AutoCAD 2000
 90
0
280
0
281
0
  0
CLASS
  1
ACDBPLACEHOLDER
  2
AcDbPlaceHolder
  3
AutoCAD 2000
 90
0
280
0
281
0
  0
CLASS
  1
LAYOUT
  2
AcDbLayout
  3
AutoCAD 2000
 90
0
280
0
281
0
  0
ENDSEC
  0
SECTION
  2
TABLES
  0
TABLE
  2
VPORT
  5
8
100
AcDbSymbolTable
 70
2
  0
VPORT
  5
1F4
100
AcDbSymbolTableRecord
100
AcDbViewportTableRecord
  2
*ACTIVE
 70
0
 10
0.0
 20
0.0
 11
1.0
 21
1.0
 12
420.5
 22
297.0
 13
0.0
 23
0.0
 14
1.0
 24
1.0
 15
0.0
 25
0.0
 16
0.0
 26
0.0
 36
1.0
 17
0.0
 27
0.0
 37
0.0
 40
594.0
 41
1.4158249158
 42
50.0
 43
0.0
 44
0.0
 50
0.0
 51
0.0
 71
0
 72
100
 73
1
 74
1
 75
0
 76
0
 77
0
 78
0
  0
ENDTAB
  0
TABLE
  2
LTYPE
  5
5
100
AcDbSymbolTable
 70
6
  0
LTYPE
  5
14
100
AcDbSymbolTableRecord
100
AcDbLinetypeTableRecord
  2
BYBLOCK
 70
0
  3

 72
65
 73
0
 40
0.0
  0
LTYPE
  5
15
100
AcDbSymbolTableRecord
100
AcDbLinetypeTableRecord
  2
BYLAYER
 70
0
  3

 72
65
 73
0
 40
0.0
  0
LTYPE
  5
16
100
AcDbSymbolTableRecord
100
AcDbLinetypeTableRecord
  2
CONTINUOUS
 70
64
  3
Solid line
 72
65
 73
0
 40
0.0
  0
LTYPE
  5
1F5
100
AcDbSymbolTableRecord
100
AcDbLinetypeTableRecord
  2
CENTER
 70
64
  3
____ _ ____ _ ____ _ ____ _ ____ _ ____ _ ____
 72
65
 73
4
 40
0.6
 49
0.375
 74
0
 49
-0.075
 74
0
 49
0.075
 74
0
 49
-0.075
 74
0
  0
LTYPE
  5
1F6
100
AcDbSymbolTableRecord
100
AcDbLinetypeTableRecord
  2
HIDDEN
 70
64
  3
- - - - - - - - - - - - - - - - - - - -
 72
65
 73
2
 40
0.2
 49
0.1
 74
0
 49
-0.1
 74
0
  0
LTYPE
  5
1F7
100
AcDbSymbolTableRecord
100
AcDbLinetypeTableRecord
  2
PHANTOM
 70
64
  3
_____ _ _ _____ _ _ _____ _ _ _____
 72
65
 73
6
 40
0.8
 49
0.45
 74
0
 49
-0.05
 74
0
 49
0.1
 74
0
 49
-0.05
 74
0
 49
0.1
 74
0
 49
-0.05
 74
0
  0
LTYPE
  5
1F8
100
AcDbSymbolTableRecord
100
AcDbLinetypeTableRecord
  2
DOT
 70
64
  3
. . . . . . . . . . . . . . . . . . . .
 72
65
 73
2
 40
0.2
 49
0.1
 74
0
 49
-0.1
 74
0
  0
LTYPE
  5
1F9
100
AcDbSymbolTableRecord
100
AcDbLinetypeTableRecord
  2
DASHED
 70
64
  3
- - - - - - - - - - - - - - - - - - - -
 72
65
 73
2
 40
0.2
 49
0.1
 74
0
 49
-0.1
 74
0
  0
ENDTAB
  0
TABLE
  2
LAYER
  5
2
100
AcDbSymbolTable
 70
36
  0
LAYER
  5
10
100
AcDbSymbolTableRecord
100
AcDbLayerTableRecord
  2
0
 70
0
 62
7
  6
CONTINUOUS
370
-3
390
F
  0
LAYER
  5
1FA
100
AcDbSymbolTableRecord
100
AcDbLayerTableRecord
  2
DEFAULT_1
 70
0
 62
7
  6
CENTER
370
-3
390
F
  0
LAYER
  5
1FB
100
AcDbSymbolTableRecord
100
AcDbLayerTableRecord
  2
DEFAULT_2
 70
0
 62
8
  6
HIDDEN
370
-3
390
F
  0
LAYER
  5
1FC
100
AcDbSymbolTableRecord
100
AcDbLayerTableRecord
  2
DEFAULT_3
 70
0
 62
7
  6
PHANTOM
370
-3
390
F
  0
LAYER
  5
1FD
100
AcDbSymbolTableRecord
100
AcDbLayerTableRecord
  2
BEZUGSACHSEN
 70
0
 62
7
  6
CONTINUOUS
370
-3
390
F
  0
LAYER
  5
1FE
100
AcDbSymbolTableRecord
100
AcDbLayerTableRecord
  2
BEZUGSEBENEN
 70
0
 62
7
  6
CONTINUOUS
370
-3
390
F
  0
LAYER
  5
1FF
100
AcDbSymbolTableRecord
100
AcDbLayerTableRecord
  2
BG_STARTBEZUEGE
 70
0
 62
7
  6
CONTINUOUS
370
-3
390
F
  0
LAYER
  5
200
100
AcDbSymbolTableRecord
100
AcDbLayerTableRecord
  2
FASEN
 70
0
 62
7
  6
CONTINUOUS
370
-3
390
F
  0
LAYER
  5
201
100
AcDbSymbolTableRecord
100
AcDbLayerTableRecord
  2
HILFEN
 70
0
 62
7
  6
CONTINUOUS
370
-3
390
F
  0
LAYER
  5
202
100
AcDbSymbolTableRecord
100
AcDbLayerTableRecord
  2
KONSTRUKTIONSELEMENTE
 70
0
 62
7
  6
CONTINUOUS
370
-3
390
F
  0
LAYER
  5
203
100
AcDbSymbolTableRecord
100
AcDbLayerTableRecord
  2
NORM
 70
0
 62
7
  6
CONTINUOUS
370
-3
390
F
  0
LAYER
  5
204
100
AcDbSymbolTableRecord
100
AcDbLayerTableRecord
  2
PLATZIERUNG
 70
0
 62
7
  6
CONTINUOUS
370
-3
390
F
  0
LAYER
  5
205
100
AcDbSymbolTableRecord
100
AcDbLayerTableRecord
  2
RUNDUNGEN
 70
0
 62
7
  6
CONTINUOUS
370
-3
390
F
  0
LAYER
  5
206
100
AcDbSymbolTableRecord
100
AcDbLayerTableRecord
  2
TEIL_STARTBEZUEGE
 70
0
 62
7
  6
CONTINUOUS
370
-3
390
F
  0
LAYER
  5
207
100
AcDbSymbolTableRecord
100
AcDbLayerTableRecord
  2
T_STARTBEZUEGE
 70
0
 62
7
  6
CONTINUOUS
370
-3
390
F
  0
ENDTAB
  0
TABLE
  2
STYLE
  5
3
100
AcDbSymbolTable
 70
1
  0
STYLE
  5
11
100
AcDbSymbolTableRecord
100
AcDbTextStyleTableRecord
  2
STANDARD
 70
0
 40
0.0
 41
0.7
 50
0.0
 71
0
 42
0.2
  3
txt
  4

  0
STYLE
  5
208
100
AcDbSymbolTableRecord
100
AcDbTextStyleTableRecord
  2
TEXTSTYLE_1
 70
0
 40
0.0
 41
0.8
 50
0.0
 71
0
 42
0.2
  3
gdt
  4

  0
ENDTAB
  0
TABLE
  2
VIEW
  5
6
100
AcDbSymbolTable
 70
0
  0
ENDTAB
  0
TABLE
  2
UCS
  5
7
100
AcDbSymbolTable
 70
0
  0
ENDTAB
  0
TABLE
  2
APPID
  5
9
100
AcDbSymbolTable
 70
1
  0
APPID
  5
209
100
AcDbSymbolTableRecord
100
AcDbRegAppTableRecord
  2
ACAD
 70
0
  0
ENDTAB
  0
TABLE
  2
BLOCK_RECORD
  5
1
100
AcDbSymbolTable
 70
0
  0
BLOCK_RECORD
  5
20A
100
AcDbSymbolTableRecord
100
AcDbBlockTableRecord
  2
*Model_Space
  0
BLOCK_RECORD
  5
20B
100
AcDbSymbolTableRecord
100
AcDbBlockTableRecord
  2
*Paper_Space
  0
ENDTAB
  0
TABLE
  2
DIMSTYLE
  5
A
100
AcDbSymbolTable
 70
1
100
AcDbDimStyleTable
 71
0
  0
DIMSTYLE
105
20C
100
AcDbSymbolTableRecord
100
AcDbDimStyleTableRecord
  2
STANDARD
 70
0
  3

  4

 40
1.0
 41
3.5
 42
0.0625
 43
0.38
 44
0.18
 45
0.0
 46
0.0
 47
0.005
 48
0.005
140
3.5
141
0.09
142
0.0
143
25.4
144
1.0
145
0.0
146
1.0
147
0.09
 71
1.0
 72
0.0
 73
0
 74
0
 75
0
 76
0
 77
1
 78
8
170
0
171
2
172
0
173
0
174
0
175
0
176
0
177
0
178
5
270
2
271
3
272
3
273
2
274
2
275
0
280
0
281
0
282
0
283
1
284
8
285
0
286
0
287
3
288
0
340
11
  0
ENDTAB
  0
ENDSEC
  0
SECTION
  2
BLOCKS
  0
BLOCK
  5
20
100
AcDbEntity
  8
0
100
AcDbBlockBegin
  2
*Model_Space
 70
0
 10
0.0
 20
0.0
 30
0.0
  3
*Model_Space
  1

  0
ENDBLK
  5
21
100
AcDbEntity
  8
0
100
AcDbBlockEnd
  0
BLOCK
  5
1C
100
AcDbEntity
  8
0
100
AcDbBlockBegin
  2
*Paper_Space
 70
0
 10
0.0
 20
0.0
 30
0.0
  3
*Paper_Space
  1

  0
ENDBLK
  5
1D
100
AcDbEntity
  8
0
100
AcDbBlockEnd
  0
ENDSEC
  0
SECTION
  2
ENTITIES
  0
MTEXT
  5
20D
100
AcDbEntity
  8
0
100
AcDbMText
 62
5
  6
CONTINUOUS
  7
STANDARD
 71
1
 72
1
 10
555.7159662684
 20
344.4529863708
 30
0.0
 11
0.0
 21
1.0
 31
0.0
 44
0.9
  1
RUD
 40
11.0
 41
29.3333333333
  0
MTEXT
  5
20E
100
AcDbEntity
  8
0
100
AcDbMText
 62
5
  6
CONTINUOUS
  7
STANDARD
 71
1
 72
1
 10
728.1463530725
 20
320.1968060662
 30
0.0
 11
0.0
 21
1.0
 31
0.0
 44
0.9
  1
IAK-RG 1-16
 40
11.0
 41
90.0952380952
  0
MTEXT
  5
20F
100
AcDbEntity
  8
0
100
AcDbMText
 62
5
  6
CONTINUOUS
  7
STANDARD
 71
1
 72
1
 10
188.3020373556
 20
302.3704992122
 30
0.0
 11
0.0
 21
1.0
 31
0.0
 44
0.9
  1
RUD IAK-RG 1-16
 40
11.0
 41
125.9761904762
  0
LINE
  5
210
100
AcDbEntity
  8
0
100
AcDbLine
 62
7
  6
CONTINUOUS
 10
0.0
 20
0.0
 11
0.0
 21
594.0
  0
LINE
  5
211
100
AcDbEntity
  8
0
100
AcDbLine
 62
7
  6
CONTINUOUS
 10
0.0
 20
0.0
 11
841.0
 21
0.0
  0
LINE
  5
212
100
AcDbEntity
  8
0
100
AcDbLine
 62
7
  6
CONTINUOUS
 10
0.0
 20
594.0
 11
841.0
 21
594.0
  0
LINE
  5
213
100
AcDbEntity
  8
0
100
AcDbLine
 62
7
  6
CONTINUOUS
 10
841.0
 20
0.0
 11
841.0
 21
594.0
  0
LINE
  5
214
100
AcDbEntity
  8
RUNDUNGEN
100
AcDbLine
 62
7
  6
CONTINUOUS
 10
387.1961453438
 20
39.3241487278
 11
383.6606114379
 21
42.8596826338
  0
LINE
  5
215
100
AcDbEntity
  8
0
100
AcDbLine
 62
7
  6
CONTINUOUS
 10
646.3156408205
 20
113.5758527621
 11
648.5072408205
 21
113.5758527621
  0
LINE
  5
216
100
AcDbEntity
  8
RUNDUNGEN
100
AcDbLine
 62
7
  6
CONTINUOUS
 10
479.2966833415
 20
138.4957545374
 11
482.8322172475
 21
134.9602206315
  0
LINE
  5
217
100
AcDbEntity
  8
0
100
AcDbLine
 62
7
  6
CONTINUOUS
 10
635.6416249953
 20
125.5772281104
 11
659.1812566457
 21
125.5772281104
  0
LINE
  5
218
100
AcDbEntity
  8
KONSTRUKTIONSELEMENTE
100
AcDbLine
 62
7
  6
CONTINUOUS
 10
491.2822635345
 20
153.3804725332
 11
487.7467296286
 21
156.9160064391
  0
LINE
  5
219
100
AcDbEntity
  8
KONSTRUKTIONSELEMENTE
100
AcDbLine
 62
7
  6
CONTINUOUS
 10
491.6358169251
 20
153.7340259238
 11
488.1002830192
 21
157.2695598297
  0
LINE
  5
21A
100
AcDbEntity
  8
RUNDUNGEN
100
AcDbLine
 62
7
  6
CONTINUOUS
 10
499.1435860367
 20
151.2715894207
 11
495.6080521308
 21
154.8071233266
  0
LINE
  5
21B
100
AcDbEntity
  8
0
100
AcDbLine
 62
7
  6
CONTINUOUS
 10
643.4106908205
 20
154.790524786
 11
651.4121908205
 21
154.790524786
  0
LINE
  5
21C
100
AcDbEntity
  8
0
100
AcDbLine
 62
7
  6
CONTINUOUS
 10
651.4121908205
 20
166.3958487601
 11
643.4106908205
 21
166.3958487601
  0
LINE
  5
21D
100
AcDbEntity
  8
0
100
AcDbLine
 62
7
  6
CONTINUOUS
 10
641.9750878604
 20
182.3813402844
 11
652.8477937805
 21
182.3813402844
  0
LINE
  5
21E
100
AcDbEntity
  8
0
100
AcDbLine
 62
7
  6
CONTINUOUS
 10
643.1460269992
 20
210.0749781104
 11
651.6768546418
 21
210.0749781104
  0
LINE
  5
21F
100
AcDbEntity
  8
0
100
AcDbLine
 62
7
  6
CONTINUOUS
 10
643.1460269992
 20
237.7686159364
 11
651.6768546418
 21
237.7686159364
  0
LINE
  5
220
100
AcDbEntity
  8
KONSTRUKTIONSELEMENTE
100
AcDbLine
 62
7
  6
CONTINUOUS
 10
552.4470001071
 20
214.5452091059
 11
548.9114662012
 21
218.0807430118
  0
LINE
  5
221
100
AcDbEntity
  8
KONSTRUKTIONSELEMENTE
100
AcDbLine
 62
7
  6
CONTINUOUS
 10
552.8005534977
 20
214.8987624964
 11
549.2650195918
 21
218.4342964024
  0
LINE
  5
222
100
AcDbEntity
  8
0
100
AcDbLine
 62
7
  6
CONTINUOUS
 10
545.4114408205
 20
303.0749781104
 11
545.4114408205
 21
423.0749781104
  0
LINE
  5
223
100
AcDbEntity
  8
0
100
AcDbLine
 62
7
  6
CONTINUOUS
 10
643.1460269992
 20
258.0417658714
 11
651.6768546418
 21
258.0417658714
  0
LINE
  5
224
100
AcDbEntity
  8
0
100
AcDbLine
 62
7
  6
CONTINUOUS
 10
651.6768546418
 20
265.4622537623
 11
643.1460269992
 21
265.4622537623
  0
LINE
  5
225
100
AcDbEntity
  8
0
100
AcDbLine
 62
7
  6
CONTINUOUS
 10
577.4114408205
 20
303.0749781104
 11
577.4114408205
 21
423.0749781104
  0
LINE
  5
226
100
AcDbEntity
  8
RUNDUNGEN
100
AcDbLine
 62
7
  6
CONTINUOUS
 10
670.9114408205
 20
157.5749781104
 11
665.4114408205
 21
165.4297921475
  0
LINE
  5
227
100
AcDbEntity
  8
KONSTRUKTIONSELEMENTE
100
AcDbLine
 62
7
  6
CONTINUOUS
 10
553.2955282446
 20
222.4648050551
 11
549.2650195918
 21
218.4342964024
  0
LINE
  5
228
100
AcDbEntity
  8
KONSTRUKTIONSELEMENTE
100
AcDbLine
 62
7
  6
CONTINUOUS
 10
548.9114662012
 20
218.0807430118
 11
544.8809575484
 21
214.050234359
  0
LINE
  5
229
100
AcDbEntity
  8
KONSTRUKTIONSELEMENTE
100
AcDbLine
 62
7
  6
CONTINUOUS
 10
492.1307916719
 20
161.3000684825
 11
488.1002830192
 21
157.2695598297
  0
LINE
  5
22A
100
AcDbEntity
  8
KONSTRUKTIONSELEMENTE
100
AcDbLine
 62
7
  6
CONTINUOUS
 10
487.7467296286
 20
156.9160064391
 11
483.7162209758
 21
152.8854977864
  0
LINE
  5
22B
100
AcDbEntity
  8
KONSTRUKTIONSELEMENTE
100
AcDbLine
 62
7
  6
CONTINUOUS
 10
524.7284142846
 20
191.7056600735
 11
514.1218125668
 21
181.0990583557
  0
LINE
  5
22C
100
AcDbEntity
  8
KONSTRUKTIONSELEMENTE
100
AcDbLine
 62
7
  6
CONTINUOUS
 10
556.8310621505
 20
218.9292711492
 11
552.8005534977
 21
214.8987624964
  0
LINE
  5
22D
100
AcDbEntity
  8
KONSTRUKTIONSELEMENTE
100
AcDbLine
 62
7
  6
CONTINUOUS
 10
552.4470001071
 20
214.5452091059
 11
548.4164914544
 21
210.5147004531
  0
LINE
  5
22E
100
AcDbEntity
  8
KONSTRUKTIONSELEMENTE
100
AcDbLine
 62
7
  6
CONTINUOUS
 10
495.6663255779
 20
157.7645345766
 11
491.6358169251
 21
153.7340259238
  0
LINE
  5
22F
100
AcDbEntity
  8
KONSTRUKTIONSELEMENTE
100
AcDbLine
 62
7
  6
CONTINUOUS
 10
491.2822635345
 20
153.3804725332
 11
487.2517548817
 21
149.3499638805
  0
LINE
  5
230
100
AcDbEntity
  8
KONSTRUKTIONSELEMENTE
100
AcDbLine
 62
7
  6
CONTINUOUS
 10
556.9017728286
 20
218.222164368
 11
597.8661616931
 21
259.1865532325
  0
LINE
  5
231
100
AcDbEntity
  8
KONSTRUKTIONSELEMENTE
100
AcDbLine
 62
7
  6
CONTINUOUS
 10
527.9103948
 20
188.5236795582
 11
517.3037930822
 21
177.9170778404
  0
LINE
  5
232
100
AcDbEntity
  8
RUNDUNGEN
100
AcDbLine
 62
7
  6
CONTINUOUS
 10
383.6606114379
 20
42.8596826338
 11
495.6082521284
 21
154.8073233243
  0
LINE
  5
233
100
AcDbEntity
  8
KONSTRUKTIONSELEMENTE
100
AcDbLine
 62
7
  6
CONTINUOUS
 10
498.5654633807
 20
157.410981186
 11
517.3037930822
 21
176.1493108874
  0
LINE
  5
234
100
AcDbEntity
  8
KONSTRUKTIONSELEMENTE
100
AcDbLine
 62
7
  6
CONTINUOUS
 10
529.6781617529
 20
188.5236795582
 11
548.4164914544
 21
207.2620092596
  0
LINE
  5
235
100
AcDbEntity
  8
0
100
AcDbLine
 62
7
  6
CONTINUOUS
 10
623.9114408205
 20
135.9791781104
 11
623.9114408205
 21
157.5749781104
  0
LINE
  5
236
100
AcDbEntity
  8
0
100
AcDbLine
 62
7
  6
CONTINUOUS
 10
629.4114408205
 20
179.5749781104
 11
629.4114408205
 21
165.4297921475
  0
LINE
  5
237
100
AcDbEntity
  8
KONSTRUKTIONSELEMENTE
100
AcDbLine
 62
7
  6
CONTINUOUS
 10
501.7474438961
 20
154.2290006706
 11
520.4561288712
 21
172.9376856458
  0
LINE
  5
238
100
AcDbEntity
  8
KONSTRUKTIONSELEMENTE
100
AcDbLine
 62
7
  6
CONTINUOUS
 10
532.8601422683
 20
185.3416990428
 11
551.5688272435
 21
204.050384018
  0
LINE
  5
239
100
AcDbEntity
  8
RUNDUNGEN
100
AcDbLine
 62
7
  6
CONTINUOUS
 10
387.1961453438
 20
39.3241487278
 11
499.143771644
 21
151.271775028
  0
LINE
  5
23A
100
AcDbEntity
  8
KONSTRUKTIONSELEMENTE
100
AcDbLine
 62
7
  6
CONTINUOUS
 10
522.2535405505
 20
172.9673303721
 11
532.8601422683
 21
183.5739320899
  0
LINE
  5
23B
100
AcDbEntity
  8
KONSTRUKTIONSELEMENTE
100
AcDbLine
 62
7
  6
CONTINUOUS
 10
562.6064315224
 20
212.6131145628
 11
603.5230159426
 21
253.529698983
  0
LINE
  5
23C
100
AcDbEntity
  8
KONSTRUKTIONSELEMENTE
100
AcDbLine
 62
7
  6
CONTINUOUS
 10
493.6864265905
 20
142.9152921717
 11
502.1009972867
 21
151.3298628678
  0
LINE
  5
23D
100
AcDbEntity
  8
KONSTRUKTIONSELEMENTE
100
AcDbLine
 62
7
  6
CONTINUOUS
 10
554.8511631632
 20
204.0800287443
 11
563.2657338593
 21
212.4945994404
  0
LINE
  5
23E
100
AcDbEntity
  8
KONSTRUKTIONSELEMENTE
100
AcDbLine
 62
7
  6
CONTINUOUS
 10
525.4355210658
 20
169.7853498567
 11
536.0421227836
 21
180.3919515745
  0
LINE
  5
23F
100
AcDbEntity
  8
KONSTRUKTIONSELEMENTE
100
AcDbLine
 62
7
  6
CONTINUOUS
 10
497.2219604965
 20
139.3797582657
 11
505.6365311926
 21
147.7943289618
  0
LINE
  5
240
100
AcDbEntity
  8
KONSTRUKTIONSELEMENTE
100
AcDbLine
 62
7
  6
CONTINUOUS
 10
558.3866970691
 20
200.5444948384
 11
566.8012677652
 21
208.9590655345
  0
LINE
  5
241
100
AcDbEntity
  8
0
100
AcDbLine
 62
7
  6
CONTINUOUS
 10
643.4106908205
 20
154.790524786
 11
641.4093993928
 21
177.0749781104
  0
LINE
  5
242
100
AcDbEntity
  8
0
100
AcDbLine
 62
7
  6
CONTINUOUS
 10
643.4106908205
 20
166.3958487601
 11
641.9750878604
 21
182.3813402844
  0
LINE
  5
243
100
AcDbEntity
  8
0
100
AcDbLine
 62
7
  6
CONTINUOUS
 10
635.4114408205
 20
202.7977672222
 11
635.4114408205
 21
186.9234473388
  0
LINE
  5
244
100
AcDbEntity
  8
BEZUGSACHSEN
100
AcDbLine
 62
7
  6
CONTINUOUS
 10
635.4114408205
 20
202.7980689318
 11
635.4114408205
 21
245.0749781104
  0
LINE
  5
245
100
AcDbEntity
  8
0
100
AcDbLine
 62
7
  6
CONTINUOUS
 10
643.4106908205
 20
166.3958487601
 11
643.4106908205
 21
154.790524786
  0
LINE
  5
246
100
AcDbEntity
  8
0
100
AcDbLine
 62
7
  6
CONTINUOUS
 10
642.3625395559
 20
198.9364376691
 11
641.9750878604
 21
182.3813402844
  0
LINE
  5
247
100
AcDbEntity
  8
0
100
AcDbLine
 62
7
  6
CONTINUOUS
 10
636.39520505
 20
249.8333969076
 11
643.1460269992
 21
265.4622537623
  0
LINE
  5
248
100
AcDbEntity
  8
KONSTRUKTIONSELEMENTE
100
AcDbLine
 62
7
  6
CONTINUOUS
 10
651.6768546418
 20
265.4622537623
 11
658.427676591
 21
249.8333969076
  0
LINE
  5
249
100
AcDbEntity
  8
0
100
AcDbLine
 62
7
  6
CONTINUOUS
 10
652.4603420851
 20
198.9364376691
 11
652.8477937805
 21
182.3813402844
  0
LINE
  5
24A
100
AcDbEntity
  8
0
100
AcDbLine
 62
7
  6
CONTINUOUS
 10
651.4121908205
 20
166.3958487601
 11
651.4121908205
 21
154.790524786
  0
LINE
  5
24B
100
AcDbEntity
  8
RUNDUNGEN
100
AcDbLine
 62
7
  6
CONTINUOUS
 10
659.4114408205
 20
202.7977672222
 11
659.4114408205
 21
186.9234473388
  0
LINE
  5
24C
100
AcDbEntity
  8
BEZUGSACHSEN
100
AcDbLine
 62
7
  6
CONTINUOUS
 10
659.4114408205
 20
202.7980689318
 11
659.4114408205
 21
245.0749781104
  0
LINE
  5
24D
100
AcDbEntity
  8
RUNDUNGEN
100
AcDbLine
 62
7
  6
CONTINUOUS
 10
665.4114408205
 20
179.5749781104
 11
665.4114408205
 21
165.4297921475
  0
LINE
  5
24E
100
AcDbEntity
  8
0
100
AcDbLine
 62
7
  6
CONTINUOUS
 10
651.4121908205
 20
166.3958487601
 11
652.8477937805
 21
182.3813402844
  0
LINE
  5
24F
100
AcDbEntity
  8
RUNDUNGEN
100
AcDbLine
 62
7
  6
CONTINUOUS
 10
651.4121908205
 20
154.790524786
 11
653.4134822482
 21
177.0749781104
  0
LINE
  5
250
100
AcDbEntity
  8
RUNDUNGEN
100
AcDbLine
 62
7
  6
CONTINUOUS
 10
670.9114408205
 20
135.9791781104
 11
670.9114408205
 21
157.5749781104
  0
LINE
  5
251
100
AcDbEntity
  8
0
100
AcDbLine
 62
7
  6
CONTINUOUS
 10
623.9114408205
 20
157.5749781104
 11
629.4114408205
 21
165.4297921475
  0
LINE
  5
252
100
AcDbEntity
  8
0
100
AcDbLine
 62
7
  6
CONTINUOUS
 10
717.4114408205
 20
423.0749781104
 11
717.4114408205
 21
303.0749781104
  0
LINE
  5
253
100
AcDbEntity
  8
0
100
AcDbLine
 62
7
  6
CONTINUOUS
 10
749.4114408205
 20
423.0749781104
 11
749.4114408205
 21
303.0749781104
  0
LINE
  5
254
100
AcDbEntity
  8
RUNDUNGEN
100
AcDbLine
 62
7
  6
CONTINUOUS
 10
147.819311407
 20
39.3241487278
 11
151.369311407
 21
39.3241487278
  0
LINE
  5
255
100
AcDbEntity
  8
RUNDUNGEN
100
AcDbLine
 62
7
  6
CONTINUOUS
 10
237.269311407
 20
39.3241487278
 11
240.819311407
 21
39.3241487278
  0
LINE
  5
256
100
AcDbEntity
  8
RUNDUNGEN
100
AcDbLine
 62
7
  6
CONTINUOUS
 10
160.169311407
 20
52.7591775704
 11
171.2185241519
 21
52.7591775704
  0
LINE
  5
257
100
AcDbEntity
  8
RUNDUNGEN
100
AcDbLine
 62
7
  6
CONTINUOUS
 10
217.4200986621
 20
52.7591775704
 11
228.469311407
 21
52.7591775704
  0
LINE
  5
258
100
AcDbEntity
  8
RUNDUNGEN
100
AcDbLine
 62
7
  6
CONTINUOUS
 10
232.4338496541
 20
113.5758527621
 11
232.319311407
 21
113.5749781104
  0
LINE
  5
259
100
AcDbEntity
  8
RUNDUNGEN
100
AcDbLine
 62
7
  6
CONTINUOUS
 10
232.319311407
 20
113.5749781104
 11
225.2051082323
 21
113.5749781104
  0
LINE
  5
25A
100
AcDbEntity
  8
0
100
AcDbLine
 62
7
  6
CONTINUOUS
 10
225.2051082323
 20
113.5749781104
 11
225.1694928624
 21
113.5749781104
  0
LINE
  5
25B
100
AcDbEntity
  8
0
100
AcDbLine
 62
7
  6
CONTINUOUS
 10
163.4691299515
 20
113.5749781104
 11
163.4335145816
 21
113.5749781104
  0
LINE
  5
25C
100
AcDbEntity
  8
RUNDUNGEN
100
AcDbLine
 62
7
  6
CONTINUOUS
 10
163.4335145816
 20
113.5749781104
 11
156.319311407
 21
113.5749781104
  0
LINE
  5
25D
100
AcDbEntity
  8
RUNDUNGEN
100
AcDbLine
 62
7
  6
CONTINUOUS
 10
156.319311407
 20
113.5749781104
 11
156.2047731598
 21
113.5758527621
  0
LINE
  5
25E
100
AcDbEntity
  8
0
100
AcDbLine
 62
7
  6
CONTINUOUS
 10
172.8530113111
 20
118.3786868645
 11
179.6196830305
 21
118.3786868645
  0
LINE
  5
25F
100
AcDbEntity
  8
0
100
AcDbLine
 62
7
  6
CONTINUOUS
 10
183.6929651129
 20
118.3786868645
 11
185.2289651129
 21
118.3786868645
  0
LINE
  5
260
100
AcDbEntity
  8
0
100
AcDbLine
 62
7
  6
CONTINUOUS
 10
192.54569138
 20
118.3786868645
 11
194.319311407
 21
118.3786868645
  0
LINE
  5
261
100
AcDbEntity
  8
0
100
AcDbLine
 62
7
  6
CONTINUOUS
 10
207.6835816898
 20
118.3786868645
 11
213.248328998
 21
118.3786868645
  0
LINE
  5
262
100
AcDbEntity
  8
0
100
AcDbLine
 62
7
  6
CONTINUOUS
 10
174.3899505005
 20
118.9443722894
 11
179.6196830305
 21
118.9443722894
  0
LINE
  5
263
100
AcDbEntity
  8
0
100
AcDbLine
 62
7
  6
CONTINUOUS
 10
183.6929651129
 20
118.9443722894
 11
185.2289651129
 21
118.9443722894
  0
LINE
  5
264
100
AcDbEntity
  8
0
100
AcDbLine
 62
7
  6
CONTINUOUS
 10
192.54569138
 20
118.9443722894
 11
193.8574311916
 21
118.9443722894
  0
LINE
  5
265
100
AcDbEntity
  8
0
100
AcDbLine
 62
7
  6
CONTINUOUS
 10
207.6835816898
 20
118.9443722894
 11
213.248328998
 21
118.9443722894
  0
LINE
  5
266
100
AcDbEntity
  8
0
100
AcDbLine
 62
7
  6
CONTINUOUS
 10
212.6901189777
 20
119.5100577144
 11
209.2195816898
 21
119.5100577144
  0
LINE
  5
267
100
AcDbEntity
  8
0
100
AcDbLine
 62
7
  6
CONTINUOUS
 10
176.9796830305
 20
119.7363318844
 11
176.6161087883
 21
119.7363318844
  0
LINE
  5
268
100
AcDbEntity
  8
0
100
AcDbLine
 62
7
  6
CONTINUOUS
 10
185.2289651129
 20
122.6367895293
 11
189.0689651129
 21
122.6367895293
  0
LINE
  5
269
100
AcDbEntity
  8
0
100
AcDbLine
 62
7
  6
CONTINUOUS
 10
185.2289651129
 20
123.2024749543
 11
189.0689651129
 21
123.2024749543
  0
LINE
  5
26A
100
AcDbEntity
  8
0
100
AcDbLine
 62
7
  6
CONTINUOUS
 10
189.7089651129
 20
123.7229055452
 11
185.2289651129
 21
123.7229055452
  0
LINE
  5
26B
100
AcDbEntity
  8
0
100
AcDbLine
 62
7
  6
CONTINUOUS
 10
185.2289651129
 20
125.2234805064
 11
185.069311407
 21
125.2234805064
  0
LINE
  5
26C
100
AcDbEntity
  8
0
100
AcDbLine
 62
7
  6
CONTINUOUS
 10
185.069311407
 20
126.1738320203
 11
189.7089651129
 21
126.1738320203
  0
LINE
  5
26D
100
AcDbEntity
  8
0
100
AcDbLine
 62
7
  6
CONTINUOUS
 10
185.069311407
 20
126.7395174452
 11
189.7089651129
 21
126.7395174452
  0
LINE
  5
26E
100
AcDbEntity
  8
0
100
AcDbLine
 62
7
  6
CONTINUOUS
 10
203.569311407
 20
127.2033794937
 11
202.7875816898
 21
127.2033794937
  0
LINE
  5
26F
100
AcDbEntity
  8
0
100
AcDbLine
 62
7
  6
CONTINUOUS
 10
196.7489651129
 20
127.2033794937
 11
195.2129651129
 21
127.2033794937
  0
LINE
  5
270
100
AcDbEntity
  8
0
100
AcDbLine
 62
7
  6
CONTINUOUS
 10
189.7089651129
 20
127.2033794937
 11
185.069311407
 21
127.2033794937
  0
LINE
  5
271
100
AcDbEntity
  8
BEZUGSACHSEN
100
AcDbLine
 62
7
  6
CONTINUOUS
 10
185.069311407
 20
128.6791781104
 11
203.569311407
 21
128.6791781104
  0
LINE
  5
272
100
AcDbEntity
  8
BEZUGSACHSEN
100
AcDbLine
 62
7
  6
CONTINUOUS
 10
185.069311407
 20
134.7170492636
 11
203.569311407
 21
134.7170492636
  0
LINE
  5
273
100
AcDbEntity
  8
BEZUGSACHSEN
100
AcDbLine
 62
7
  6
CONTINUOUS
 10
185.069311407
 20
145.2413069572
 11
203.569311407
 21
145.2413069572
  0
LINE
  5
274
100
AcDbEntity
  8
RUNDUNGEN
100
AcDbLine
 62
7
  6
CONTINUOUS
 10
127.0950574805
 20
139.7686338726
 11
131.110092535
 21
135.7140381152
  0
LINE
  5
275
100
AcDbEntity
  8
RUNDUNGEN
100
AcDbLine
 62
7
  6
CONTINUOUS
 10
142.9257671238
 20
123.7819420292
 11
164.746354375
 21
101.7463534747
  0
LINE
  5
276
100
AcDbEntity
  8
RUNDUNGEN
100
AcDbLine
 62
7
  6
CONTINUOUS
 10
202.5108318498
 20
63.6097773123
 11
210.8668823077
 21
55.1713935185
  0
LINE
  5
277
100
AcDbEntity
  8
RUNDUNGEN
100
AcDbLine
 62
7
  6
CONTINUOUS
 10
148.819311407
 20
133.8567675022
 11
145.487315947
 21
137.2215935803
  0
LINE
  5
278
100
AcDbEntity
  8
0
100
AcDbLine
 62
7
  6
CONTINUOUS
 10
228.5135454938
 20
169.5124556825
 11
229.3460351398
 21
169.6748429114
  0
LINE
  5
279
100
AcDbEntity
  8
BEZUGSACHSEN
100
AcDbLine
 62
7
  6
CONTINUOUS
 10
185.069311407
 20
151.2791781104
 11
203.569311407
 21
151.2791781104
  0
LINE
  5
27A
100
AcDbEntity
  8
RUNDUNGEN
100
AcDbLine
 62
7
  6
CONTINUOUS
 10
156.319311407
 20
157.5749781104
 11
185.069311407
 21
157.5749781104
  0
LINE
  5
27B
100
AcDbEntity
  8
RUNDUNGEN
100
AcDbLine
 62
7
  6
CONTINUOUS
 10
203.569311407
 20
157.5749781104
 11
232.319311407
 21
157.5749781104
  0
LINE
  5
27C
100
AcDbEntity
  8
RUNDUNGEN
100
AcDbLine
 62
7
  6
CONTINUOUS
 10
232.319311407
 20
165.4297921475
 11
203.3266560695
 21
165.4297921475
  0
LINE
  5
27D
100
AcDbEntity
  8
RUNDUNGEN
100
AcDbLine
 62
7
  6
CONTINUOUS
 10
185.3119667444
 20
165.4297921475
 11
156.319311407
 21
165.4297921475
  0
LINE
  5
27E
100
AcDbEntity
  8
RUNDUNGEN
100
AcDbLine
 62
7
  6
CONTINUOUS
 10
247.3725277613
 20
57.755750484
 11
223.892268439
 21
81.4673640911
  0
LINE
  5
27F
100
AcDbEntity
  8
RUNDUNGEN
100
AcDbLine
 62
7
  6
CONTINUOUS
 10
247.3725277613
 20
61.2912843899
 11
223.892268439
 21
85.002897997
  0
LINE
  5
280
100
AcDbEntity
  8
RUNDUNGEN
100
AcDbLine
 62
7
  6
CONTINUOUS
 10
156.2047731598
 20
113.5758527621
 11
148.819311407
 21
125.5772281104
  0
LINE
  5
281
100
AcDbEntity
  8
0
100
AcDbLine
 62
7
  6
CONTINUOUS
 10
179.135176182
 20
170.649166299
 11
178.4991601219
 21
170.4867790844
  0
LINE
  5
282
100
AcDbEntity
  8
0
100
AcDbLine
 62
7
  6
CONTINUOUS
 10
171.5029770918
 20
170.649166299
 11
170.8669601219
 21
170.4867790844
  0
LINE
  5
283
100
AcDbEntity
  8
0
100
AcDbLine
 62
7
  6
CONTINUOUS
 10
218.690175483
 20
170.649166299
 11
218.0241849095
 21
170.4867790844
  0
LINE
  5
284
100
AcDbEntity
  8
0
100
AcDbLine
 62
7
  6
CONTINUOUS
 10
215.8597131636
 20
176.0079451797
 11
216.5257046899
 21
176.1703323944
  0
LINE
  5
285
100
AcDbEntity
  8
0
100
AcDbLine
 62
7
  6
CONTINUOUS
 10
178.4991601219
 20
169.5124556825
 11
179.2941815618
 21
169.6748429114
  0
LINE
  5
286
100
AcDbEntity
  8
0
100
AcDbLine
 62
7
  6
CONTINUOUS
 10
170.8669601219
 20
169.5124556825
 11
171.6619806519
 21
169.6748429114
  0
LINE
  5
287
100
AcDbEntity
  8
0
100
AcDbLine
 62
7
  6
CONTINUOUS
 10
218.0241849095
 20
169.5124556825
 11
218.8566736028
 21
169.6748429114
  0
LINE
  5
288
100
AcDbEntity
  8
0
100
AcDbLine
 62
7
  6
CONTINUOUS
 10
227.6810577532
 20
174.384072578
 11
226.8485681072
 21
174.2216853633
  0
LINE
  5
289
100
AcDbEntity
  8
0
100
AcDbLine
 62
7
  6
CONTINUOUS
 10
227.6810577532
 20
177.1446556825
 11
226.8485681072
 21
176.9822684678
  0
LINE
  5
28A
100
AcDbEntity
  8
0
100
AcDbLine
 62
7
  6
CONTINUOUS
 10
216.5257046899
 20
177.1446556825
 11
215.6932150439
 21
176.9822684678
  0
LINE
  5
28B
100
AcDbEntity
  8
0
100
AcDbLine
 62
7
  6
CONTINUOUS
 10
160.3726851219
 20
169.5124556825
 11
161.3267101219
 21
169.5124556825
  0
LINE
  5
28C
100
AcDbEntity
  8
0
100
AcDbLine
 62
7
  6
CONTINUOUS
 10
165.3018141369
 20
169.5124556825
 11
166.4148436068
 21
169.5124556825
  0
LINE
  5
28D
100
AcDbEntity
  8
0
100
AcDbLine
 62
7
  6
CONTINUOUS
 10
170.2309431519
 20
169.5124556825
 11
170.8669601219
 21
169.5124556825
  0
LINE
  5
28E
100
AcDbEntity
  8
0
100
AcDbLine
 62
7
  6
CONTINUOUS
 10
174.6830601219
 20
169.5124556825
 11
178.4991601219
 21
169.5124556825
  0
LINE
  5
28F
100
AcDbEntity
  8
0
100
AcDbLine
 62
7
  6
CONTINUOUS
 10
203.871871407
 20
169.5124556825
 11
204.87085822
 21
169.5124556825
  0
LINE
  5
290
100
AcDbEntity
  8
0
100
AcDbLine
 62
7
  6
CONTINUOUS
 10
206.202840558
 20
169.5124556825
 11
207.2018273711
 21
169.5124556825
  0
LINE
  5
291
100
AcDbEntity
  8
0
100
AcDbLine
 62
7
  6
CONTINUOUS
 10
211.3642725049
 20
169.5124556825
 11
212.5297574377
 21
169.5124556825
  0
LINE
  5
292
100
AcDbEntity
  8
0
100
AcDbLine
 62
7
  6
CONTINUOUS
 10
216.5257046899
 20
169.5124556825
 11
218.0241849095
 21
169.5124556825
  0
LINE
  5
293
100
AcDbEntity
  8
0
100
AcDbLine
 62
7
  6
CONTINUOUS
 10
222.686123688
 20
169.5124556825
 11
223.685110501
 21
169.5124556825
  0
LINE
  5
294
100
AcDbEntity
  8
0
100
AcDbLine
 62
7
  6
CONTINUOUS
 10
227.6810577532
 20
169.5124556825
 11
228.5135454938
 21
169.5124556825
  0
LINE
  5
295
100
AcDbEntity
  8
0
100
AcDbLine
 62
7
  6
CONTINUOUS
 10
228.6800445663
 20
170.3243918697
 11
227.5145586808
 21
170.3243918697
  0
LINE
  5
296
100
AcDbEntity
  8
0
100
AcDbLine
 62
7
  6
CONTINUOUS
 10
218.0241849095
 20
170.4867790844
 11
216.5257046899
 21
170.4867790844
  0
LINE
  5
297
100
AcDbEntity
  8
0
100
AcDbLine
 62
7
  6
CONTINUOUS
 10
178.4991601219
 20
170.4867790844
 11
175.6370851219
 21
170.4867790844
  0
LINE
  5
298
100
AcDbEntity
  8
0
100
AcDbLine
 62
7
  6
CONTINUOUS
 10
170.8669601219
 20
170.4867790844
 11
170.2309431519
 21
170.4867790844
  0
LINE
  5
299
100
AcDbEntity
  8
0
100
AcDbLine
 62
7
  6
CONTINUOUS
 10
217.8576867897
 20
172.7602004311
 11
219.3561670093
 21
172.7602004311
  0
LINE
  5
29A
100
AcDbEntity
  8
0
100
AcDbLine
 62
7
  6
CONTINUOUS
 10
161.3267101219
 20
172.9225876458
 11
164.0297808794
 21
172.9225876458
  0
LINE
  5
29B
100
AcDbEntity
  8
0
100
AcDbLine
 62
7
  6
CONTINUOUS
 10
207.2018273711
 20
172.9225876458
 11
210.0322899287
 21
172.9225876458
  0
LINE
  5
29C
100
AcDbEntity
  8
0
100
AcDbLine
 62
7
  6
CONTINUOUS
 10
227.5145586808
 20
173.5721365046
 11
228.6800445663
 21
173.5721365046
  0
LINE
  5
29D
100
AcDbEntity
  8
0
100
AcDbLine
 62
7
  6
CONTINUOUS
 10
220.3551538224
 20
173.7345237192
 11
217.8576867897
 21
173.7345237192
  0
LINE
  5
29E
100
AcDbEntity
  8
0
100
AcDbLine
 62
7
  6
CONTINUOUS
 10
210.3652856918
 20
173.8969109339
 11
207.2018273711
 21
173.8969109339
  0
LINE
  5
29F
100
AcDbEntity
  8
0
100
AcDbLine
 62
7
  6
CONTINUOUS
 10
164.3477891369
 20
173.8969109339
 11
161.3267101219
 21
173.8969109339
  0
LINE
  5
2A0
100
AcDbEntity
  8
0
100
AcDbLine
 62
7
  6
CONTINUOUS
 10
228.5135454938
 20
174.384072578
 11
227.6810577532
 21
174.384072578
  0
LINE
  5
2A1
100
AcDbEntity
  8
0
100
AcDbLine
 62
7
  6
CONTINUOUS
 10
219.3561670093
 20
175.1960086514
 11
220.3551538224
 21
175.1960086514
  0
LINE
  5
2A2
100
AcDbEntity
  8
0
100
AcDbLine
 62
7
  6
CONTINUOUS
 10
229.8455285464
 20
175.358396321
 11
230.6780181924
 21
175.358396321
  0
LINE
  5
2A3
100
AcDbEntity
  8
0
100
AcDbLine
 62
7
  6
CONTINUOUS
 10
175.6370851219
 20
176.1703323944
 11
178.4991601219
 21
176.1703323944
  0
LINE
  5
2A4
100
AcDbEntity
  8
0
100
AcDbLine
 62
7
  6
CONTINUOUS
 10
216.5257046899
 20
176.1703323944
 11
218.0241849095
 21
176.1703323944
  0
LINE
  5
2A5
100
AcDbEntity
  8
0
100
AcDbLine
 62
7
  6
CONTINUOUS
 10
161.3267101219
 20
176.3327196091
 11
164.3477891369
 21
176.3327196091
  0
LINE
  5
2A6
100
AcDbEntity
  8
0
100
AcDbLine
 62
7
  6
CONTINUOUS
 10
207.2018273711
 20
176.3327196091
 11
210.3652856918
 21
176.3327196091
  0
LINE
  5
2A7
100
AcDbEntity
  8
0
100
AcDbLine
 62
7
  6
CONTINUOUS
 10
227.5145586808
 20
176.3327196091
 11
228.5135454938
 21
176.3327196091
  0
LINE
  5
2A8
100
AcDbEntity
  8
0
100
AcDbLine
 62
7
  6
CONTINUOUS
 10
228.3470483268
 20
177.1446556825
 11
227.6810577532
 21
177.1446556825
  0
LINE
  5
2A9
100
AcDbEntity
  8
0
100
AcDbLine
 62
7
  6
CONTINUOUS
 10
223.685110501
 20
177.1446556825
 11
222.686123688
 21
177.1446556825
  0
LINE
  5
2AA
100
AcDbEntity
  8
0
100
AcDbLine
 62
7
  6
CONTINUOUS
 10
218.0241849095
 20
177.1446556825
 11
216.5257046899
 21
177.1446556825
  0
LINE
  5
2AB
100
AcDbEntity
  8
0
100
AcDbLine
 62
7
  6
CONTINUOUS
 10
210.1987880484
 20
177.1446556825
 11
206.202840558
 21
177.1446556825
  0
LINE
  5
2AC
100
AcDbEntity
  8
0
100
AcDbLine
 62
7
  6
CONTINUOUS
 10
204.87085822
 20
177.1446556825
 11
203.871871407
 21
177.1446556825
  0
LINE
  5
2AD
100
AcDbEntity
  8
0
100
AcDbLine
 62
7
  6
CONTINUOUS
 10
178.4991601219
 20
177.1446556825
 11
174.6830601219
 21
177.1446556825
  0
LINE
  5
2AE
100
AcDbEntity
  8
0
100
AcDbLine
 62
7
  6
CONTINUOUS
 10
173.4110270918
 20
177.1446556825
 11
172.4570020918
 21
177.1446556825
  0
LINE
  5
2AF
100
AcDbEntity
  8
0
100
AcDbLine
 62
7
  6
CONTINUOUS
 10
168.6409020918
 20
177.1446556825
 11
167.6868766369
 21
177.1446556825
  0
LINE
  5
2B0
100
AcDbEntity
  8
0
100
AcDbLine
 62
7
  6
CONTINUOUS
 10
164.1887851219
 20
177.1446556825
 11
160.3726851219
 21
177.1446556825
  0
LINE
  5
2B1
100
AcDbEntity
  8
0
100
AcDbLine
 62
7
  6
CONTINUOUS
 10
215.6932150439
 20
169.6748429114
 11
216.5257046899
 21
169.5124556825
  0
LINE
  5
2B2
100
AcDbEntity
  8
0
100
AcDbLine
 62
7
  6
CONTINUOUS
 10
226.8485681072
 20
169.6748429114
 11
227.6810577532
 21
169.5124556825
  0
LINE
  5
2B3
100
AcDbEntity
  8
0
100
AcDbLine
 62
7
  6
CONTINUOUS
 10
211.0312767417
 20
176.9822684678
 11
210.1987880484
 21
177.1446556825
  0
LINE
  5
2B4
100
AcDbEntity
  8
0
100
AcDbLine
 62
7
  6
CONTINUOUS
 10
229.3460351398
 20
174.2216853633
 11
228.5135454938
 21
174.384072578
  0
LINE
  5
2B5
100
AcDbEntity
  8
0
100
AcDbLine
 62
7
  6
CONTINUOUS
 10
169.4359226219
 20
169.6748429114
 11
170.2309431519
 21
169.5124556825
  0
LINE
  5
2B6
100
AcDbEntity
  8
0
100
AcDbLine
 62
7
  6
CONTINUOUS
 10
164.9838061068
 20
176.9822684678
 11
164.1887851219
 21
177.1446556825
  0
LINE
  5
2B7
100
AcDbEntity
  8
0
100
AcDbLine
 62
7
  6
CONTINUOUS
 10
179.2941815618
 20
176.9822684678
 11
178.4991601219
 21
177.1446556825
  0
LINE
  5
2B8
100
AcDbEntity
  8
0
100
AcDbLine
 62
7
  6
CONTINUOUS
 10
216.5257046899
 20
170.4867790844
 11
215.8597131636
 21
170.649166299
  0
LINE
  5
2B9
100
AcDbEntity
  8
0
100
AcDbLine
 62
7
  6
CONTINUOUS
 10
170.2309431519
 20
170.4867790844
 11
169.5949270918
 21
170.649166299
  0
LINE
  5
2BA
100
AcDbEntity
  8
0
100
AcDbLine
 62
7
  6
CONTINUOUS
 10
178.4991601219
 20
176.1703323944
 11
179.135176182
 21
176.0079451797
  0
LINE
  5
2BB
100
AcDbEntity
  8
0
100
AcDbLine
 62
7
  6
CONTINUOUS
 10
164.3477891369
 20
176.3327196091
 11
164.8248016369
 21
176.1703323944
  0
LINE
  5
2BC
100
AcDbEntity
  8
0
100
AcDbLine
 62
7
  6
CONTINUOUS
 10
168.7999056519
 20
169.9996173834
 11
169.4359226219
 21
169.6748429114
  0
LINE
  5
2BD
100
AcDbEntity
  8
0
100
AcDbLine
 62
7
  6
CONTINUOUS
 10
179.9301976219
 20
176.6574940385
 11
179.2941815618
 21
176.9822684678
  0
LINE
  5
2BE
100
AcDbEntity
  8
0
100
AcDbLine
 62
7
  6
CONTINUOUS
 10
169.5949270918
 20
170.649166299
 11
169.1179145918
 21
170.9739408421
  0
LINE
  5
2BF
100
AcDbEntity
  8
0
100
AcDbLine
 62
7
  6
CONTINUOUS
 10
165.6198226219
 20
176.4951068238
 11
164.9838061068
 21
176.9822684678
  0
LINE
  5
2C0
100
AcDbEntity
  8
0
100
AcDbLine
 62
7
  6
CONTINUOUS
 10
189.0689651129
 20
122.6367895293
 11
192.54569138
 21
118.3786868645
  0
LINE
  5
2C1
100
AcDbEntity
  8
0
100
AcDbLine
 62
7
  6
CONTINUOUS
 10
189.0689651129
 20
123.2024749543
 11
192.54569138
 21
118.9443722894
  0
LINE
  5
2C2
100
AcDbEntity
  8
0
100
AcDbLine
 62
7
  6
CONTINUOUS
 10
194.319311407
 20
118.3786868645
 11
190.7044027433
 21
122.8060277108
  0
LINE
  5
2C3
100
AcDbEntity
  8
RUNDUNGEN
100
AcDbLine
 62
7
  6
CONTINUOUS
 10
225.180222449
 20
186.9234473388
 11
220.5682470602
 21
186.9234473388
  0
LINE
  5
2C4
100
AcDbEntity
  8
RUNDUNGEN
100
AcDbLine
 62
7
  6
CONTINUOUS
 10
168.0703757537
 20
186.9234473388
 11
163.458399631
 21
186.9234473388
  0
LINE
  5
2C5
100
AcDbEntity
  8
RUNDUNGEN
100
AcDbLine
 62
7
  6
CONTINUOUS
 10
176.3446974014
 20
187.0749781104
 11
212.2939254125
 21
187.0749781104
  0
LINE
  5
2C6
100
AcDbEntity
  8
0
100
AcDbLine
 62
7
  6
CONTINUOUS
 10
218.8566736028
 20
176.9822684678
 11
218.0241849095
 21
177.1446556825
  0
LINE
  5
2C7
100
AcDbEntity
  8
0
100
AcDbLine
 62
7
  6
CONTINUOUS
 10
229.1795379728
 20
176.9822684678
 11
228.3470483268
 21
177.1446556825
  0
LINE
  5
2C8
100
AcDbEntity
  8
0
100
AcDbLine
 62
7
  6
CONTINUOUS
 10
218.0241849095
 20
176.1703323944
 11
218.690175483
 21
176.0079451797
  0
LINE
  5
2C9
100
AcDbEntity
  8
0
100
AcDbLine
 62
7
  6
CONTINUOUS
 10
227.5145586808
 20
170.3243918697
 11
227.0150652742
 21
170.4867790844
  0
LINE
  5
2CA
100
AcDbEntity
  8
0
100
AcDbLine
 62
7
  6
CONTINUOUS
 10
210.3652856918
 20
176.3327196091
 11
210.8647790983
 21
176.1703323944
  0
LINE
  5
2CB
100
AcDbEntity
  8
0
100
AcDbLine
 62
7
  6
CONTINUOUS
 10
228.6800445663
 20
173.5721365046
 11
229.1795379728
 21
173.4097492899
  0
LINE
  5
2CC
100
AcDbEntity
  8
0
100
AcDbLine
 62
7
  6
CONTINUOUS
 10
228.5135454938
 20
176.3327196091
 11
229.0130389004
 21
176.1703323944
  0
LINE
  5
2CD
100
AcDbEntity
  8
0
100
AcDbLine
 62
7
  6
CONTINUOUS
 10
215.0272244703
 20
169.9996173834
 11
215.6932150439
 21
169.6748429114
  0
LINE
  5
2CE
100
AcDbEntity
  8
0
100
AcDbLine
 62
7
  6
CONTINUOUS
 10
219.522665129
 20
176.6574940385
 11
218.8566736028
 21
176.9822684678
  0
LINE
  5
2CF
100
AcDbEntity
  8
RUNDUNGEN
100
AcDbLine
 62
7
  6
CONTINUOUS
 10
264.0842967135
 20
145.4164070645
 11
253.2305321267
 21
150.7903392512
  0
LINE
  5
2D0
100
AcDbEntity
  8
RUNDUNGEN
100
AcDbLine
 62
7
  6
CONTINUOUS
 10
264.0842967135
 20
148.9519409704
 11
253.2305321267
 21
154.3258731571
  0
LINE
  5
2D1
100
AcDbEntity
  8
0
100
AcDbLine
 62
7
  6
CONTINUOUS
 10
215.8597131636
 20
170.649166299
 11
215.3602197571
 21
170.9739408421
  0
LINE
  5
2D2
100
AcDbEntity
  8
0
100
AcDbLine
 62
7
  6
CONTINUOUS
 10
179.135176182
 20
176.0079451797
 11
179.612188682
 21
175.6831707504
  0
LINE
  5
2D3
100
AcDbEntity
  8
0
100
AcDbLine
 62
7
  6
CONTINUOUS
 10
168.1638895918
 20
170.649166299
 11
168.7999056519
 21
169.9996173834
  0
LINE
  5
2D4
100
AcDbEntity
  8
0
100
AcDbLine
 62
7
  6
CONTINUOUS
 10
164.8248016369
 20
176.1703323944
 11
165.1428101219
 21
175.8455579651
  0
LINE
  5
2D5
100
AcDbEntity
  8
0
100
AcDbLine
 62
7
  6
CONTINUOUS
 10
180.566213682
 20
176.0079451797
 11
179.9301976219
 21
176.6574940385
  0
LINE
  5
2D6
100
AcDbEntity
  8
0
100
AcDbLine
 62
7
  6
CONTINUOUS
 10
166.0968351219
 20
175.8455579651
 11
165.6198226219
 21
176.4951068238
  0
LINE
  5
2D7
100
AcDbEntity
  8
0
100
AcDbLine
 62
7
  6
CONTINUOUS
 10
169.1179145918
 20
170.9739408421
 11
168.7999056519
 21
171.4611024862
  0
LINE
  5
2D8
100
AcDbEntity
  8
RUNDUNGEN
100
AcDbLine
 62
7
  6
CONTINUOUS
 10
125.6482738348
 20
143.013272174
 11
125.6482738348
 21
146.5488060799
  0
LINE
  5
2D9
100
AcDbEntity
  8
0
100
AcDbLine
 62
7
  6
CONTINUOUS
 10
226.0160784612
 20
170.1620045981
 11
226.8485681072
 21
169.6748429114
  0
LINE
  5
2DA
100
AcDbEntity
  8
0
100
AcDbLine
 62
7
  6
CONTINUOUS
 10
230.1785247859
 20
173.7345237192
 11
229.3460351398
 21
174.2216853633
  0
LINE
  5
2DB
100
AcDbEntity
  8
0
100
AcDbLine
 62
7
  6
CONTINUOUS
 10
230.0120257134
 20
176.4951068238
 11
229.1795379728
 21
176.9822684678
  0
LINE
  5
2DC
100
AcDbEntity
  8
0
100
AcDbLine
 62
7
  6
CONTINUOUS
 10
227.0150652742
 20
170.4867790844
 11
226.5155718677
 21
170.8115535137
  0
LINE
  5
2DD
100
AcDbEntity
  8
0
100
AcDbLine
 62
7
  6
CONTINUOUS
 10
218.690175483
 20
176.0079451797
 11
219.1896688896
 21
175.6831707504
  0
LINE
  5
2DE
100
AcDbEntity
  8
0
100
AcDbLine
 62
7
  6
CONTINUOUS
 10
229.1795379728
 20
173.4097492899
 11
229.6790313793
 21
173.0849748605
  0
LINE
  5
2DF
100
AcDbEntity
  8
0
100
AcDbLine
 62
7
  6
CONTINUOUS
 10
229.0130389004
 20
176.1703323944
 11
229.5125323069
 21
175.8455579651
  0
LINE
  5
2E0
100
AcDbEntity
  8
0
100
AcDbLine
 62
7
  6
CONTINUOUS
 10
211.697268268
 20
176.4951068238
 11
211.0312767417
 21
176.9822684678
  0
LINE
  5
2E1
100
AcDbEntity
  8
0
100
AcDbLine
 62
7
  6
CONTINUOUS
 10
214.361232944
 20
170.649166299
 11
215.0272244703
 21
169.9996173834
  0
LINE
  5
2E2
100
AcDbEntity
  8
0
100
AcDbLine
 62
7
  6
CONTINUOUS
 10
179.612188682
 20
175.6831707504
 11
179.9301976219
 21
175.1960086514
  0
LINE
  5
2E3
100
AcDbEntity
  8
0
100
AcDbLine
 62
7
  6
CONTINUOUS
 10
167.8458811068
 20
171.2987152715
 11
168.1638895918
 21
170.649166299
  0
LINE
  5
2E4
100
AcDbEntity
  8
0
100
AcDbLine
 62
7
  6
CONTINUOUS
 10
166.4148436068
 20
169.5124556825
 11
164.9838061068
 21
173.2473620752
  0
LINE
  5
2E5
100
AcDbEntity
  8
0
100
AcDbLine
 62
7
  6
CONTINUOUS
 10
164.0297808794
 20
172.9225876458
 11
165.3018141369
 21
169.5124556825
  0
LINE
  5
2E6
100
AcDbEntity
  8
0
100
AcDbLine
 62
7
  6
CONTINUOUS
 10
138.932035755
 20
210.0749781104
 11
146.352523646
 21
182.3813402844
  0
LINE
  5
2E7
100
AcDbEntity
  8
0
100
AcDbLine
 62
7
  6
CONTINUOUS
 10
146.352523646
 20
166.3958487601
 11
148.819311407
 21
154.790524786
  0
LINE
  5
2E8
100
AcDbEntity
  8
RUNDUNGEN
100
AcDbLine
 62
7
  6
CONTINUOUS
 10
139.819311407
 20
44.9810029773
 11
139.819311407
 21
58.0466460885
  0
LINE
  5
2E9
100
AcDbEntity
  8
RUNDUNGEN
100
AcDbLine
 62
7
  6
CONTINUOUS
 10
142.4736472345
 20
124.7958914984
 11
142.4736472345
 21
128.3314254044
  0
LINE
  5
2EA
100
AcDbEntity
  8
0
100
AcDbLine
 62
7
  6
CONTINUOUS
 10
146.352523646
 20
166.3958487601
 11
146.352523646
 21
182.3813402844
  0
LINE
  5
2EB
100
AcDbEntity
  8
0
100
AcDbLine
 62
7
  6
CONTINUOUS
 10
210.8647790983
 20
176.1703323944
 11
211.1977748615
 21
175.8455579651
  0
LINE
  5
2EC
100
AcDbEntity
  8
0
100
AcDbLine
 62
7
  6
CONTINUOUS
 10
220.1886566553
 20
176.0079451797
 11
219.522665129
 21
176.6574940385
  0
LINE
  5
2ED
100
AcDbEntity
  8
0
100
AcDbLine
 62
7
  6
CONTINUOUS
 10
229.6790313793
 20
173.0849748605
 11
230.0120257134
 21
172.7602004311
  0
LINE
  5
2EE
100
AcDbEntity
  8
0
100
AcDbLine
 62
7
  6
CONTINUOUS
 10
230.6780181924
 20
173.2473620752
 11
230.1785247859
 21
173.7345237192
  0
LINE
  5
2EF
100
AcDbEntity
  8
0
100
AcDbLine
 62
7
  6
CONTINUOUS
 10
212.1967611982
 20
175.8455579651
 11
211.697268268
 21
176.4951068238
  0
LINE
  5
2F0
100
AcDbEntity
  8
0
100
AcDbLine
 62
7
  6
CONTINUOUS
 10
180.8842226219
 20
175.358396321
 11
180.566213682
 21
176.0079451797
  0
LINE
  5
2F1
100
AcDbEntity
  8
0
100
AcDbLine
 62
7
  6
CONTINUOUS
 10
165.1428101219
 20
175.8455579651
 11
165.3018141369
 21
175.358396321
  0
LINE
  5
2F2
100
AcDbEntity
  8
0
100
AcDbLine
 62
7
  6
CONTINUOUS
 10
166.2558391369
 20
175.358396321
 11
166.0968351219
 21
175.8455579651
  0
LINE
  5
2F3
100
AcDbEntity
  8
0
100
AcDbLine
 62
7
  6
CONTINUOUS
 10
168.7999056519
 20
171.4611024862
 11
168.6409020918
 21
172.1106513449
  0
LINE
  5
2F4
100
AcDbEntity
  8
0
100
AcDbLine
 62
7
  6
CONTINUOUS
 10
167.6868766369
 20
172.1106513449
 11
167.8458811068
 21
171.2987152715
  0
LINE
  5
2F5
100
AcDbEntity
  8
RUNDUNGEN
100
AcDbLine
 62
7
  6
CONTINUOUS
 10
148.819311407
 20
125.5772281104
 11
148.819311407
 21
177.0749781104
  0
LINE
  5
2F6
100
AcDbEntity
  8
RUNDUNGEN
100
AcDbLine
 62
7
  6
CONTINUOUS
 10
152.169311407
 20
39.8898341528
 11
152.169311407
 21
47.1023233209
  0
LINE
  5
2F7
100
AcDbEntity
  8
0
100
AcDbLine
 62
7
  6
CONTINUOUS
 10
160.3726851219
 20
177.1446556825
 11
160.3726851219
 21
169.5124556825
  0
LINE
  5
2F8
100
AcDbEntity
  8
0
100
AcDbLine
 62
7
  6
CONTINUOUS
 10
161.3267101219
 20
169.5124556825
 11
161.3267101219
 21
172.9225876458
  0
LINE
  5
2F9
100
AcDbEntity
  8
0
100
AcDbLine
 62
7
  6
CONTINUOUS
 10
161.3267101219
 20
173.8969109339
 11
161.3267101219
 21
176.3327196091
  0
LINE
  5
2FA
100
AcDbEntity
  8
0
100
AcDbLine
 62
7
  6
CONTINUOUS
 10
146.352523646
 20
237.7686159364
 11
138.932035755
 21
210.0749781104
  0
LINE
  5
2FB
100
AcDbEntity
  8
0
100
AcDbLine
 62
7
  6
CONTINUOUS
 10
225.5165850547
 20
170.8115535137
 11
226.0160784612
 21
170.1620045981
  0
LINE
  5
2FC
100
AcDbEntity
  8
0
100
AcDbLine
 62
7
  6
CONTINUOUS
 10
230.5115191199
 20
175.8455579651
 11
230.0120257134
 21
176.4951068238
  0
LINE
  5
2FD
100
AcDbEntity
  8
0
100
AcDbLine
 62
7
  6
CONTINUOUS
 10
215.3602197571
 20
170.9739408421
 11
215.0272244703
 21
171.4611024862
  0
LINE
  5
2FE
100
AcDbEntity
  8
0
100
AcDbLine
 62
7
  6
CONTINUOUS
 10
226.5155718677
 20
170.8115535137
 11
226.1825775336
 21
171.2987152715
  0
LINE
  5
2FF
100
AcDbEntity
  8
0
100
AcDbLine
 62
7
  6
CONTINUOUS
 10
229.5125323069
 20
175.8455579651
 11
229.8455285464
 21
175.358396321
  0
LINE
  5
300
100
AcDbEntity
  8
0
100
AcDbLine
 62
7
  6
CONTINUOUS
 10
214.0282376572
 20
171.2987152715
 11
214.361232944
 21
170.649166299
  0
LINE
  5
301
100
AcDbEntity
  8
0
100
AcDbLine
 62
7
  6
CONTINUOUS
 10
179.9301976219
 20
175.1960086514
 11
180.089201182
 21
174.5464597927
  0
LINE
  5
302
100
AcDbEntity
  8
0
100
AcDbLine
 62
7
  6
CONTINUOUS
 10
181.043226182
 20
174.5464597927
 11
180.8842226219
 21
175.358396321
  0
LINE
  5
303
100
AcDbEntity
  8
0
100
AcDbLine
 62
7
  6
CONTINUOUS
 10
165.3018141369
 20
175.358396321
 11
165.3018141369
 21
174.871234222
  0
LINE
  5
304
100
AcDbEntity
  8
0
100
AcDbLine
 62
7
  6
CONTINUOUS
 10
166.2558391369
 20
174.7088470073
 11
166.2558391369
 21
175.358396321
  0
LINE
  5
305
100
AcDbEntity
  8
0
100
AcDbLine
 62
7
  6
CONTINUOUS
 10
167.6868766369
 20
177.1446556825
 11
167.6868766369
 21
172.1106513449
  0
LINE
  5
306
100
AcDbEntity
  8
0
100
AcDbLine
 62
7
  6
CONTINUOUS
 10
168.6409020918
 20
172.1106513449
 11
168.6409020918
 21
177.1446556825
  0
LINE
  5
307
100
AcDbEntity
  8
BEZUGSACHSEN
100
AcDbLine
 62
7
  6
CONTINUOUS
 10
168.9292318909
 20
141.1046100566
 11
168.9292318909
 21
143.2119781104
  0
LINE
  5
308
100
AcDbEntity
  8
0
100
AcDbLine
 62
7
  6
CONTINUOUS
 10
172.4570020918
 20
177.1446556825
 11
172.4570020918
 21
172.1106513449
  0
LINE
  5
309
100
AcDbEntity
  8
0
100
AcDbLine
 62
7
  6
CONTINUOUS
 10
173.4110270918
 20
172.1106513449
 11
173.4110270918
 21
177.1446556825
  0
LINE
  5
30A
100
AcDbEntity
  8
0
100
AcDbLine
 62
7
  6
CONTINUOUS
 10
174.6830601219
 20
177.1446556825
 11
174.6830601219
 21
169.5124556825
  0
LINE
  5
30B
100
AcDbEntity
  8
0
100
AcDbLine
 62
7
  6
CONTINUOUS
 10
175.6370851219
 20
170.4867790844
 11
175.6370851219
 21
176.1703323944
  0
LINE
  5
30C
100
AcDbEntity
  8
0
100
AcDbLine
 62
7
  6
CONTINUOUS
 10
178.319311407
 20
509.0118696808
 11
178.319311407
 21
217.13808654
  0
LINE
  5
30D
100
AcDbEntity
  8
0
100
AcDbLine
 62
7
  6
CONTINUOUS
 10
180.089201182
 20
174.5464597927
 11
180.089201182
 21
172.1106513449
  0
LINE
  5
30E
100
AcDbEntity
  8
0
100
AcDbLine
 62
7
  6
CONTINUOUS
 10
180.5796830305
 20
119.0575093744
 11
180.5796830305
 21
120.8501698146
  0
LINE
  5
30F
100
AcDbEntity
  8
0
100
AcDbLine
 62
7
  6
CONTINUOUS
 10
178.319311407
 20
261.1750666835
 11
166.625673581
 21
258.0417658714
  0
LINE
  5
310
100
AcDbEntity
  8
0
100
AcDbLine
 62
7
  6
CONTINUOUS
 10
222.0129492329
 20
258.0417658714
 11
210.319311407
 21
261.1750666835
  0
LINE
  5
311
100
AcDbEntity
  8
0
100
AcDbLine
 62
7
  6
CONTINUOUS
 10
212.5297574377
 20
169.5124556825
 11
211.0312767417
 21
173.2473620752
  0
LINE
  5
312
100
AcDbEntity
  8
0
100
AcDbLine
 62
7
  6
CONTINUOUS
 10
210.0322899287
 20
172.9225876458
 11
211.3642725049
 21
169.5124556825
  0
LINE
  5
313
100
AcDbEntity
  8
0
100
AcDbLine
 62
7
  6
CONTINUOUS
 10
211.1977748615
 20
175.8455579651
 11
211.3642725049
 21
175.358396321
  0
LINE
  5
314
100
AcDbEntity
  8
0
100
AcDbLine
 62
7
  6
CONTINUOUS
 10
212.3632593179
 20
175.358396321
 11
212.1967611982
 21
175.8455579651
  0
LINE
  5
315
100
AcDbEntity
  8
0
100
AcDbLine
 62
7
  6
CONTINUOUS
 10
181.043226182
 20
172.1106513449
 11
181.043226182
 21
174.5464597927
  0
LINE
  5
316
100
AcDbEntity
  8
0
100
AcDbLine
 62
7
  6
CONTINUOUS
 10
183.6929651129
 20
121.5395592484
 11
183.6929651129
 21
118.3786868645
  0
LINE
  5
317
100
AcDbEntity
  8
0
100
AcDbLine
 62
7
  6
CONTINUOUS
 10
185.069311407
 20
140.1344781104
 11
185.069311407
 21
121.7837386921
  0
LINE
  5
318
100
AcDbEntity
  8
KONSTRUKTIONSELEMENTE
100
AcDbLine
 62
7
  6
CONTINUOUS
 10
185.069311407
 20
140.1344781104
 11
185.069311407
 21
163.3249781104
  0
LINE
  5
319
100
AcDbEntity
  8
0
100
AcDbLine
 62
7
  6
CONTINUOUS
 10
185.2289651129
 20
118.3786868645
 11
185.2289651129
 21
123.2024749543
  0
LINE
  5
31A
100
AcDbEntity
  8
0
100
AcDbLine
 62
7
  6
CONTINUOUS
 10
185.2289651129
 20
123.7229055452
 11
185.2289651129
 21
125.2234805064
  0
LINE
  5
31B
100
AcDbEntity
  8
KONSTRUKTIONSELEMENTE
100
AcDbLine
 62
7
  6
CONTINUOUS
 10
186.319311407
 20
159.8858549201
 11
186.319311407
 21
167.9561113388
  0
LINE
  5
31C
100
AcDbEntity
  8
KONSTRUKTIONSELEMENTE
100
AcDbLine
 62
7
  6
CONTINUOUS
 10
186.319311407
 20
190.9985532923
 11
186.319311407
 21
201.6051550101
  0
LINE
  5
31D
100
AcDbEntity
  8
0
100
AcDbLine
 62
7
  6
CONTINUOUS
 10
189.0689651129
 20
122.6367895293
 11
189.0689651129
 21
123.2024749543
  0
LINE
  5
31E
100
AcDbEntity
  8
0
100
AcDbLine
 62
7
  6
CONTINUOUS
 10
190.7044027433
 20
122.8060277108
 11
190.7044027433
 21
123.3717131358
  0
LINE
  5
31F
100
AcDbEntity
  8
KONSTRUKTIONSELEMENTE
100
AcDbLine
 62
7
  6
CONTINUOUS
 10
190.819311407
 20
159.8858549201
 11
190.819311407
 21
170.4924566379
  0
LINE
  5
320
100
AcDbEntity
  8
KONSTRUKTIONSELEMENTE
100
AcDbLine
 62
7
  6
CONTINUOUS
 10
190.819311407
 20
190.9985532923
 11
190.819311407
 21
201.4670584975
  0
LINE
  5
321
100
AcDbEntity
  8
0
100
AcDbLine
 62
7
  6
CONTINUOUS
 10
191.4420318436
 20
125.5140542077
 11
191.4420318436
 21
124.9483687828
  0
LINE
  5
322
100
AcDbEntity
  8
KONSTRUKTIONSELEMENTE
100
AcDbLine
 62
7
  6
CONTINUOUS
 10
191.819311407
 20
151.2791781104
 11
191.819311407
 21
161.5368849949
  0
LINE
  5
323
100
AcDbEntity
  8
KONSTRUKTIONSELEMENTE
100
AcDbLine
 62
7
  6
CONTINUOUS
 10
191.819311407
 20
200.2473645987
 11
191.819311407
 21
201.2772787378
  0
LINE
  5
324
100
AcDbEntity
  8
KONSTRUKTIONSELEMENTE
100
AcDbLine
 62
7
  6
CONTINUOUS
 10
192.069311407
 20
169.7413961533
 11
192.069311407
 21
172.2848970566
  0
LINE
  5
325
100
AcDbEntity
  8
KONSTRUKTIONSELEMENTE
100
AcDbLine
 62
7
  6
CONTINUOUS
 10
192.069311407
 20
187.1986008273
 11
192.069311407
 21
191.7496137769
  0
LINE
  5
326
100
AcDbEntity
  8
0
100
AcDbLine
 62
7
  6
CONTINUOUS
 10
192.54569138
 20
118.3786868645
 11
192.54569138
 21
118.9443722894
  0
LINE
  5
327
100
AcDbEntity
  8
0
100
AcDbLine
 62
7
  6
CONTINUOUS
 10
195.2129651129
 20
127.2033794937
 11
195.2129651129
 21
121.6198781394
  0
LINE
  5
328
100
AcDbEntity
  8
KONSTRUKTIONSELEMENTE
100
AcDbLine
 62
7
  6
CONTINUOUS
 10
196.569311407
 20
169.7413961533
 11
196.569311407
 21
172.2848970566
  0
LINE
  5
329
100
AcDbEntity
  8
KONSTRUKTIONSELEMENTE
100
AcDbLine
 62
7
  6
CONTINUOUS
 10
196.569311407
 20
187.1986008273
 11
196.569311407
 21
191.7496137769
  0
LINE
  5
32A
100
AcDbEntity
  8
0
100
AcDbLine
 62
7
  6
CONTINUOUS
 10
196.7489651129
 20
121.6198781394
 11
196.7489651129
 21
127.2033794937
  0
LINE
  5
32B
100
AcDbEntity
  8
KONSTRUKTIONSELEMENTE
100
AcDbLine
 62
7
  6
CONTINUOUS
 10
196.819311407
 20
151.2791781104
 11
196.819311407
 21
161.5368849949
  0
LINE
  5
32C
100
AcDbEntity
  8
KONSTRUKTIONSELEMENTE
100
AcDbLine
 62
7
  6
CONTINUOUS
 10
196.819311407
 20
200.2473645987
 11
196.819311407
 21
201.2772787378
  0
LINE
  5
32D
100
AcDbEntity
  8
0
100
AcDbLine
 62
7
  6
CONTINUOUS
 10
173.2520226219
 20
171.2987152715
 11
173.4110270918
 21
172.1106513449
  0
LINE
  5
32E
100
AcDbEntity
  8
0
100
AcDbLine
 62
7
  6
CONTINUOUS
 10
166.625673581
 20
258.0417658714
 11
146.352523646
 21
237.7686159364
  0
LINE
  5
32F
100
AcDbEntity
  8
0
100
AcDbLine
 62
7
  6
CONTINUOUS
 10
242.286099168
 20
237.7686159364
 11
222.0129492329
 21
258.0417658714
  0
LINE
  5
330
100
AcDbEntity
  8
0
100
AcDbLine
 62
7
  6
CONTINUOUS
 10
225.1835907206
 20
171.6234897009
 11
225.5165850547
 21
170.8115535137
  0
LINE
  5
331
100
AcDbEntity
  8
0
100
AcDbLine
 62
7
  6
CONTINUOUS
 10
231.0110125265
 20
172.4354260018
 11
230.6780181924
 21
173.2473620752
  0
LINE
  5
332
100
AcDbEntity
  8
0
100
AcDbLine
 62
7
  6
CONTINUOUS
 10
219.1896688896
 20
175.6831707504
 11
219.3561670093
 21
175.1960086514
  0
LINE
  5
333
100
AcDbEntity
  8
0
100
AcDbLine
 62
7
  6
CONTINUOUS
 10
226.1825775336
 20
171.2987152715
 11
226.0160784612
 21
171.7858769156
  0
LINE
  5
334
100
AcDbEntity
  8
0
100
AcDbLine
 62
7
  6
CONTINUOUS
 10
230.0120257134
 20
172.7602004311
 11
230.1785247859
 21
172.2730385596
  0
LINE
  5
335
100
AcDbEntity
  8
0
100
AcDbLine
 62
7
  6
CONTINUOUS
 10
230.6780181924
 20
175.358396321
 11
230.5115191199
 21
175.8455579651
  0
LINE
  5
336
100
AcDbEntity
  8
0
100
AcDbLine
 62
7
  6
CONTINUOUS
 10
215.0272244703
 20
171.4611024862
 11
214.8607263506
 21
172.1106513449
  0
LINE
  5
337
100
AcDbEntity
  8
0
100
AcDbLine
 62
7
  6
CONTINUOUS
 10
213.8617395375
 20
172.1106513449
 11
214.0282376572
 21
171.2987152715
  0
LINE
  5
338
100
AcDbEntity
  8
KONSTRUKTIONSELEMENTE
100
AcDbLine
 62
7
  6
CONTINUOUS
 10
197.819311407
 20
201.4670584975
 11
197.819311407
 21
190.9985532923
  0
LINE
  5
339
100
AcDbEntity
  8
KONSTRUKTIONSELEMENTE
100
AcDbLine
 62
7
  6
CONTINUOUS
 10
197.819311407
 20
170.4924566379
 11
197.819311407
 21
159.8858549201
  0
LINE
  5
33A
100
AcDbEntity
  8
KONSTRUKTIONSELEMENTE
100
AcDbLine
 62
7
  6
CONTINUOUS
 10
202.319311407
 20
201.6051550101
 11
202.319311407
 21
190.9985532923
  0
LINE
  5
33B
100
AcDbEntity
  8
KONSTRUKTIONSELEMENTE
100
AcDbLine
 62
7
  6
CONTINUOUS
 10
202.319311407
 20
167.9561113388
 11
202.319311407
 21
159.8858549201
  0
LINE
  5
33C
100
AcDbEntity
  8
0
100
AcDbLine
 62
7
  6
CONTINUOUS
 10
202.7875816898
 20
127.2033794937
 11
202.7875816898
 21
121.6198781394
  0
LINE
  5
33D
100
AcDbEntity
  8
0
100
AcDbLine
 62
7
  6
CONTINUOUS
 10
203.569311407
 20
121.7837386921
 11
203.569311407
 21
140.1344781104
  0
LINE
  5
33E
100
AcDbEntity
  8
KONSTRUKTIONSELEMENTE
100
AcDbLine
 62
7
  6
CONTINUOUS
 10
203.569311407
 20
140.1344781104
 11
203.569311407
 21
163.3249781104
  0
LINE
  5
33F
100
AcDbEntity
  8
0
100
AcDbLine
 62
7
  6
CONTINUOUS
 10
203.871871407
 20
177.1446556825
 11
203.871871407
 21
169.5124556825
  0
LINE
  5
340
100
AcDbEntity
  8
0
100
AcDbLine
 62
7
  6
CONTINUOUS
 10
204.3235816898
 20
121.6198781394
 11
204.3235816898
 21
121.6499225886
  0
LINE
  5
341
100
AcDbEntity
  8
0
100
AcDbLine
 62
7
  6
CONTINUOUS
 10
204.87085822
 20
169.5124556825
 11
204.87085822
 21
177.1446556825
  0
LINE
  5
342
100
AcDbEntity
  8
0
100
AcDbLine
 62
7
  6
CONTINUOUS
 10
206.202840558
 20
177.1446556825
 11
206.202840558
 21
169.5124556825
  0
LINE
  5
343
100
AcDbEntity
  8
0
100
AcDbLine
 62
7
  6
CONTINUOUS
 10
207.2018273711
 20
169.5124556825
 11
207.2018273711
 21
172.9225876458
  0
LINE
  5
344
100
AcDbEntity
  8
0
100
AcDbLine
 62
7
  6
CONTINUOUS
 10
207.2018273711
 20
173.8969109339
 11
207.2018273711
 21
176.3327196091
  0
LINE
  5
345
100
AcDbEntity
  8
0
100
AcDbLine
 62
7
  6
CONTINUOUS
 10
207.6835816898
 20
120.9347231744
 11
207.6835816898
 21
118.3786868645
  0
LINE
  5
346
100
AcDbEntity
  8
0
100
AcDbLine
 62
7
  6
CONTINUOUS
 10
209.2195816898
 20
119.5100577144
 11
209.2195816898
 21
120.5571146712
  0
LINE
  5
347
100
AcDbEntity
  8
0
100
AcDbLine
 62
7
  6
CONTINUOUS
 10
210.319311407
 20
509.0118696808
 11
210.319311407
 21
217.13808654
  0
LINE
  5
348
100
AcDbEntity
  8
0
100
AcDbLine
 62
7
  6
CONTINUOUS
 10
211.3642725049
 20
175.358396321
 11
211.3642725049
 21
174.871234222
  0
LINE
  5
349
100
AcDbEntity
  8
0
100
AcDbLine
 62
7
  6
CONTINUOUS
 10
212.3632593179
 20
174.7088470073
 11
212.3632593179
 21
175.358396321
  0
LINE
  5
34A
100
AcDbEntity
  8
0
100
AcDbLine
 62
7
  6
CONTINUOUS
 10
213.8617395375
 20
174.5464597927
 11
213.8617395375
 21
172.1106513449
  0
LINE
  5
34B
100
AcDbEntity
  8
0
100
AcDbLine
 62
7
  6
CONTINUOUS
 10
180.8842226219
 20
171.2987152715
 11
181.043226182
 21
172.1106513449
  0
LINE
  5
34C
100
AcDbEntity
  8
0
100
AcDbLine
 62
7
  6
CONTINUOUS
 10
172.4570020918
 20
172.1106513449
 11
172.2979976219
 21
171.4611024862
  0
LINE
  5
34D
100
AcDbEntity
  8
0
100
AcDbLine
 62
7
  6
CONTINUOUS
 10
180.089201182
 20
172.1106513449
 11
179.9301976219
 21
171.4611024862
  0
LINE
  5
34E
100
AcDbEntity
  8
0
100
AcDbLine
 62
7
  6
CONTINUOUS
 10
165.3018141369
 20
174.871234222
 11
165.1428101219
 21
174.384072578
  0
LINE
  5
34F
100
AcDbEntity
  8
0
100
AcDbLine
 62
7
  6
CONTINUOUS
 10
166.0968351219
 20
174.2216853633
 11
166.2558391369
 21
174.7088470073
  0
LINE
  5
350
100
AcDbEntity
  8
0
100
AcDbLine
 62
7
  6
CONTINUOUS
 10
220.3551538224
 20
175.1960086514
 11
220.1886566553
 21
176.0079451797
  0
LINE
  5
351
100
AcDbEntity
  8
0
100
AcDbLine
 62
7
  6
CONTINUOUS
 10
225.0170916481
 20
172.7602004311
 11
225.1835907206
 21
171.6234897009
  0
LINE
  5
352
100
AcDbEntity
  8
0
100
AcDbLine
 62
7
  6
CONTINUOUS
 10
214.8607263506
 20
172.1106513449
 11
214.8607263506
 21
174.5464597927
  0
LINE
  5
353
100
AcDbEntity
  8
0
100
AcDbLine
 62
7
  6
CONTINUOUS
 10
217.8576867897
 20
173.7345237192
 11
217.8576867897
 21
172.7602004311
  0
LINE
  5
354
100
AcDbEntity
  8
0
100
AcDbLine
 62
7
  6
CONTINUOUS
 10
219.3561670093
 20
172.7602004311
 11
219.3561670093
 21
171.4611024862
  0
LINE
  5
355
100
AcDbEntity
  8
KONSTRUKTIONSELEMENTE
100
AcDbLine
 62
7
  6
CONTINUOUS
 10
219.709390923
 20
140.1344781104
 11
219.709390923
 21
143.2119781104
  0
LINE
  5
356
100
AcDbEntity
  8
0
100
AcDbLine
 62
7
  6
CONTINUOUS
 10
220.3551538224
 20
171.2987152715
 11
220.3551538224
 21
173.7345237192
  0
LINE
  5
357
100
AcDbEntity
  8
0
100
AcDbLine
 62
7
  6
CONTINUOUS
 10
221.6871368749
 20
176.0079451797
 11
221.6871368749
 21
174.7088470073
  0
LINE
  5
358
100
AcDbEntity
  8
0
100
AcDbLine
 62
7
  6
CONTINUOUS
 10
222.686123688
 20
175.8455579651
 11
222.686123688
 21
169.5124556825
  0
LINE
  5
359
100
AcDbEntity
  8
0
100
AcDbLine
 62
7
  6
CONTINUOUS
 10
223.685110501
 20
169.5124556825
 11
223.685110501
 21
177.1446556825
  0
LINE
  5
35A
100
AcDbEntity
  8
0
100
AcDbLine
 62
7
  6
CONTINUOUS
 10
225.0170916481
 20
173.8969109339
 11
225.0170916481
 21
172.7602004311
  0
LINE
  5
35B
100
AcDbEntity
  8
0
100
AcDbLine
 62
7
  6
CONTINUOUS
 10
225.8495812942
 20
173.5721365046
 11
225.8495812942
 21
173.8969109339
  0
LINE
  5
35C
100
AcDbEntity
  8
0
100
AcDbLine
 62
7
  6
CONTINUOUS
 10
226.0160784612
 20
171.7858769156
 11
226.0160784612
 21
172.2730385596
  0
LINE
  5
35D
100
AcDbEntity
  8
0
100
AcDbLine
 62
7
  6
CONTINUOUS
 10
230.1785247859
 20
172.2730385596
 11
230.1785247859
 21
171.7858769156
  0
LINE
  5
35E
100
AcDbEntity
  8
0
100
AcDbLine
 62
7
  6
CONTINUOUS
 10
231.0110125265
 20
171.6234897009
 11
231.0110125265
 21
172.4354260018
  0
LINE
  5
35F
100
AcDbEntity
  8
0
100
AcDbLine
 62
7
  6
CONTINUOUS
 10
172.9340145918
 20
170.649166299
 11
173.2520226219
 21
171.2987152715
  0
LINE
  5
360
100
AcDbEntity
  8
0
100
AcDbLine
 62
7
  6
CONTINUOUS
 10
180.566213682
 20
170.649166299
 11
180.8842226219
 21
171.2987152715
  0
LINE
  5
361
100
AcDbEntity
  8
0
100
AcDbLine
 62
7
  6
CONTINUOUS
 10
249.7065870589
 20
210.0749781104
 11
242.286099168
 21
237.7686159364
  0
LINE
  5
362
100
AcDbEntity
  8
RUNDUNGEN
100
AcDbLine
 62
7
  6
CONTINUOUS
 10
236.469311407
 20
47.1023233209
 11
236.469311407
 21
39.8898341528
  0
LINE
  5
363
100
AcDbEntity
  8
RUNDUNGEN
100
AcDbLine
 62
7
  6
CONTINUOUS
 10
239.819311407
 20
125.5772281104
 11
239.819311407
 21
177.0749781104
  0
LINE
  5
364
100
AcDbEntity
  8
0
100
AcDbLine
 62
7
  6
CONTINUOUS
 10
242.286099168
 20
166.3958487601
 11
242.286099168
 21
182.3813402844
  0
LINE
  5
365
100
AcDbEntity
  8
0
100
AcDbLine
 62
7
  6
CONTINUOUS
 10
225.1835907206
 20
175.0336214367
 11
225.0170916481
 21
173.8969109339
  0
LINE
  5
366
100
AcDbEntity
  8
0
100
AcDbLine
 62
7
  6
CONTINUOUS
 10
225.8495812942
 20
173.8969109339
 11
226.0160784612
 21
174.871234222
  0
LINE
  5
367
100
AcDbEntity
  8
0
100
AcDbLine
 62
7
  6
CONTINUOUS
 10
214.0282376572
 20
175.358396321
 11
213.8617395375
 21
174.5464597927
  0
LINE
  5
368
100
AcDbEntity
  8
0
100
AcDbLine
 62
7
  6
CONTINUOUS
 10
214.8607263506
 20
174.5464597927
 11
215.0272244703
 21
175.1960086514
  0
LINE
  5
369
100
AcDbEntity
  8
0
100
AcDbLine
 62
7
  6
CONTINUOUS
 10
220.1886566553
 20
170.649166299
 11
220.3551538224
 21
171.2987152715
  0
LINE
  5
36A
100
AcDbEntity
  8
0
100
AcDbLine
 62
7
  6
CONTINUOUS
 10
211.3642725049
 20
174.871234222
 11
211.1977748615
 21
174.384072578
  0
LINE
  5
36B
100
AcDbEntity
  8
0
100
AcDbLine
 62
7
  6
CONTINUOUS
 10
212.1967611982
 20
174.2216853633
 11
212.3632593179
 21
174.7088470073
  0
LINE
  5
36C
100
AcDbEntity
  8
0
100
AcDbLine
 62
7
  6
CONTINUOUS
 10
172.2979976219
 20
171.4611024862
 11
171.9799895918
 21
170.9739408421
  0
LINE
  5
36D
100
AcDbEntity
  8
0
100
AcDbLine
 62
7
  6
CONTINUOUS
 10
179.9301976219
 20
171.4611024862
 11
179.612188682
 21
170.9739408421
  0
LINE
  5
36E
100
AcDbEntity
  8
0
100
AcDbLine
 62
7
  6
CONTINUOUS
 10
165.6198226219
 20
173.5721365046
 11
166.0968351219
 21
174.2216853633
  0
LINE
  5
36F
100
AcDbEntity
  8
RUNDUNGEN
100
AcDbLine
 62
7
  6
CONTINUOUS
 10
248.819311407
 20
44.9810029773
 11
248.819311407
 21
58.0466460885
  0
LINE
  5
370
100
AcDbEntity
  8
0
100
AcDbLine
 62
7
  6
CONTINUOUS
 10
219.3561670093
 20
171.4611024862
 11
219.1896688896
 21
170.9739408421
  0
LINE
  5
371
100
AcDbEntity
  8
0
100
AcDbLine
 62
7
  6
CONTINUOUS
 10
226.0160784612
 20
174.871234222
 11
226.1825775336
 21
175.358396321
  0
LINE
  5
372
100
AcDbEntity
  8
0
100
AcDbLine
 62
7
  6
CONTINUOUS
 10
226.0160784612
 20
172.2730385596
 11
226.1825775336
 21
172.7602004311
  0
LINE
  5
373
100
AcDbEntity
  8
0
100
AcDbLine
 62
7
  6
CONTINUOUS
 10
230.1785247859
 20
171.7858769156
 11
230.0120257134
 21
171.2987152715
  0
LINE
  5
374
100
AcDbEntity
  8
0
100
AcDbLine
 62
7
  6
CONTINUOUS
 10
225.5165850547
 20
175.8455579651
 11
225.1835907206
 21
175.0336214367
  0
LINE
  5
375
100
AcDbEntity
  8
0
100
AcDbLine
 62
7
  6
CONTINUOUS
 10
214.361232944
 20
176.0079451797
 11
214.0282376572
 21
175.358396321
  0
LINE
  5
376
100
AcDbEntity
  8
0
100
AcDbLine
 62
7
  6
CONTINUOUS
 10
165.1428101219
 20
174.384072578
 11
164.8248016369
 21
174.0592981486
  0
LINE
  5
377
100
AcDbEntity
  8
0
100
AcDbLine
 62
7
  6
CONTINUOUS
 10
172.2979976219
 20
169.9996173834
 11
172.9340145918
 21
170.649166299
  0
LINE
  5
378
100
AcDbEntity
  8
0
100
AcDbLine
 62
7
  6
CONTINUOUS
 10
179.9301976219
 20
169.9996173834
 11
180.566213682
 21
170.649166299
  0
LINE
  5
379
100
AcDbEntity
  8
RUNDUNGEN
100
AcDbLine
 62
7
  6
CONTINUOUS
 10
265.1503556226
 20
143.9683371512
 11
265.1503556226
 21
147.5038710571
  0
LINE
  5
37A
100
AcDbEntity
  8
0
100
AcDbLine
 62
7
  6
CONTINUOUS
 10
242.286099168
 20
166.3958487601
 11
239.819311407
 21
154.790524786
  0
LINE
  5
37B
100
AcDbEntity
  8
0
100
AcDbLine
 62
7
  6
CONTINUOUS
 10
242.286099168
 20
182.3813402844
 11
249.7065870589
 21
210.0749781104
  0
LINE
  5
37C
100
AcDbEntity
  8
0
100
AcDbLine
 62
7
  6
CONTINUOUS
 10
230.6780181924
 20
170.8115535137
 11
231.0110125265
 21
171.6234897009
  0
LINE
  5
37D
100
AcDbEntity
  8
0
100
AcDbLine
 62
7
  6
CONTINUOUS
 10
215.0272244703
 20
175.1960086514
 11
215.3602197571
 21
175.6831707504
  0
LINE
  5
37E
100
AcDbEntity
  8
0
100
AcDbLine
 62
7
  6
CONTINUOUS
 10
226.1825775336
 20
175.358396321
 11
226.5155718677
 21
175.8455579651
  0
LINE
  5
37F
100
AcDbEntity
  8
0
100
AcDbLine
 62
7
  6
CONTINUOUS
 10
211.697268268
 20
173.5721365046
 11
212.1967611982
 21
174.2216853633
  0
LINE
  5
380
100
AcDbEntity
  8
0
100
AcDbLine
 62
7
  6
CONTINUOUS
 10
171.9799895918
 20
170.9739408421
 11
171.5029770918
 21
170.649166299
  0
LINE
  5
381
100
AcDbEntity
  8
0
100
AcDbLine
 62
7
  6
CONTINUOUS
 10
179.612188682
 20
170.9739408421
 11
179.135176182
 21
170.649166299
  0
LINE
  5
382
100
AcDbEntity
  8
0
100
AcDbLine
 62
7
  6
CONTINUOUS
 10
164.9838061068
 20
173.2473620752
 11
165.6198226219
 21
173.5721365046
  0
LINE
  5
383
100
AcDbEntity
  8
0
100
AcDbLine
 62
7
  6
CONTINUOUS
 10
230.0120257134
 20
171.2987152715
 11
229.6790313793
 21
170.8115535137
  0
LINE
  5
384
100
AcDbEntity
  8
0
100
AcDbLine
 62
7
  6
CONTINUOUS
 10
226.0160784612
 20
176.4951068238
 11
225.5165850547
 21
175.8455579651
  0
LINE
  5
385
100
AcDbEntity
  8
0
100
AcDbLine
 62
7
  6
CONTINUOUS
 10
230.1785247859
 20
170.1620045981
 11
230.6780181924
 21
170.8115535137
  0
LINE
  5
386
100
AcDbEntity
  8
0
100
AcDbLine
 62
7
  6
CONTINUOUS
 10
222.686123688
 20
177.1446556825
 11
221.6871368749
 21
176.0079451797
  0
LINE
  5
387
100
AcDbEntity
  8
0
100
AcDbLine
 62
7
  6
CONTINUOUS
 10
221.6871368749
 20
174.7088470073
 11
222.686123688
 21
175.8455579651
  0
LINE
  5
388
100
AcDbEntity
  8
0
100
AcDbLine
 62
7
  6
CONTINUOUS
 10
211.1977748615
 20
174.384072578
 11
210.8647790983
 21
174.0592981486
  0
LINE
  5
389
100
AcDbEntity
  8
0
100
AcDbLine
 62
7
  6
CONTINUOUS
 10
215.0272244703
 20
176.6574940385
 11
214.361232944
 21
176.0079451797
  0
LINE
  5
38A
100
AcDbEntity
  8
0
100
AcDbLine
 62
7
  6
CONTINUOUS
 10
219.522665129
 20
169.9996173834
 11
220.1886566553
 21
170.649166299
  0
LINE
  5
38B
100
AcDbEntity
  8
0
100
AcDbLine
 62
7
  6
CONTINUOUS
 10
226.1825775336
 20
172.7602004311
 11
226.5155718677
 21
173.0849748605
  0
LINE
  5
38C
100
AcDbEntity
  8
0
100
AcDbLine
 62
7
  6
CONTINUOUS
 10
215.3602197571
 20
175.6831707504
 11
215.8597131636
 21
176.0079451797
  0
LINE
  5
38D
100
AcDbEntity
  8
0
100
AcDbLine
 62
7
  6
CONTINUOUS
 10
171.6619806519
 20
169.6748429114
 11
172.2979976219
 21
169.9996173834
  0
LINE
  5
38E
100
AcDbEntity
  8
0
100
AcDbLine
 62
7
  6
CONTINUOUS
 10
179.2941815618
 20
169.6748429114
 11
179.9301976219
 21
169.9996173834
  0
LINE
  5
38F
100
AcDbEntity
  8
RUNDUNGEN
100
AcDbLine
 62
7
  6
CONTINUOUS
 10
130.6979664326
 20
151.993789378
 11
129.059662344
 21
151.1826298026
  0
LINE
  5
390
100
AcDbEntity
  8
RUNDUNGEN
100
AcDbLine
 62
7
  6
CONTINUOUS
 10
130.6979664326
 20
148.4582554721
 11
129.059662344
 21
147.6470958967
  0
LINE
  5
391
100
AcDbEntity
  8
0
100
AcDbLine
 62
7
  6
CONTINUOUS
 10
164.8248016369
 20
174.0592981486
 11
164.3477891369
 21
173.8969109339
  0
LINE
  5
392
100
AcDbEntity
  8
RUNDUNGEN
100
AcDbLine
 62
7
  6
CONTINUOUS
 10
239.819311407
 20
125.5772281104
 11
232.4338496541
 21
113.5758527621
  0
LINE
  5
393
100
AcDbEntity
  8
RUNDUNGEN
100
AcDbLine
 62
7
  6
CONTINUOUS
 10
164.746354375
 20
85.002897997
 11
141.2660950526
 21
61.2912843899
  0
LINE
  5
394
100
AcDbEntity
  8
RUNDUNGEN
100
AcDbLine
 62
7
  6
CONTINUOUS
 10
164.746354375
 20
81.4673640911
 11
141.2660950526
 21
57.755750484
  0
LINE
  5
395
100
AcDbEntity
  8
0
100
AcDbLine
 62
7
  6
CONTINUOUS
 10
226.5155718677
 20
175.8455579651
 11
227.0150652742
 21
176.1703323944
  0
LINE
  5
396
100
AcDbEntity
  8
0
100
AcDbLine
 62
7
  6
CONTINUOUS
 10
219.1896688896
 20
170.9739408421
 11
218.690175483
 21
170.649166299
  0
LINE
  5
397
100
AcDbEntity
  8
0
100
AcDbLine
 62
7
  6
CONTINUOUS
 10
226.8485681072
 20
174.2216853633
 11
225.8495812942
 21
173.5721365046
  0
LINE
  5
398
100
AcDbEntity
  8
0
100
AcDbLine
 62
7
  6
CONTINUOUS
 10
226.5155718677
 20
173.0849748605
 11
227.0150652742
 21
173.4097492899
  0
LINE
  5
399
100
AcDbEntity
  8
0
100
AcDbLine
 62
7
  6
CONTINUOUS
 10
229.6790313793
 20
170.8115535137
 11
229.1795379728
 21
170.4867790844
  0
LINE
  5
39A
100
AcDbEntity
  8
0
100
AcDbLine
 62
7
  6
CONTINUOUS
 10
226.8485681072
 20
176.9822684678
 11
226.0160784612
 21
176.4951068238
  0
LINE
  5
39B
100
AcDbEntity
  8
0
100
AcDbLine
 62
7
  6
CONTINUOUS
 10
229.3460351398
 20
169.6748429114
 11
230.1785247859
 21
170.1620045981
  0
LINE
  5
39C
100
AcDbEntity
  8
RUNDUNGEN
100
AcDbLine
 62
7
  6
CONTINUOUS
 10
139.9164020245
 20
137.9161862909
 11
134.5919137366
 21
135.2799176711
  0
LINE
  5
39D
100
AcDbEntity
  8
RUNDUNGEN
100
AcDbLine
 62
7
  6
CONTINUOUS
 10
143.5397061437
 20
129.7794953177
 11
148.819311407
 21
132.3935413872
  0
LINE
  5
39E
100
AcDbEntity
  8
RUNDUNGEN
100
AcDbLine
 62
7
  6
CONTINUOUS
 10
143.5397061437
 20
126.2439614118
 11
148.819311407
 21
128.8580074813
  0
LINE
  5
39F
100
AcDbEntity
  8
0
100
AcDbLine
 62
7
  6
CONTINUOUS
 10
215.6932150439
 20
176.9822684678
 11
215.0272244703
 21
176.6574940385
  0
LINE
  5
3A0
100
AcDbEntity
  8
0
100
AcDbLine
 62
7
  6
CONTINUOUS
 10
211.0312767417
 20
173.2473620752
 11
211.697268268
 21
173.5721365046
  0
LINE
  5
3A1
100
AcDbEntity
  8
0
100
AcDbLine
 62
7
  6
CONTINUOUS
 10
218.8566736028
 20
169.6748429114
 11
219.522665129
 21
169.9996173834
  0
LINE
  5
3A2
100
AcDbEntity
  8
0
100
AcDbLine
 62
7
  6
CONTINUOUS
 10
210.8647790983
 20
174.0592981486
 11
210.3652856918
 21
173.8969109339
  0
LINE
  5
3A3
100
AcDbEntity
  8
0
100
AcDbLine
 62
7
  6
CONTINUOUS
 10
227.0150652742
 20
176.1703323944
 11
227.5145586808
 21
176.3327196091
  0
LINE
  5
3A4
100
AcDbEntity
  8
0
100
AcDbLine
 62
7
  6
CONTINUOUS
 10
227.0150652742
 20
173.4097492899
 11
227.5145586808
 21
173.5721365046
  0
LINE
  5
3A5
100
AcDbEntity
  8
0
100
AcDbLine
 62
7
  6
CONTINUOUS
 10
229.1795379728
 20
170.4867790844
 11
228.6800445663
 21
170.3243918697
  0
LINE
  5
3A6
100
AcDbEntity
  8
RUNDUNGEN
100
AcDbLine
 62
7
  6
CONTINUOUS
 10
239.819311407
 20
143.8645174302
 11
249.7487109251
 21
153.8917527129
  0
LINE
  5
3A7
100
AcDbEntity
  8
RUNDUNGEN
100
AcDbLine
 62
7
  6
CONTINUOUS
 10
239.819311407
 20
140.3289835243
 11
249.7487109251
 21
150.356218807
  0
LINE
  5
3A8
100
AcDbEntity
  8
RUNDUNGEN
100
AcDbLine
 62
7
  6
CONTINUOUS
 10
177.7717405062
 20
55.1713935185
 11
186.1277909641
 21
63.6097773123
  0
LINE
  5
3A9
100
AcDbEntity
  8
RUNDUNGEN
100
AcDbLine
 62
7
  6
CONTINUOUS
 10
223.892268439
 20
101.7463534747
 11
264.6982357333
 21
142.954387682
  0
ARC
  5
3AA
100
AcDbEntity
  8
KONSTRUKTIONSELEMENTE
100
AcDbCircle
 62
7
  6
CONTINUOUS
 10
490.4690907361
 20
146.1326280261
 40
9.55
100
AcDbArc
 50
135.0
 51
209.8048644765
  0
ARC
  5
3AB
100
AcDbEntity
  8
KONSTRUKTIONSELEMENTE
100
AcDbCircle
 62
7
  6
CONTINUOUS
 10
490.4690907361
 20
146.1326280261
 40
9.55
100
AcDbArc
 50
240.1951355235
 51
315.0
  0
ARC
  5
3AC
100
AcDbEntity
  8
KONSTRUKTIONSELEMENTE
100
AcDbCircle
 62
7
  6
CONTINUOUS
 10
498.8836614323
 20
154.5471987222
 40
9.55
100
AcDbArc
 50
315.0
 51
31.3702929546
  0
ARC
  5
3AD
100
AcDbEntity
  8
KONSTRUKTIONSELEMENTE
100
AcDbCircle
 62
7
  6
CONTINUOUS
 10
498.8836614323
 20
154.5471987222
 40
9.55
100
AcDbArc
 50
58.6297070454
 51
135.0
  0
ARC
  5
3AE
100
AcDbEntity
  8
KONSTRUKTIONSELEMENTE
100
AcDbCircle
 62
7
  6
CONTINUOUS
 10
490.4690907361
 20
146.1326280261
 40
4.55
100
AcDbArc
 50
135.0
 51
191.6416672297
  0
ARC
  5
3AF
100
AcDbEntity
  8
KONSTRUKTIONSELEMENTE
100
AcDbCircle
 62
7
  6
CONTINUOUS
 10
490.4690907361
 20
146.1326280261
 40
4.55
100
AcDbArc
 50
258.3583327703
 51
315.0
  0
ARC
  5
3B0
100
AcDbEntity
  8
KONSTRUKTIONSELEMENTE
100
AcDbCircle
 62
7
  6
CONTINUOUS
 10
498.8836614323
 20
154.5471987222
 40
4.55
100
AcDbArc
 50
315.0
 51
15.3477978529
  0
ARC
  5
3B1
100
AcDbEntity
  8
KONSTRUKTIONSELEMENTE
100
AcDbCircle
 62
7
  6
CONTINUOUS
 10
498.8836614323
 20
154.5471987222
 40
4.55
100
AcDbArc
 50
74.6522021471
 51
135.0
  0
ARC
  5
3B2
100
AcDbEntity
  8
KONSTRUKTIONSELEMENTE
100
AcDbCircle
 62
7
  6
CONTINUOUS
 10
500.1564536384
 20
155.8199909283
 40
2.25
100
AcDbArc
 50
135.0
 51
315.0
  0
ARC
  5
3B3
100
AcDbEntity
  8
0
100
AcDbCircle
 62
7
  6
CONTINUOUS
 10
530.7911534468
 20
195.9750250998
 40
121.7052235046
100
AcDbArc
 50
1.3942966853
 51
6.6528451095
  0
ARC
  5
3B4
100
AcDbEntity
  8
KONSTRUKTIONSELEMENTE
100
AcDbCircle
 62
7
  6
CONTINUOUS
 10
519.7786668163
 20
175.4422041062
 40
8.0
100
AcDbArc
 50
135.0
 51
208.6357041722
  0
ARC
  5
3B5
100
AcDbEntity
  8
KONSTRUKTIONSELEMENTE
100
AcDbCircle
 62
7
  6
CONTINUOUS
 10
519.7786668163
 20
175.4422041062
 40
8.0
100
AcDbArc
 50
241.3642958278
 51
315.0
  0
ARC
  5
3B6
100
AcDbEntity
  8
KONSTRUKTIONSELEMENTE
100
AcDbCircle
 62
7
  6
CONTINUOUS
 10
530.3852685341
 20
186.048805824
 40
8.0
100
AcDbArc
 50
315.0
 51
28.6357041722
  0
ARC
  5
3B7
100
AcDbEntity
  8
KONSTRUKTIONSELEMENTE
100
AcDbCircle
 62
7
  6
CONTINUOUS
 10
530.3852685341
 20
186.048805824
 40
8.0
100
AcDbArc
 50
61.3642958278
 51
135.0
  0
ARC
  5
3B8
100
AcDbEntity
  8
KONSTRUKTIONSELEMENTE
100
AcDbCircle
 62
7
  6
CONTINUOUS
 10
519.7786668163
 20
175.4422041062
 40
3.5
100
AcDbArc
 50
135.0
 51
184.8461224921
  0
ARC
  5
3B9
100
AcDbEntity
  8
KONSTRUKTIONSELEMENTE
100
AcDbCircle
 62
7
  6
CONTINUOUS
 10
519.7786668163
 20
175.4422041062
 40
3.5
100
AcDbArc
 50
265.1538775079
 51
315.0
  0
ARC
  5
3BA
100
AcDbEntity
  8
KONSTRUKTIONSELEMENTE
100
AcDbCircle
 62
7
  6
CONTINUOUS
 10
530.3852685341
 20
186.048805824
 40
3.5
100
AcDbArc
 50
315.0
 51
4.8461224921
  0
ARC
  5
3BB
100
AcDbEntity
  8
KONSTRUKTIONSELEMENTE
100
AcDbCircle
 62
7
  6
CONTINUOUS
 10
530.3852685341
 20
186.048805824
 40
3.5
100
AcDbArc
 50
85.1538775079
 51
135.0
  0
ARC
  5
3BC
100
AcDbEntity
  8
KONSTRUKTIONSELEMENTE
100
AcDbCircle
 62
7
  6
CONTINUOUS
 10
531.2691520106
 20
186.9326893005
 40
2.25
100
AcDbArc
 50
135.0
 51
315.0
  0
ARC
  5
3BD
100
AcDbEntity
  8
KONSTRUKTIONSELEMENTE
100
AcDbCircle
 62
7
  6
CONTINUOUS
 10
518.8947833398
 20
174.5583206298
 40
2.25
100
AcDbArc
 50
315.0
 51
135.0
  0
ARC
  5
3BE
100
AcDbEntity
  8
KONSTRUKTIONSELEMENTE
100
AcDbCircle
 62
7
  6
CONTINUOUS
 10
551.6338273088
 20
207.2973645987
 40
9.55
100
AcDbArc
 50
135.0
 51
211.3702929546
  0
ARC
  5
3BF
100
AcDbEntity
  8
KONSTRUKTIONSELEMENTE
100
AcDbCircle
 62
7
  6
CONTINUOUS
 10
551.6338273088
 20
207.2973645987
 40
9.55
100
AcDbArc
 50
238.6297070454
 51
315.0
  0
ARC
  5
3C0
100
AcDbEntity
  8
KONSTRUKTIONSELEMENTE
100
AcDbCircle
 62
7
  6
CONTINUOUS
 10
560.0483980049
 20
215.7119352948
 40
9.55
100
AcDbArc
 50
315.0
 51
20.2302350871
  0
ARC
  5
3C1
100
AcDbEntity
  8
KONSTRUKTIONSELEMENTE
100
AcDbCircle
 62
7
  6
CONTINUOUS
 10
560.0483980049
 20
215.7119352948
 40
9.55
100
AcDbArc
 50
69.7697649129
 51
135.0
  0
ARC
  5
3C2
100
AcDbEntity
  8
KONSTRUKTIONSELEMENTE
100
AcDbCircle
 62
7
  6
CONTINUOUS
 10
551.6338273088
 20
207.2973645987
 40
4.55
100
AcDbArc
 50
135.0
 51
195.3477978529
  0
ARC
  5
3C3
100
AcDbEntity
  8
KONSTRUKTIONSELEMENTE
100
AcDbCircle
 62
7
  6
CONTINUOUS
 10
551.6338273088
 20
207.2973645987
 40
4.55
100
AcDbArc
 50
254.6522021471
 51
315.0
  0
ARC
  5
3C4
100
AcDbEntity
  8
KONSTRUKTIONSELEMENTE
100
AcDbCircle
 62
7
  6
CONTINUOUS
 10
560.0483980049
 20
215.7119352948
 40
4.55
100
AcDbArc
 50
315.0
 51
343.1962591458
  0
ARC
  5
3C5
100
AcDbEntity
  8
KONSTRUKTIONSELEMENTE
100
AcDbCircle
 62
7
  6
CONTINUOUS
 10
560.0483980049
 20
215.7119352948
 40
4.55
100
AcDbArc
 50
106.8037408542
 51
135.0
  0
ARC
  5
3C6
100
AcDbEntity
  8
KONSTRUKTIONSELEMENTE
100
AcDbCircle
 62
7
  6
CONTINUOUS
 10
600.7423932622
 20
256.4059305521
 40
4.0
100
AcDbArc
 50
315.0
 51
135.0
  0
ARC
  5
3C7
100
AcDbEntity
  8
KONSTRUKTIONSELEMENTE
100
AcDbCircle
 62
7
  6
CONTINUOUS
 10
559.7301999534
 20
215.3937372433
 40
4.0
100
AcDbArc
 50
135.0
 51
315.0
  0
ARC
  5
3C8
100
AcDbEntity
  8
KONSTRUKTIONSELEMENTE
100
AcDbCircle
 62
7
  6
CONTINUOUS
 10
550.007481712
 20
205.671019002
 40
2.25
100
AcDbArc
 50
315.0
 51
135.0
  0
ARC
  5
3C9
100
AcDbEntity
  8
0
100
AcDbCircle
 62
7
  6
CONTINUOUS
 10
764.0317281942
 20
195.9750250998
 40
121.7052235046
100
AcDbArc
 50
173.3471548905
 51
178.6057033147
  0
ARC
  5
3CA
100
AcDbEntity
  8
0
100
AcDbCircle
 62
7
  6
CONTINUOUS
 10
646.3156408205
 20
135.9791781104
 40
22.4042
100
AcDbArc
 50
180.0
 51
270.0
  0
ARC
  5
3CB
100
AcDbEntity
  8
RUNDUNGEN
100
AcDbCircle
 62
7
  6
CONTINUOUS
 10
648.5072408205
 20
135.9791781104
 40
22.4042
100
AcDbArc
 50
274.0706633568
 51
360.0
  0
ARC
  5
3CC
100
AcDbEntity
  8
RUNDUNGEN
100
AcDbCircle
 62
7
  6
CONTINUOUS
 10
648.5072402795
 20
135.7564935689
 40
22.1806408068
100
AcDbArc
 50
270.0000013974
 51
270.2848421362
  0
ARC
  5
3CD
100
AcDbEntity
  8
0
100
AcDbCircle
 62
7
  6
CONTINUOUS
 10
646.3152546682
 20
135.7283898095
 40
22.1525370508
100
AcDbArc
 50
266.6842159644
 51
270.0009987523
  0
ARC
  5
3CE
100
AcDbEntity
  8
RUNDUNGEN
100
AcDbCircle
 62
7
  6
CONTINUOUS
 10
648.5077772568
 20
135.7245565631
 40
22.1487015294
100
AcDbArc
 50
270.2838637861
 51
273.3159694596
  0
ARC
  5
3CF
100
AcDbEntity
  8
0
100
AcDbCircle
 62
7
  6
CONTINUOUS
 10
646.3097630519
 20
135.6231849883
 40
22.0471907291
100
AcDbArc
 50
266.020902303
 51
266.6826501372
  0
ARC
  5
3D0
100
AcDbEntity
  8
RUNDUNGEN
100
AcDbCircle
 62
7
  6
CONTINUOUS
 10
648.5133181708
 20
135.6199687809
 40
22.0439683619
100
AcDbArc
 50
273.3173157175
 51
274.0587811351
  0
ARC
  5
3D1
100
AcDbEntity
  8
RUNDUNGEN
100
AcDbCircle
 62
7
  6
CONTINUOUS
 10
648.5214153922
 20
135.5103203167
 40
21.9340217825
100
AcDbArc
 50
274.0579556574
 51
275.6632429226
  0
ARC
  5
3D2
100
AcDbEntity
  8
0
100
AcDbCircle
 62
7
  6
CONTINUOUS
 10
646.2960479901
 20
135.4446855314
 40
21.8681698727
100
AcDbArc
 50
263.1276709106
 51
266.0242965022
  0
ARC
  5
3D3
100
AcDbEntity
  8
RUNDUNGEN
100
AcDbCircle
 62
7
  6
CONTINUOUS
 10
648.5379824187
 20
135.3419767971
 40
21.7648650773
100
AcDbArc
 50
275.6635751554
 51
276.8755438613
  0
ARC
  5
3D4
100
AcDbEntity
  8
0
100
AcDbCircle
 62
7
  6
CONTINUOUS
 10
646.2712313829
 20
135.2265044413
 40
21.6485869198
100
AcDbArc
 50
262.7099732879
 51
263.1237838848
  0
ARC
  5
3D5
100
AcDbEntity
  8
RUNDUNGEN
100
AcDbCircle
 62
7
  6
CONTINUOUS
 10
648.5516502586
 20
135.2265044369
 40
21.6485869154
100
AcDbArc
 50
276.8762161151
 51
277.2900267121
  0
ARC
  5
3D6
100
AcDbEntity
  8
RUNDUNGEN
100
AcDbCircle
 62
7
  6
CONTINUOUS
 10
648.5651751674
 20
135.1217362088
 40
21.5429493748
100
AcDbArc
 50
277.2897040062
 51
278.0658511453
  0
ARC
  5
3D7
100
AcDbEntity
  8
RUNDUNGEN
100
AcDbCircle
 62
7
  6
CONTINUOUS
 10
648.6094801735
 20
134.8193498078
 40
21.2373379059
100
AcDbArc
 50
278.0619701498
 51
280.4177290761
  0
ARC
  5
3D8
100
AcDbEntity
  8
RUNDUNGEN
100
AcDbCircle
 62
7
  6
CONTINUOUS
 10
648.673658525
 20
134.4630161942
 40
20.8752733386
100
AcDbArc
 50
280.4213330439
 51
281.4726472152
  0
ARC
  5
3D9
100
AcDbEntity
  8
BEZUGSACHSEN
100
AcDbCircle
 62
7
  6
CONTINUOUS
 10
647.4114408205
 20
245.0749781104
 40
12.0
100
AcDbArc
 50
0.0
 51
23.361736267
  0
ARC
  5
3DA
100
AcDbEntity
  8
BEZUGSACHSEN
100
AcDbCircle
 62
7
  6
CONTINUOUS
 10
647.4114408205
 20
245.0749781104
 40
12.0
100
AcDbArc
 50
156.638263733
 51
180.0
  0
CIRCLE
  5
3DB
100
AcDbEntity
  8
BEZUGSACHSEN
100
AcDbCircle
 62
7
  6
CONTINUOUS
 10
647.4114408205
 20
139.9791781104
 40
11.375
  0
ARC
  5
3DC
100
AcDbEntity
  8
0
100
AcDbCircle
 62
7
  6
CONTINUOUS
 10
636.9114408205
 20
179.5749781104
 40
7.5
100
AcDbArc
 50
94.7389711817
 51
180.0
  0
ARC
  5
3DD
100
AcDbEntity
  8
RUNDUNGEN
100
AcDbCircle
 62
7
  6
CONTINUOUS
 10
657.9114408205
 20
179.5749781104
 40
7.5
100
AcDbArc
 50
0.0
 51
85.2610288183
  0
ARC
  5
3DE
100
AcDbEntity
  8
0
100
AcDbCircle
 62
7
  6
CONTINUOUS
 10
636.4062806774
 20
185.6516328782
 40
1.4023849396
100
AcDbArc
 50
90.4525100648
 51
94.6816907924
  0
ARC
  5
3DF
100
AcDbEntity
  8
RUNDUNGEN
100
AcDbCircle
 62
7
  6
CONTINUOUS
 10
658.4166009636
 20
185.6516328782
 40
1.4023849396
100
AcDbArc
 50
85.3183092076
 51
89.5474899352
  0
ARC
  5
3E0
100
AcDbEntity
  8
0
100
AcDbCircle
 62
7
  6
CONTINUOUS
 10
647.4114408205
 20
303.0749781104
 40
102.0
100
AcDbArc
 50
276.75699469
 51
360.0
  0
ARC
  5
3E1
100
AcDbEntity
  8
0
100
AcDbCircle
 62
7
  6
CONTINUOUS
 10
647.4114408205
 20
303.0749781104
 40
102.0
100
AcDbArc
 50
227.2475333295
 51
263.24300531
  0
ARC
  5
3E2
100
AcDbEntity
  8
0
100
AcDbCircle
 62
7
  6
CONTINUOUS
 10
647.4114408205
 20
303.0749781104
 40
102.0
100
AcDbArc
 50
180.0
 51
222.7524666705
  0
ARC
  5
3E3
100
AcDbEntity
  8
0
100
AcDbCircle
 62
7
  6
CONTINUOUS
 10
647.4114408205
 20
423.0749781104
 40
102.0
100
AcDbArc
 50
0.0
 51
180.0
  0
ARC
  5
3E4
100
AcDbEntity
  8
0
100
AcDbCircle
 62
7
  6
CONTINUOUS
 10
647.4114408205
 20
303.0749781104
 40
70.0
100
AcDbArc
 50
279.8721442109
 51
360.0
  0
ARC
  5
3E5
100
AcDbEntity
  8
0
100
AcDbCircle
 62
7
  6
CONTINUOUS
 10
647.4114408205
 20
303.0749781104
 40
70.0
100
AcDbArc
 50
228.2765286239
 51
260.1278557891
  0
ARC
  5
3E6
100
AcDbEntity
  8
0
100
AcDbCircle
 62
7
  6
CONTINUOUS
 10
647.4114408205
 20
303.0749781104
 40
70.0
100
AcDbArc
 50
180.0
 51
221.7234713761
  0
ARC
  5
3E7
100
AcDbEntity
  8
0
100
AcDbCircle
 62
7
  6
CONTINUOUS
 10
647.4114408205
 20
423.0749781104
 40
70.0
100
AcDbArc
 50
0.0
 51
180.0
  0
ARC
  5
3E8
100
AcDbEntity
  8
KONSTRUKTIONSELEMENTE
100
AcDbCircle
 62
7
  6
CONTINUOUS
 10
194.319311407
 20
64.9203781104
 40
57.6108
100
AcDbArc
 50
57.6179865928
 51
80.7605878645
  0
ARC
  5
3E9
100
AcDbEntity
  8
KONSTRUKTIONSELEMENTE
100
AcDbCircle
 62
7
  6
CONTINUOUS
 10
194.319311407
 20
64.9203781104
 40
57.6108
100
AcDbArc
 50
99.2394121355
 51
122.3820134072
  0
ARC
  5
3EA
100
AcDbEntity
  8
0
100
AcDbCircle
 62
7
  6
CONTINUOUS
 10
194.3499567723
 20
118.1174531479
 40
33.4441545775
100
AcDbArc
 50
82.6135481406
 51
85.7631020743
  0
ARC
  5
3EB
100
AcDbEntity
  8
0
100
AcDbCircle
 62
7
  6
CONTINUOUS
 10
194.2886660416
 20
118.1174531479
 40
33.4441545775
100
AcDbArc
 50
94.2368979257
 51
97.3864518594
  0
ARC
  5
3EC
100
AcDbEntity
  8
KONSTRUKTIONSELEMENTE
100
AcDbCircle
 62
7
  6
CONTINUOUS
 10
190.3213317937
 20
244.8508610615
 40
24.6793566349
100
AcDbArc
 50
235.6603611958
 51
240.8725088238
  0
ARC
  5
3ED
100
AcDbEntity
  8
KONSTRUKTIONSELEMENTE
100
AcDbCircle
 62
7
  6
CONTINUOUS
 10
198.5591058415
 20
244.459595357
 40
24.2198833256
100
AcDbArc
 50
299.0737375098
 51
304.3912340196
  0
ARC
  5
3EE
100
AcDbEntity
  8
BEZUGSACHSEN
100
AcDbCircle
 62
7
  6
CONTINUOUS
 10
194.319311407
 20
210.0749781104
 40
23.0
100
AcDbArc
 50
134.1060203689
 51
45.8939796311
  0
ARC
  5
3EF
100
AcDbEntity
  8
0
100
AcDbCircle
 62
7
  6
CONTINUOUS
 10
194.319311407
 20
509.0749781104
 40
16.0
100
AcDbArc
 50
0.0
 51
180.0
  0
ARC
  5
3F0
100
AcDbEntity
  8
0
100
AcDbCircle
 62
7
  6
CONTINUOUS
 10
194.319311407
 20
217.0749781104
 40
16.0
100
AcDbArc
 50
180.0
 51
360.0
  0
ARC
  5
3F1
100
AcDbEntity
  8
RUNDUNGEN
100
AcDbCircle
 62
7
  6
CONTINUOUS
 10
158.819311407
 20
177.0749781104
 40
10.0
100
AcDbArc
 50
98.3778284426
 51
180.0
  0
ARC
  5
3F2
100
AcDbEntity
  8
RUNDUNGEN
100
AcDbCircle
 62
7
  6
CONTINUOUS
 10
229.819311407
 20
177.0749781104
 40
10.0
100
AcDbArc
 50
0.0
 51
81.6221715574
  0
ARC
  5
3F3
100
AcDbEntity
  8
KONSTRUKTIONSELEMENTE
100
AcDbCircle
 62
7
  6
CONTINUOUS
 10
194.319311407
 20
163.3249781104
 40
9.25
100
AcDbArc
 50
0.0
 51
180.0
  0
ARC
  5
3F4
100
AcDbEntity
  8
RUNDUNGEN
100
AcDbCircle
 62
7
  6
CONTINUOUS
 10
158.5323106954
 20
178.2885572726
 40
8.765481286
100
AcDbArc
 50
88.1236775842
 51
89.7802372716
  0
ARC
  5
3F5
100
AcDbEntity
  8
RUNDUNGEN
100
AcDbCircle
 62
7
  6
CONTINUOUS
 10
230.1062853603
 20
178.2899345117
 40
8.7641039543
100
AcDbArc
 50
90.2196223311
 51
91.8621277479
  0
ARC
  5
3F6
100
AcDbEntity
  8
0
100
AcDbCircle
 62
7
  6
CONTINUOUS
 10
211.2030766013
 20
126.8808607861
 40
8.2457738022
100
AcDbArc
 50
287.1314733113
 51
288.8560909402
  0
ARC
  5
3F7
100
AcDbEntity
  8
RUNDUNGEN
100
AcDbCircle
 62
7
  6
CONTINUOUS
 10
230.1032533289
 20
178.988913581
 40
8.0651184057
100
AcDbArc
 50
81.6367431021
 51
90.2171164423
  0
ARC
  5
3F8
100
AcDbEntity
  8
RUNDUNGEN
100
AcDbCircle
 62
7
  6
CONTINUOUS
 10
158.535369485
 20
178.988913581
 40
8.0651184057
100
AcDbArc
 50
89.7828835577
 51
98.3632568979
  0
ARC
  5
3F9
100
AcDbEntity
  8
RUNDUNGEN
100
AcDbCircle
 62
7
  6
CONTINUOUS
 10
232.319311407
 20
121.0749781104
 40
7.5
100
AcDbArc
 50
270.0
 51
270.8750417703
  0
ARC
  5
3FA
100
AcDbEntity
  8
RUNDUNGEN
100
AcDbCircle
 62
7
  6
CONTINUOUS
 10
156.319311407
 20
121.0749781104
 40
7.5
100
AcDbArc
 50
269.1249582297
 51
270.0
  0
ARC
  5
3FB
100
AcDbEntity
  8
KONSTRUKTIONSELEMENTE
100
AcDbCircle
 62
7
  6
CONTINUOUS
 10
191.488296666
 20
201.6032651726
 40
5.1689856046
100
AcDbArc
 50
163.179900321
 51
179.9790520379
  0
CIRCLE
  5
3FC
100
AcDbEntity
  8
BEZUGSACHSEN
100
AcDbCircle
 62
7
  6
CONTINUOUS
 10
166.019311407
 20
140.3749781104
 40
3.0
  0
ARC
  5
3FD
100
AcDbEntity
  8
KONSTRUKTIONSELEMENTE
100
AcDbCircle
 62
7
  6
CONTINUOUS
 10
194.319311407
 20
161.5971987222
 40
2.5
100
AcDbArc
 50
0.0
 51
180.0
  0
ARC
  5
3FE
100
AcDbEntity
  8
KONSTRUKTIONSELEMENTE
100
AcDbCircle
 62
7
  6
CONTINUOUS
 10
194.319311407
 20
200.2473645987
 40
2.5
100
AcDbArc
 50
180.0
 51
360.0
  0
ARC
  5
3FF
100
AcDbEntity
  8
KONSTRUKTIONSELEMENTE
100
AcDbCircle
 62
7
  6
CONTINUOUS
 10
194.319311407
 20
169.6922041062
 40
2.25
100
AcDbArc
 50
180.0
 51
360.0
  0
ARC
  5
400
100
AcDbEntity
  8
KONSTRUKTIONSELEMENTE
100
AcDbCircle
 62
7
  6
CONTINUOUS
 10
194.319311407
 20
191.798805824
 40
2.25
100
AcDbArc
 50
0.0
 51
180.0
  0
SPLINE
  5
401
100
AcDbEntity
  8
0
100
AcDbSpline
 62
7
  6
CONTINUOUS
 70
0
 71
3
 72
11
 73
7
 74
0
 42
0.0000001
 43
0.0000001
 44
0.0000000001
 40
0.0
 40
0.0
 40
0.0
 40
0.0
 40
0.2552284564
 40
0.5000000008
 40
0.7447715449
 40
1.0
 40
1.0
 40
1.0
 40
1.0
 10
651.6768546418
 20
265.4622537623
 30
0.0
 10
651.9345282211
 20
264.8657125536
 30
0.0
 10
652.3449507484
 20
263.6512632806
 30
0.0
 10
652.5640219789
 20
261.7520098115
 30
0.0
 10
652.3449507442
 20
259.8527563465
 30
0.0
 10
651.9345282198
 20
258.6383070773
 30
0.0
 10
651.6768546418
 20
258.0417658714
 30
0.0
  0
SPLINE
  5
402
100
AcDbEntity
  8
0
100
AcDbSpline
 62
7
  6
CONTINUOUS
 70
0
 71
3
 72
11
 73
7
 74
0
 42
0.0000001
 43
0.0000001
 44
0.0000000001
 40
0.0
 40
0.0
 40
0.0
 40
0.0
 40
0.2552284564
 40
0.5000000008
 40
0.7447715449
 40
1.0
 40
1.0
 40
1.0
 40
1.0
 10
643.1460269992
 20
265.4622537623
 30
0.0
 10
642.8883534199
 20
264.8657125536
 30
0.0
 10
642.4779308926
 20
263.6512632806
 30
0.0
 10
642.2588596621
 20
261.7520098115
 30
0.0
 10
642.4779308968
 20
259.8527563465
 30
0.0
 10
642.8883534212
 20
258.6383070773
 30
0.0
 10
643.1460269992
 20
258.0417658714
 30
0.0
  0
SPLINE
  5
403
100
AcDbEntity
  8
0
100
AcDbSpline
 62
7
  6
CONTINUOUS
 70
0
 71
3
 72
9
 73
5
 74
0
 42
0.0000001
 43
0.0000001
 44
0.0000000001
 40
0.0
 40
0.0
 40
0.0
 40
0.0
 40
0.5000000009
 40
1.0
 40
1.0
 40
1.0
 40
1.0
 10
651.6768546418
 20
237.7686159364
 30
0.0
 10
652.2084392613
 20
233.1756786639
 30
0.0
 10
652.7756077783
 20
223.9217970154
 30
0.0
 10
652.2084392595
 20
214.6679153671
 30
0.0
 10
651.6768546418
 20
210.0749781104
 30
0.0
  0
LINE
  5
404
100
AcDbEntity
  8
0
100
AcDbLine
 62
7
  6
CONTINUOUS
 10
636.9114408205
 20
163.0650512309
 11
629.4114408205
 21
165.4297921475
  0
SPLINE
  5
405
100
AcDbEntity
  8
0
100
AcDbSpline
 62
7
  6
CONTINUOUS
 70
0
 71
3
 72
9
 73
5
 74
0
 42
0.0000001
 43
0.0000001
 44
0.0000000001
 40
0.0
 40
0.0
 40
0.0
 40
0.0
 40
0.2443167374
 40
1.0
 40
1.0
 40
1.0
 40
1.0
 10
636.39520505
 20
187.0539740811
 30
0.0
 10
636.4379358079
 20
187.0543532126
 30
0.0
 10
636.6128772427
 20
187.0481847286
 30
0.0
 10
636.7862259344
 20
187.0105868725
 30
0.0
 10
636.9114408205
 20
186.968265992
 30
0.0
  0
LINE
  5
406
100
AcDbEntity
  8
0
100
AcDbLine
 62
7
  6
CONTINUOUS
 10
631.4114408205
 20
155.2102371938
 11
623.9114408205
 21
157.5749781104
  0
SPLINE
  5
407
100
AcDbEntity
  8
0
100
AcDbSpline
 62
7
  6
CONTINUOUS
 70
0
 71
3
 72
9
 73
5
 74
0
 42
0.0000001
 43
0.0000001
 44
0.0000000001
 40
0.0
 40
0.0
 40
0.0
 40
0.0
 40
0.5000000009
 40
1.0
 40
1.0
 40
1.0
 40
1.0
 10
651.6768546418
 20
258.0417658714
 30
0.0
 10
652.206212343
 20
254.6935876513
 30
0.0
 10
652.7778346965
 20
247.905190898
 30
0.0
 10
652.2062123412
 20
241.116794145
 30
0.0
 10
651.6768546418
 20
237.7686159364
 30
0.0
  0
SPLINE
  5
408
100
AcDbEntity
  8
0
100
AcDbSpline
 62
7
  6
CONTINUOUS
 70
0
 71
3
 72
9
 73
5
 74
0
 42
0.0000001
 43
0.0000001
 44
0.0000000001
 40
0.0
 40
0.0
 40
0.0
 40
0.0
 40
0.5000000009
 40
1.0
 40
1.0
 40
1.0
 40
1.0
 10
643.1460269992
 20
237.7686159364
 30
0.0
 10
642.6144423797
 20
233.1756786639
 30
0.0
 10
642.0472738627
 20
223.9217970154
 30
0.0
 10
642.6144423815
 20
214.6679153671
 30
0.0
 10
643.1460269992
 20
210.0749781104
 30
0.0
  0
SPLINE
  5
409
100
AcDbEntity
  8
0
100
AcDbSpline
 62
7
  6
CONTINUOUS
 70
0
 71
3
 72
9
 73
5
 74
0
 42
0.0000001
 43
0.0000001
 44
0.0000000001
 40
0.0
 40
0.0
 40
0.0
 40
0.0
 40
0.5000000009
 40
1.0
 40
1.0
 40
1.0
 40
1.0
 10
643.1460269992
 20
258.0417658714
 30
0.0
 10
642.616669298
 20
254.6935876513
 30
0.0
 10
642.0450469444
 20
247.905190898
 30
0.0
 10
642.6166692998
 20
241.116794145
 30
0.0
 10
643.1460269992
 20
237.7686159364
 30
0.0
  0
LINE
  5
40A
100
AcDbEntity
  8
RUNDUNGEN
100
AcDbLine
 62
7
  6
CONTINUOUS
 10
657.9114408205
 20
163.0650512309
 11
665.4114408205
 21
165.4297921475
  0
SPLINE
  5
40B
100
AcDbEntity
  8
RUNDUNGEN
100
AcDbSpline
 62
7
  6
CONTINUOUS
 70
0
 71
3
 72
9
 73
5
 74
0
 42
0.0000001
 43
0.0000001
 44
0.0000000001
 40
0.0
 40
0.0
 40
0.0
 40
0.0
 40
0.2443167374
 40
1.0
 40
1.0
 40
1.0
 40
1.0
 10
658.427676591
 20
187.0539740811
 30
0.0
 10
658.384945833
 20
187.0543532126
 30
0.0
 10
658.2100043983
 20
187.0481847286
 30
0.0
 10
658.0366557066
 20
187.0105868725
 30
0.0
 10
657.9114408205
 20
186.968265992
 30
0.0
  0
LINE
  5
40C
100
AcDbEntity
  8
RUNDUNGEN
100
AcDbLine
 62
7
  6
CONTINUOUS
 10
663.4114408205
 20
155.2102371938
 11
670.9114408205
 21
157.5749781104
  0
SPLINE
  5
40D
100
AcDbEntity
  8
0
100
AcDbSpline
 62
7
  6
CONTINUOUS
 70
0
 71
3
 72
20
 73
16
 74
0
 42
0.0000001
 43
0.0000001
 44
0.0000000001
 40
0.0
 40
0.0
 40
0.0
 40
0.0
 40
0.1327965428
 40
0.2638076759
 40
0.3919804128
 40
0.5161435177
 40
0.5765038426
 40
0.6355343203
 40
0.6932970419
 40
0.7502285255
 40
0.8076643071
 40
0.8375924048
 40
0.8686256393
 40
0.9333595622
 40
1.0
 40
1.0
 40
1.0
 40
1.0
 10
643.524199955
 20
113.7529128936
 30
0.0
 10
642.5828995182
 20
113.8733314764
 30
0.0
 10
640.7260378613
 20
114.2359070771
 30
0.0
 10
638.0705294581
 20
115.1593320896
 30
0.0
 10
635.6491786987
 20
116.467613984
 30
0.0
 10
633.9085131197
 20
117.9022544432
 30
0.0
 10
632.8005642357
 20
119.2514183993
 30
0.0
 10
632.154849385
 20
120.347616583
 30
0.0
 10
631.740137911
 20
121.5282492982
 30
0.0
 10
631.6355150916
 20
122.7713424121
 30
0.0
 10
631.9242995496
 20
123.7953835058
 30
0.0
 10
632.4219244663
 20
124.4891188089
 30
0.0
 10
633.1100202026
 20
125.0796280821
 30
0.0
 10
634.2228260434
 20
125.507050211
 30
0.0
 10
635.1654086477
 20
125.5772281104
 30
0.0
 10
635.6416249953
 20
125.5772281104
 30
0.0
  0
SPLINE
  5
40E
100
AcDbEntity
  8
RUNDUNGEN
100
AcDbSpline
 62
7
  6
CONTINUOUS
 70
0
 71
3
 72
19
 73
15
 74
0
 42
0.0000001
 43
0.0000001
 44
0.0000000001
 40
0.0
 40
0.0
 40
0.0
 40
0.0
 40
0.1326778677
 40
0.2632403415
 40
0.3907151391
 40
0.5140727586
 40
0.6324219978
 40
0.6900893656
 40
0.7472743707
 40
0.805512235
 40
0.8359912687
 40
0.8675446107
 40
0.9329816351
 40
1.0
 40
1.0
 40
1.0
 40
1.0
 10
652.8257524677
 20
114.0048356091
 30
0.0
 10
653.6877213743
 20
114.1797920945
 30
0.0
 10
655.3783904004
 20
114.6357773744
 30
0.0
 10
657.7693481905
 20
115.6548560939
 30
0.0
 10
659.9179707484
 20
117.013514744
 30
0.0
 10
661.7045965086
 20
118.7106744452
 30
0.0
 10
662.7643732452
 20
120.4358248014
 30
0.0
 10
663.1506794615
 20
121.9459721964
 30
0.0
 10
663.1346988925
 20
123.1111934856
 30
0.0
 10
662.7653731638
 20
124.0374229491
 30
0.0
 10
662.2404748634
 20
124.6458284991
 30
0.0
 10
661.556384073
 20
125.1530159457
 30
0.0
 10
660.5064262495
 20
125.5151785703
 30
0.0
 10
659.6255334324
 20
125.5772281104
 30
0.0
 10
659.1812566457
 20
125.5772281104
 30
0.0
  0
SPLINE
  5
40F
100
AcDbEntity
  8
KONSTRUKTIONSELEMENTE
100
AcDbSpline
 62
7
  6
CONTINUOUS
 70
0
 71
3
 72
10
 73
6
 74
0
 42
0.0000001
 43
0.0000001
 44
0.0000000001
 40
0.0
 40
0.0
 40
0.0
 40
0.0
 40
0.3116645009
 40
0.6060899939
 40
1.0
 40
1.0
 40
1.0
 40
1.0
 10
190.819311407
 20
170.4924566379
 30
0.0
 10
190.819311407
 20
170.6896114844
 30
0.0
 10
191.0068399635
 20
171.0609376791
 30
0.0
 10
191.4641592331
 20
171.4948107688
 30
0.0
 10
191.8425605454
 20
171.7222208023
 30
0.0
 10
192.0673195187
 20
171.8298089333
 30
0.0
  0
SPLINE
  5
410
100
AcDbEntity
  8
KONSTRUKTIONSELEMENTE
100
AcDbSpline
 62
7
  6
CONTINUOUS
 70
0
 71
3
 72
10
 73
6
 74
0
 42
0.0000001
 43
0.0000001
 44
0.0000000001
 40
0.0
 40
0.0
 40
0.0
 40
0.0
 40
0.3939255147
 40
0.6883533687
 40
1.0
 40
1.0
 40
1.0
 40
1.0
 10
196.5710606425
 20
171.8299208613
 30
0.0
 10
196.7958685484
 20
171.7223309607
 30
0.0
 10
197.1743310701
 20
171.4948853924
 30
0.0
 10
197.6317725878
 20
171.061007649
 30
0.0
 10
197.819311407
 20
170.6896279418
 30
0.0
 10
197.819311407
 20
170.4924566379
 30
0.0
  0
SPLINE
  5
411
100
AcDbEntity
  8
KONSTRUKTIONSELEMENTE
100
AcDbSpline
 62
7
  6
CONTINUOUS
 70
0
 71
3
 72
10
 73
6
 74
0
 42
0.0000001
 43
0.0000001
 44
0.0000000001
 40
0.0
 40
0.0
 40
0.0
 40
0.0
 40
0.3192646009
 40
0.6086079864
 40
1.0
 40
1.0
 40
1.0
 40
1.0
 10
197.819311407
 20
159.8858549201
 30
0.0
 10
197.819311407
 20
159.7141151449
 30
0.0
 10
197.6772956204
 20
159.39326393
 30
0.0
 10
197.3114896057
 20
158.9999115906
 30
0.0
 10
197.008201773
 20
158.7868716773
 30
0.0
 10
196.825665472
 20
158.6819570809
 30
0.0
  0
SPLINE
  5
412
100
AcDbEntity
  8
KONSTRUKTIONSELEMENTE
100
AcDbSpline
 62
7
  6
CONTINUOUS
 70
0
 71
3
 72
10
 73
6
 74
0
 42
0.0000001
 43
0.0000001
 44
0.0000000001
 40
0.0
 40
0.0
 40
0.0
 40
0.0
 40
0.3914026107
 40
0.6807340322
 40
1.0
 40
1.0
 40
1.0
 40
1.0
 10
191.8128658059
 20
158.682009552
 30
0.0
 10
191.6303385624
 20
158.7869249615
 30
0.0
 10
191.3270989817
 20
158.999984033
 30
0.0
 10
190.9612782771
 20
159.3932823936
 30
0.0
 10
190.819311407
 20
159.7141251345
 30
0.0
 10
190.819311407
 20
159.8858549201
 30
0.0
  0
SPLINE
  5
413
100
AcDbEntity
  8
KONSTRUKTIONSELEMENTE
100
AcDbSpline
 62
7
  6
CONTINUOUS
 70
0
 71
3
 72
13
 73
9
 74
0
 42
0.0000001
 43
0.0000001
 44
0.0000000001
 40
0.0
 40
0.0
 40
0.0
 40
0.0
 40
0.1197290731
 40
0.2397365246
 40
0.3609040964
 40
0.4836831257
 40
0.7359942557
 40
1.0
 40
1.0
 40
1.0
 40
1.0
 10
202.319311407
 20
159.8858549201
 30
0.0
 10
202.319311407
 20
159.536641218
 30
0.0
 10
202.2472077852
 20
158.835300182
 30
0.0
 10
201.9289224504
 20
157.8250819338
 30
0.0
 10
201.4195389087
 20
156.8865037152
 30
0.0
 10
200.5077383802
 20
155.7537292085
 30
0.0
 10
198.9918471146
 20
154.6165857924
 30
0.0
 10
197.5689602645
 20
154.0700400685
 30
0.0
 10
196.8227357429
 20
153.8800715779
 30
0.0
  0
SPLINE
  5
414
100
AcDbEntity
  8
KONSTRUKTIONSELEMENTE
100
AcDbSpline
 62
7
  6
CONTINUOUS
 70
0
 71
3
 72
13
 73
9
 74
0
 42
0.0000001
 43
0.0000001
 44
0.0000000001
 40
0.0
 40
0.0
 40
0.0
 40
0.0
 40
0.2640112835
 40
0.5163080567
 40
0.6390830379
 40
0.7602378991
 40
0.8802701562
 40
1.0
 40
1.0
 40
1.0
 40
1.0
 10
191.8149836045
 20
153.8803187675
 30
0.0
 10
191.0688437821
 20
154.0703533687
 30
0.0
 10
189.6461673408
 20
154.6169199999
 30
0.0
 10
188.1305772736
 20
155.7540653409
 30
0.0
 10
187.2189869962
 20
156.8866808495
 30
0.0
 10
186.7095960804
 20
157.825158136
 30
0.0
 10
186.3914593613
 20
158.8353462392
 30
0.0
 10
186.319311407
 20
159.5366761227
 30
0.0
 10
186.319311407
 20
159.8858549201
 30
0.0
  0
SPLINE
  5
415
100
AcDbEntity
  8
KONSTRUKTIONSELEMENTE
100
AcDbSpline
 62
7
  6
CONTINUOUS
 70
0
 71
3
 72
8
 73
4
 74
0
 42
0.0000001
 43
0.0000001
 44
0.0000000001
 40
0.0
 40
0.0
 40
0.0
 40
0.0
 40
1.0
 40
1.0
 40
1.0
 40
1.0
 10
202.0982400283
 20
203.0987724653
 30
0.0
 10
202.2432662693
 20
202.616823625
 30
0.0
 10
202.319311407
 20
202.1084514389
 30
0.0
 10
202.319311407
 20
201.6051550101
 30
0.0
  0
SPLINE
  5
416
100
AcDbEntity
  8
KONSTRUKTIONSELEMENTE
100
AcDbSpline
 62
7
  6
CONTINUOUS
 70
0
 71
3
 72
10
 73
6
 74
0
 42
0.0000001
 43
0.0000001
 44
0.0000000001
 40
0.0
 40
0.0
 40
0.0
 40
0.0
 40
0.3116645009
 40
0.6060899939
 40
1.0
 40
1.0
 40
1.0
 40
1.0
 10
197.819311407
 20
190.9985532923
 30
0.0
 10
197.819311407
 20
190.8013984459
 30
0.0
 10
197.6317828504
 20
190.4300722512
 30
0.0
 10
197.1744635808
 20
189.9961991615
 30
0.0
 10
196.7960622685
 20
189.768789128
 30
0.0
 10
196.5713032953
 20
189.661200997
 30
0.0
  0
SPLINE
  5
417
100
AcDbEntity
  8
KONSTRUKTIONSELEMENTE
100
AcDbSpline
 62
7
  6
CONTINUOUS
 70
0
 71
3
 72
10
 73
6
 74
0
 42
0.0000001
 43
0.0000001
 44
0.0000000001
 40
0.0
 40
0.0
 40
0.0
 40
0.0
 40
0.3939255147
 40
0.6883533687
 40
1.0
 40
1.0
 40
1.0
 40
1.0
 10
192.0675621714
 20
189.661089069
 30
0.0
 10
191.8427542655
 20
189.7686789696
 30
0.0
 10
191.4642917438
 20
189.9961245379
 30
0.0
 10
191.0068502262
 20
190.4300022813
 30
0.0
 10
190.819311407
 20
190.8013819885
 30
0.0
 10
190.819311407
 20
190.9985532923
 30
0.0
  0
SPLINE
  5
418
100
AcDbEntity
  8
KONSTRUKTIONSELEMENTE
100
AcDbSpline
 62
7
  6
CONTINUOUS
 70
0
 71
3
 72
9
 73
5
 74
0
 42
0.0000001
 43
0.0000001
 44
0.0000000001
 40
0.0
 40
0.0
 40
0.0
 40
0.0
 40
0.4980868282
 40
1.0
 40
1.0
 40
1.0
 40
1.0
 10
202.319311407
 20
190.9985532923
 30
0.0
 10
202.319311407
 20
190.5161510078
 30
0.0
 10
202.1803403194
 20
189.5427516283
 30
0.0
 10
201.7803930044
 20
188.6467620499
 30
0.0
 10
201.5286247282
 20
188.2309329298
 30
0.0
  0
SPLINE
  5
419
100
AcDbEntity
  8
KONSTRUKTIONSELEMENTE
100
AcDbSpline
 62
7
  6
CONTINUOUS
 70
0
 71
3
 72
9
 73
5
 74
0
 42
0.0000001
 43
0.0000001
 44
0.0000000001
 40
0.0
 40
0.0
 40
0.0
 40
0.0
 40
0.5018910528
 40
1.0
 40
1.0
 40
1.0
 40
1.0
 10
187.10785865
 20
188.2343988497
 30
0.0
 10
186.8567017781
 20
188.6497841085
 30
0.0
 10
186.4579397816
 20
189.5447843479
 30
0.0
 10
186.319311407
 20
190.5167993416
 30
0.0
 10
186.319311407
 20
190.9985532923
 30
0.0
  0
SPLINE
  5
41A
100
AcDbEntity
  8
KONSTRUKTIONSELEMENTE
100
AcDbSpline
 62
7
  6
CONTINUOUS
 70
0
 71
3
 72
9
 73
5
 74
0
 42
0.0000001
 43
0.0000001
 44
0.0000000001
 40
0.0
 40
0.0
 40
0.0
 40
0.0
 40
0.2454045032
 40
1.0
 40
1.0
 40
1.0
 40
1.0
 10
216.1033286344
 20
217.4351235375
 30
0.0
 10
215.6383103965
 20
217.1333989118
 30
0.0
 10
213.7114196571
 20
215.9535835915
 30
0.0
 10
211.6657181942
 20
214.9705560778
 30
0.0
 10
210.0831172539
 20
214.3375346149
 30
0.0
  0
SPLINE
  5
41B
100
AcDbEntity
  8
KONSTRUKTIONSELEMENTE
100
AcDbSpline
 62
7
  6
CONTINUOUS
 70
0
 71
3
 72
9
 73
5
 74
0
 42
0.0000001
 43
0.0000001
 44
0.0000000001
 40
0.0
 40
0.0
 40
0.0
 40
0.0
 40
0.2547666792
 40
1.0
 40
1.0
 40
1.0
 40
1.0
 10
178.5502092149
 20
214.3396514696
 30
0.0
 10
178.0165051706
 20
214.5532235816
 30
0.0
 10
175.9411525333
 20
215.439043142
 30
0.0
 10
173.947195897
 20
216.5191280261
 30
0.0
 10
172.5365339039
 20
217.4343190584
 30
0.0
  0
SPLINE
  5
41C
100
AcDbEntity
  8
0
100
AcDbSpline
 62
7
  6
CONTINUOUS
 70
0
 71
3
 72
17
 73
13
 74
0
 42
0.0000001
 43
0.0000001
 44
0.0000000001
 40
0.0
 40
0.0
 40
0.0
 40
0.0
 40
0.0517809237
 40
0.1054811646
 40
0.2228479209
 40
0.3562855052
 40
0.5
 40
0.6437144948
 40
0.7771520791
 40
0.8945188354
 40
0.9482190763
 40
1.0
 40
1.0
 40
1.0
 40
1.0
 10
196.7489651129
 20
121.6198781394
 30
0.0
 10
196.7489651129
 20
121.4797436541
 30
0.0
 10
196.7897660312
 20
121.1928413214
 30
0.0
 10
197.0335753684
 20
120.6343841107
 30
0.0
 10
197.6360650875
 20
120.0315164967
 30
0.0
 10
198.6251999852
 20
119.5872517724
 30
0.0
 10
199.7682734014
 20
119.431833741
 30
0.0
 10
200.9113468176
 20
119.5872517724
 30
0.0
 10
201.9004817153
 20
120.0315164967
 30
0.0
 10
202.5029714343
 20
120.6343841107
 30
0.0
 10
202.7467807715
 20
121.1928413214
 30
0.0
 10
202.7875816898
 20
121.4797436541
 30
0.0
 10
202.7875816898
 20
121.6198781394
 30
0.0
  0
SPLINE
  5
41D
100
AcDbEntity
  8
0
100
AcDbSpline
 62
7
  6
CONTINUOUS
 70
0
 71
3
 72
12
 73
8
 74
0
 42
0.0000001
 43
0.0000001
 44
0.0000000001
 40
0.0
 40
0.0
 40
0.0
 40
0.0
 40
0.1035930223
 40
0.210949621
 40
0.4457011106
 40
0.7125563401
 40
1.0
 40
1.0
 40
1.0
 40
1.0
 10
192.8980250088
 20
124.9488754602
 30
0.0
 10
192.8980028007
 20
125.0969164414
 30
0.0
 10
192.8548462047
 20
125.3998995431
 30
0.0
 10
192.5970881414
 20
125.9895581303
 30
0.0
 10
191.9607116199
 20
126.6261665229
 30
0.0
 10
190.9168201343
 20
127.0953446294
 30
0.0
 10
190.1197402884
 20
127.2033794937
 30
0.0
 10
189.7089651129
 20
127.2033794937
 30
0.0
  0
SPLINE
  5
41E
100
AcDbEntity
  8
RUNDUNGEN
100
AcDbSpline
 62
7
  6
CONTINUOUS
 70
0
 71
3
 72
11
 73
7
 74
0
 42
0.0000001
 43
0.0000001
 44
0.0000000001
 40
0.0
 40
0.0
 40
0.0
 40
0.0
 40
0.2256933976
 40
0.4632957072
 40
0.7206234985
 40
1.0
 40
1.0
 40
1.0
 40
1.0
 10
142.4736672218
 20
128.3324137142
 30
0.0
 10
142.4737571132
 20
128.474421999
 30
0.0
 10
142.5253972137
 20
128.7679757931
 30
0.0
 10
142.7465066539
 20
129.1714908837
 30
0.0
 10
143.0927913421
 20
129.5215740184
 30
0.0
 10
143.3821719724
 20
129.7014967628
 30
0.0
 10
143.5397061437
 20
129.7794953177
 30
0.0
  0
SPLINE
  5
41F
100
AcDbEntity
  8
RUNDUNGEN
100
AcDbSpline
 62
7
  6
CONTINUOUS
 70
0
 71
3
 72
9
 73
5
 74
0
 42
0.0000001
 43
0.0000001
 44
0.0000000001
 40
0.0
 40
0.0
 40
0.0
 40
0.0
 40
0.4805183102
 40
1.0
 40
1.0
 40
1.0
 40
1.0
 10
142.4736650669
 20
124.7968093069
 30
0.0
 10
142.4735620525
 20
124.6153312778
 30
0.0
 10
142.5598002494
 20
124.2340979046
 30
0.0
 10
142.7877191993
 20
123.9213501593
 30
0.0
 10
142.9257671238
 20
123.7819420292
 30
0.0
  0
SPLINE
  5
420
100
AcDbEntity
  8
RUNDUNGEN
100
AcDbSpline
 62
7
  6
CONTINUOUS
 70
0
 71
3
 72
11
 73
7
 74
0
 42
0.0000001
 43
0.0000001
 44
0.0000000001
 40
0.0
 40
0.0
 40
0.0
 40
0.0
 40
0.2256919297
 40
0.4632773963
 40
0.7205986282
 40
1.0
 40
1.0
 40
1.0
 40
1.0
 10
125.6482777165
 20
146.5477838083
 30
0.0
 10
125.6481899854
 20
147.0025187694
 30
0.0
 10
125.8126366968
 20
147.9426698131
 30
0.0
 10
126.5199415924
 20
149.2352173168
 30
0.0
 10
127.6285081339
 20
150.3565919623
 30
0.0
 10
128.5551627268
 20
150.9328411962
 30
0.0
 10
129.059662344
 20
151.1826298026
 30
0.0
  0
SPLINE
  5
421
100
AcDbEntity
  8
RUNDUNGEN
100
AcDbSpline
 62
7
  6
CONTINUOUS
 70
0
 71
3
 72
10
 73
6
 74
0
 42
0.0000001
 43
0.0000001
 44
0.0000000001
 40
0.0
 40
0.0
 40
0.0
 40
0.0
 40
0.2382860828
 40
0.4819052527
 40
1.0
 40
1.0
 40
1.0
 40
1.0
 10
125.6482777165
 20
143.0122499024
 30
0.0
 10
125.6483333652
 20
142.7238067781
 30
0.0
 10
125.7127181399
 20
142.1384552026
 30
0.0
 10
126.0973593334
 20
140.9834811636
 30
0.0
 10
126.6537755295
 20
140.2142638365
 30
0.0
 10
127.0950574805
 20
139.7686338726
 30
0.0
  0
SPLINE
  5
422
100
AcDbEntity
  8
RUNDUNGEN
100
AcDbSpline
 62
7
  6
CONTINUOUS
 70
0
 71
3
 72
11
 73
7
 74
0
 42
0.0000001
 43
0.0000001
 44
0.0000000001
 40
0.0
 40
0.0
 40
0.0
 40
0.0
 40
0.2377805486
 40
0.4809056598
 40
0.733919361
 40
1.0
 40
1.0
 40
1.0
 40
1.0
 10
219.3710695462
 20
91.6068595083
 30
0.0
 10
219.3710695771
 20
92.5084903536
 30
0.0
 10
219.5710858356
 20
94.3378410483
 30
0.0
 10
220.4579520123
 20
96.9957258188
 30
0.0
 10
221.9045290505
 20
99.5175777108
 30
0.0
 10
223.1823455722
 20
101.0294356385
 30
0.0
 10
223.892268439
 20
101.7463534747
 30
0.0
  0
SPLINE
  5
423
100
AcDbEntity
  8
RUNDUNGEN
100
AcDbSpline
 62
7
  6
CONTINUOUS
 70
0
 71
3
 72
10
 73
6
 74
0
 42
0.0000001
 43
0.0000001
 44
0.0000000001
 40
0.0
 40
0.0
 40
0.0
 40
0.0
 40
0.2381555918
 40
0.4827085932
 40
1.0
 40
1.0
 40
1.0
 40
1.0
 10
219.4965678646
 20
93.3735119914
 30
0.0
 10
219.6037977661
 20
92.6194036712
 30
0.0
 10
219.960873916
 20
91.1072534362
 30
0.0
 10
221.2227291983
 20
88.1559352426
 30
0.0
 10
222.7281412895
 20
86.1784954543
 30
0.0
 10
223.892268439
 20
85.002897997
 30
0.0
  0
SPLINE
  5
424
100
AcDbEntity
  8
RUNDUNGEN
100
AcDbSpline
 62
7
  6
CONTINUOUS
 70
0
 71
3
 72
10
 73
6
 74
0
 42
0.0000001
 43
0.0000001
 44
0.0000000001
 40
0.0
 40
0.0
 40
0.0
 40
0.0
 40
0.2382826319
 40
0.4819247904
 40
1.0
 40
1.0
 40
1.0
 40
1.0
 10
139.819311407
 20
58.0466460885
 30
0.0
 10
139.819311407
 20
58.3351660144
 30
0.0
 10
139.8835038449
 20
58.9207313645
 30
0.0
 10
140.2681868684
 20
60.076069509
 30
0.0
 10
140.8247058661
 20
60.8455461338
 30
0.0
 10
141.2660950526
 20
61.2912843899
 30
0.0
  0
SPLINE
  5
425
100
AcDbEntity
  8
RUNDUNGEN
100
AcDbSpline
 62
7
  6
CONTINUOUS
 70
0
 71
3
 72
10
 73
6
 74
0
 42
0.0000001
 43
0.0000001
 44
0.0000000001
 40
0.0
 40
0.0
 40
0.0
 40
0.0
 40
0.5180750537
 40
0.7617172794
 40
1.0
 40
1.0
 40
1.0
 40
1.0
 10
247.3725277613
 20
61.2912843899
 30
0.0
 10
247.8139168157
 20
60.8455462673
 30
0.0
 10
248.3704357833
 20
60.076069777
 30
0.0
 10
248.755118909
 20
58.9207316618
 30
0.0
 10
248.819311407
 20
58.3351661222
 30
0.0
 10
248.819311407
 20
58.0466460885
 30
0.0
  0
SPLINE
  5
426
100
AcDbEntity
  8
RUNDUNGEN
100
AcDbSpline
 62
7
  6
CONTINUOUS
 70
0
 71
3
 72
11
 73
7
 74
0
 42
0.0000001
 43
0.0000001
 44
0.0000000001
 40
0.0
 40
0.0
 40
0.0
 40
0.0
 40
0.2793754766
 40
0.5367190768
 40
0.7743209476
 40
1.0
 40
1.0
 40
1.0
 40
1.0
 10
264.0842967135
 20
148.9519409704
 30
0.0
 10
264.2418332579
 20
148.8739412405
 30
0.0
 10
264.5312260556
 20
148.694008725
 30
0.0
 10
264.8775228019
 20
148.3439098941
 30
0.0
 10
265.0986218381
 20
147.9403779382
 30
0.0
 10
265.150252817
 20
147.6468268437
 30
0.0
 10
265.1503375392
 20
147.5048249218
 30
0.0
  0
SPLINE
  5
427
100
AcDbEntity
  8
RUNDUNGEN
100
AcDbSpline
 62
7
  6
CONTINUOUS
 70
0
 71
3
 72
10
 73
6
 74
0
 42
0.0000001
 43
0.0000001
 44
0.0000000001
 40
0.0
 40
0.0
 40
0.0
 40
0.0
 40
0.480919227
 40
0.7459271703
 40
1.0
 40
1.0
 40
1.0
 40
1.0
 10
249.7487109251
 20
153.8917527129
 30
0.0
 10
250.1638403689
 20
154.3109724854
 30
0.0
 10
251.0998056761
 20
154.6708360586
 30
0.0
 10
252.3279688562
 20
154.6492069835
 30
0.0
 10
252.951204333
 20
154.4641743529
 30
0.0
 10
253.2305321267
 20
154.3258731571
 30
0.0
  0
SPLINE
  5
428
100
AcDbEntity
  8
RUNDUNGEN
100
AcDbSpline
 62
7
  6
CONTINUOUS
 70
0
 71
3
 72
10
 73
6
 74
0
 42
0.0000001
 43
0.0000001
 44
0.0000000001
 40
0.0
 40
0.0
 40
0.0
 40
0.0
 40
0.4897407204
 40
0.7453751697
 40
1.0
 40
1.0
 40
1.0
 40
1.0
 10
130.6979664326
 20
151.993789378
 30
0.0
 10
133.4078425197
 20
153.335507287
 30
0.0
 10
137.9454644706
 20
154.6099583272
 30
0.0
 10
144.1225571645
 20
154.9159422669
 30
0.0
 10
147.2735600019
 20
154.5950395286
 30
0.0
 10
148.8201104732
 20
154.3124845241
 30
0.0
  0
SPLINE
  5
429
100
AcDbEntity
  8
0
100
AcDbSpline
 62
7
  6
CONTINUOUS
 70
0
 71
3
 72
9
 73
5
 74
0
 42
0.0000001
 43
0.0000001
 44
0.0000000001
 40
0.0
 40
0.0
 40
0.0
 40
0.0
 40
0.5442322629
 40
1.0
 40
1.0
 40
1.0
 40
1.0
 10
176.9796830305
 20
119.7363318844
 30
0.0
 10
177.0772959648
 20
119.7363318844
 30
0.0
 10
177.2592180861
 20
119.7719101243
 30
0.0
 10
177.4059501473
 20
119.901005826
 30
0.0
 10
177.4384507873
 20
119.976013303
 30
0.0
  0
SPLINE
  5
42A
100
AcDbEntity
  8
0
100
AcDbSpline
 62
7
  6
CONTINUOUS
 70
0
 71
3
 72
11
 73
7
 74
0
 42
0.0000001
 43
0.0000001
 44
0.0000000001
 40
0.0
 40
0.0
 40
0.0
 40
0.0
 40
0.2880001164
 40
0.5553425139
 40
0.7905343079
 40
1.0
 40
1.0
 40
1.0
 40
1.0
 10
189.7089651129
 20
123.7229055452
 30
0.0
 10
189.9322349442
 20
123.7229055452
 30
0.0
 10
190.365478492
 20
123.7812655771
 30
0.0
 10
190.9327171928
 20
124.0377856441
 30
0.0
 10
191.3365790554
 20
124.4371672438
 30
0.0
 10
191.4420019278
 20
124.7859821479
 30
0.0
 10
191.4420019278
 20
124.9483687828
 30
0.0
  0
SPLINE
  5
42B
100
AcDbEntity
  8
RUNDUNGEN
100
AcDbSpline
 62
7
  6
CONTINUOUS
 70
0
 71
3
 72
11
 73
7
 74
0
 42
0.0000001
 43
0.0000001
 44
0.0000000001
 40
0.0
 40
0.0
 40
0.0
 40
0.0
 40
0.2880068215
 40
0.5553366529
 40
0.7905059061
 40
1.0
 40
1.0
 40
1.0
 40
1.0
 10
151.369311407
 20
39.3241487278
 30
0.0
 10
151.4723773595
 20
39.3241487278
 30
0.0
 10
151.6723724517
 20
39.3510719523
 30
0.0
 10
151.9341770783
 20
39.4695306836
 30
0.0
 10
152.1206407571
 20
39.6538397371
 30
0.0
 10
152.169311407
 20
39.814864719
 30
0.0
 10
152.169311407
 20
39.8898341528
 30
0.0
  0
SPLINE
  5
42C
100
AcDbEntity
  8
RUNDUNGEN
100
AcDbSpline
 62
7
  6
CONTINUOUS
 70
0
 71
3
 72
13
 73
9
 74
0
 42
0.0000001
 43
0.0000001
 44
0.0000000001
 40
0.0
 40
0.0
 40
0.0
 40
0.0
 40
0.1034546555
 40
0.2106690395
 40
0.3244963599
 40
0.4464318111
 40
0.7129511617
 40
1.0
 40
1.0
 40
1.0
 40
1.0
 10
139.819311407
 20
44.9810029773
 30
0.0
 10
139.819311407
 20
44.609590567
 30
0.0
 10
139.9270965489
 20
43.8494102938
 30
0.0
 10
140.3987581653
 20
42.7707409372
 30
0.0
 10
141.1553527088
 20
41.7855904927
 30
0.0
 10
142.5382506829
 20
40.6111651042
 30
0.0
 10
144.7912755749
 20
39.5924858534
 30
0.0
 10
146.7887777841
 20
39.3241487278
 30
0.0
 10
147.819311407
 20
39.3241487278
 30
0.0
  0
SPLINE
  5
42D
100
AcDbEntity
  8
RUNDUNGEN
100
AcDbSpline
 62
7
  6
CONTINUOUS
 70
0
 71
3
 72
10
 73
6
 74
0
 42
0.0000001
 43
0.0000001
 44
0.0000000001
 40
0.0
 40
0.0
 40
0.0
 40
0.0
 40
0.4808964971
 40
0.7459158261
 40
1.0
 40
1.0
 40
1.0
 40
1.0
 10
131.110092535
 20
135.7140381152
 30
0.0
 10
131.5252026452
 20
135.2948378669
 30
0.0
 10
132.4611417473
 20
134.9349674432
 30
0.0
 10
133.6893077553
 20
134.9565740716
 30
0.0
 10
134.3125732782
 20
135.1416102047
 30
0.0
 10
134.5919137366
 20
135.2799176711
 30
0.0
  0
SPLINE
  5
42E
100
AcDbEntity
  8
RUNDUNGEN
100
AcDbSpline
 62
7
  6
CONTINUOUS
 70
0
 71
3
 72
9
 73
5
 74
0
 42
0.0000001
 43
0.0000001
 44
0.0000000001
 40
0.0
 40
0.0
 40
0.0
 40
0.0
 40
0.5194816315
 40
1.0
 40
1.0
 40
1.0
 40
1.0
 10
264.6982357333
 20
142.954387682
 30
0.0
 10
264.8362952094
 20
143.0938074774
 30
0.0
 10
265.0642309104
 20
143.4065855138
 30
0.0
 10
265.1504543134
 20
143.7878591954
 30
0.0
 10
265.1503354717
 20
143.9693524428
 30
0.0
  0
SPLINE
  5
42F
100
AcDbEntity
  8
RUNDUNGEN
100
AcDbSpline
 62
7
  6
CONTINUOUS
 70
0
 71
3
 72
13
 73
9
 74
0
 42
0.0000001
 43
0.0000001
 44
0.0000000001
 40
0.0
 40
0.0
 40
0.0
 40
0.0
 40
0.2870490624
 40
0.5535683755
 40
0.6755038246
 40
0.7893311355
 40
0.8965454157
 40
1.0
 40
1.0
 40
1.0
 40
1.0
 10
240.819311407
 20
39.3241487278
 30
0.0
 10
241.849845834
 20
39.3241487278
 30
0.0
 10
243.8473487601
 20
39.592486109
 30
0.0
 10
246.1003739826
 20
40.6111662479
 30
0.0
 10
247.4832715097
 20
41.7855919114
 30
0.0
 10
248.2398653733
 20
42.7707423492
 30
0.0
 10
248.7115264929
 20
43.84941117
 30
0.0
 10
248.819311407
 20
44.6095908226
 30
0.0
 10
248.819311407
 20
44.9810029773
 30
0.0
  0
SPLINE
  5
430
100
AcDbEntity
  8
RUNDUNGEN
100
AcDbSpline
 62
7
  6
CONTINUOUS
 70
0
 71
3
 72
11
 73
7
 74
0
 42
0.0000001
 43
0.0000001
 44
0.0000000001
 40
0.0
 40
0.0
 40
0.0
 40
0.0
 40
0.2094942263
 40
0.444667264
 40
0.7119932261
 40
1.0
 40
1.0
 40
1.0
 40
1.0
 10
236.469311407
 20
39.8898341528
 30
0.0
 10
236.469311407
 20
39.8148646779
 30
0.0
 10
236.5179829917
 20
39.6538384596
 30
0.0
 10
236.7044471654
 20
39.4695297713
 30
0.0
 10
236.9662517359
 20
39.3510714003
 30
0.0
 10
237.1662454801
 20
39.3241487278
 30
0.0
 10
237.269311407
 20
39.3241487278
 30
0.0
  0
SPLINE
  5
431
100
AcDbEntity
  8
RUNDUNGEN
100
AcDbSpline
 62
7
  6
CONTINUOUS
 70
0
 71
3
 72
10
 73
6
 74
0
 42
0.0000001
 43
0.0000001
 44
0.0000000001
 40
0.0
 40
0.0
 40
0.0
 40
0.0
 40
0.47201694
 40
0.7322443513
 40
1.0
 40
1.0
 40
1.0
 40
1.0
 10
210.8668823077
 20
55.1713935185
 30
0.0
 10
211.6559727828
 20
54.3745280245
 30
0.0
 10
213.2239407224
 20
53.4665932024
 30
0.0
 10
215.5252624424
 20
52.8655111492
 30
0.0
 10
216.7839444554
 20
52.7591775704
 30
0.0
 10
217.4200986621
 20
52.7591775704
 30
0.0
  0
SPLINE
  5
432
100
AcDbEntity
  8
RUNDUNGEN
100
AcDbSpline
 62
7
  6
CONTINUOUS
 70
0
 71
3
 72
10
 73
6
 74
0
 42
0.0000001
 43
0.0000001
 44
0.0000000001
 40
0.0
 40
0.0
 40
0.0
 40
0.0
 40
0.2677558652
 40
0.5279833681
 40
1.0
 40
1.0
 40
1.0
 40
1.0
 10
171.2185241519
 20
52.7591775704
 30
0.0
 10
171.8546788762
 20
52.7591775704
 30
0.0
 10
173.1133616364
 20
52.865511282
 30
0.0
 10
175.4146832747
 20
53.4665937807
 30
0.0
 10
176.982650542
 20
54.3745285404
 30
0.0
 10
177.7717405062
 20
55.1713935185
 30
0.0
  0
SPLINE
  5
433
100
AcDbEntity
  8
RUNDUNGEN
100
AcDbSpline
 62
7
  6
CONTINUOUS
 70
0
 71
3
 72
13
 73
9
 74
0
 42
0.0000001
 43
0.0000001
 44
0.0000000001
 40
0.0
 40
0.0
 40
0.0
 40
0.0
 40
0.1034546555
 40
0.2106690395
 40
0.3244963599
 40
0.4464318111
 40
0.7129511617
 40
1.0
 40
1.0
 40
1.0
 40
1.0
 10
152.169311407
 20
47.1023233209
 30
0.0
 10
152.169311407
 20
47.4737357311
 30
0.0
 10
152.2770965489
 20
48.2339160044
 30
0.0
 10
152.7487581653
 20
49.312585361
 30
0.0
 10
153.5053527088
 20
50.2977358055
 30
0.0
 10
154.8882506829
 20
51.472161194
 30
0.0
 10
157.1412755749
 20
52.4908404448
 30
0.0
 10
159.1387777841
 20
52.7591775704
 30
0.0
 10
160.169311407
 20
52.7591775704
 30
0.0
  0
SPLINE
  5
434
100
AcDbEntity
  8
RUNDUNGEN
100
AcDbSpline
 62
7
  6
CONTINUOUS
 70
0
 71
3
 72
13
 73
9
 74
0
 42
0.0000001
 43
0.0000001
 44
0.0000000001
 40
0.0
 40
0.0
 40
0.0
 40
0.0
 40
0.2870490624
 40
0.5535683755
 40
0.6755038246
 40
0.7893311355
 40
0.8965454157
 40
1.0
 40
1.0
 40
1.0
 40
1.0
 10
228.469311407
 20
52.7591775704
 30
0.0
 10
229.499845834
 20
52.7591775704
 30
0.0
 10
231.4973487601
 20
52.4908401892
 30
0.0
 10
233.7503739826
 20
51.4721600503
 30
0.0
 10
235.1332715097
 20
50.2977343868
 30
0.0
 10
235.8898653733
 20
49.312583949
 30
0.0
 10
236.3615264929
 20
48.2339151282
 30
0.0
 10
236.469311407
 20
47.4737354756
 30
0.0
 10
236.469311407
 20
47.1023233209
 30
0.0
  0
SPLINE
  5
435
100
AcDbEntity
  8
RUNDUNGEN
100
AcDbSpline
 62
7
  6
CONTINUOUS
 70
0
 71
3
 72
13
 73
9
 74
0
 42
0.0000001
 43
0.0000001
 44
0.0000000001
 40
0.0
 40
0.0
 40
0.0
 40
0.0
 40
0.2360077452
 40
0.3661261418
 40
0.5000000756
 40
0.6338740402
 40
0.7639924068
 40
1.0
 40
1.0
 40
1.0
 40
1.0
 10
186.1277909641
 20
63.6097773123
 30
0.0
 10
187.1141509971
 20
64.6058560889
 30
0.0
 10
189.0737516697
 20
65.7408175517
 30
0.0
 10
191.951480664
 20
66.4921011067
 30
0.0
 10
194.3193129818
 20
66.6924660879
 30
0.0
 10
196.6871450815
 20
66.4921006292
 30
0.0
 10
199.5648730624
 20
65.7408166861
 30
0.0
 10
201.524472452
 20
64.6058554474
 30
0.0
 10
202.5108318498
 20
63.6097773123
 30
0.0
  0
SPLINE
  5
436
100
AcDbEntity
  8
RUNDUNGEN
100
AcDbSpline
 62
7
  6
CONTINUOUS
 70
0
 71
3
 72
10
 73
6
 74
0
 42
0.0000001
 43
0.0000001
 44
0.0000000001
 40
0.0
 40
0.0
 40
0.0
 40
0.0
 40
0.5172913397
 40
0.7618443771
 40
1.0
 40
1.0
 40
1.0
 40
1.0
 10
164.746354375
 20
85.002897997
 30
0.0
 10
165.9104768402
 20
86.178490724
 30
0.0
 10
167.4158837675
 20
88.1559215795
 30
0.0
 10
168.6777392613
 20
91.1072259657
 30
0.0
 10
169.0348178805
 20
92.6193695288
 30
0.0
 10
169.1420496276
 20
93.3734746912
 30
0.0
  0
SPLINE
  5
437
100
AcDbEntity
  8
RUNDUNGEN
100
AcDbSpline
 62
7
  6
CONTINUOUS
 70
0
 71
3
 72
11
 73
7
 74
0
 42
0.0000001
 43
0.0000001
 44
0.0000000001
 40
0.0
 40
0.0
 40
0.0
 40
0.0
 40
0.2660806618
 40
0.5190943778
 40
0.7622194713
 40
1.0
 40
1.0
 40
1.0
 40
1.0
 10
164.746354375
 20
101.7463534747
 30
0.0
 10
165.4562773927
 20
101.0294354861
 30
0.0
 10
166.7340941268
 20
99.5175772164
 30
0.0
 10
168.1806712781
 20
96.9957248706
 30
0.0
 10
169.0675372859
 20
94.3378397464
 30
0.0
 10
169.2675532986
 20
92.5084889416
 30
0.0
 10
169.2675532677
 20
91.6068580575
 30
0.0
  0
SPLINE
  5
438
100
AcDbEntity
  8
RUNDUNGEN
100
AcDbSpline
 62
7
  6
CONTINUOUS
 70
0
 71
3
 72
11
 73
7
 74
0
 42
0.0000001
 43
0.0000001
 44
0.0000000001
 40
0.0
 40
0.0
 40
0.0
 40
0.0
 40
0.2524507309
 40
0.5157647478
 40
0.7702968692
 40
1.0
 40
1.0
 40
1.0
 40
1.0
 10
139.9164020245
 20
137.9161862909
 30
0.0
 10
140.3633470852
 20
138.1374783992
 30
0.0
 10
141.3571616826
 20
138.4346786476
 30
0.0
 10
142.8963484404
 20
138.4562116564
 30
0.0
 10
144.3427709161
 20
138.0764936764
 30
0.0
 10
145.168015229
 20
137.544040413
 30
0.0
 10
145.487315947
 20
137.2215935803
 30
0.0
  0
SPLINE
  5
439
100
AcDbEntity
  8
0
100
AcDbSpline
 62
7
  6
CONTINUOUS
 70
0
 71
3
 72
11
 73
7
 74
0
 42
0.0000001
 43
0.0000001
 44
0.0000000001
 40
0.0
 40
0.0
 40
0.0
 40
0.0
 40
0.2094656921
 40
0.4446574861
 40
0.7119998836
 40
1.0
 40
1.0
 40
1.0
 40
1.0
 10
191.4420019278
 20
124.9483687828
 30
0.0
 10
191.4420019278
 20
125.1107554176
 30
0.0
 10
191.3365790554
 20
125.4595703217
 30
0.0
 10
190.9327171928
 20
125.8589519214
 30
0.0
 10
190.365478492
 20
126.1154719884
 30
0.0
 10
189.9322349442
 20
126.1738320203
 30
0.0
 10
189.7089651129
 20
126.1738320203
 30
0.0
  0
SPLINE
  5
43A
100
AcDbEntity
  8
0
100
AcDbSpline
 62
7
  6
CONTINUOUS
 70
0
 71
3
 72
11
 73
7
 74
0
 42
0.0000001
 43
0.0000001
 44
0.0000000001
 40
0.0
 40
0.0
 40
0.0
 40
0.0
 40
0.2880052506
 40
0.5553344723
 40
0.7905070702
 40
1.0
 40
1.0
 40
1.0
 40
1.0
 10
179.6196830305
 20
118.3786868645
 30
0.0
 10
179.7433614826
 20
118.3786868645
 30
0.0
 10
179.983354953
 20
118.4109935036
 30
0.0
 10
180.2975199811
 20
118.5531455526
 30
0.0
 10
180.5212786698
 20
118.7743153839
 30
0.0
 10
180.5796830305
 20
118.9675465657
 30
0.0
 10
180.5796830305
 20
119.0575093744
 30
0.0
  0
SPLINE
  5
43B
100
AcDbEntity
  8
RUNDUNGEN
100
AcDbSpline
 62
7
  6
CONTINUOUS
 70
0
 71
3
 72
11
 73
7
 74
0
 42
0.0000001
 43
0.0000001
 44
0.0000000001
 40
0.0
 40
0.0
 40
0.0
 40
0.0
 40
0.2377805486
 40
0.4809056598
 40
0.733919361
 40
1.0
 40
1.0
 40
1.0
 40
1.0
 10
169.2675532677
 20
91.6068580575
 30
0.0
 10
169.2675532368
 20
90.7052272122
 30
0.0
 10
169.0675369783
 20
88.8758765175
 30
0.0
 10
168.1806708016
 20
86.2179917471
 30
0.0
 10
166.7340937634
 20
83.696139855
 30
0.0
 10
165.4562772418
 20
82.1842819273
 30
0.0
 10
164.746354375
 20
81.4673640911
 30
0.0
  0
SPLINE
  5
43C
100
AcDbEntity
  8
RUNDUNGEN
100
AcDbSpline
 62
7
  6
CONTINUOUS
 70
0
 71
3
 72
10
 73
6
 74
0
 42
0.0000001
 43
0.0000001
 44
0.0000000001
 40
0.0
 40
0.0
 40
0.0
 40
0.0
 40
0.2382827206
 40
0.4819249463
 40
1.0
 40
1.0
 40
1.0
 40
1.0
 10
248.819311407
 20
54.5111121826
 30
0.0
 10
248.819311407
 20
54.7996322163
 30
0.0
 10
248.755118909
 20
55.3851977559
 30
0.0
 10
248.3704357833
 20
56.5405358711
 30
0.0
 10
247.8139168157
 20
57.3100123614
 30
0.0
 10
247.3725277613
 20
57.755750484
 30
0.0
  0
SPLINE
  5
43D
100
AcDbEntity
  8
0
100
AcDbSpline
 62
7
  6
CONTINUOUS
 70
0
 71
3
 72
11
 73
7
 74
0
 42
0.0000001
 43
0.0000001
 44
0.0000000001
 40
0.0
 40
0.0
 40
0.0
 40
0.0
 40
0.2865059912
 40
0.5484241175
 40
0.7833822346
 40
1.0
 40
1.0
 40
1.0
 40
1.0
 10
190.7044027433
 20
122.8060277108
 30
0.0
 10
191.0102969403
 20
122.8770944981
 30
0.0
 10
191.5837893867
 20
123.0793042621
 30
0.0
 10
192.3010084859
 20
123.5724302851
 30
0.0
 10
192.7811924086
 20
124.2113147688
 30
0.0
 10
192.8980606273
 20
124.7114393842
 30
0.0
 10
192.8980250088
 20
124.9488754602
 30
0.0
  0
SPLINE
  5
43E
100
AcDbEntity
  8
RUNDUNGEN
100
AcDbSpline
 62
7
  6
CONTINUOUS
 70
0
 71
3
 72
11
 73
7
 74
0
 42
0.0000001
 43
0.0000001
 44
0.0000000001
 40
0.0
 40
0.0
 40
0.0
 40
0.0
 40
0.22569408
 40
0.4632959224
 40
0.7206237489
 40
1.0
 40
1.0
 40
1.0
 40
1.0
 10
265.1503354717
 20
143.9693524428
 30
0.0
 10
265.1502424859
 20
144.1113591457
 30
0.0
 10
265.0985974376
 20
144.4049076886
 30
0.0
 10
264.8774865288
 20
144.8084143343
 30
0.0
 10
264.531205062
 20
145.1584899811
 30
0.0
 10
264.2418285145
 20
145.3384096831
 30
0.0
 10
264.0842967135
 20
145.4164070645
 30
0.0
  0
SPLINE
  5
43F
100
AcDbEntity
  8
0
100
AcDbSpline
 62
7
  6
CONTINUOUS
 70
0
 71
3
 72
9
 73
5
 74
0
 42
0.0000001
 43
0.0000001
 44
0.0000000001
 40
0.0
 40
0.0
 40
0.0
 40
0.0
 40
0.2536121958
 40
1.0
 40
1.0
 40
1.0
 40
1.0
 10
213.248328998
 20
118.3786868645
 30
0.0
 10
213.2811812656
 20
118.3786868645
 30
0.0
 10
213.4106577988
 20
118.3833802605
 30
0.0
 10
213.539601365
 20
118.406771423
 30
0.0
 10
213.6319955199
 20
118.435255407
 30
0.0
  0
SPLINE
  5
440
100
AcDbEntity
  8
0
100
AcDbSpline
 62
7
  6
CONTINUOUS
 70
0
 71
3
 72
9
 73
5
 74
0
 42
0.0000001
 43
0.0000001
 44
0.0000000001
 40
0.0
 40
0.0
 40
0.0
 40
0.0
 40
0.2533622092
 40
1.0
 40
1.0
 40
1.0
 40
1.0
 10
213.6319955199
 20
118.435255407
 30
0.0
 10
213.7167044223
 20
118.4613701219
 30
0.0
 10
214.0493682649
 20
118.5697734042
 30
0.0
 10
214.3751380566
 20
118.6995417236
 30
0.0
 10
214.61244456
 20
118.8087360536
 30
0.0
  0
SPLINE
  5
441
100
AcDbEntity
  8
0
100
AcDbSpline
 62
7
  6
CONTINUOUS
 70
0
 71
3
 72
19
 73
15
 74
0
 42
0.0000001
 43
0.0000001
 44
0.0000000001
 40
0.0
 40
0.0
 40
0.0
 40
0.0
 40
0.0517234907
 40
0.1053372095
 40
0.1622487312
 40
0.2232163938
 40
0.3564752704
 40
0.5
 40
0.6435247296
 40
0.7767836062
 40
0.8377512688
 40
0.8946627905
 40
0.9482765093
 40
1.0
 40
1.0
 40
1.0
 40
1.0
 10
195.2129651129
 20
121.6198781394
 30
0.0
 10
195.2129651129
 20
121.4084073243
 30
0.0
 10
195.2743794324
 20
120.9755512198
 30
0.0
 10
195.5428823881
 20
120.3613122996
 30
0.0
 10
195.9737914382
 20
119.8003895324
 30
0.0
 10
196.7610869181
 20
119.1316346945
 30
0.0
 10
198.0448394602
 20
118.5516017794
 30
0.0
 10
199.7682734014
 20
118.3195483442
 30
0.0
 10
201.4917073426
 20
118.5516017794
 30
0.0
 10
202.7754598847
 20
119.1316346945
 30
0.0
 10
203.5627553646
 20
119.8003895324
 30
0.0
 10
203.9936644146
 20
120.3613122996
 30
0.0
 10
204.2621673703
 20
120.9755512198
 30
0.0
 10
204.3235816898
 20
121.4084073243
 30
0.0
 10
204.3235816898
 20
121.6198781394
 30
0.0
  0
SPLINE
  5
442
100
AcDbEntity
  8
RUNDUNGEN
100
AcDbSpline
 62
7
  6
CONTINUOUS
 70
0
 71
3
 72
10
 73
6
 74
0
 42
0.0000001
 43
0.0000001
 44
0.0000000001
 40
0.0
 40
0.0
 40
0.0
 40
0.0
 40
0.5180752096
 40
0.7617173681
 40
1.0
 40
1.0
 40
1.0
 40
1.0
 10
141.2660950526
 20
57.755750484
 30
0.0
 10
140.8247058661
 20
57.3100122279
 30
0.0
 10
140.2681868684
 20
56.5405356031
 30
0.0
 10
139.8835038449
 20
55.3851974586
 30
0.0
 10
139.819311407
 20
54.7996321085
 30
0.0
 10
139.819311407
 20
54.5111121826
 30
0.0
  0
SPLINE
  5
443
100
AcDbEntity
  8
RUNDUNGEN
100
AcDbSpline
 62
7
  6
CONTINUOUS
 70
0
 71
3
 72
11
 73
7
 74
0
 42
0.0000001
 43
0.0000001
 44
0.0000000001
 40
0.0
 40
0.0
 40
0.0
 40
0.0
 40
0.2793751981
 40
0.5367195601
 40
0.7743217724
 40
1.0
 40
1.0
 40
1.0
 40
1.0
 10
143.5397061437
 20
126.2439614118
 30
0.0
 10
143.382166777
 20
126.1659602845
 30
0.0
 10
143.0927684891
 20
125.9860236168
 30
0.0
 10
142.746467085
 20
125.6359151012
 30
0.0
 10
142.5253702012
 20
125.2323713303
 30
0.0
 10
142.4737456742
 20
124.9388133977
 30
0.0
 10
142.4736650669
 20
124.7968093069
 30
0.0
  0
SPLINE
  5
444
100
AcDbEntity
  8
RUNDUNGEN
100
AcDbSpline
 62
7
  6
CONTINUOUS
 70
0
 71
3
 72
11
 73
7
 74
0
 42
0.0000001
 43
0.0000001
 44
0.0000000001
 40
0.0
 40
0.0
 40
0.0
 40
0.0
 40
0.2794013718
 40
0.5367226037
 40
0.7743080703
 40
1.0
 40
1.0
 40
1.0
 40
1.0
 10
129.059662344
 20
147.6470958967
 30
0.0
 10
128.5551627268
 20
147.3973072902
 30
0.0
 10
127.6285081339
 20
146.8210580563
 30
0.0
 10
126.5199415924
 20
145.6996834109
 30
0.0
 10
125.8126366968
 20
144.4071359072
 30
0.0
 10
125.6481899854
 20
143.4669848635
 30
0.0
 10
125.6482777165
 20
143.0122499024
 30
0.0
  0
SPLINE
  5
445
100
AcDbEntity
  8
RUNDUNGEN
100
AcDbSpline
 62
7
  6
CONTINUOUS
 70
0
 71
3
 72
9
 73
5
 74
0
 42
0.0000001
 43
0.0000001
 44
0.0000000001
 40
0.0
 40
0.0
 40
0.0
 40
0.0
 40
0.5095267524
 40
1.0
 40
1.0
 40
1.0
 40
1.0
 10
148.8196606371
 20
150.7770325895
 30
0.0
 10
145.7295666006
 20
151.341538906
 30
0.0
 10
139.4644030759
 20
151.504875904
 30
0.0
 10
133.4077746203
 20
149.7999397626
 30
0.0
 10
130.6979664326
 20
148.4582554721
 30
0.0
  0
SPLINE
  5
446
100
AcDbEntity
  8
RUNDUNGEN
100
AcDbSpline
 62
7
  6
CONTINUOUS
 70
0
 71
3
 72
10
 73
6
 74
0
 42
0.0000001
 43
0.0000001
 44
0.0000000001
 40
0.0
 40
0.0
 40
0.0
 40
0.0
 40
0.2540840942
 40
0.5191023916
 40
1.0
 40
1.0
 40
1.0
 40
1.0
 10
253.2305321267
 20
150.7903392512
 30
0.0
 10
252.951191765
 20
150.9286466696
 30
0.0
 10
252.3279276214
 20
151.1136825178
 30
0.0
 10
251.0997617965
 20
151.1352898246
 30
0.0
 10
250.163821981
 20
150.7754200103
 30
0.0
 10
249.7487109251
 20
150.356218807
 30
0.0
  0
SPLINE
  5
447
100
AcDbEntity
  8
0
100
AcDbSpline
 62
7
  6
CONTINUOUS
 70
0
 71
3
 72
9
 73
5
 74
0
 42
0.0000001
 43
0.0000001
 44
0.0000000001
 40
0.0
 40
0.0
 40
0.0
 40
0.0
 40
0.2536121958
 40
1.0
 40
1.0
 40
1.0
 40
1.0
 10
213.248328998
 20
118.9443722894
 30
0.0
 10
213.2811812656
 20
118.9443722894
 30
0.0
 10
213.4106577988
 20
118.9490656855
 30
0.0
 10
213.539601365
 20
118.972456848
 30
0.0
 10
213.6319955199
 20
119.0009408319
 30
0.0
  0
SPLINE
  5
448
100
AcDbEntity
  8
0
100
AcDbSpline
 62
7
  6
CONTINUOUS
 70
0
 71
3
 72
11
 73
7
 74
0
 42
0.0000001
 43
0.0000001
 44
0.0000000001
 40
0.0
 40
0.0
 40
0.0
 40
0.0
 40
0.2782911642
 40
0.539206302
 40
0.7792454761
 40
1.0
 40
1.0
 40
1.0
 40
1.0
 10
190.7044027433
 20
123.3717131358
 30
0.0
 10
190.9476843582
 20
123.4282334717
 30
0.0
 10
191.4107273029
 20
123.5801625893
 30
0.0
 10
192.0228788879
 20
123.9293259508
 30
0.0
 10
192.5006188938
 20
124.3765052711
 30
0.0
 10
192.7157859593
 20
124.738695482
 30
0.0
 10
192.7867486832
 20
124.9236737524
 30
0.0
  0
SPLINE
  5
449
100
AcDbEntity
  8
0
100
AcDbSpline
 62
7
  6
CONTINUOUS
 70
0
 71
3
 72
8
 73
4
 74
0
 42
0.0000001
 43
0.0000001
 44
0.0000000001
 40
0.0
 40
0.0
 40
0.0
 40
0.0
 40
1.0
 40
1.0
 40
1.0
 40
1.0
 10
192.7867486832
 20
124.9236737524
 30
0.0
 10
192.8234623277
 20
125.019375074
 30
0.0
 10
192.8519277342
 20
125.1187288576
 30
0.0
 10
192.8707076489
 20
125.2194956648
 30
0.0
  0
SPLINE
  5
44A
100
AcDbEntity
  8
0
100
AcDbSpline
 62
7
  6
CONTINUOUS
 70
0
 71
3
 72
11
 73
7
 74
0
 42
0.0000001
 43
0.0000001
 44
0.0000000001
 40
0.0
 40
0.0
 40
0.0
 40
0.0
 40
0.2880066977
 40
0.5553334191
 40
0.790532629
 40
1.0
 40
1.0
 40
1.0
 40
1.0
 10
189.7089651129
 20
126.7395174452
 30
0.0
 10
189.932239196
 20
126.7395174452
 30
0.0
 10
190.3654816083
 20
126.6811801654
 30
0.0
 10
190.9326905655
 20
126.4245993522
 30
0.0
 10
191.336551118
 20
126.0252515106
 30
0.0
 10
191.4420318436
 20
125.6764415257
 30
0.0
 10
191.4420318436
 20
125.5140542077
 30
0.0
  0
SPLINE
  5
44B
100
AcDbEntity
  8
RUNDUNGEN
100
AcDbSpline
 62
7
  6
CONTINUOUS
 70
0
 71
3
 72
11
 73
7
 74
0
 42
0.0000001
 43
0.0000001
 44
0.0000000001
 40
0.0
 40
0.0
 40
0.0
 40
0.0
 40
0.2660806618
 40
0.5190943778
 40
0.7622194713
 40
1.0
 40
1.0
 40
1.0
 40
1.0
 10
223.892268439
 20
81.4673640911
 30
0.0
 10
223.1823454212
 20
82.1842820797
 30
0.0
 10
221.9045286872
 20
83.6961403494
 30
0.0
 10
220.4579515359
 20
86.2179926952
 30
0.0
 10
219.571085528
 20
88.8758778194
 30
0.0
 10
219.3710695153
 20
90.7052286242
 30
0.0
 10
219.3710695462
 20
91.6068595083
 30
0.0
  0
SPLINE
  5
44C
100
AcDbEntity
  8
0
100
AcDbSpline
 62
7
  6
CONTINUOUS
 70
0
 71
3
 72
16
 73
12
 74
0
 42
0.0000001
 43
0.0000001
 44
0.0000000001
 40
0.0
 40
0.0
 40
0.0
 40
0.0
 40
0.0517885219
 40
0.1059711995
 40
0.2242311936
 40
0.3566162191
 40
0.4979214238
 40
0.6397522278
 40
0.7735401077
 40
0.8935459308
 40
1.0
 40
1.0
 40
1.0
 40
1.0
 10
195.2467522614
 20
121.7945119927
 30
0.0
 10
195.2801143619
 20
121.6016919772
 30
0.0
 10
195.3990373185
 20
121.2144067841
 30
0.0
 10
195.8323732699
 20
120.4789709729
 30
0.0
 10
196.7209077187
 20
119.7005134829
 30
0.0
 10
198.1022894091
 20
119.1166691596
 30
0.0
 10
199.6741888827
 20
118.8988690745
 30
0.0
 10
201.2566273838
 20
119.0708841034
 30
0.0
 10
202.6694095557
 20
119.6164396016
 30
0.0
 10
203.7531286843
 20
120.4828148632
 30
0.0
 10
204.1714109813
 20
121.2694367617
 30
0.0
 10
204.2627305449
 20
121.6611744192
 30
0.0
  0
SPLINE
  5
44D
100
AcDbEntity
  8
0
100
AcDbSpline
 62
7
  6
CONTINUOUS
 70
0
 71
3
 72
9
 73
5
 74
0
 42
0.0000001
 43
0.0000001
 44
0.0000000001
 40
0.0
 40
0.0
 40
0.0
 40
0.0
 40
0.538986273
 40
1.0
 40
1.0
 40
1.0
 40
1.0
 10
179.6196830305
 20
118.9443722894
 30
0.0
 10
179.801534742
 20
118.9443722894
 30
0.0
 10
180.1427036803
 20
119.0082118695
 30
0.0
 10
180.4280770027
 20
119.229156205
 30
0.0
 10
180.5066073817
 20
119.3634206713
 30
0.0
  0
SPLINE
  5
44E
100
AcDbEntity
  8
0
100
AcDbSpline
 62
7
  6
CONTINUOUS
 70
0
 71
3
 72
9
 73
5
 74
0
 42
0.0000001
 43
0.0000001
 44
0.0000000001
 40
0.0
 40
0.0
 40
0.0
 40
0.0
 40
0.2592261758
 40
1.0
 40
1.0
 40
1.0
 40
1.0
 10
180.5066073817
 20
119.3634206713
 30
0.0
 10
180.5184568273
 20
119.3836798309
 30
0.0
 10
180.5594541644
 20
119.4644459233
 30
0.0
 10
180.5796830305
 20
119.5561259808
 30
0.0
 10
180.5796830305
 20
119.6231947994
 30
0.0
  0
SPLINE
  5
44F
100
AcDbEntity
  8
BEZUGSACHSEN
100
AcDbSpline
 62
7
  6
CONTINUOUS
 70
0
 71
3
 72
9
 73
5
 74
0
 42
0.0000001
 43
0.0000001
 44
0.0000000001
 40
0.0
 40
0.0
 40
0.0
 40
0.0
 40
0.5000519127
 40
1.0
 40
1.0
 40
1.0
 40
1.0
 10
168.1998263521
 20
135.9791781104
 30
0.0
 10
168.3994394145
 20
136.5623111705
 30
0.0
 10
168.7311950942
 20
137.7533144729
 30
0.0
 10
168.8880850321
 20
138.9816109638
 30
0.0
 10
168.9167262413
 20
139.5971688293
 30
0.0
  0
SPLINE
  5
450
100
AcDbEntity
  8
KONSTRUKTIONSELEMENTE
100
AcDbSpline
 62
7
  6
CONTINUOUS
 70
0
 71
3
 72
16
 73
12
 74
0
 42
0.0000001
 43
0.0000001
 44
0.0000000001
 40
0.0
 40
0.0
 40
0.0
 40
0.0
 40
0.0624880848
 40
0.1249837706
 40
0.1874935606
 40
0.2500124857
 40
0.3749397523
 40
0.49994804
 40
0.6249895773
 40
0.7500461571
 40
1.0
 40
1.0
 40
1.0
 40
1.0
 10
168.9292318909
 20
143.2119781104
 30
0.0
 10
168.9292318909
 20
143.669304465
 30
0.0
 10
169.0260922439
 20
144.5866486881
 30
0.0
 10
169.4384714169
 20
145.9031597565
 30
0.0
 10
170.0657623814
 20
147.1300192864
 30
0.0
 10
171.1178000722
 20
148.6319523735
 30
0.0
 10
172.7326329624
 20
150.2722185121
 30
0.0
 10
174.9388711394
 20
151.9157009867
 30
0.0
 10
177.3209013675
 20
153.2912867858
 30
0.0
 10
180.654597771
 20
154.8101168117
 30
0.0
 10
183.2886699405
 20
155.6311758017
 30
0.0
 10
185.069311407
 20
156.0503589959
 30
0.0
  0
SPLINE
  5
451
100
AcDbEntity
  8
RUNDUNGEN
100
AcDbSpline
 62
7
  6
CONTINUOUS
 70
0
 71
3
 72
16
 73
12
 74
0
 42
0.0000001
 43
0.0000001
 44
0.0000000001
 40
0.0
 40
0.0
 40
0.0
 40
0.0
 40
0.0570072422
 40
0.0907934067
 40
0.1296044925
 40
0.2244297782
 40
0.3432733938
 40
0.4846115686
 40
0.644871161
 40
0.8188315326
 40
1.0
 40
1.0
 40
1.0
 40
1.0
 10
148.819311407
 20
155.2102371938
 30
0.0
 10
148.819311407
 20
155.3674189714
 30
0.0
 10
148.9071481885
 20
155.6191501539
 30
0.0
 10
149.1316128946
 20
155.8977691107
 30
0.0
 10
149.4791019638
 20
156.2050757379
 30
0.0
 10
150.0891918705
 20
156.5520449357
 30
0.0
 10
151.0061002953
 20
156.900113317
 30
0.0
 10
152.1306227465
 20
157.1899072672
 30
0.0
 10
153.4247473805
 20
157.4083934475
 30
0.0
 10
154.8403268886
 20
157.5443887533
 30
0.0
 10
155.8197892297
 20
157.5749781104
 30
0.0
 10
156.319311407
 20
157.5749781104
 30
0.0
  0
SPLINE
  5
452
100
AcDbEntity
  8
RUNDUNGEN
100
AcDbSpline
 62
7
  6
CONTINUOUS
 70
0
 71
3
 72
16
 73
12
 74
0
 42
0.0000001
 43
0.0000001
 44
0.0000000001
 40
0.0
 40
0.0
 40
0.0
 40
0.0
 40
0.0570072422
 40
0.0907934067
 40
0.1296044925
 40
0.2244297782
 40
0.3432733938
 40
0.4846115686
 40
0.644871161
 40
0.8188315326
 40
1.0
 40
1.0
 40
1.0
 40
1.0
 10
239.819311407
 20
155.2102371938
 30
0.0
 10
239.819311407
 20
155.3674189714
 30
0.0
 10
239.7314746254
 20
155.6191501539
 30
0.0
 10
239.5070099193
 20
155.8977691107
 30
0.0
 10
239.1595208501
 20
156.2050757379
 30
0.0
 10
238.5494309434
 20
156.5520449357
 30
0.0
 10
237.6325225187
 20
156.900113317
 30
0.0
 10
236.5080000674
 20
157.1899072672
 30
0.0
 10
235.2138754334
 20
157.4083934475
 30
0.0
 10
233.7982959253
 20
157.5443887533
 30
0.0
 10
232.8188335842
 20
157.5749781104
 30
0.0
 10
232.319311407
 20
157.5749781104
 30
0.0
  0
SPLINE
  5
453
100
AcDbEntity
  8
RUNDUNGEN
100
AcDbSpline
 62
7
  6
CONTINUOUS
 70
0
 71
3
 72
16
 73
12
 74
0
 42
0.0000001
 43
0.0000001
 44
0.0000000001
 40
0.0
 40
0.0
 40
0.0
 40
0.0
 40
0.0570072422
 40
0.0907934067
 40
0.1296044925
 40
0.2244297782
 40
0.3432733938
 40
0.4846115686
 40
0.644871161
 40
0.8188315326
 40
1.0
 40
1.0
 40
1.0
 40
1.0
 10
239.819311407
 20
163.0650512309
 30
0.0
 10
239.819311407
 20
163.2222330085
 30
0.0
 10
239.7314746254
 20
163.473964191
 30
0.0
 10
239.5070099193
 20
163.7525831477
 30
0.0
 10
239.1595208501
 20
164.059889775
 30
0.0
 10
238.5494309434
 20
164.4068589727
 30
0.0
 10
237.6325225187
 20
164.7549273541
 30
0.0
 10
236.5080000674
 20
165.0447213043
 30
0.0
 10
235.2138754334
 20
165.2632074845
 30
0.0
 10
233.7982959253
 20
165.3992027904
 30
0.0
 10
232.8188335842
 20
165.4297921475
 30
0.0
 10
232.319311407
 20
165.4297921475
 30
0.0
  0
SPLINE
  5
454
100
AcDbEntity
  8
RUNDUNGEN
100
AcDbSpline
 62
7
  6
CONTINUOUS
 70
0
 71
3
 72
9
 73
5
 74
0
 42
0.0000001
 43
0.0000001
 44
0.0000000001
 40
0.0
 40
0.0
 40
0.0
 40
0.0
 40
0.4924952808
 40
1.0
 40
1.0
 40
1.0
 40
1.0
 10
176.344687986
 20
187.0749781104
 30
0.0
 10
174.9861054576
 20
187.0749781104
 30
0.0
 10
172.2284613497
 20
186.9868223037
 30
0.0
 10
169.4703628633
 20
186.9234473388
 30
0.0
 10
168.0703757537
 20
186.9234473388
 30
0.0
  0
SPLINE
  5
455
100
AcDbEntity
  8
RUNDUNGEN
100
AcDbSpline
 62
7
  6
CONTINUOUS
 70
0
 71
3
 72
16
 73
12
 74
0
 42
0.0000001
 43
0.0000001
 44
0.0000000001
 40
0.0
 40
0.0
 40
0.0
 40
0.0
 40
0.0570072422
 40
0.0907934067
 40
0.1296044925
 40
0.2244297782
 40
0.3432733938
 40
0.4846115686
 40
0.644871161
 40
0.8188315326
 40
1.0
 40
1.0
 40
1.0
 40
1.0
 10
148.819311407
 20
163.0650512309
 30
0.0
 10
148.819311407
 20
163.2222330085
 30
0.0
 10
148.9071481885
 20
163.473964191
 30
0.0
 10
149.1316128946
 20
163.7525831477
 30
0.0
 10
149.4791019638
 20
164.059889775
 30
0.0
 10
150.0891918705
 20
164.4068589727
 30
0.0
 10
151.0061002953
 20
164.7549273541
 30
0.0
 10
152.1306227465
 20
165.0447213043
 30
0.0
 10
153.4247473805
 20
165.2632074845
 30
0.0
 10
154.8403268886
 20
165.3992027904
 30
0.0
 10
155.8197892297
 20
165.4297921475
 30
0.0
 10
156.319311407
 20
165.4297921475
 30
0.0
  0
SPLINE
  5
456
100
AcDbEntity
  8
KONSTRUKTIONSELEMENTE
100
AcDbSpline
 62
7
  6
CONTINUOUS
 70
0
 71
3
 72
21
 73
17
 74
0
 42
0.0000001
 43
0.0000001
 44
0.0000000001
 40
0.0
 40
0.0
 40
0.0
 40
0.0
 40
0.1925459405
 40
0.3785037623
 40
0.5509386307
 40
0.7029185681
 40
0.7692074395
 40
0.8280570951
 40
0.8788329079
 40
0.9209998828
 40
0.9541446639
 40
0.9780054346
 40
0.9864621013
 40
0.9926832447
 40
0.9969235195
 40
1.0
 40
1.0
 40
1.0
 40
1.0
 10
168.1998263521
 20
135.9791781104
 30
0.0
 10
167.7201247439
 20
134.5778175815
 30
0.0
 10
166.8397361632
 20
131.8013250325
 30
0.0
 10
165.7128626204
 20
127.7148608324
 30
0.0
 10
164.7940394614
 20
123.8971243634
 30
0.0
 10
164.1792831617
 20
120.954566737
 30
0.0
 10
163.7959961495
 20
118.8574368007
 30
0.0
 10
163.5768453155
 20
117.521956378
 30
0.0
 10
163.4125983659
 20
116.3657830501
 30
0.0
 10
163.3025732196
 20
115.401885436
 30
0.0
 10
163.2469987742
 20
114.6407988079
 30
0.0
 10
163.2414954718
 20
114.1365717603
 30
0.0
 10
163.2725012642
 20
113.8407082949
 30
0.0
 10
163.3071560162
 20
113.699646448
 30
0.0
 10
163.3538181937
 20
113.6028909645
 30
0.0
 10
163.4098482645
 20
113.5749781104
 30
0.0
 10
163.4335145816
 20
113.5749781104
 30
0.0
  0
SPLINE
  5
457
100
AcDbEntity
  8
KONSTRUKTIONSELEMENTE
100
AcDbSpline
 62
7
  6
CONTINUOUS
 70
0
 71
3
 72
21
 73
17
 74
0
 42
0.0000001
 43
0.0000001
 44
0.0000000001
 40
0.0
 40
0.0
 40
0.0
 40
0.0
 40
0.0030764805
 40
0.0073167553
 40
0.0135378987
 40
0.0219945654
 40
0.0458553361
 40
0.0790001172
 40
0.1211670921
 40
0.1719429049
 40
0.2307925605
 40
0.2970814319
 40
0.4490613693
 40
0.6214962377
 40
0.8074540595
 40
1.0
 40
1.0
 40
1.0
 40
1.0
 10
225.2051082323
 20
113.5749781104
 30
0.0
 10
225.2287745494
 20
113.5749781104
 30
0.0
 10
225.2848046202
 20
113.6028909645
 30
0.0
 10
225.3314667977
 20
113.699646448
 30
0.0
 10
225.3661215497
 20
113.8407082949
 30
0.0
 10
225.3971273421
 20
114.1365717603
 30
0.0
 10
225.3916240398
 20
114.6407988079
 30
0.0
 10
225.3360495943
 20
115.401885436
 30
0.0
 10
225.2260244481
 20
116.3657830501
 30
0.0
 10
225.0617774984
 20
117.521956378
 30
0.0
 10
224.8426266645
 20
118.8574368007
 30
0.0
 10
224.4593396523
 20
120.954566737
 30
0.0
 10
223.8445833525
 20
123.8971243634
 30
0.0
 10
222.9257601935
 20
127.7148608324
 30
0.0
 10
221.7988866507
 20
131.8013250325
 30
0.0
 10
220.91849807
 20
134.5778175815
 30
0.0
 10
220.4387964618
 20
135.9791781104
 30
0.0
  0
SPLINE
  5
458
100
AcDbEntity
  8
KONSTRUKTIONSELEMENTE
100
AcDbSpline
 62
7
  6
CONTINUOUS
 70
0
 71
3
 72
9
 73
5
 74
0
 42
0.0000001
 43
0.0000001
 44
0.0000000001
 40
0.0
 40
0.0
 40
0.0
 40
0.0
 40
0.4999249095
 40
1.0
 40
1.0
 40
1.0
 40
1.0
 10
219.709390923
 20
140.1344781104
 30
0.0
 10
219.709390923
 20
139.429001337
 30
0.0
 10
219.8415799883
 20
138.0150820674
 30
0.0
 10
220.2102505512
 20
136.6468331959
 30
0.0
 10
220.4387964618
 20
135.9791781104
 30
0.0
  0
SPLINE
  5
459
100
AcDbEntity
  8
KONSTRUKTIONSELEMENTE
100
AcDbSpline
 62
7
  6
CONTINUOUS
 70
0
 71
3
 72
16
 73
12
 74
0
 42
0.0000001
 43
0.0000001
 44
0.0000000001
 40
0.0
 40
0.0
 40
0.0
 40
0.0
 40
0.2499537202
 40
0.3750107376
 40
0.5000527078
 40
0.6250613209
 40
0.7499885228
 40
0.8125072234
 40
0.875016725
 40
0.9375122693
 40
1.0
 40
1.0
 40
1.0
 40
1.0
 10
203.569311407
 20
156.0503589959
 30
0.0
 10
205.349951991
 20
155.6311760094
 30
0.0
 10
207.9840263757
 20
154.8101166396
 30
0.0
 10
211.317728021
 20
153.2912847087
 30
0.0
 10
213.6997644355
 20
151.9156920122
 30
0.0
 10
215.9060052553
 20
150.2722045879
 30
0.0
 10
217.5208361721
 20
148.6319360233
 30
0.0
 10
218.5728690762
 20
147.1300048111
 30
0.0
 10
219.2001562952
 20
145.9031487203
 30
0.0
 10
219.6125308562
 20
144.5866423079
 30
0.0
 10
219.709390923
 20
143.669301872
 30
0.0
 10
219.709390923
 20
143.2119781104
 30
0.0
  0
SPLINE
  5
45A
100
AcDbEntity
  8
RUNDUNGEN
100
AcDbSpline
 62
7
  6
CONTINUOUS
 70
0
 71
3
 72
9
 73
5
 74
0
 42
0.0000001
 43
0.0000001
 44
0.0000000001
 40
0.0
 40
0.0
 40
0.0
 40
0.0
 40
0.5075045585
 40
1.0
 40
1.0
 40
1.0
 40
1.0
 10
220.5682470602
 20
186.9234473388
 30
0.0
 10
219.1682554219
 20
186.9234473388
 30
0.0
 10
216.4101471509
 20
186.9868231002
 30
0.0
 10
213.6524932277
 20
187.0749781104
 30
0.0
 10
212.293905431
 20
187.0749781104
 30
0.0
  0
SPLINE
  5
45B
100
AcDbEntity
  8
RUNDUNGEN
100
AcDbSpline
 62
7
  6
CONTINUOUS
 70
0
 71
3
 72
9
 73
5
 74
0
 42
0.0000001
 43
0.0000001
 44
0.0000000001
 40
0.0
 40
0.0
 40
0.0
 40
0.0
 40
0.4911624891
 40
1.0
 40
1.0
 40
1.0
 40
1.0
 10
229.821499929
 20
187.0494102592
 30
0.0
 10
229.061716629
 20
187.0246082246
 30
0.0
 10
227.5155358063
 20
186.9551077048
 30
0.0
 10
225.9677666552
 20
186.9234473388
 30
0.0
 10
225.180222449
 20
186.9234473388
 30
0.0
  0
SPLINE
  5
45C
100
AcDbEntity
  8
RUNDUNGEN
100
AcDbSpline
 62
7
  6
CONTINUOUS
 70
0
 71
3
 72
9
 73
5
 74
0
 42
0.0000001
 43
0.0000001
 44
0.0000000001
 40
0.0
 40
0.0
 40
0.0
 40
0.0
 40
0.5088285907
 40
1.0
 40
1.0
 40
1.0
 40
1.0
 10
163.458399631
 20
186.9234473388
 30
0.0
 10
162.6712407235
 20
186.9234473482
 30
0.0
 10
161.1242015014
 20
186.9550756996
 30
0.0
 10
159.578749409
 20
187.0245269863
 30
0.0
 10
158.819311407
 20
187.0493387883
 30
0.0
  0
ELLIPSE
  5
45D
100
AcDbEntity
  8
0
100
AcDbEllipse
 62
7
  6
CONTINUOUS
 10
637.1843301162
 20
177.0749781104
 30
0.0
 11
-1.0897843695
 21
9.989598968
 31
0.0
 40
0.418407714
 41
-1.6164095607
 42
-0.1918339244
  0
ELLIPSE
  5
45E
100
AcDbEntity
  8
RUNDUNGEN
100
AcDbEllipse
 62
7
  6
CONTINUOUS
 10
657.6385515248
 20
177.0749781104
 30
0.0
 11
1.0897843695
 21
9.989598968
 31
0.0
 40
0.418407714
 41
0.1918339244
 42
1.6164095607
  0
ENDSEC
  0
SECTION
  2
OBJECTS
  0
DICTIONARY
  5
C
100
AcDbDictionary
280
0
281
1
  3
ACAD_GROUP
350
D
  3
ACAD_MLINESTYLE
350
17
  3
ACAD_LAYOUT
350
1A
  3
ACAD_PLOTSETTINGS
350
19
  3
ACAD_PLOTSTYLENAME
350
E
  0
DICTIONARY
  5
D
102
{ACAD_REACTORS
330
C
102
}
100
AcDbDictionary
280
0
281
1
  0
ACDBDICTIONARYWDFLT
  5
E
102
{ACAD_REACTORS
330
C
102
}
100
AcDbDictionary
281
1
  3
Normal
350
F
100
AcDbDictionaryWithDefault
340
F
  0
DICTIONARY
  5
17
102
{ACAD_REACTORS
330
C
102
}
100
AcDbDictionary
280
0
281
1
  3
Standard
350
18
  0
DICTIONARY
  5
19
102
{ACAD_REACTORS
330
C
102
}
100
AcDbDictionary
281
1
  0
DICTIONARY
  5
1A
102
{ACAD_REACTORS
330
C
102
}
100
AcDbDictionary
281
1
  3
Model
350
45F
  3
Layout1
350
460
  0
ACDBPLACEHOLDER
  5
F
102
{ACAD_REACTORS
330
E
102
}
  0
MLINESTYLE
  5
18
102
{ACAD_REACTORS
330
17
102
}
100
AcDbMlineStyle
  2
STANDARD
 70
0
  3

 62
256
 51
90.0
 52
90.0
 71
2
 49
0.5
 62
256
  6
BYLAYER
 49
-0.5
 62
256
  6
BYLAYER
  0
LAYOUT
  5
45F
102
{ACAD_REACTORS
330
1A
102
}
100
AcDbPlotSettings
  1

  2
none_device
  4
ISO_A1_(594.00_x_841.00_MM)
  6

 40
0.0
 41
0.0
 42
0.0
 43
0.0
 44
841.0
 45
594.0
 46
0.0
 47
0.0
 48
0.0
 49
0.0
140
0.0
141
0.0
142
1.0
143
1.0
 70
1024
 72
1
 73
0
 74
0
  7

 75
0
147
1.0
148
0.0
149
0.0
100
AcDbLayout
  1
Model
 70
0
 71
0
 10
0.0
 20
0.0
 11
841.0
 21
594.0
 12
0.0
 22
0.0
 32
0.0
 14
0.0
 24
0.0
 34
0.0
 15
0.0
 25
0.0
 35
0.0
146
0.0
 13
0.0
 23
0.0
 33
0.0
 16
1.0
 26
0.0
 36
0.0
 17
0.0
 27
1.0
 37
0.0
 76
0
330
20A
345
0
346
0
  0
LAYOUT
  5
460
102
{ACAD_REACTORS
330
1A
102
}
100
AcDbPlotSettings
  1

  2
none_device
  4
ISO_A1_(594.00_x_841.00_MM)
  6

 40
0.0
 41
0.0
 42
0.0
 43
0.0
 44
841.0
 45
594.0
 46
0.0
 47
0.0
 48
0.0
 49
0.0
140
0.0
141
0.0
142
1.0
143
1.0
 70
0
 72
1
 73
0
 74
0
  7

 75
0
147
1.0
148
0.0
149
0.0
100
AcDbLayout
  1
Layout1
 70
0
 71
1
 10
0.0
 20
0.0
 11
841.0
 21
594.0
 12
0.0
 22
0.0
 32
0.0
 14
0.0
 24
0.0
 34
0.0
 15
0.0
 25
0.0
 35
0.0
146
0.0
 13
0.0
 23
0.0
 33
0.0
 16
1.0
 26
0.0
 36
0.0
 17
0.0
 27
1.0
 37
0.0
 76
0
330
20B
345
0
346
0
  0
ENDSEC
  0
EOF
