999
DXF file: IAK-RG-1-13_7903012_M34539-P-4.dxf
999
Pro/ENGINEER 2010140 by Parametric Technology Corporation
  0
SECTION
  2
HEADER
  9
$ACADVER
  1
AC1015
  9
$DWGCODEPAGE
  3
ANSI_1252
  9
$EXTMAX
 10
841.0
 20
594.0
 30
0.0
  9
$EXTMIN
 10
0.0
 20
0.0
 30
0.0
  9
$LIMMIN
 10
0.0
 20
0.0
  9
$LIMMAX
 10
841.0
 20
594.0
  9
$VIEWCTR
 10
420.5
 20
297.0
  9
$VIEWSIZE
 40
594.0
  9
$CLAYER
  8
0
  9
$LTSCALE
 40
46.255
  9
$CELTYPE
  6
BYLAYER
  9
$DIMSCALE
 40
1.0
  9
$DIMASZ
 40
3.5
  9
$DIMEXO
 40
5.25625
  9
$DIMDLI
 40
31.958
  9
$DIMEXE
 40
15.138
  9
$DIMCEN
 40
7.569
  9
$DIMLFAC
 40
1.0
  9
$DIMBLK
  1
_FILLED
  9
$DIMTXT
 40
3.5
  9
$DIMTOL
 70
1
  9
$DIMLIM
 70
0
  9
$DIMTFAC
 40
1.0
  9
$DIMTP
 40
0.005
  9
$DIMTM
 40
0.005
  9
$PDMODE
 70
3
  9
$PDSIZE
 40
0.3125
  9
$HANDSEED
  5
4AA
  9
$TILEMODE
 70
1
  9
$MEASUREMENT
 70
1
  9
$INSUNITS
 70
4
  0
ENDSEC
  0
SECTION
  2
CLASSES
  0
CLASS
  1
ACDBDICTIONARYWDFLT
  2
AcDbDictionaryWithDefault
  3
AutoCAD 2000
 90
0
280
0
281
0
  0
CLASS
  1
ACDBPLACEHOLDER
  2
AcDbPlaceHolder
  3
AutoCAD 2000
 90
0
280
0
281
0
  0
CLASS
  1
LAYOUT
  2
AcDbLayout
  3
AutoCAD 2000
 90
0
280
0
281
0
  0
ENDSEC
  0
SECTION
  2
TABLES
  0
TABLE
  2
VPORT
  5
8
100
AcDbSymbolTable
 70
2
  0
VPORT
  5
1F4
100
AcDbSymbolTableRecord
100
AcDbViewportTableRecord
  2
*ACTIVE
 70
0
 10
0.0
 20
0.0
 11
1.0
 21
1.0
 12
420.5
 22
297.0
 13
0.0
 23
0.0
 14
1.0
 24
1.0
 15
0.0
 25
0.0
 16
0.0
 26
0.0
 36
1.0
 17
0.0
 27
0.0
 37
0.0
 40
594.0
 41
1.4158249158
 42
50.0
 43
0.0
 44
0.0
 50
0.0
 51
0.0
 71
0
 72
100
 73
1
 74
1
 75
0
 76
0
 77
0
 78
0
  0
ENDTAB
  0
TABLE
  2
LTYPE
  5
5
100
AcDbSymbolTable
 70
6
  0
LTYPE
  5
14
100
AcDbSymbolTableRecord
100
AcDbLinetypeTableRecord
  2
BYBLOCK
 70
0
  3

 72
65
 73
0
 40
0.0
  0
LTYPE
  5
15
100
AcDbSymbolTableRecord
100
AcDbLinetypeTableRecord
  2
BYLAYER
 70
0
  3

 72
65
 73
0
 40
0.0
  0
LTYPE
  5
16
100
AcDbSymbolTableRecord
100
AcDbLinetypeTableRecord
  2
CONTINUOUS
 70
64
  3
Solid line
 72
65
 73
0
 40
0.0
  0
LTYPE
  5
1F5
100
AcDbSymbolTableRecord
100
AcDbLinetypeTableRecord
  2
CENTER
 70
64
  3
____ _ ____ _ ____ _ ____ _ ____ _ ____ _ ____
 72
65
 73
4
 40
0.6
 49
0.375
 74
0
 49
-0.075
 74
0
 49
0.075
 74
0
 49
-0.075
 74
0
  0
LTYPE
  5
1F6
100
AcDbSymbolTableRecord
100
AcDbLinetypeTableRecord
  2
HIDDEN
 70
64
  3
- - - - - - - - - - - - - - - - - - - -
 72
65
 73
2
 40
0.2
 49
0.1
 74
0
 49
-0.1
 74
0
  0
LTYPE
  5
1F7
100
AcDbSymbolTableRecord
100
AcDbLinetypeTableRecord
  2
PHANTOM
 70
64
  3
_____ _ _ _____ _ _ _____ _ _ _____
 72
65
 73
6
 40
0.8
 49
0.45
 74
0
 49
-0.05
 74
0
 49
0.1
 74
0
 49
-0.05
 74
0
 49
0.1
 74
0
 49
-0.05
 74
0
  0
LTYPE
  5
1F8
100
AcDbSymbolTableRecord
100
AcDbLinetypeTableRecord
  2
DOT
 70
64
  3
. . . . . . . . . . . . . . . . . . . .
 72
65
 73
2
 40
0.2
 49
0.1
 74
0
 49
-0.1
 74
0
  0
LTYPE
  5
1F9
100
AcDbSymbolTableRecord
100
AcDbLinetypeTableRecord
  2
DASHED
 70
64
  3
- - - - - - - - - - - - - - - - - - - -
 72
65
 73
2
 40
0.2
 49
0.1
 74
0
 49
-0.1
 74
0
  0
ENDTAB
  0
TABLE
  2
LAYER
  5
2
100
AcDbSymbolTable
 70
36
  0
LAYER
  5
10
100
AcDbSymbolTableRecord
100
AcDbLayerTableRecord
  2
0
 70
0
 62
7
  6
CONTINUOUS
370
-3
390
F
  0
LAYER
  5
1FA
100
AcDbSymbolTableRecord
100
AcDbLayerTableRecord
  2
DEFAULT_1
 70
0
 62
7
  6
CENTER
370
-3
390
F
  0
LAYER
  5
1FB
100
AcDbSymbolTableRecord
100
AcDbLayerTableRecord
  2
DEFAULT_2
 70
0
 62
8
  6
HIDDEN
370
-3
390
F
  0
LAYER
  5
1FC
100
AcDbSymbolTableRecord
100
AcDbLayerTableRecord
  2
DEFAULT_3
 70
0
 62
7
  6
PHANTOM
370
-3
390
F
  0
LAYER
  5
1FD
100
AcDbSymbolTableRecord
100
AcDbLayerTableRecord
  2
BEZUGSACHSEN
 70
0
 62
7
  6
CONTINUOUS
370
-3
390
F
  0
LAYER
  5
1FE
100
AcDbSymbolTableRecord
100
AcDbLayerTableRecord
  2
BEZUGSEBENEN
 70
0
 62
7
  6
CONTINUOUS
370
-3
390
F
  0
LAYER
  5
1FF
100
AcDbSymbolTableRecord
100
AcDbLayerTableRecord
  2
BG_STARTBEZUEGE
 70
0
 62
7
  6
CONTINUOUS
370
-3
390
F
  0
LAYER
  5
200
100
AcDbSymbolTableRecord
100
AcDbLayerTableRecord
  2
FASEN
 70
0
 62
7
  6
CONTINUOUS
370
-3
390
F
  0
LAYER
  5
201
100
AcDbSymbolTableRecord
100
AcDbLayerTableRecord
  2
HILFEN
 70
0
 62
7
  6
CONTINUOUS
370
-3
390
F
  0
LAYER
  5
202
100
AcDbSymbolTableRecord
100
AcDbLayerTableRecord
  2
KONSTRUKTIONSELEMENTE
 70
0
 62
7
  6
CONTINUOUS
370
-3
390
F
  0
LAYER
  5
203
100
AcDbSymbolTableRecord
100
AcDbLayerTableRecord
  2
NORM
 70
0
 62
7
  6
CONTINUOUS
370
-3
390
F
  0
LAYER
  5
204
100
AcDbSymbolTableRecord
100
AcDbLayerTableRecord
  2
PLATZIERUNG
 70
0
 62
7
  6
CONTINUOUS
370
-3
390
F
  0
LAYER
  5
205
100
AcDbSymbolTableRecord
100
AcDbLayerTableRecord
  2
RUNDUNGEN
 70
0
 62
7
  6
CONTINUOUS
370
-3
390
F
  0
LAYER
  5
206
100
AcDbSymbolTableRecord
100
AcDbLayerTableRecord
  2
TEIL_STARTBEZUEGE
 70
0
 62
7
  6
CONTINUOUS
370
-3
390
F
  0
LAYER
  5
207
100
AcDbSymbolTableRecord
100
AcDbLayerTableRecord
  2
T_STARTBEZUEGE
 70
0
 62
7
  6
CONTINUOUS
370
-3
390
F
  0
ENDTAB
  0
TABLE
  2
STYLE
  5
3
100
AcDbSymbolTable
 70
1
  0
STYLE
  5
11
100
AcDbSymbolTableRecord
100
AcDbTextStyleTableRecord
  2
STANDARD
 70
0
 40
0.0
 41
0.7
 50
0.0
 71
0
 42
0.2
  3
txt
  4

  0
STYLE
  5
208
100
AcDbSymbolTableRecord
100
AcDbTextStyleTableRecord
  2
TEXTSTYLE_1
 70
0
 40
0.0
 41
0.8
 50
0.0
 71
0
 42
0.2
  3
gdt
  4

  0
ENDTAB
  0
TABLE
  2
VIEW
  5
6
100
AcDbSymbolTable
 70
0
  0
ENDTAB
  0
TABLE
  2
UCS
  5
7
100
AcDbSymbolTable
 70
0
  0
ENDTAB
  0
TABLE
  2
APPID
  5
9
100
AcDbSymbolTable
 70
1
  0
APPID
  5
209
100
AcDbSymbolTableRecord
100
AcDbRegAppTableRecord
  2
ACAD
 70
0
  0
ENDTAB
  0
TABLE
  2
BLOCK_RECORD
  5
1
100
AcDbSymbolTable
 70
0
  0
BLOCK_RECORD
  5
20A
100
AcDbSymbolTableRecord
100
AcDbBlockTableRecord
  2
*Model_Space
  0
BLOCK_RECORD
  5
20B
100
AcDbSymbolTableRecord
100
AcDbBlockTableRecord
  2
*Paper_Space
  0
ENDTAB
  0
TABLE
  2
DIMSTYLE
  5
A
100
AcDbSymbolTable
 70
1
100
AcDbDimStyleTable
 71
0
  0
DIMSTYLE
105
20C
100
AcDbSymbolTableRecord
100
AcDbDimStyleTableRecord
  2
STANDARD
 70
0
  3

  4

 40
1.0
 41
3.5
 42
0.0625
 43
0.38
 44
0.18
 45
0.0
 46
0.0
 47
0.005
 48
0.005
140
3.5
141
0.09
142
0.0
143
25.4
144
1.0
145
0.0
146
1.0
147
0.09
 71
1.0
 72
0.0
 73
0
 74
0
 75
0
 76
0
 77
1
 78
8
170
0
171
2
172
0
173
0
174
0
175
0
176
0
177
0
178
5
270
2
271
3
272
3
273
2
274
2
275
0
280
0
281
0
282
0
283
1
284
8
285
0
286
0
287
3
288
0
340
11
  0
ENDTAB
  0
ENDSEC
  0
SECTION
  2
BLOCKS
  0
BLOCK
  5
20
100
AcDbEntity
  8
0
100
AcDbBlockBegin
  2
*Model_Space
 70
0
 10
0.0
 20
0.0
 30
0.0
  3
*Model_Space
  1

  0
ENDBLK
  5
21
100
AcDbEntity
  8
0
100
AcDbBlockEnd
  0
BLOCK
  5
1C
100
AcDbEntity
  8
0
100
AcDbBlockBegin
  2
*Paper_Space
 70
0
 10
0.0
 20
0.0
 30
0.0
  3
*Paper_Space
  1

  0
ENDBLK
  5
1D
100
AcDbEntity
  8
0
100
AcDbBlockEnd
  0
ENDSEC
  0
SECTION
  2
ENTITIES
  0
MTEXT
  5
20D
100
AcDbEntity
  8
0
100
AcDbMText
 62
5
  6
CONTINUOUS
  7
STANDARD
 71
1
 72
1
 10
670.3639987489
 20
367.7908350293
 30
0.0
 11
0.0
 21
1.0
 31
0.0
 44
0.9
  1
IAK-RG 1-13
 40
7.5
 41
60.8928571429
  0
MTEXT
  5
20E
100
AcDbEntity
  8
0
100
AcDbMText
 62
5
  6
CONTINUOUS
  7
STANDARD
 71
1
 72
1
 10
543.5750903837
 20
387.4381049262
 30
0.0
 11
0.0
 21
1.0
 31
0.0
 44
0.9
  1
RUD
 40
7.5
 41
20.0
  0
MTEXT
  5
20F
100
AcDbEntity
  8
0
100
AcDbMText
 62
5
  6
CONTINUOUS
  7
STANDARD
 71
1
 72
1
 10
185.8303569086
 20
345.6958078016
 30
0.0
 11
0.0
 21
1.0
 31
0.0
 44
0.9
  1
RUD  IAK-RG 1-13
 40
7.5
 41
91.25
  0
LINE
  5
210
100
AcDbEntity
  8
0
100
AcDbLine
 62
7
  6
CONTINUOUS
 10
0.0
 20
0.0
 11
0.0
 21
594.0
  0
LINE
  5
211
100
AcDbEntity
  8
0
100
AcDbLine
 62
7
  6
CONTINUOUS
 10
0.0
 20
0.0
 11
841.0
 21
0.0
  0
LINE
  5
212
100
AcDbEntity
  8
0
100
AcDbLine
 62
7
  6
CONTINUOUS
 10
0.0
 20
594.0
 11
841.0
 21
594.0
  0
LINE
  5
213
100
AcDbEntity
  8
0
100
AcDbLine
 62
7
  6
CONTINUOUS
 10
841.0
 20
0.0
 11
841.0
 21
594.0
  0
LINE
  5
214
100
AcDbEntity
  8
RUNDUNGEN
100
AcDbLine
 62
7
  6
CONTINUOUS
 10
390.6051026631
 20
134.9852724637
 11
387.0695687571
 21
138.5208063696
  0
LINE
  5
215
100
AcDbEntity
  8
RUNDUNGEN
100
AcDbLine
 62
7
  6
CONTINUOUS
 10
464.8970596302
 20
216.3482972427
 11
468.4325935361
 21
212.8127633367
  0
LINE
  5
216
100
AcDbEntity
  8
0
100
AcDbLine
 62
7
  6
CONTINUOUS
 10
609.5688650027
 20
211.2845687092
 11
612.1688650027
 21
211.2845687092
  0
LINE
  5
217
100
AcDbEntity
  8
0
100
AcDbLine
 62
7
  6
CONTINUOUS
 10
600.7690070493
 20
221.0345687092
 11
620.9687229561
 21
221.0345687092
  0
LINE
  5
218
100
AcDbEntity
  8
KONSTRUKTIONSELEMENTE
100
AcDbLine
 62
7
  6
CONTINUOUS
 10
475.9528911523
 20
230.3032665676
 11
472.4173572463
 21
233.8388004735
  0
LINE
  5
219
100
AcDbEntity
  8
KONSTRUKTIONSELEMENTE
100
AcDbLine
 62
7
  6
CONTINUOUS
 10
476.3064445429
 20
230.6568199582
 11
472.7709106369
 21
234.1923538641
  0
LINE
  5
21A
100
AcDbEntity
  8
RUNDUNGEN
100
AcDbLine
 62
7
  6
CONTINUOUS
 10
481.5467251425
 20
225.9268949431
 11
478.0111912365
 21
229.462428849
  0
LINE
  5
21B
100
AcDbEntity
  8
0
100
AcDbLine
 62
7
  6
CONTINUOUS
 10
607.6188650027
 20
243.8567095352
 11
614.1188650027
 21
243.8567095352
  0
LINE
  5
21C
100
AcDbEntity
  8
0
100
AcDbLine
 62
7
  6
CONTINUOUS
 10
614.1188650027
 20
251.6458193088
 11
607.6188650027
 21
251.6458193088
  0
LINE
  5
21D
100
AcDbEntity
  8
0
100
AcDbLine
 62
7
  6
CONTINUOUS
 10
606.388925763
 20
268.1296584484
 11
615.3488042423
 21
268.1296584484
  0
LINE
  5
21E
100
AcDbEntity
  8
0
100
AcDbLine
 62
7
  6
CONTINUOUS
 10
607.5371468178
 20
290.2845687092
 11
614.2005831876
 21
290.2845687092
  0
LINE
  5
21F
100
AcDbEntity
  8
KONSTRUKTIONSELEMENTE
100
AcDbLine
 62
7
  6
CONTINUOUS
 10
537.1176277249
 20
291.4680031402
 11
533.582093819
 21
295.0035370462
  0
LINE
  5
220
100
AcDbEntity
  8
KONSTRUKTIONSELEMENTE
100
AcDbLine
 62
7
  6
CONTINUOUS
 10
537.4711811155
 20
291.8215565308
 11
533.9356472096
 21
295.3570904368
  0
LINE
  5
221
100
AcDbEntity
  8
0
100
AcDbLine
 62
7
  6
CONTINUOUS
 10
534.8688650027
 20
358.7845687092
 11
534.8688650027
 21
438.7845687092
  0
LINE
  5
222
100
AcDbEntity
  8
0
100
AcDbLine
 62
7
  6
CONTINUOUS
 10
607.5371468178
 20
312.43947897
 11
614.2005831876
 21
312.43947897
  0
LINE
  5
223
100
AcDbEntity
  8
0
100
AcDbLine
 62
7
  6
CONTINUOUS
 10
607.5371468178
 20
328.657998918
 11
614.2005831876
 21
328.657998918
  0
LINE
  5
224
100
AcDbEntity
  8
0
100
AcDbLine
 62
7
  6
CONTINUOUS
 10
614.2005831876
 20
334.5943892308
 11
607.5371468178
 21
334.5943892308
  0
LINE
  5
225
100
AcDbEntity
  8
0
100
AcDbLine
 62
7
  6
CONTINUOUS
 10
560.8688650027
 20
358.7845687092
 11
560.8688650027
 21
438.7845687092
  0
LINE
  5
226
100
AcDbEntity
  8
KONSTRUKTIONSELEMENTE
100
AcDbLine
 62
7
  6
CONTINUOUS
 10
537.9661558623
 20
299.3875990895
 11
533.9356472096
 21
295.3570904368
  0
LINE
  5
227
100
AcDbEntity
  8
KONSTRUKTIONSELEMENTE
100
AcDbLine
 62
7
  6
CONTINUOUS
 10
533.582093819
 20
295.0035370462
 11
529.5515851662
 21
290.9730283934
  0
LINE
  5
228
100
AcDbEntity
  8
KONSTRUKTIONSELEMENTE
100
AcDbLine
 62
7
  6
CONTINUOUS
 10
476.8014192897
 20
238.2228625169
 11
472.7709106369
 21
234.1923538641
  0
LINE
  5
229
100
AcDbEntity
  8
KONSTRUKTIONSELEMENTE
100
AcDbLine
 62
7
  6
CONTINUOUS
 10
472.4173572463
 20
233.8388004735
 11
468.3868485936
 21
229.8082918208
  0
LINE
  5
22A
100
AcDbEntity
  8
KONSTRUKTIONSELEMENTE
100
AcDbLine
 62
7
  6
CONTINUOUS
 10
509.3990419024
 20
268.6284541079
 11
498.7924401846
 21
258.0218523901
  0
LINE
  5
22B
100
AcDbEntity
  8
KONSTRUKTIONSELEMENTE
100
AcDbLine
 62
7
  6
CONTINUOUS
 10
541.5016897683
 20
295.8520651836
 11
537.4711811155
 21
291.8215565308
  0
LINE
  5
22C
100
AcDbEntity
  8
KONSTRUKTIONSELEMENTE
100
AcDbLine
 62
7
  6
CONTINUOUS
 10
537.1176277249
 20
291.4680031402
 11
533.0871190721
 21
287.4374944875
  0
LINE
  5
22D
100
AcDbEntity
  8
KONSTRUKTIONSELEMENTE
100
AcDbLine
 62
7
  6
CONTINUOUS
 10
480.3369531956
 20
234.687328611
 11
476.3064445429
 21
230.6568199582
  0
LINE
  5
22E
100
AcDbEntity
  8
KONSTRUKTIONSELEMENTE
100
AcDbLine
 62
7
  6
CONTINUOUS
 10
475.9528911523
 20
230.3032665676
 11
471.9223824995
 21
226.2727579148
  0
LINE
  5
22F
100
AcDbEntity
  8
KONSTRUKTIONSELEMENTE
100
AcDbLine
 62
7
  6
CONTINUOUS
 10
512.5810224177
 20
265.4464735926
 11
501.9744206999
 21
254.8398718748
  0
LINE
  5
230
100
AcDbEntity
  8
KONSTRUKTIONSELEMENTE
100
AcDbLine
 62
7
  6
CONTINUOUS
 10
542.2795072276
 20
295.1449584024
 11
575.4670614149
 21
328.3325125898
  0
LINE
  5
231
100
AcDbEntity
  8
RUNDUNGEN
100
AcDbLine
 62
7
  6
CONTINUOUS
 10
387.0695687571
 20
138.5208063696
 11
478.0113548423
 21
229.4625924548
  0
LINE
  5
232
100
AcDbEntity
  8
KONSTRUKTIONSELEMENTE
100
AcDbLine
 62
7
  6
CONTINUOUS
 10
483.2360909985
 20
234.3337752204
 11
501.9447759737
 21
253.0424601955
  0
LINE
  5
233
100
AcDbEntity
  8
KONSTRUKTIONSELEMENTE
100
AcDbLine
 62
7
  6
CONTINUOUS
 10
514.3487893707
 20
265.4464735926
 11
533.0574743459
 21
284.1551585678
  0
LINE
  5
234
100
AcDbEntity
  8
KONSTRUKTIONSELEMENTE
100
AcDbLine
 62
7
  6
CONTINUOUS
 10
486.4180715138
 20
231.151794705
 11
505.126756489
 21
249.8604796802
  0
LINE
  5
235
100
AcDbEntity
  8
KONSTRUKTIONSELEMENTE
100
AcDbLine
 62
7
  6
CONTINUOUS
 10
517.530769886
 20
262.2644930772
 11
536.2394548612
 21
280.9731780524
  0
LINE
  5
236
100
AcDbEntity
  8
RUNDUNGEN
100
AcDbLine
 62
7
  6
CONTINUOUS
 10
390.6051026631
 20
134.9852724637
 11
481.5468769745
 21
225.9270467751
  0
LINE
  5
237
100
AcDbEntity
  8
KONSTRUKTIONSELEMENTE
100
AcDbLine
 62
7
  6
CONTINUOUS
 10
506.9241681682
 20
249.8901244065
 11
517.530769886
 21
260.4967261243
  0
LINE
  5
238
100
AcDbEntity
  8
KONSTRUKTIONSELEMENTE
100
AcDbLine
 62
7
  6
CONTINUOUS
 10
547.2757192243
 20
290.2416754625
 11
580.4168088832
 21
323.3827651215
  0
LINE
  5
239
100
AcDbEntity
  8
KONSTRUKTIONSELEMENTE
100
AcDbLine
 62
7
  6
CONTINUOUS
 10
478.3570542083
 20
219.838086206
 11
486.7716249044
 21
228.2526569022
  0
LINE
  5
23A
100
AcDbEntity
  8
KONSTRUKTIONSELEMENTE
100
AcDbLine
 62
7
  6
CONTINUOUS
 10
539.5217907809
 20
281.0028227787
 11
547.9363614771
 21
289.4173934748
  0
LINE
  5
23B
100
AcDbEntity
  8
RUNDUNGEN
100
AcDbLine
 62
7
  6
CONTINUOUS
 10
630.3688650027
 20
247.2845687092
 11
624.8688650027
 21
255.1393827463
  0
LINE
  5
23C
100
AcDbEntity
  8
KONSTRUKTIONSELEMENTE
100
AcDbLine
 62
7
  6
CONTINUOUS
 10
510.1061486836
 20
246.7081438911
 11
520.7127504014
 21
257.3147456089
  0
LINE
  5
23D
100
AcDbEntity
  8
KONSTRUKTIONSELEMENTE
100
AcDbLine
 62
7
  6
CONTINUOUS
 10
481.8925881142
 20
216.3025523001
 11
490.3071588104
 21
224.7171229962
  0
LINE
  5
23E
100
AcDbEntity
  8
KONSTRUKTIONSELEMENTE
100
AcDbLine
 62
7
  6
CONTINUOUS
 10
543.0573246869
 20
277.4672888728
 11
551.471895383
 21
285.8818595689
  0
LINE
  5
23F
100
AcDbEntity
  8
0
100
AcDbLine
 62
7
  6
CONTINUOUS
 10
607.6188650027
 20
243.8567095352
 11
606.1319507133
 21
263.7845687092
  0
LINE
  5
240
100
AcDbEntity
  8
0
100
AcDbLine
 62
7
  6
CONTINUOUS
 10
607.6188650027
 20
251.6458193088
 11
606.388925763
 21
268.1296584484
  0
LINE
  5
241
100
AcDbEntity
  8
0
100
AcDbLine
 62
7
  6
CONTINUOUS
 10
591.3688650027
 20
229.4845687092
 11
591.3688650027
 21
247.2845687092
  0
LINE
  5
242
100
AcDbEntity
  8
0
100
AcDbLine
 62
7
  6
CONTINUOUS
 10
596.8688650027
 20
265.7845687092
 11
596.8688650027
 21
255.1393827463
  0
LINE
  5
243
100
AcDbEntity
  8
0
100
AcDbLine
 62
7
  6
CONTINUOUS
 10
601.3688650027
 20
285.4224197345
 11
601.3688650027
 21
271.5940437285
  0
LINE
  5
244
100
AcDbEntity
  8
BEZUGSACHSEN
100
AcDbLine
 62
7
  6
CONTINUOUS
 10
601.3688650027
 20
285.4224197345
 11
601.3688650027
 21
318.2845687092
  0
LINE
  5
245
100
AcDbEntity
  8
0
100
AcDbLine
 62
7
  6
CONTINUOUS
 10
602.1405255046
 20
322.0350472929
 11
607.5371468178
 21
334.5943892308
  0
LINE
  5
246
100
AcDbEntity
  8
0
100
AcDbLine
 62
7
  6
CONTINUOUS
 10
614.7790881098
 20
282.82403713
 11
615.3488042423
 21
268.1296584484
  0
LINE
  5
247
100
AcDbEntity
  8
0
100
AcDbLine
 62
7
  6
CONTINUOUS
 10
607.6188650027
 20
251.6458193088
 11
607.6188650027
 21
243.8567095352
  0
LINE
  5
248
100
AcDbEntity
  8
0
100
AcDbLine
 62
7
  6
CONTINUOUS
 10
614.1188650027
 20
251.6458193088
 11
614.1188650027
 21
243.8567095352
  0
LINE
  5
249
100
AcDbEntity
  8
0
100
AcDbLine
 62
7
  6
CONTINUOUS
 10
606.9586418955
 20
282.82403713
 11
606.388925763
 21
268.1296584484
  0
LINE
  5
24A
100
AcDbEntity
  8
0
100
AcDbLine
 62
7
  6
CONTINUOUS
 10
614.1188650027
 20
251.6458193088
 11
615.3488042423
 21
268.1296584484
  0
LINE
  5
24B
100
AcDbEntity
  8
KONSTRUKTIONSELEMENTE
100
AcDbLine
 62
7
  6
CONTINUOUS
 10
614.2005831876
 20
334.5943892308
 11
619.5972045007
 21
322.0350472929
  0
LINE
  5
24C
100
AcDbEntity
  8
RUNDUNGEN
100
AcDbLine
 62
7
  6
CONTINUOUS
 10
620.3688650027
 20
285.4224197345
 11
620.3688650027
 21
271.5940437285
  0
LINE
  5
24D
100
AcDbEntity
  8
BEZUGSACHSEN
100
AcDbLine
 62
7
  6
CONTINUOUS
 10
620.3688650027
 20
285.4224197345
 11
620.3688650027
 21
318.2845687092
  0
LINE
  5
24E
100
AcDbEntity
  8
RUNDUNGEN
100
AcDbLine
 62
7
  6
CONTINUOUS
 10
624.8688650027
 20
265.7845687092
 11
624.8688650027
 21
255.1393827463
  0
LINE
  5
24F
100
AcDbEntity
  8
RUNDUNGEN
100
AcDbLine
 62
7
  6
CONTINUOUS
 10
630.3688650027
 20
229.4845687092
 11
630.3688650027
 21
247.2845687092
  0
LINE
  5
250
100
AcDbEntity
  8
RUNDUNGEN
100
AcDbLine
 62
7
  6
CONTINUOUS
 10
614.1188650027
 20
243.8567095352
 11
615.6057792921
 21
263.7845687092
  0
LINE
  5
251
100
AcDbEntity
  8
0
100
AcDbLine
 62
7
  6
CONTINUOUS
 10
591.3688650027
 20
247.2845687092
 11
596.8688650027
 21
255.1393827463
  0
LINE
  5
252
100
AcDbEntity
  8
0
100
AcDbLine
 62
7
  6
CONTINUOUS
 10
660.8688650027
 20
438.7845687092
 11
660.8688650027
 21
358.7845687092
  0
LINE
  5
253
100
AcDbEntity
  8
0
100
AcDbLine
 62
7
  6
CONTINUOUS
 10
686.8688650027
 20
438.7845687092
 11
686.8688650027
 21
358.7845687092
  0
LINE
  5
254
100
AcDbEntity
  8
RUNDUNGEN
100
AcDbLine
 62
7
  6
CONTINUOUS
 10
151.5615779884
 20
134.9852724637
 11
155.0615779884
 21
134.9852724637
  0
LINE
  5
255
100
AcDbEntity
  8
RUNDUNGEN
100
AcDbLine
 62
7
  6
CONTINUOUS
 10
224.0615779884
 20
134.9852724637
 11
227.5615779884
 21
134.9852724637
  0
LINE
  5
256
100
AcDbEntity
  8
RUNDUNGEN
100
AcDbLine
 62
7
  6
CONTINUOUS
 10
161.5615779884
 20
145.5918741815
 11
170.4169937766
 21
145.5918741815
  0
LINE
  5
257
100
AcDbEntity
  8
RUNDUNGEN
100
AcDbLine
 62
7
  6
CONTINUOUS
 10
208.7061622002
 20
145.5918741815
 11
217.5615779884
 21
145.5918741815
  0
LINE
  5
258
100
AcDbEntity
  8
0
100
AcDbLine
 62
7
  6
CONTINUOUS
 10
171.3781299326
 20
198.9077254829
 11
177.6181299326
 21
198.9077254829
  0
LINE
  5
259
100
AcDbEntity
  8
0
100
AcDbLine
 62
7
  6
CONTINUOUS
 10
180.9276716245
 20
198.9077254829
 11
182.1756716245
 21
198.9077254829
  0
LINE
  5
25A
100
AcDbEntity
  8
0
100
AcDbLine
 62
7
  6
CONTINUOUS
 10
188.1205117165
 20
198.9077254829
 11
189.5615779884
 21
198.9077254829
  0
LINE
  5
25B
100
AcDbEntity
  8
0
100
AcDbLine
 62
7
  6
CONTINUOUS
 10
200.4200475932
 20
198.9077254829
 11
204.9414047811
 21
198.9077254829
  0
LINE
  5
25C
100
AcDbEntity
  8
0
100
AcDbLine
 62
7
  6
CONTINUOUS
 10
171.3781299326
 20
199.3673448907
 11
177.6181299326
 21
199.3673448907
  0
LINE
  5
25D
100
AcDbEntity
  8
0
100
AcDbLine
 62
7
  6
CONTINUOUS
 10
180.9276716245
 20
199.3673448907
 11
182.1756716245
 21
199.3673448907
  0
LINE
  5
25E
100
AcDbEntity
  8
0
100
AcDbLine
 62
7
  6
CONTINUOUS
 10
188.1205117165
 20
199.3673448907
 11
189.1863003134
 21
199.3673448907
  0
LINE
  5
25F
100
AcDbEntity
  8
0
100
AcDbLine
 62
7
  6
CONTINUOUS
 10
200.4200475932
 20
199.3673448907
 11
204.9414047811
 21
199.3673448907
  0
LINE
  5
260
100
AcDbEntity
  8
0
100
AcDbLine
 62
7
  6
CONTINUOUS
 10
204.9687522024
 20
199.8269642985
 11
201.6680475932
 21
199.8269642985
  0
LINE
  5
261
100
AcDbEntity
  8
0
100
AcDbLine
 62
7
  6
CONTINUOUS
 10
175.4731299326
 20
200.0108120616
 11
173.5231299326
 21
200.0108120616
  0
LINE
  5
262
100
AcDbEntity
  8
0
100
AcDbLine
 62
7
  6
CONTINUOUS
 10
173.8741299326
 20
200.4244695286
 11
175.1221299326
 21
200.4244695286
  0
LINE
  5
263
100
AcDbEntity
  8
0
100
AcDbLine
 62
7
  6
CONTINUOUS
 10
173.8741299326
 20
200.8840889363
 11
175.1221299326
 21
200.8840889363
  0
LINE
  5
264
100
AcDbEntity
  8
0
100
AcDbLine
 62
7
  6
CONTINUOUS
 10
174.6346299326
 20
201.5275561072
 11
174.3616299326
 21
201.5275561072
  0
LINE
  5
265
100
AcDbEntity
  8
0
100
AcDbLine
 62
7
  6
CONTINUOUS
 10
175.1221299326
 20
201.8033277519
 11
174.7906299326
 21
201.8033277519
  0
LINE
  5
266
100
AcDbEntity
  8
0
100
AcDbLine
 62
7
  6
CONTINUOUS
 10
174.2056299326
 20
201.8033277519
 11
173.8741299326
 21
201.8033277519
  0
LINE
  5
267
100
AcDbEntity
  8
0
100
AcDbLine
 62
7
  6
CONTINUOUS
 10
173.5231299326
 20
202.2169852189
 11
174.2056299326
 21
202.2169852189
  0
LINE
  5
268
100
AcDbEntity
  8
0
100
AcDbLine
 62
7
  6
CONTINUOUS
 10
174.7906299326
 20
202.2169852189
 11
175.4731299326
 21
202.2169852189
  0
LINE
  5
269
100
AcDbEntity
  8
0
100
AcDbLine
 62
7
  6
CONTINUOUS
 10
182.1756716245
 20
202.3674338981
 11
185.2956716245
 21
202.3674338981
  0
LINE
  5
26A
100
AcDbEntity
  8
0
100
AcDbLine
 62
7
  6
CONTINUOUS
 10
173.5231299326
 20
202.6766046266
 11
174.2056299326
 21
202.6766046266
  0
LINE
  5
26B
100
AcDbEntity
  8
0
100
AcDbLine
 62
7
  6
CONTINUOUS
 10
174.7906299326
 20
202.6766046266
 11
175.4731299326
 21
202.6766046266
  0
LINE
  5
26C
100
AcDbEntity
  8
0
100
AcDbLine
 62
7
  6
CONTINUOUS
 10
175.4731299326
 20
202.7685285082
 11
174.7906299326
 21
202.7685285082
  0
LINE
  5
26D
100
AcDbEntity
  8
0
100
AcDbLine
 62
7
  6
CONTINUOUS
 10
174.2056299326
 20
202.7685285082
 11
173.5231299326
 21
202.7685285082
  0
LINE
  5
26E
100
AcDbEntity
  8
0
100
AcDbLine
 62
7
  6
CONTINUOUS
 10
182.1756716245
 20
202.8270533059
 11
185.2956716245
 21
202.8270533059
  0
LINE
  5
26F
100
AcDbEntity
  8
0
100
AcDbLine
 62
7
  6
CONTINUOUS
 10
173.8741299326
 20
203.1821859752
 11
174.2056299326
 21
203.1821859752
  0
LINE
  5
270
100
AcDbEntity
  8
0
100
AcDbLine
 62
7
  6
CONTINUOUS
 10
174.7906299326
 20
203.1821859752
 11
175.1221299326
 21
203.1821859752
  0
LINE
  5
271
100
AcDbEntity
  8
0
100
AcDbLine
 62
7
  6
CONTINUOUS
 10
185.8156716245
 20
203.249903161
 11
182.1756716245
 21
203.249903161
  0
LINE
  5
272
100
AcDbEntity
  8
0
100
AcDbLine
 62
7
  6
CONTINUOUS
 10
174.3616299326
 20
203.4579576199
 11
174.6346299326
 21
203.4579576199
  0
LINE
  5
273
100
AcDbEntity
  8
0
100
AcDbLine
 62
7
  6
CONTINUOUS
 10
173.8741299326
 20
203.641805383
 11
174.2056299326
 21
203.641805383
  0
LINE
  5
274
100
AcDbEntity
  8
0
100
AcDbLine
 62
7
  6
CONTINUOUS
 10
174.7906299326
 20
203.641805383
 11
175.1221299326
 21
203.641805383
  0
LINE
  5
275
100
AcDbEntity
  8
0
100
AcDbLine
 62
7
  6
CONTINUOUS
 10
174.3616299326
 20
203.9175770276
 11
174.6346299326
 21
203.9175770276
  0
LINE
  5
276
100
AcDbEntity
  8
0
100
AcDbLine
 62
7
  6
CONTINUOUS
 10
201.6680475932
 20
204.4231583762
 11
200.4200475932
 21
204.4231583762
  0
LINE
  5
277
100
AcDbEntity
  8
0
100
AcDbLine
 62
7
  6
CONTINUOUS
 10
182.1756716245
 20
204.469120317
 11
180.9276716245
 21
204.469120317
  0
LINE
  5
278
100
AcDbEntity
  8
0
100
AcDbLine
 62
7
  6
CONTINUOUS
 10
175.1221299326
 20
204.5610441985
 11
173.8741299326
 21
204.5610441985
  0
LINE
  5
279
100
AcDbEntity
  8
0
100
AcDbLine
 62
7
  6
CONTINUOUS
 10
173.5231299326
 20
204.9747016655
 11
175.4731299326
 21
204.9747016655
  0
LINE
  5
27A
100
AcDbEntity
  8
0
100
AcDbLine
 62
7
  6
CONTINUOUS
 10
200.4200475932
 20
205.1953189812
 11
204.9687522024
 21
205.1953189812
  0
LINE
  5
27B
100
AcDbEntity
  8
0
100
AcDbLine
 62
7
  6
CONTINUOUS
 10
180.9276716245
 20
205.241280922
 11
185.8156716245
 21
205.241280922
  0
LINE
  5
27C
100
AcDbEntity
  8
0
100
AcDbLine
 62
7
  6
CONTINUOUS
 10
173.5231299326
 20
205.4343210733
 11
175.4731299326
 21
205.4343210733
  0
LINE
  5
27D
100
AcDbEntity
  8
0
100
AcDbLine
 62
7
  6
CONTINUOUS
 10
200.4200475932
 20
205.654938389
 11
204.9687522024
 21
205.654938389
  0
LINE
  5
27E
100
AcDbEntity
  8
0
100
AcDbLine
 62
7
  6
CONTINUOUS
 10
180.9276716245
 20
205.7009003298
 11
185.8156716245
 21
205.7009003298
  0
LINE
  5
27F
100
AcDbEntity
  8
0
100
AcDbLine
 62
7
  6
CONTINUOUS
 10
204.9414047811
 20
206.0777882442
 11
200.4200475932
 21
206.0777882442
  0
LINE
  5
280
100
AcDbEntity
  8
0
100
AcDbLine
 62
7
  6
CONTINUOUS
 10
197.6900475932
 20
206.0777882442
 11
196.4420475932
 21
206.0777882442
  0
LINE
  5
281
100
AcDbEntity
  8
0
100
AcDbLine
 62
7
  6
CONTINUOUS
 10
191.5356716245
 20
206.0777882442
 11
190.2876716245
 21
206.0777882442
  0
LINE
  5
282
100
AcDbEntity
  8
0
100
AcDbLine
 62
7
  6
CONTINUOUS
 10
185.8156716245
 20
206.0777882442
 11
180.9276716245
 21
206.0777882442
  0
LINE
  5
283
100
AcDbEntity
  8
0
100
AcDbLine
 62
7
  6
CONTINUOUS
 10
177.6181299326
 20
206.0777882442
 11
171.3781299326
 21
206.0777882442
  0
LINE
  5
284
100
AcDbEntity
  8
RUNDUNGEN
100
AcDbLine
 62
7
  6
CONTINUOUS
 10
220.5615779884
 20
211.2845687092
 11
215.3381080274
 21
211.2845687092
  0
LINE
  5
285
100
AcDbEntity
  8
0
100
AcDbLine
 62
7
  6
CONTINUOUS
 10
215.3381080274
 20
211.2845687092
 11
215.2798358774
 21
211.2845687092
  0
LINE
  5
286
100
AcDbEntity
  8
0
100
AcDbLine
 62
7
  6
CONTINUOUS
 10
163.8433200993
 20
211.2845687092
 11
163.7850479494
 21
211.2845687092
  0
LINE
  5
287
100
AcDbEntity
  8
RUNDUNGEN
100
AcDbLine
 62
7
  6
CONTINUOUS
 10
163.7850479494
 20
211.2845687092
 11
158.5615779884
 21
211.2845687092
  0
LINE
  5
288
100
AcDbEntity
  8
RUNDUNGEN
100
AcDbLine
 62
7
  6
CONTINUOUS
 10
134.705083455
 20
216.9050701644
 11
138.1752208949
 21
213.4007409741
  0
LINE
  5
289
100
AcDbEntity
  8
RUNDUNGEN
100
AcDbLine
 62
7
  6
CONTINUOUS
 10
147.5245168074
 20
203.9593251391
 11
165.659057445
 21
185.6461023318
  0
LINE
  5
28A
100
AcDbEntity
  8
RUNDUNGEN
100
AcDbLine
 62
7
  6
CONTINUOUS
 10
196.1147943427
 20
154.8902807915
 11
203.3816739124
 21
147.5517996393
  0
LINE
  5
28B
100
AcDbEntity
  8
RUNDUNGEN
100
AcDbLine
 62
7
  6
CONTINUOUS
 10
153.1430158034
 20
211.2298983294
 11
149.758914829
 21
214.6473433249
  0
LINE
  5
28C
100
AcDbEntity
  8
BEZUGSACHSEN
100
AcDbLine
 62
7
  6
CONTINUOUS
 10
182.1615779884
 20
223.5095687092
 11
196.9615779884
 21
223.5095687092
  0
LINE
  5
28D
100
AcDbEntity
  8
BEZUGSACHSEN
100
AcDbLine
 62
7
  6
CONTINUOUS
 10
182.1615779884
 20
228.3752039068
 11
196.9615779884
 21
228.3752039068
  0
LINE
  5
28E
100
AcDbEntity
  8
RUNDUNGEN
100
AcDbLine
 62
7
  6
CONTINUOUS
 10
232.4764902541
 20
150.2231873431
 11
213.4640985317
 21
169.4229108249
  0
LINE
  5
28F
100
AcDbEntity
  8
BEZUGSACHSEN
100
AcDbLine
 62
7
  6
CONTINUOUS
 10
182.1615779884
 20
236.9939335116
 11
196.9615779884
 21
236.9939335116
  0
LINE
  5
290
100
AcDbEntity
  8
BEZUGSACHSEN
100
AcDbLine
 62
7
  6
CONTINUOUS
 10
182.1615779884
 20
241.8595687092
 11
196.9615779884
 21
241.8595687092
  0
LINE
  5
291
100
AcDbEntity
  8
RUNDUNGEN
100
AcDbLine
 62
7
  6
CONTINUOUS
 10
158.5615779884
 20
247.2845687092
 11
182.1615779884
 21
247.2845687092
  0
LINE
  5
292
100
AcDbEntity
  8
RUNDUNGEN
100
AcDbLine
 62
7
  6
CONTINUOUS
 10
196.9615779884
 20
247.2845687092
 11
220.5615779884
 21
247.2845687092
  0
LINE
  5
293
100
AcDbEntity
  8
RUNDUNGEN
100
AcDbLine
 62
7
  6
CONTINUOUS
 10
232.4764902541
 20
153.7587212491
 11
213.4640985317
 21
172.9584447308
  0
LINE
  5
294
100
AcDbEntity
  8
0
100
AcDbLine
 62
7
  6
CONTINUOUS
 10
185.2956716245
 20
202.3674338981
 11
188.1205117165
 21
198.9077254829
  0
LINE
  5
295
100
AcDbEntity
  8
0
100
AcDbLine
 62
7
  6
CONTINUOUS
 10
185.2956716245
 20
202.8270533059
 11
188.1205117165
 21
199.3673448907
  0
LINE
  5
296
100
AcDbEntity
  8
0
100
AcDbLine
 62
7
  6
CONTINUOUS
 10
189.5615779884
 20
198.9077254829
 11
186.6244646992
 21
202.5049399206
  0
LINE
  5
297
100
AcDbEntity
  8
RUNDUNGEN
100
AcDbLine
 62
7
  6
CONTINUOUS
 10
158.5615779787
 20
211.284568725
 11
152.5615779884
 21
221.0345687092
  0
LINE
  5
298
100
AcDbEntity
  8
0
100
AcDbLine
 62
7
  6
CONTINUOUS
 10
217.4744400187
 20
257.5176942755
 11
218.0154559193
 21
257.6496091649
  0
LINE
  5
299
100
AcDbEntity
  8
0
100
AcDbLine
 62
7
  6
CONTINUOUS
 10
209.3591929974
 20
258.4410985131
 11
208.8181770968
 21
258.3091836352
  0
LINE
  5
29A
100
AcDbEntity
  8
0
100
AcDbLine
 62
7
  6
CONTINUOUS
 10
218.0154559193
 20
258.3091836352
 11
217.3391848827
 21
258.1772687574
  0
LINE
  5
29B
100
AcDbEntity
  8
0
100
AcDbLine
 62
7
  6
CONTINUOUS
 10
208.8181770968
 20
257.5176942755
 11
209.4944473595
 21
257.6496091649
  0
LINE
  5
29C
100
AcDbEntity
  8
0
100
AcDbLine
 62
7
  6
CONTINUOUS
 10
215.9866443574
 20
262.9262050082
 11
216.662915394
 21
263.058119886
  0
LINE
  5
29D
100
AcDbEntity
  8
RUNDUNGEN
100
AcDbLine
 62
7
  6
CONTINUOUS
 10
220.5615779884
 20
255.1393827463
 11
195.3142040218
 21
255.1393827463
  0
LINE
  5
29E
100
AcDbEntity
  8
RUNDUNGEN
100
AcDbLine
 62
7
  6
CONTINUOUS
 10
183.808951955
 20
255.1393827463
 11
158.5615779884
 21
255.1393827463
  0
LINE
  5
29F
100
AcDbEntity
  8
0
100
AcDbLine
 62
7
  6
CONTINUOUS
 10
161.9851147186
 20
257.5176942755
 11
162.7601147186
 21
257.5176942755
  0
LINE
  5
2A0
100
AcDbEntity
  8
0
100
AcDbLine
 62
7
  6
CONTINUOUS
 10
165.9892812621
 20
257.5176942755
 11
166.8934481751
 21
257.5176942755
  0
LINE
  5
2A1
100
AcDbEntity
  8
0
100
AcDbLine
 62
7
  6
CONTINUOUS
 10
169.9934478056
 20
257.5176942755
 11
170.5101147186
 21
257.5176942755
  0
LINE
  5
2A2
100
AcDbEntity
  8
0
100
AcDbLine
 62
7
  6
CONTINUOUS
 10
173.6101147186
 20
257.5176942755
 11
176.7101147186
 21
257.5176942755
  0
LINE
  5
2A3
100
AcDbEntity
  8
0
100
AcDbLine
 62
7
  6
CONTINUOUS
 10
197.3215779884
 20
257.5176942755
 11
198.1331026131
 21
257.5176942755
  0
LINE
  5
2A4
100
AcDbEntity
  8
0
100
AcDbLine
 62
7
  6
CONTINUOUS
 10
199.2151353816
 20
257.5176942755
 11
200.0266600064
 21
257.5176942755
  0
LINE
  5
2A5
100
AcDbEntity
  8
0
100
AcDbLine
 62
7
  6
CONTINUOUS
 10
203.4080126739
 20
257.5176942755
 11
204.3547916608
 21
257.5176942755
  0
LINE
  5
2A6
100
AcDbEntity
  8
0
100
AcDbLine
 62
7
  6
CONTINUOUS
 10
207.6008901597
 20
257.5176942755
 11
208.8181770968
 21
257.5176942755
  0
LINE
  5
2A7
100
AcDbEntity
  8
0
100
AcDbLine
 62
7
  6
CONTINUOUS
 10
212.6052922703
 20
257.5176942755
 11
213.416816895
 21
257.5176942755
  0
LINE
  5
2A8
100
AcDbEntity
  8
0
100
AcDbLine
 62
7
  6
CONTINUOUS
 10
216.3924066698
 20
257.5176942755
 11
217.4744400187
 21
257.5176942755
  0
LINE
  5
2A9
100
AcDbEntity
  8
0
100
AcDbLine
 62
7
  6
CONTINUOUS
 10
217.3391848827
 20
258.1772687574
 11
216.5276602579
 21
258.1772687574
  0
LINE
  5
2AA
100
AcDbEntity
  8
0
100
AcDbLine
 62
7
  6
CONTINUOUS
 10
208.8181770968
 20
258.3091836352
 11
207.6008901597
 21
258.3091836352
  0
LINE
  5
2AB
100
AcDbEntity
  8
0
100
AcDbLine
 62
7
  6
CONTINUOUS
 10
176.7101147186
 20
258.3091836352
 11
174.3851147186
 21
258.3091836352
  0
LINE
  5
2AC
100
AcDbEntity
  8
0
100
AcDbLine
 62
7
  6
CONTINUOUS
 10
170.5101147186
 20
258.3091836352
 11
169.9934478056
 21
258.3091836352
  0
LINE
  5
2AD
100
AcDbEntity
  8
0
100
AcDbLine
 62
7
  6
CONTINUOUS
 10
215.1751197327
 20
258.9687581171
 11
214.4988486961
 21
258.9687581171
  0
LINE
  5
2AE
100
AcDbEntity
  8
0
100
AcDbLine
 62
7
  6
CONTINUOUS
 10
208.6829227347
 20
260.1559922029
 11
209.9002096719
 21
260.1559922029
  0
LINE
  5
2AF
100
AcDbEntity
  8
0
100
AcDbLine
 62
7
  6
CONTINUOUS
 10
162.7601147186
 20
260.2879070808
 11
164.9559479904
 21
260.2879070808
  0
LINE
  5
2B0
100
AcDbEntity
  8
0
100
AcDbLine
 62
7
  6
CONTINUOUS
 10
200.0266600064
 20
260.2879070808
 11
202.325979712
 21
260.2879070808
  0
LINE
  5
2B1
100
AcDbEntity
  8
0
100
AcDbLine
 62
7
  6
CONTINUOUS
 10
216.662915394
 20
260.4198219587
 11
217.2039312945
 21
260.4198219587
  0
LINE
  5
2B2
100
AcDbEntity
  8
0
100
AcDbLine
 62
7
  6
CONTINUOUS
 10
169.3476147186
 20
257.6496091649
 11
169.9934478056
 21
257.5176942755
  0
LINE
  5
2B3
100
AcDbEntity
  8
0
100
AcDbLine
 62
7
  6
CONTINUOUS
 10
165.7309481751
 20
263.5857793976
 11
165.0851147186
 21
263.7176942755
  0
LINE
  5
2B4
100
AcDbEntity
  8
0
100
AcDbLine
 62
7
  6
CONTINUOUS
 10
169.9934478056
 20
258.3091836352
 11
169.4767816317
 21
258.4410985131
  0
LINE
  5
2B5
100
AcDbEntity
  8
0
100
AcDbLine
 62
7
  6
CONTINUOUS
 10
165.2142812621
 20
263.058119886
 11
165.6017812621
 21
262.9262050082
  0
LINE
  5
2B6
100
AcDbEntity
  8
RUNDUNGEN
100
AcDbLine
 62
7
  6
CONTINUOUS
 10
246.2212270513
 20
221.1915975318
 11
239.3403498793
 21
224.5984677482
  0
LINE
  5
2B7
100
AcDbEntity
  8
RUNDUNGEN
100
AcDbLine
 62
7
  6
CONTINUOUS
 10
246.2212270513
 20
224.7271314377
 11
239.3403498793
 21
228.1340016542
  0
LINE
  5
2B8
100
AcDbEntity
  8
0
100
AcDbLine
 62
7
  6
CONTINUOUS
 10
168.8309478056
 20
257.9134389554
 11
169.3476147186
 21
257.6496091649
  0
LINE
  5
2B9
100
AcDbEntity
  8
0
100
AcDbLine
 62
7
  6
CONTINUOUS
 10
169.4767816317
 20
258.4410985131
 11
169.0892816317
 21
258.7049283613
  0
LINE
  5
2BA
100
AcDbEntity
  8
RUNDUNGEN
100
AcDbLine
 62
7
  6
CONTINUOUS
 10
133.6199957207
 20
219.3385488904
 11
133.6199957207
 21
222.8740827964
  0
LINE
  5
2BB
100
AcDbEntity
  8
0
100
AcDbLine
 62
7
  6
CONTINUOUS
 10
177.2267808926
 20
258.4410985131
 11
176.7101147186
 21
258.3091836352
  0
LINE
  5
2BC
100
AcDbEntity
  8
0
100
AcDbLine
 62
7
  6
CONTINUOUS
 10
171.0267816317
 20
258.4410985131
 11
170.5101147186
 21
258.3091836352
  0
LINE
  5
2BD
100
AcDbEntity
  8
0
100
AcDbLine
 62
7
  6
CONTINUOUS
 10
207.0598734853
 20
262.7942901303
 11
207.6008901597
 21
262.9262050082
  0
LINE
  5
2BE
100
AcDbEntity
  8
0
100
AcDbLine
 62
7
  6
CONTINUOUS
 10
176.7101147186
 20
257.5176942755
 11
177.3559485447
 21
257.6496091649
  0
LINE
  5
2BF
100
AcDbEntity
  8
0
100
AcDbLine
 62
7
  6
CONTINUOUS
 10
170.5101147186
 20
257.5176942755
 11
171.1559478056
 21
257.6496091649
  0
LINE
  5
2C0
100
AcDbEntity
  8
0
100
AcDbLine
 62
7
  6
CONTINUOUS
 10
207.6008901597
 20
263.7176942755
 11
206.9246191232
 21
263.5857793976
  0
LINE
  5
2C1
100
AcDbEntity
  8
0
100
AcDbLine
 62
7
  6
CONTINUOUS
 10
216.7981689821
 20
263.7176942755
 11
215.8513907692
 21
263.5857793976
  0
LINE
  5
2C2
100
AcDbEntity
  8
0
100
AcDbLine
 62
7
  6
CONTINUOUS
 10
217.2039312945
 20
260.9474814702
 11
216.662915394
 21
260.9474814702
  0
LINE
  5
2C3
100
AcDbEntity
  8
0
100
AcDbLine
 62
7
  6
CONTINUOUS
 10
210.7117342966
 20
260.9474814702
 11
208.6829227347
 21
260.9474814702
  0
LINE
  5
2C4
100
AcDbEntity
  8
0
100
AcDbLine
 62
7
  6
CONTINUOUS
 10
202.5964880492
 20
261.0793963481
 11
200.0266600064
 21
261.0793963481
  0
LINE
  5
2C5
100
AcDbEntity
  8
0
100
AcDbLine
 62
7
  6
CONTINUOUS
 10
165.2142812621
 20
261.0793963481
 11
162.7601147186
 21
261.0793963481
  0
LINE
  5
2C6
100
AcDbEntity
  8
0
100
AcDbLine
 62
7
  6
CONTINUOUS
 10
209.9002096719
 20
262.1347153713
 11
210.7117342966
 21
262.1347153713
  0
LINE
  5
2C7
100
AcDbEntity
  8
0
100
AcDbLine
 62
7
  6
CONTINUOUS
 10
214.6341038321
 20
262.2666306187
 11
215.3103733208
 21
262.2666306187
  0
LINE
  5
2C8
100
AcDbEntity
  8
0
100
AcDbLine
 62
7
  6
CONTINUOUS
 10
174.3851147186
 20
262.9262050082
 11
176.7101147186
 21
262.9262050082
  0
LINE
  5
2C9
100
AcDbEntity
  8
0
100
AcDbLine
 62
7
  6
CONTINUOUS
 10
207.6008901597
 20
262.9262050082
 11
208.8181770968
 21
262.9262050082
  0
LINE
  5
2CA
100
AcDbEntity
  8
0
100
AcDbLine
 62
7
  6
CONTINUOUS
 10
162.7601147186
 20
263.058119886
 11
165.2142812621
 21
263.058119886
  0
LINE
  5
2CB
100
AcDbEntity
  8
0
100
AcDbLine
 62
7
  6
CONTINUOUS
 10
200.0266600064
 20
263.058119886
 11
202.5964880492
 21
263.058119886
  0
LINE
  5
2CC
100
AcDbEntity
  8
0
100
AcDbLine
 62
7
  6
CONTINUOUS
 10
216.662915394
 20
263.058119886
 11
217.2039312945
 21
263.058119886
  0
LINE
  5
2CD
100
AcDbEntity
  8
0
100
AcDbLine
 62
7
  6
CONTINUOUS
 10
217.0686777063
 20
263.7176942755
 11
216.7981689821
 21
263.7176942755
  0
LINE
  5
2CE
100
AcDbEntity
  8
0
100
AcDbLine
 62
7
  6
CONTINUOUS
 10
213.416816895
 20
263.7176942755
 11
212.6052922703
 21
263.7176942755
  0
LINE
  5
2CF
100
AcDbEntity
  8
0
100
AcDbLine
 62
7
  6
CONTINUOUS
 10
208.8181770968
 20
263.7176942755
 11
207.6008901597
 21
263.7176942755
  0
LINE
  5
2D0
100
AcDbEntity
  8
0
100
AcDbLine
 62
7
  6
CONTINUOUS
 10
202.4612340741
 20
263.7176942755
 11
199.2151353816
 21
263.7176942755
  0
LINE
  5
2D1
100
AcDbEntity
  8
0
100
AcDbLine
 62
7
  6
CONTINUOUS
 10
198.1331026131
 20
263.7176942755
 11
197.3215779884
 21
263.7176942755
  0
LINE
  5
2D2
100
AcDbEntity
  8
0
100
AcDbLine
 62
7
  6
CONTINUOUS
 10
176.7101147186
 20
263.7176942755
 11
173.6101147186
 21
263.7176942755
  0
LINE
  5
2D3
100
AcDbEntity
  8
0
100
AcDbLine
 62
7
  6
CONTINUOUS
 10
172.5767816317
 20
263.7176942755
 11
171.8017816317
 21
263.7176942755
  0
LINE
  5
2D4
100
AcDbEntity
  8
0
100
AcDbLine
 62
7
  6
CONTINUOUS
 10
168.7017816317
 20
263.7176942755
 11
167.9267812621
 21
263.7176942755
  0
LINE
  5
2D5
100
AcDbEntity
  8
0
100
AcDbLine
 62
7
  6
CONTINUOUS
 10
165.0851147186
 20
263.7176942755
 11
161.9851147186
 21
263.7176942755
  0
LINE
  5
2D6
100
AcDbEntity
  8
RUNDUNGEN
100
AcDbLine
 62
7
  6
CONTINUOUS
 10
214.6978792835
 20
271.5940437285
 11
210.4101816814
 21
271.5940437285
  0
LINE
  5
2D7
100
AcDbEntity
  8
RUNDUNGEN
100
AcDbLine
 62
7
  6
CONTINUOUS
 10
168.7129742954
 20
271.5940437285
 11
164.4252760665
 21
271.5940437285
  0
LINE
  5
2D8
100
AcDbEntity
  8
RUNDUNGEN
100
AcDbLine
 62
7
  6
CONTINUOUS
 10
176.1047812465
 20
271.7845687092
 11
203.0183747303
 21
271.7845687092
  0
LINE
  5
2D9
100
AcDbEntity
  8
0
100
AcDbLine
 62
7
  6
CONTINUOUS
 10
218.0154559193
 20
263.5857793976
 11
217.0686777063
 21
263.7176942755
  0
LINE
  5
2DA
100
AcDbEntity
  8
0
100
AcDbLine
 62
7
  6
CONTINUOUS
 10
217.2039312945
 20
260.4198219587
 11
218.0154559193
 21
260.2879070808
  0
LINE
  5
2DB
100
AcDbEntity
  8
0
100
AcDbLine
 62
7
  6
CONTINUOUS
 10
206.9246191232
 20
257.6496091649
 11
207.6008901597
 21
257.5176942755
  0
LINE
  5
2DC
100
AcDbEntity
  8
0
100
AcDbLine
 62
7
  6
CONTINUOUS
 10
216.5276602579
 20
258.1772687574
 11
215.8513907692
 21
258.3091836352
  0
LINE
  5
2DD
100
AcDbEntity
  8
0
100
AcDbLine
 62
7
  6
CONTINUOUS
 10
203.1375043367
 20
263.5857793976
 11
202.4612340741
 21
263.7176942755
  0
LINE
  5
2DE
100
AcDbEntity
  8
0
100
AcDbLine
 62
7
  6
CONTINUOUS
 10
209.4944473595
 20
263.5857793976
 11
208.8181770968
 21
263.7176942755
  0
LINE
  5
2DF
100
AcDbEntity
  8
0
100
AcDbLine
 62
7
  6
CONTINUOUS
 10
217.2039312945
 20
263.058119886
 11
217.8802023311
 21
262.9262050082
  0
LINE
  5
2E0
100
AcDbEntity
  8
0
100
AcDbLine
 62
7
  6
CONTINUOUS
 10
177.3559485447
 20
263.5857793976
 11
176.7101147186
 21
263.7176942755
  0
LINE
  5
2E1
100
AcDbEntity
  8
0
100
AcDbLine
 62
7
  6
CONTINUOUS
 10
207.6008901597
 20
258.3091836352
 11
207.0598734853
 21
258.4410985131
  0
LINE
  5
2E2
100
AcDbEntity
  8
0
100
AcDbLine
 62
7
  6
CONTINUOUS
 10
215.8513907692
 20
257.6496091649
 11
216.3924066698
 21
257.5176942755
  0
LINE
  5
2E3
100
AcDbEntity
  8
0
100
AcDbLine
 62
7
  6
CONTINUOUS
 10
208.8181770968
 20
262.9262050082
 11
209.3591929974
 21
262.7942901303
  0
LINE
  5
2E4
100
AcDbEntity
  8
0
100
AcDbLine
 62
7
  6
CONTINUOUS
 10
176.7101147186
 20
262.9262050082
 11
177.2267808926
 21
262.7942901303
  0
LINE
  5
2E5
100
AcDbEntity
  8
0
100
AcDbLine
 62
7
  6
CONTINUOUS
 10
202.5964880492
 20
263.058119886
 11
203.0022503616
 21
262.9262050082
  0
LINE
  5
2E6
100
AcDbEntity
  8
0
100
AcDbLine
 62
7
  6
CONTINUOUS
 10
206.3836032226
 20
257.9134389554
 11
206.9246191232
 21
257.6496091649
  0
LINE
  5
2E7
100
AcDbEntity
  8
0
100
AcDbLine
 62
7
  6
CONTINUOUS
 10
177.8726147186
 20
263.3219496418
 11
177.3559485447
 21
263.5857793976
  0
LINE
  5
2E8
100
AcDbEntity
  8
0
100
AcDbLine
 62
7
  6
CONTINUOUS
 10
177.2267808926
 20
262.7942901303
 11
177.6142808926
 21
262.5304603745
  0
LINE
  5
2E9
100
AcDbEntity
  8
0
100
AcDbLine
 62
7
  6
CONTINUOUS
 10
166.2476147186
 20
263.1900347639
 11
165.7309481751
 21
263.5857793976
  0
LINE
  5
2EA
100
AcDbEntity
  8
0
100
AcDbLine
 62
7
  6
CONTINUOUS
 10
168.3142816317
 20
258.4410985131
 11
168.8309478056
 21
257.9134389554
  0
LINE
  5
2EB
100
AcDbEntity
  8
0
100
AcDbLine
 62
7
  6
CONTINUOUS
 10
165.6017812621
 20
262.9262050082
 11
165.8601147186
 21
262.6623752524
  0
LINE
  5
2EC
100
AcDbEntity
  8
0
100
AcDbLine
 62
7
  6
CONTINUOUS
 10
178.3892808926
 20
262.7942901303
 11
177.8726147186
 21
263.3219496418
  0
LINE
  5
2ED
100
AcDbEntity
  8
0
100
AcDbLine
 62
7
  6
CONTINUOUS
 10
166.6351147186
 20
262.6623752524
 11
166.2476147186
 21
263.1900347639
  0
LINE
  5
2EE
100
AcDbEntity
  8
0
100
AcDbLine
 62
7
  6
CONTINUOUS
 10
169.0892816317
 20
258.7049283613
 11
168.8309478056
 21
259.100672995
  0
LINE
  5
2EF
100
AcDbEntity
  8
0
100
AcDbLine
 62
7
  6
CONTINUOUS
 10
145.2517574668
 20
290.2845687092
 11
151.1881477796
 21
268.1296584484
  0
LINE
  5
2F0
100
AcDbEntity
  8
0
100
AcDbLine
 62
7
  6
CONTINUOUS
 10
151.1881477796
 20
251.6458193088
 11
152.5615779884
 21
243.8567095352
  0
LINE
  5
2F1
100
AcDbEntity
  8
RUNDUNGEN
100
AcDbLine
 62
7
  6
CONTINUOUS
 10
145.5615779884
 20
139.2279131508
 11
145.5615779884
 21
151.325242523
  0
LINE
  5
2F2
100
AcDbEntity
  8
RUNDUNGEN
100
AcDbLine
 62
7
  6
CONTINUOUS
 10
147.1718632938
 20
204.750205725
 11
147.1718632938
 21
208.285739631
  0
LINE
  5
2F3
100
AcDbEntity
  8
0
100
AcDbLine
 62
7
  6
CONTINUOUS
 10
151.1881477796
 20
251.6458193088
 11
151.1881477796
 21
268.1296584484
  0
LINE
  5
2F4
100
AcDbEntity
  8
0
100
AcDbLine
 62
7
  6
CONTINUOUS
 10
218.9622341322
 20
260.4198219587
 11
218.2859646435
 21
260.6836517145
  0
LINE
  5
2F5
100
AcDbEntity
  8
0
100
AcDbLine
 62
7
  6
CONTINUOUS
 10
215.3103733208
 20
257.9134389554
 11
215.8513907692
 21
257.6496091649
  0
LINE
  5
2F6
100
AcDbEntity
  8
0
100
AcDbLine
 62
7
  6
CONTINUOUS
 10
215.8513907692
 20
258.3091836352
 11
215.580882045
 21
258.4410985131
  0
LINE
  5
2F7
100
AcDbEntity
  8
0
100
AcDbLine
 62
7
  6
CONTINUOUS
 10
210.035464034
 20
263.3219496418
 11
209.4944473595
 21
263.5857793976
  0
LINE
  5
2F8
100
AcDbEntity
  8
0
100
AcDbLine
 62
7
  6
CONTINUOUS
 10
218.5564718198
 20
263.3219496418
 11
218.0154559193
 21
263.5857793976
  0
LINE
  5
2F9
100
AcDbEntity
  8
0
100
AcDbLine
 62
7
  6
CONTINUOUS
 10
207.0598734853
 20
258.4410985131
 11
206.6541111729
 21
258.7049283613
  0
LINE
  5
2FA
100
AcDbEntity
  8
0
100
AcDbLine
 62
7
  6
CONTINUOUS
 10
214.9046110085
 20
258.1772687574
 11
215.3103733208
 21
257.9134389554
  0
LINE
  5
2FB
100
AcDbEntity
  8
0
100
AcDbLine
 62
7
  6
CONTINUOUS
 10
209.3591929974
 20
262.7942901303
 11
209.7649553098
 21
262.5304603745
  0
LINE
  5
2FC
100
AcDbEntity
  8
0
100
AcDbLine
 62
7
  6
CONTINUOUS
 10
218.0154559193
 20
260.2879070808
 11
218.4212182316
 21
260.024077325
  0
LINE
  5
2FD
100
AcDbEntity
  8
0
100
AcDbLine
 62
7
  6
CONTINUOUS
 10
203.6785210112
 20
263.1900347639
 11
203.1375043367
 21
263.5857793976
  0
LINE
  5
2FE
100
AcDbEntity
  8
0
100
AcDbLine
 62
7
  6
CONTINUOUS
 10
177.6142808926
 20
262.5304603745
 11
177.8726147186
 21
262.1347153713
  0
LINE
  5
2FF
100
AcDbEntity
  8
0
100
AcDbLine
 62
7
  6
CONTINUOUS
 10
168.0559481751
 20
258.9687581171
 11
168.3142816317
 21
258.4410985131
  0
LINE
  5
300
100
AcDbEntity
  8
0
100
AcDbLine
 62
7
  6
CONTINUOUS
 10
178.6476147186
 20
262.2666306187
 11
178.3892808926
 21
262.7942901303
  0
LINE
  5
301
100
AcDbEntity
  8
0
100
AcDbLine
 62
7
  6
CONTINUOUS
 10
166.8934481751
 20
257.5176942755
 11
165.7309481751
 21
260.5517368366
  0
LINE
  5
302
100
AcDbEntity
  8
0
100
AcDbLine
 62
7
  6
CONTINUOUS
 10
164.9559479904
 20
260.2879070808
 11
165.9892812621
 21
257.5176942755
  0
LINE
  5
303
100
AcDbEntity
  8
0
100
AcDbLine
 62
7
  6
CONTINUOUS
 10
165.8601147186
 20
262.6623752524
 11
165.9892812621
 21
262.2666306187
  0
LINE
  5
304
100
AcDbEntity
  8
0
100
AcDbLine
 62
7
  6
CONTINUOUS
 10
166.7642812621
 20
262.2666306187
 11
166.6351147186
 21
262.6623752524
  0
LINE
  5
305
100
AcDbEntity
  8
RUNDUNGEN
100
AcDbLine
 62
7
  6
CONTINUOUS
 10
152.5615779884
 20
221.0345687092
 11
152.5615779884
 21
263.7845687092
  0
LINE
  5
306
100
AcDbEntity
  8
RUNDUNGEN
100
AcDbLine
 62
7
  6
CONTINUOUS
 10
155.5615779884
 20
135.3388258543
 11
155.5615779884
 21
141.3492334943
  0
LINE
  5
307
100
AcDbEntity
  8
0
100
AcDbLine
 62
7
  6
CONTINUOUS
 10
161.9851147186
 20
263.7176942755
 11
161.9851147186
 21
257.5176942755
  0
LINE
  5
308
100
AcDbEntity
  8
0
100
AcDbLine
 62
7
  6
CONTINUOUS
 10
162.7601147186
 20
257.5176942755
 11
162.7601147186
 21
260.2879070808
  0
LINE
  5
309
100
AcDbEntity
  8
0
100
AcDbLine
 62
7
  6
CONTINUOUS
 10
162.7601147186
 20
261.0793963481
 11
162.7601147186
 21
263.058119886
  0
LINE
  5
30A
100
AcDbEntity
  8
0
100
AcDbLine
 62
7
  6
CONTINUOUS
 10
151.1881477796
 20
312.43947897
 11
145.2517574668
 21
290.2845687092
  0
LINE
  5
30B
100
AcDbEntity
  8
0
100
AcDbLine
 62
7
  6
CONTINUOUS
 10
217.8802023311
 20
262.9262050082
 11
218.2859646435
 21
262.6623752524
  0
LINE
  5
30C
100
AcDbEntity
  8
0
100
AcDbLine
 62
7
  6
CONTINUOUS
 10
205.8425865482
 20
258.4410985131
 11
206.3836032226
 21
257.9134389554
  0
LINE
  5
30D
100
AcDbEntity
  8
0
100
AcDbLine
 62
7
  6
CONTINUOUS
 10
203.0022503616
 20
262.9262050082
 11
203.2727586988
 21
262.6623752524
  0
LINE
  5
30E
100
AcDbEntity
  8
0
100
AcDbLine
 62
7
  6
CONTINUOUS
 10
210.5764807084
 20
262.7942901303
 11
210.035464034
 21
263.3219496418
  0
LINE
  5
30F
100
AcDbEntity
  8
0
100
AcDbLine
 62
7
  6
CONTINUOUS
 10
215.580882045
 20
258.4410985131
 11
215.3103733208
 21
258.7049283613
  0
LINE
  5
310
100
AcDbEntity
  8
0
100
AcDbLine
 62
7
  6
CONTINUOUS
 10
204.0842829366
 20
262.6623752524
 11
203.6785210112
 21
263.1900347639
  0
LINE
  5
311
100
AcDbEntity
  8
0
100
AcDbLine
 62
7
  6
CONTINUOUS
 10
168.8309478056
 20
259.100672995
 11
168.7017816317
 21
259.6283325065
  0
LINE
  5
312
100
AcDbEntity
  8
0
100
AcDbLine
 62
7
  6
CONTINUOUS
 10
177.8726147186
 20
262.1347153713
 11
178.0017808926
 21
261.6070558597
  0
LINE
  5
313
100
AcDbEntity
  8
0
100
AcDbLine
 62
7
  6
CONTINUOUS
 10
167.9267812621
 20
259.6283325065
 11
168.0559481751
 21
258.9687581171
  0
LINE
  5
314
100
AcDbEntity
  8
0
100
AcDbLine
 62
7
  6
CONTINUOUS
 10
165.9892812621
 20
262.2666306187
 11
165.9892812621
 21
261.8708856155
  0
LINE
  5
315
100
AcDbEntity
  8
0
100
AcDbLine
 62
7
  6
CONTINUOUS
 10
166.7642812621
 20
261.7389707376
 11
166.7642812621
 21
262.2666306187
  0
LINE
  5
316
100
AcDbEntity
  8
0
100
AcDbLine
 62
7
  6
CONTINUOUS
 10
167.9267812621
 20
263.7176942755
 11
167.9267812621
 21
259.6283325065
  0
LINE
  5
317
100
AcDbEntity
  8
KONSTRUKTIONSELEMENTE
100
AcDbLine
 62
7
  6
CONTINUOUS
 10
168.1214287352
 20
233.2845687092
 11
168.1214287352
 21
235.7845687092
  0
LINE
  5
318
100
AcDbEntity
  8
0
100
AcDbLine
 62
7
  6
CONTINUOUS
 10
168.7017816317
 20
259.6283325065
 11
168.7017816317
 21
263.7176942755
  0
LINE
  5
319
100
AcDbEntity
  8
0
100
AcDbLine
 62
7
  6
CONTINUOUS
 10
170.5981299326
 20
205.5262449548
 11
170.5981299326
 21
199.4592687723
  0
LINE
  5
31A
100
AcDbEntity
  8
0
100
AcDbLine
 62
7
  6
CONTINUOUS
 10
171.8017816317
 20
263.7176942755
 11
171.8017816317
 21
259.6283325065
  0
LINE
  5
31B
100
AcDbEntity
  8
0
100
AcDbLine
 62
7
  6
CONTINUOUS
 10
172.5767816317
 20
259.6283325065
 11
172.5767816317
 21
263.7176942755
  0
LINE
  5
31C
100
AcDbEntity
  8
0
100
AcDbLine
 62
7
  6
CONTINUOUS
 10
173.1331299326
 20
200.2865837062
 11
173.1331299326
 21
202.400832982
  0
LINE
  5
31D
100
AcDbEntity
  8
0
100
AcDbLine
 62
7
  6
CONTINUOUS
 10
173.1331299326
 20
203.0443001529
 11
173.1331299326
 21
205.1585494286
  0
LINE
  5
31E
100
AcDbEntity
  8
0
100
AcDbLine
 62
7
  6
CONTINUOUS
 10
173.6101147186
 20
263.7176942755
 11
173.6101147186
 21
257.5176942755
  0
LINE
  5
31F
100
AcDbEntity
  8
0
100
AcDbLine
 62
7
  6
CONTINUOUS
 10
173.7181299326
 20
204.4507355406
 11
173.7181299326
 21
203.2924946331
  0
LINE
  5
320
100
AcDbEntity
  8
0
100
AcDbLine
 62
7
  6
CONTINUOUS
 10
173.7181299326
 20
201.693019094
 11
173.7181299326
 21
200.5347781864
  0
LINE
  5
321
100
AcDbEntity
  8
0
100
AcDbLine
 62
7
  6
CONTINUOUS
 10
174.2056299326
 20
201.6378647651
 11
174.2056299326
 21
201.8033277519
  0
LINE
  5
322
100
AcDbEntity
  8
0
100
AcDbLine
 62
7
  6
CONTINUOUS
 10
174.2056299326
 20
202.2169852189
 11
174.2056299326
 21
202.7685285082
  0
LINE
  5
323
100
AcDbEntity
  8
0
100
AcDbLine
 62
7
  6
CONTINUOUS
 10
174.2056299326
 20
203.1821859752
 11
174.2056299326
 21
203.8072683698
  0
LINE
  5
324
100
AcDbEntity
  8
0
100
AcDbLine
 62
7
  6
CONTINUOUS
 10
174.3851147186
 20
258.3091836352
 11
174.3851147186
 21
262.9262050082
  0
LINE
  5
325
100
AcDbEntity
  8
0
100
AcDbLine
 62
7
  6
CONTINUOUS
 10
174.7906299326
 20
203.8072683698
 11
174.7906299326
 21
203.1821859752
  0
LINE
  5
326
100
AcDbEntity
  8
0
100
AcDbLine
 62
7
  6
CONTINUOUS
 10
174.7906299326
 20
202.7685285082
 11
174.7906299326
 21
202.2169852189
  0
LINE
  5
327
100
AcDbEntity
  8
0
100
AcDbLine
 62
7
  6
CONTINUOUS
 10
174.7906299326
 20
201.8033277519
 11
174.7906299326
 21
201.6378647651
  0
LINE
  5
328
100
AcDbEntity
  8
0
100
AcDbLine
 62
7
  6
CONTINUOUS
 10
175.2781299326
 20
200.5347781864
 11
175.2781299326
 21
201.693019094
  0
LINE
  5
329
100
AcDbEntity
  8
0
100
AcDbLine
 62
7
  6
CONTINUOUS
 10
175.2781299326
 20
203.2924946331
 11
175.2781299326
 21
204.4507355406
  0
LINE
  5
32A
100
AcDbEntity
  8
0
100
AcDbLine
 62
7
  6
CONTINUOUS
 10
175.8631299326
 20
205.1585494286
 11
175.8631299326
 21
203.0443001529
  0
LINE
  5
32B
100
AcDbEntity
  8
0
100
AcDbLine
 62
7
  6
CONTINUOUS
 10
175.8631299326
 20
202.400832982
 11
175.8631299326
 21
200.2865837062
  0
LINE
  5
32C
100
AcDbEntity
  8
0
100
AcDbLine
 62
7
  6
CONTINUOUS
 10
176.5615779884
 20
501.7211319013
 11
176.5615779884
 21
295.8480055171
  0
LINE
  5
32D
100
AcDbEntity
  8
0
100
AcDbLine
 62
7
  6
CONTINUOUS
 10
178.0017808926
 20
261.6070558597
 11
178.0017808926
 21
259.6283325065
  0
LINE
  5
32E
100
AcDbEntity
  8
0
100
AcDbLine
 62
7
  6
CONTINUOUS
 10
178.3981299326
 20
199.4592687723
 11
178.3981299326
 21
205.5262449548
  0
LINE
  5
32F
100
AcDbEntity
  8
0
100
AcDbLine
 62
7
  6
CONTINUOUS
 10
178.7767808926
 20
259.6283325065
 11
178.7767808926
 21
261.6070558597
  0
LINE
  5
330
100
AcDbEntity
  8
0
100
AcDbLine
 62
7
  6
CONTINUOUS
 10
167.4066677276
 20
328.657998918
 11
151.1881477796
 21
312.43947897
  0
LINE
  5
331
100
AcDbEntity
  8
0
100
AcDbLine
 62
7
  6
CONTINUOUS
 10
219.0974892682
 20
262.7942901303
 11
218.5564718198
 21
263.3219496418
  0
LINE
  5
332
100
AcDbEntity
  8
0
100
AcDbLine
 62
7
  6
CONTINUOUS
 10
206.6541111729
 20
258.7049283613
 11
206.3836032226
 21
259.100672995
  0
LINE
  5
333
100
AcDbEntity
  8
0
100
AcDbLine
 62
7
  6
CONTINUOUS
 10
214.6341038321
 20
258.573013391
 11
214.9046110085
 21
258.1772687574
  0
LINE
  5
334
100
AcDbEntity
  8
0
100
AcDbLine
 62
7
  6
CONTINUOUS
 10
219.2327428564
 20
260.024077325
 11
218.9622341322
 21
260.4198219587
  0
LINE
  5
335
100
AcDbEntity
  8
0
100
AcDbLine
 62
7
  6
CONTINUOUS
 10
218.2859646435
 20
262.6623752524
 11
218.5564718198
 21
262.2666306187
  0
LINE
  5
336
100
AcDbEntity
  8
0
100
AcDbLine
 62
7
  6
CONTINUOUS
 10
205.5720785979
 20
258.9687581171
 11
205.8425865482
 21
258.4410985131
  0
LINE
  5
337
100
AcDbEntity
  8
0
100
AcDbLine
 62
7
  6
CONTINUOUS
 10
204.3547916608
 20
257.5176942755
 11
203.1375043367
 21
260.5517368366
  0
LINE
  5
338
100
AcDbEntity
  8
0
100
AcDbLine
 62
7
  6
CONTINUOUS
 10
202.325979712
 20
260.2879070808
 11
203.4080126739
 21
257.5176942755
  0
LINE
  5
339
100
AcDbEntity
  8
0
100
AcDbLine
 62
7
  6
CONTINUOUS
 10
178.7767808926
 20
261.6070558597
 11
178.6476147186
 21
262.2666306187
  0
LINE
  5
33A
100
AcDbEntity
  8
0
100
AcDbLine
 62
7
  6
CONTINUOUS
 10
180.9276716245
 20
206.0777882442
 11
180.9276716245
 21
205.241280922
  0
LINE
  5
33B
100
AcDbEntity
  8
0
100
AcDbLine
 62
7
  6
CONTINUOUS
 10
180.9276716245
 20
204.469120317
 11
180.9276716245
 21
198.9077254829
  0
LINE
  5
33C
100
AcDbEntity
  8
KONSTRUKTIONSELEMENTE
100
AcDbLine
 62
7
  6
CONTINUOUS
 10
181.5615779884
 20
273.6170875163
 11
181.5615779884
 21
278.5279490445
  0
LINE
  5
33D
100
AcDbEntity
  8
0
100
AcDbLine
 62
7
  6
CONTINUOUS
 10
182.1615779884
 20
233.2845687092
 11
182.1615779884
 21
218.3958227498
  0
LINE
  5
33E
100
AcDbEntity
  8
KONSTRUKTIONSELEMENTE
100
AcDbLine
 62
7
  6
CONTINUOUS
 10
182.1615779884
 20
233.2845687092
 11
182.1615779884
 21
250.4845687092
  0
LINE
  5
33F
100
AcDbEntity
  8
0
100
AcDbLine
 62
7
  6
CONTINUOUS
 10
182.1756716245
 20
198.9077254829
 11
182.1756716245
 21
202.8270533059
  0
LINE
  5
340
100
AcDbEntity
  8
0
100
AcDbLine
 62
7
  6
CONTINUOUS
 10
182.1756716245
 20
203.249903161
 11
182.1756716245
 21
204.469120317
  0
LINE
  5
341
100
AcDbEntity
  8
0
100
AcDbLine
 62
7
  6
CONTINUOUS
 10
185.2956716245
 20
202.3674338981
 11
185.2956716245
 21
202.8270533059
  0
LINE
  5
342
100
AcDbEntity
  8
KONSTRUKTIONSELEMENTE
100
AcDbLine
 62
7
  6
CONTINUOUS
 10
186.0615779884
 20
241.8595687092
 11
186.0615779884
 21
247.4152506723
  0
LINE
  5
343
100
AcDbEntity
  8
KONSTRUKTIONSELEMENTE
100
AcDbLine
 62
7
  6
CONTINUOUS
 10
186.0615779884
 20
272.1328678231
 11
186.0615779884
 21
278.5279490445
  0
LINE
  5
344
100
AcDbEntity
  8
0
100
AcDbLine
 62
7
  6
CONTINUOUS
 10
186.6244646992
 20
202.5049399206
 11
186.6244646992
 21
202.9645593284
  0
LINE
  5
345
100
AcDbEntity
  8
KONSTRUKTIONSELEMENTE
100
AcDbLine
 62
7
  6
CONTINUOUS
 10
187.0615779884
 20
216.0054220604
 11
187.0615779884
 21
223.5095687092
  0
LINE
  5
346
100
AcDbEntity
  8
KONSTRUKTIONSELEMENTE
100
AcDbLine
 62
7
  6
CONTINUOUS
 10
187.0615779884
 20
277.1701586331
 11
187.0615779884
 21
283.0314874286
  0
LINE
  5
347
100
AcDbEntity
  8
0
100
AcDbLine
 62
7
  6
CONTINUOUS
 10
187.2237883432
 20
204.7052114493
 11
187.2237883432
 21
204.2455920415
  0
LINE
  5
348
100
AcDbEntity
  8
KONSTRUKTIONSELEMENTE
100
AcDbLine
 62
7
  6
CONTINUOUS
 10
187.3115779884
 20
246.6641901877
 11
187.3115779884
 21
257.5300524393
  0
LINE
  5
349
100
AcDbEntity
  8
0
100
AcDbLine
 62
7
  6
CONTINUOUS
 10
188.1205117165
 20
198.9077254829
 11
188.1205117165
 21
199.3673448907
  0
LINE
  5
34A
100
AcDbEntity
  8
0
100
AcDbLine
 62
7
  6
CONTINUOUS
 10
190.2876716245
 20
206.0777882442
 11
190.2876716245
 21
201.5411933938
  0
LINE
  5
34B
100
AcDbEntity
  8
0
100
AcDbLine
 62
7
  6
CONTINUOUS
 10
191.5356716245
 20
201.5411933938
 11
191.5356716245
 21
206.0777882442
  0
LINE
  5
34C
100
AcDbEntity
  8
KONSTRUKTIONSELEMENTE
100
AcDbLine
 62
7
  6
CONTINUOUS
 10
191.8115779884
 20
246.6641901877
 11
191.8115779884
 21
257.5300524393
  0
LINE
  5
34D
100
AcDbEntity
  8
KONSTRUKTIONSELEMENTE
100
AcDbLine
 62
7
  6
CONTINUOUS
 10
192.0615779884
 20
216.0054220604
 11
192.0615779884
 21
223.5095687092
  0
LINE
  5
34E
100
AcDbEntity
  8
KONSTRUKTIONSELEMENTE
100
AcDbLine
 62
7
  6
CONTINUOUS
 10
192.0615779884
 20
277.1701586331
 11
192.0615779884
 21
283.0314874286
  0
LINE
  5
34F
100
AcDbEntity
  8
0
100
AcDbLine
 62
7
  6
CONTINUOUS
 10
172.4476147186
 20
258.9687581171
 11
172.5767816317
 21
259.6283325065
  0
LINE
  5
350
100
AcDbEntity
  8
0
100
AcDbLine
 62
7
  6
CONTINUOUS
 10
178.6476147186
 20
258.9687581171
 11
178.7767808926
 21
259.6283325065
  0
LINE
  5
351
100
AcDbEntity
  8
0
100
AcDbLine
 62
7
  6
CONTINUOUS
 10
171.8017816317
 20
259.6283325065
 11
171.6726147186
 21
259.100672995
  0
LINE
  5
352
100
AcDbEntity
  8
0
100
AcDbLine
 62
7
  6
CONTINUOUS
 10
165.9892812621
 20
261.8708856155
 11
165.8601147186
 21
261.4751409818
  0
LINE
  5
353
100
AcDbEntity
  8
0
100
AcDbLine
 62
7
  6
CONTINUOUS
 10
166.6351147186
 20
261.3432261039
 11
166.7642812621
 21
261.7389707376
  0
LINE
  5
354
100
AcDbEntity
  8
0
100
AcDbLine
 62
7
  6
CONTINUOUS
 10
215.3103733208
 20
258.7049283613
 11
215.1751197327
 21
258.9687581171
  0
LINE
  5
355
100
AcDbEntity
  8
0
100
AcDbLine
 62
7
  6
CONTINUOUS
 10
218.4212182316
 20
260.024077325
 11
218.6917269558
 21
259.4964176287
  0
LINE
  5
356
100
AcDbEntity
  8
0
100
AcDbLine
 62
7
  6
CONTINUOUS
 10
203.2727586988
 20
262.6623752524
 11
203.4080126739
 21
262.2666306187
  0
LINE
  5
357
100
AcDbEntity
  8
0
100
AcDbLine
 62
7
  6
CONTINUOUS
 10
204.2195372987
 20
262.2666306187
 11
204.0842829366
 21
262.6623752524
  0
LINE
  5
358
100
AcDbEntity
  8
0
100
AcDbLine
 62
7
  6
CONTINUOUS
 10
209.7649553098
 20
262.5304603745
 11
209.9002096719
 21
262.1347153713
  0
LINE
  5
359
100
AcDbEntity
  8
0
100
AcDbLine
 62
7
  6
CONTINUOUS
 10
214.4988486961
 20
258.9687581171
 11
214.6341038321
 21
258.573013391
  0
LINE
  5
35A
100
AcDbEntity
  8
0
100
AcDbLine
 62
7
  6
CONTINUOUS
 10
206.3836032226
 20
259.100672995
 11
206.2483488605
 21
259.6283325065
  0
LINE
  5
35B
100
AcDbEntity
  8
0
100
AcDbLine
 62
7
  6
CONTINUOUS
 10
205.4368242358
 20
259.6283325065
 11
205.5720785979
 21
258.9687581171
  0
LINE
  5
35C
100
AcDbEntity
  8
KONSTRUKTIONSELEMENTE
100
AcDbLine
 62
7
  6
CONTINUOUS
 10
193.0615779884
 20
278.5279490445
 11
193.0615779884
 21
272.1328678231
  0
LINE
  5
35D
100
AcDbEntity
  8
KONSTRUKTIONSELEMENTE
100
AcDbLine
 62
7
  6
CONTINUOUS
 10
193.0615779884
 20
247.4152506723
 11
193.0615779884
 21
241.8595687092
  0
LINE
  5
35E
100
AcDbEntity
  8
0
100
AcDbLine
 62
7
  6
CONTINUOUS
 10
196.4420475932
 20
206.0777882442
 11
196.4420475932
 21
201.5411933938
  0
LINE
  5
35F
100
AcDbEntity
  8
0
100
AcDbLine
 62
7
  6
CONTINUOUS
 10
196.9615779884
 20
218.3958227498
 11
196.9615779884
 21
233.2845687092
  0
LINE
  5
360
100
AcDbEntity
  8
KONSTRUKTIONSELEMENTE
100
AcDbLine
 62
7
  6
CONTINUOUS
 10
196.9615779884
 20
233.2845687092
 11
196.9615779884
 21
250.48456883
  0
LINE
  5
361
100
AcDbEntity
  8
0
100
AcDbLine
 62
7
  6
CONTINUOUS
 10
197.3215779884
 20
263.7176942755
 11
197.3215779884
 21
257.5176942755
  0
LINE
  5
362
100
AcDbEntity
  8
KONSTRUKTIONSELEMENTE
100
AcDbLine
 62
7
  6
CONTINUOUS
 10
197.5615779884
 20
278.5279490445
 11
197.5615779884
 21
273.6170875163
  0
LINE
  5
363
100
AcDbEntity
  8
0
100
AcDbLine
 62
7
  6
CONTINUOUS
 10
197.6900475932
 20
201.5411933938
 11
197.6900475932
 21
206.0777882442
  0
LINE
  5
364
100
AcDbEntity
  8
0
100
AcDbLine
 62
7
  6
CONTINUOUS
 10
198.1331026131
 20
257.5176942755
 11
198.1331026131
 21
263.7176942755
  0
LINE
  5
365
100
AcDbEntity
  8
0
100
AcDbLine
 62
7
  6
CONTINUOUS
 10
199.2151353816
 20
263.7176942755
 11
199.2151353816
 21
257.5176942755
  0
LINE
  5
366
100
AcDbEntity
  8
0
100
AcDbLine
 62
7
  6
CONTINUOUS
 10
200.0266600064
 20
257.5176942755
 11
200.0266600064
 21
260.2879070808
  0
LINE
  5
367
100
AcDbEntity
  8
0
100
AcDbLine
 62
7
  6
CONTINUOUS
 10
200.0266600064
 20
261.0793963481
 11
200.0266600064
 21
263.058119886
  0
LINE
  5
368
100
AcDbEntity
  8
0
100
AcDbLine
 62
7
  6
CONTINUOUS
 10
200.4200475932
 20
206.0777882442
 11
200.4200475932
 21
205.1953189812
  0
LINE
  5
369
100
AcDbEntity
  8
0
100
AcDbLine
 62
7
  6
CONTINUOUS
 10
200.4200475932
 20
204.4231583762
 11
200.4200475932
 21
198.9077254829
  0
LINE
  5
36A
100
AcDbEntity
  8
0
100
AcDbLine
 62
7
  6
CONTINUOUS
 10
201.6680475932
 20
199.8269642985
 11
201.6680475932
 21
204.4231583762
  0
LINE
  5
36B
100
AcDbEntity
  8
0
100
AcDbLine
 62
7
  6
CONTINUOUS
 10
202.5615779884
 20
501.7211319013
 11
202.5615779884
 21
295.8480055171
  0
LINE
  5
36C
100
AcDbEntity
  8
0
100
AcDbLine
 62
7
  6
CONTINUOUS
 10
203.4080126739
 20
262.2666306187
 11
203.4080126739
 21
261.8708856155
  0
LINE
  5
36D
100
AcDbEntity
  8
0
100
AcDbLine
 62
7
  6
CONTINUOUS
 10
204.2195372987
 20
261.7389707376
 11
204.2195372987
 21
262.2666306187
  0
LINE
  5
36E
100
AcDbEntity
  8
0
100
AcDbLine
 62
7
  6
CONTINUOUS
 10
178.0017808926
 20
259.6283325065
 11
177.8726147186
 21
259.100672995
  0
LINE
  5
36F
100
AcDbEntity
  8
0
100
AcDbLine
 62
7
  6
CONTINUOUS
 10
172.1892816317
 20
258.4410985131
 11
172.4476147186
 21
258.9687581171
  0
LINE
  5
370
100
AcDbEntity
  8
0
100
AcDbLine
 62
7
  6
CONTINUOUS
 10
176.5615779884
 20
331.1110497292
 11
167.4066677276
 21
328.657998918
  0
LINE
  5
371
100
AcDbEntity
  8
0
100
AcDbLine
 62
7
  6
CONTINUOUS
 10
211.7164882492
 20
328.657998918
 11
202.5615779884
 21
331.1110497292
  0
LINE
  5
372
100
AcDbEntity
  8
0
100
AcDbLine
 62
7
  6
CONTINUOUS
 10
219.3679964445
 20
259.4964176287
 11
219.2327428564
 21
260.024077325
  0
LINE
  5
373
100
AcDbEntity
  8
0
100
AcDbLine
 62
7
  6
CONTINUOUS
 10
219.2327428564
 20
262.2666306187
 11
219.0974892682
 21
262.7942901303
  0
LINE
  5
374
100
AcDbEntity
  8
0
100
AcDbLine
 62
7
  6
CONTINUOUS
 10
210.7117342966
 20
262.1347153713
 11
210.5764807084
 21
262.7942901303
  0
LINE
  5
375
100
AcDbEntity
  8
0
100
AcDbLine
 62
7
  6
CONTINUOUS
 10
205.4368242358
 20
261.6070558597
 11
205.4368242358
 21
259.6283325065
  0
LINE
  5
376
100
AcDbEntity
  8
0
100
AcDbLine
 62
7
  6
CONTINUOUS
 10
206.2483488605
 20
259.6283325065
 11
206.2483488605
 21
261.6070558597
  0
LINE
  5
377
100
AcDbEntity
  8
0
100
AcDbLine
 62
7
  6
CONTINUOUS
 10
207.040445472
 20
202.9707610476
 11
207.040445472
 21
202.5111416399
  0
LINE
  5
378
100
AcDbEntity
  8
0
100
AcDbLine
 62
7
  6
CONTINUOUS
 10
208.6829227347
 20
260.9474814702
 11
208.6829227347
 21
260.1559922029
  0
LINE
  5
379
100
AcDbEntity
  8
0
100
AcDbLine
 62
7
  6
CONTINUOUS
 10
209.9002096719
 20
260.1559922029
 11
209.9002096719
 21
259.100672995
  0
LINE
  5
37A
100
AcDbEntity
  8
0
100
AcDbLine
 62
7
  6
CONTINUOUS
 10
210.7117342966
 20
258.9687581171
 11
210.7117342966
 21
260.9474814702
  0
LINE
  5
37B
100
AcDbEntity
  8
KONSTRUKTIONSELEMENTE
100
AcDbLine
 62
7
  6
CONTINUOUS
 10
211.0017272416
 20
233.2845687092
 11
211.0017272416
 21
235.7845687092
  0
LINE
  5
37C
100
AcDbEntity
  8
0
100
AcDbLine
 62
7
  6
CONTINUOUS
 10
211.7937676455
 20
262.7942901303
 11
211.7937676455
 21
261.7389707376
  0
LINE
  5
37D
100
AcDbEntity
  8
0
100
AcDbLine
 62
7
  6
CONTINUOUS
 10
212.6052922703
 20
262.6623752524
 11
212.6052922703
 21
257.5176942755
  0
LINE
  5
37E
100
AcDbEntity
  8
0
100
AcDbLine
 62
7
  6
CONTINUOUS
 10
213.416816895
 20
257.5176942755
 11
213.416816895
 21
263.7176942755
  0
LINE
  5
37F
100
AcDbEntity
  8
0
100
AcDbLine
 62
7
  6
CONTINUOUS
 10
216.662915394
 20
260.9474814702
 11
216.662915394
 21
260.4198219587
  0
LINE
  5
380
100
AcDbEntity
  8
0
100
AcDbLine
 62
7
  6
CONTINUOUS
 10
205.5720785979
 20
262.2666306187
 11
205.4368242358
 21
261.6070558597
  0
LINE
  5
381
100
AcDbEntity
  8
0
100
AcDbLine
 62
7
  6
CONTINUOUS
 10
178.3892808926
 20
258.4410985131
 11
178.6476147186
 21
258.9687581171
  0
LINE
  5
382
100
AcDbEntity
  8
0
100
AcDbLine
 62
7
  6
CONTINUOUS
 10
171.6726147186
 20
259.100672995
 11
171.4142816317
 21
258.7049283613
  0
LINE
  5
383
100
AcDbEntity
  8
0
100
AcDbLine
 62
7
  6
CONTINUOUS
 10
177.8726147186
 20
259.100672995
 11
177.6142808926
 21
258.7049283613
  0
LINE
  5
384
100
AcDbEntity
  8
0
100
AcDbLine
 62
7
  6
CONTINUOUS
 10
166.2476147186
 20
260.8155665923
 11
166.6351147186
 21
261.3432261039
  0
LINE
  5
385
100
AcDbEntity
  8
0
100
AcDbLine
 62
7
  6
CONTINUOUS
 10
165.8601147186
 20
261.4751409818
 11
165.6017812621
 21
261.211311226
  0
LINE
  5
386
100
AcDbEntity
  8
0
100
AcDbLine
 62
7
  6
CONTINUOUS
 10
227.9350081972
 20
312.43947897
 11
211.7164882492
 21
328.657998918
  0
LINE
  5
387
100
AcDbEntity
  8
0
100
AcDbLine
 62
7
  6
CONTINUOUS
 10
218.5564718198
 20
262.2666306187
 11
218.5564718198
 21
262.0028004934
  0
LINE
  5
388
100
AcDbEntity
  8
0
100
AcDbLine
 62
7
  6
CONTINUOUS
 10
218.6917269558
 20
259.4964176287
 11
218.6917269558
 21
258.9687581171
  0
LINE
  5
389
100
AcDbEntity
  8
0
100
AcDbLine
 62
7
  6
CONTINUOUS
 10
219.2327428564
 20
262.0028004934
 11
219.2327428564
 21
262.2666306187
  0
LINE
  5
38A
100
AcDbEntity
  8
0
100
AcDbLine
 62
7
  6
CONTINUOUS
 10
219.3679964445
 20
258.9687581171
 11
219.3679964445
 21
259.4964176287
  0
LINE
  5
38B
100
AcDbEntity
  8
RUNDUNGEN
100
AcDbLine
 62
7
  6
CONTINUOUS
 10
223.5615779884
 20
141.3492334943
 11
223.5615779884
 21
135.3388258543
  0
LINE
  5
38C
100
AcDbEntity
  8
RUNDUNGEN
100
AcDbLine
 62
7
  6
CONTINUOUS
 10
226.5615779884
 20
221.0345687092
 11
226.5615779884
 21
263.7845687092
  0
LINE
  5
38D
100
AcDbEntity
  8
0
100
AcDbLine
 62
7
  6
CONTINUOUS
 10
227.9350081972
 20
251.6458193088
 11
227.9350081972
 21
268.1296584484
  0
LINE
  5
38E
100
AcDbEntity
  8
0
100
AcDbLine
 62
7
  6
CONTINUOUS
 10
206.2483488605
 20
261.6070558597
 11
206.3836032226
 21
262.1347153713
  0
LINE
  5
38F
100
AcDbEntity
  8
0
100
AcDbLine
 62
7
  6
CONTINUOUS
 10
210.5764807084
 20
258.4410985131
 11
210.7117342966
 21
258.9687581171
  0
LINE
  5
390
100
AcDbEntity
  8
0
100
AcDbLine
 62
7
  6
CONTINUOUS
 10
214.7693574203
 20
262.7942901303
 11
214.6341038321
 21
262.2666306187
  0
LINE
  5
391
100
AcDbEntity
  8
0
100
AcDbLine
 62
7
  6
CONTINUOUS
 10
203.4080126739
 20
261.8708856155
 11
203.2727586988
 21
261.4751409818
  0
LINE
  5
392
100
AcDbEntity
  8
0
100
AcDbLine
 62
7
  6
CONTINUOUS
 10
204.0842829366
 20
261.3432261039
 11
204.2195372987
 21
261.7389707376
  0
LINE
  5
393
100
AcDbEntity
  8
0
100
AcDbLine
 62
7
  6
CONTINUOUS
 10
209.9002096719
 20
259.100672995
 11
209.7649553098
 21
258.7049283613
  0
LINE
  5
394
100
AcDbEntity
  8
0
100
AcDbLine
 62
7
  6
CONTINUOUS
 10
171.6726147186
 20
257.9134389554
 11
172.1892816317
 21
258.4410985131
  0
LINE
  5
395
100
AcDbEntity
  8
0
100
AcDbLine
 62
7
  6
CONTINUOUS
 10
177.8726147186
 20
257.9134389554
 11
178.3892808926
 21
258.4410985131
  0
LINE
  5
396
100
AcDbEntity
  8
0
100
AcDbLine
 62
7
  6
CONTINUOUS
 10
233.8713985099
 20
290.2845687092
 11
227.9350081972
 21
312.43947897
  0
LINE
  5
397
100
AcDbEntity
  8
RUNDUNGEN
100
AcDbLine
 62
7
  6
CONTINUOUS
 10
233.5615779884
 20
139.2279131508
 11
233.5615779884
 21
151.325242523
  0
LINE
  5
398
100
AcDbEntity
  8
0
100
AcDbLine
 62
7
  6
CONTINUOUS
 10
227.9350081972
 20
251.6458193088
 11
226.5615779884
 21
243.8567095352
  0
LINE
  5
399
100
AcDbEntity
  8
0
100
AcDbLine
 62
7
  6
CONTINUOUS
 10
219.0974892682
 20
261.4751409818
 11
219.2327428564
 21
262.0028004934
  0
LINE
  5
39A
100
AcDbEntity
  8
0
100
AcDbLine
 62
7
  6
CONTINUOUS
 10
227.9350081972
 20
268.1296584484
 11
233.8713985099
 21
290.2845687092
  0
LINE
  5
39B
100
AcDbEntity
  8
0
100
AcDbLine
 62
7
  6
CONTINUOUS
 10
219.2327428564
 20
258.573013391
 11
219.3679964445
 21
258.9687581171
  0
LINE
  5
39C
100
AcDbEntity
  8
0
100
AcDbLine
 62
7
  6
CONTINUOUS
 10
205.8425865482
 20
262.7942901303
 11
205.5720785979
 21
262.2666306187
  0
LINE
  5
39D
100
AcDbEntity
  8
0
100
AcDbLine
 62
7
  6
CONTINUOUS
 10
218.5564718198
 20
262.0028004934
 11
218.2859646435
 21
261.4751409818
  0
LINE
  5
39E
100
AcDbEntity
  8
0
100
AcDbLine
 62
7
  6
CONTINUOUS
 10
206.3836032226
 20
262.1347153713
 11
206.6541111729
 21
262.5304603745
  0
LINE
  5
39F
100
AcDbEntity
  8
0
100
AcDbLine
 62
7
  6
CONTINUOUS
 10
203.6785210112
 20
260.8155665923
 11
204.0842829366
 21
261.3432261039
  0
LINE
  5
3A0
100
AcDbEntity
  8
0
100
AcDbLine
 62
7
  6
CONTINUOUS
 10
203.2727586988
 20
261.4751409818
 11
203.0022503616
 21
261.211311226
  0
LINE
  5
3A1
100
AcDbEntity
  8
0
100
AcDbLine
 62
7
  6
CONTINUOUS
 10
171.4142816317
 20
258.7049283613
 11
171.0267816317
 21
258.4410985131
  0
LINE
  5
3A2
100
AcDbEntity
  8
0
100
AcDbLine
 62
7
  6
CONTINUOUS
 10
177.6142808926
 20
258.7049283613
 11
177.2267808926
 21
258.4410985131
  0
LINE
  5
3A3
100
AcDbEntity
  8
0
100
AcDbLine
 62
7
  6
CONTINUOUS
 10
165.7309481751
 20
260.5517368366
 11
166.2476147186
 21
260.8155665923
  0
LINE
  5
3A4
100
AcDbEntity
  8
0
100
AcDbLine
 62
7
  6
CONTINUOUS
 10
171.1559478056
 20
257.6496091649
 11
171.6726147186
 21
257.9134389554
  0
LINE
  5
3A5
100
AcDbEntity
  8
0
100
AcDbLine
 62
7
  6
CONTINUOUS
 10
177.3559485447
 20
257.6496091649
 11
177.8726147186
 21
257.9134389554
  0
LINE
  5
3A6
100
AcDbEntity
  8
0
100
AcDbLine
 62
7
  6
CONTINUOUS
 10
165.6017812621
 20
261.211311226
 11
165.2142812621
 21
261.0793963481
  0
LINE
  5
3A7
100
AcDbEntity
  8
RUNDUNGEN
100
AcDbLine
 62
7
  6
CONTINUOUS
 10
247.0740741786
 20
220.0331416011
 11
247.0740741786
 21
223.568675507
  0
LINE
  5
3A8
100
AcDbEntity
  8
0
100
AcDbLine
 62
7
  6
CONTINUOUS
 10
218.6917269558
 20
258.9687581171
 11
218.5564718198
 21
258.7049283613
  0
LINE
  5
3A9
100
AcDbEntity
  8
0
100
AcDbLine
 62
7
  6
CONTINUOUS
 10
215.3103733208
 20
262.2666306187
 11
215.580882045
 21
262.6623752524
  0
LINE
  5
3AA
100
AcDbEntity
  8
0
100
AcDbLine
 62
7
  6
CONTINUOUS
 10
218.826980544
 20
261.0793963481
 11
219.0974892682
 21
261.4751409818
  0
LINE
  5
3AB
100
AcDbEntity
  8
0
100
AcDbLine
 62
7
  6
CONTINUOUS
 10
218.9622341322
 20
258.1772687574
 11
219.2327428564
 21
258.573013391
  0
LINE
  5
3AC
100
AcDbEntity
  8
0
100
AcDbLine
 62
7
  6
CONTINUOUS
 10
212.6052922703
 20
263.7176942755
 11
211.7937676455
 21
262.7942901303
  0
LINE
  5
3AD
100
AcDbEntity
  8
0
100
AcDbLine
 62
7
  6
CONTINUOUS
 10
211.7937676455
 20
261.7389707376
 11
212.6052922703
 21
262.6623752524
  0
LINE
  5
3AE
100
AcDbEntity
  8
0
100
AcDbLine
 62
7
  6
CONTINUOUS
 10
206.3836032226
 20
263.3219496418
 11
205.8425865482
 21
262.7942901303
  0
LINE
  5
3AF
100
AcDbEntity
  8
0
100
AcDbLine
 62
7
  6
CONTINUOUS
 10
215.3103733208
 20
263.3219496418
 11
214.7693574203
 21
262.7942901303
  0
LINE
  5
3B0
100
AcDbEntity
  8
0
100
AcDbLine
 62
7
  6
CONTINUOUS
 10
210.035464034
 20
257.9134389554
 11
210.5764807084
 21
258.4410985131
  0
LINE
  5
3B1
100
AcDbEntity
  8
0
100
AcDbLine
 62
7
  6
CONTINUOUS
 10
218.2859646435
 20
261.4751409818
 11
218.0154559193
 21
261.211311226
  0
LINE
  5
3B2
100
AcDbEntity
  8
0
100
AcDbLine
 62
7
  6
CONTINUOUS
 10
218.5564718198
 20
258.7049283613
 11
218.2859646435
 21
258.4410985131
  0
LINE
  5
3B3
100
AcDbEntity
  8
0
100
AcDbLine
 62
7
  6
CONTINUOUS
 10
206.6541111729
 20
262.5304603745
 11
207.0598734853
 21
262.7942901303
  0
LINE
  5
3B4
100
AcDbEntity
  8
0
100
AcDbLine
 62
7
  6
CONTINUOUS
 10
215.580882045
 20
262.6623752524
 11
215.9866443574
 21
262.9262050082
  0
LINE
  5
3B5
100
AcDbEntity
  8
0
100
AcDbLine
 62
7
  6
CONTINUOUS
 10
209.7649553098
 20
258.7049283613
 11
209.3591929974
 21
258.4410985131
  0
LINE
  5
3B6
100
AcDbEntity
  8
RUNDUNGEN
100
AcDbLine
 62
7
  6
CONTINUOUS
 10
137.8168411912
 20
227.1606101638
 11
136.1785371026
 21
226.3494505884
  0
LINE
  5
3B7
100
AcDbEntity
  8
RUNDUNGEN
100
AcDbLine
 62
7
  6
CONTINUOUS
 10
137.8168411912
 20
223.6250762578
 11
136.1785371026
 21
222.8139166825
  0
LINE
  5
3B8
100
AcDbEntity
  8
0
100
AcDbLine
 62
7
  6
CONTINUOUS
 10
206.9246191232
 20
263.5857793976
 11
206.3836032226
 21
263.3219496418
  0
LINE
  5
3B9
100
AcDbEntity
  8
0
100
AcDbLine
 62
7
  6
CONTINUOUS
 10
203.1375043367
 20
260.5517368366
 11
203.6785210112
 21
260.8155665923
  0
LINE
  5
3BA
100
AcDbEntity
  8
0
100
AcDbLine
 62
7
  6
CONTINUOUS
 10
215.8513907692
 20
263.5857793976
 11
215.3103733208
 21
263.3219496418
  0
LINE
  5
3BB
100
AcDbEntity
  8
0
100
AcDbLine
 62
7
  6
CONTINUOUS
 10
203.0022503616
 20
261.211311226
 11
202.5964880492
 21
261.0793963481
  0
LINE
  5
3BC
100
AcDbEntity
  8
0
100
AcDbLine
 62
7
  6
CONTINUOUS
 10
218.2859646435
 20
260.6836517145
 11
218.826980544
 21
261.0793963481
  0
LINE
  5
3BD
100
AcDbEntity
  8
0
100
AcDbLine
 62
7
  6
CONTINUOUS
 10
218.5564718198
 20
257.9134389554
 11
218.9622341322
 21
258.1772687574
  0
LINE
  5
3BE
100
AcDbEntity
  8
RUNDUNGEN
100
AcDbLine
 62
7
  6
CONTINUOUS
 10
145.2325472669
 20
215.2116999023
 11
140.8910414322
 21
213.0621270276
  0
LINE
  5
3BF
100
AcDbEntity
  8
0
100
AcDbLine
 62
7
  6
CONTINUOUS
 10
209.4944473595
 20
257.6496091649
 11
210.035464034
 21
257.9134389554
  0
LINE
  5
3C0
100
AcDbEntity
  8
0
100
AcDbLine
 62
7
  6
CONTINUOUS
 10
218.2859646435
 20
258.4410985131
 11
218.0154559193
 21
258.3091836352
  0
LINE
  5
3C1
100
AcDbEntity
  8
0
100
AcDbLine
 62
7
  6
CONTINUOUS
 10
218.0154559193
 20
257.6496091649
 11
218.5564718198
 21
257.9134389554
  0
LINE
  5
3C2
100
AcDbEntity
  8
0
100
AcDbLine
 62
7
  6
CONTINUOUS
 10
218.0154559193
 20
261.211311226
 11
217.2039312945
 21
260.9474814702
  0
LINE
  5
3C3
100
AcDbEntity
  8
RUNDUNGEN
100
AcDbLine
 62
7
  6
CONTINUOUS
 10
226.5615779884
 20
221.0345687092
 11
220.5615779884
 21
211.2845687092
  0
LINE
  5
3C4
100
AcDbEntity
  8
RUNDUNGEN
100
AcDbLine
 62
7
  6
CONTINUOUS
 10
165.659057445
 20
172.9584447308
 11
146.6466657227
 21
153.7587212491
  0
LINE
  5
3C5
100
AcDbEntity
  8
RUNDUNGEN
100
AcDbLine
 62
7
  6
CONTINUOUS
 10
165.659057445
 20
169.4229108249
 11
146.6466657227
 21
150.2231873431
  0
LINE
  5
3C6
100
AcDbEntity
  8
RUNDUNGEN
100
AcDbLine
 62
7
  6
CONTINUOUS
 10
148.0033892429
 20
209.4152341634
 11
152.3448950776
 21
211.564807038
  0
LINE
  5
3C7
100
AcDbEntity
  8
RUNDUNGEN
100
AcDbLine
 62
7
  6
CONTINUOUS
 10
148.0033892429
 20
205.8797002574
 11
152.3448950776
 21
208.0292731321
  0
LINE
  5
3C8
100
AcDbEntity
  8
RUNDUNGEN
100
AcDbLine
 62
7
  6
CONTINUOUS
 10
226.2640097116
 20
217.3944245784
 11
236.554892918
 21
227.7867052988
  0
LINE
  5
3C9
100
AcDbEntity
  8
RUNDUNGEN
100
AcDbLine
 62
7
  6
CONTINUOUS
 10
226.2640097116
 20
213.8588906724
 11
236.554892918
 21
224.2511713929
  0
LINE
  5
3CA
100
AcDbEntity
  8
RUNDUNGEN
100
AcDbLine
 62
7
  6
CONTINUOUS
 10
175.7414820644
 20
147.5517996393
 11
183.0083616341
 21
154.8902807915
  0
LINE
  5
3CB
100
AcDbEntity
  8
RUNDUNGEN
100
AcDbLine
 62
7
  6
CONTINUOUS
 10
213.4640985317
 20
185.6461023318
 11
246.7123782672
 21
219.2219820258
  0
ARC
  5
3CC
100
AcDbEntity
  8
KONSTRUKTIONSELEMENTE
100
AcDbCircle
 62
7
  6
CONTINUOUS
 10
475.1397183539
 20
223.0554220604
 40
9.55
100
AcDbArc
 50
135.0
 51
209.8048644765
  0
ARC
  5
3CD
100
AcDbEntity
  8
KONSTRUKTIONSELEMENTE
100
AcDbCircle
 62
7
  6
CONTINUOUS
 10
475.1397183539
 20
223.0554220604
 40
9.55
100
AcDbArc
 50
240.1951355235
 51
315.0
  0
ARC
  5
3CE
100
AcDbEntity
  8
KONSTRUKTIONSELEMENTE
100
AcDbCircle
 62
7
  6
CONTINUOUS
 10
483.55428905
 20
231.4699927566
 40
9.55
100
AcDbArc
 50
315.0
 51
31.3702929546
  0
ARC
  5
3CF
100
AcDbEntity
  8
KONSTRUKTIONSELEMENTE
100
AcDbCircle
 62
7
  6
CONTINUOUS
 10
483.55428905
 20
231.4699927566
 40
9.55
100
AcDbArc
 50
58.6297070454
 51
135.0
  0
ARC
  5
3D0
100
AcDbEntity
  8
KONSTRUKTIONSELEMENTE
100
AcDbCircle
 62
7
  6
CONTINUOUS
 10
475.1397183539
 20
223.0554220604
 40
4.55
100
AcDbArc
 50
135.0
 51
191.6416672297
  0
ARC
  5
3D1
100
AcDbEntity
  8
KONSTRUKTIONSELEMENTE
100
AcDbCircle
 62
7
  6
CONTINUOUS
 10
475.1397183539
 20
223.0554220604
 40
4.55
100
AcDbArc
 50
258.3583327703
 51
315.0
  0
ARC
  5
3D2
100
AcDbEntity
  8
KONSTRUKTIONSELEMENTE
100
AcDbCircle
 62
7
  6
CONTINUOUS
 10
483.55428905
 20
231.4699927566
 40
4.55
100
AcDbArc
 50
315.0
 51
15.3477978528
  0
ARC
  5
3D3
100
AcDbEntity
  8
KONSTRUKTIONSELEMENTE
100
AcDbCircle
 62
7
  6
CONTINUOUS
 10
483.55428905
 20
231.4699927566
 40
4.55
100
AcDbArc
 50
74.6522021471
 51
135.0
  0
ARC
  5
3D4
100
AcDbEntity
  8
KONSTRUKTIONSELEMENTE
100
AcDbCircle
 62
7
  6
CONTINUOUS
 10
484.8270812562
 20
232.7427849627
 40
2.25
100
AcDbArc
 50
135.0
 51
315.0
  0
ARC
  5
3D5
100
AcDbEntity
  8
KONSTRUKTIONSELEMENTE
100
AcDbCircle
 62
7
  6
CONTINUOUS
 10
504.4492944341
 20
252.3649981406
 40
8.0
100
AcDbArc
 50
135.0
 51
208.6357041722
  0
ARC
  5
3D6
100
AcDbEntity
  8
KONSTRUKTIONSELEMENTE
100
AcDbCircle
 62
7
  6
CONTINUOUS
 10
504.4492944341
 20
252.3649981406
 40
8.0
100
AcDbArc
 50
241.3642958278
 51
315.0
  0
ARC
  5
3D7
100
AcDbEntity
  8
KONSTRUKTIONSELEMENTE
100
AcDbCircle
 62
7
  6
CONTINUOUS
 10
515.0558961519
 20
262.9715998584
 40
8.0
100
AcDbArc
 50
315.0
 51
28.6357041722
  0
ARC
  5
3D8
100
AcDbEntity
  8
KONSTRUKTIONSELEMENTE
100
AcDbCircle
 62
7
  6
CONTINUOUS
 10
515.0558961519
 20
262.9715998584
 40
8.0
100
AcDbArc
 50
61.3642958278
 51
135.0
  0
ARC
  5
3D9
100
AcDbEntity
  8
KONSTRUKTIONSELEMENTE
100
AcDbCircle
 62
7
  6
CONTINUOUS
 10
504.4492944341
 20
252.3649981406
 40
3.5
100
AcDbArc
 50
135.0
 51
184.8461224921
  0
ARC
  5
3DA
100
AcDbEntity
  8
KONSTRUKTIONSELEMENTE
100
AcDbCircle
 62
7
  6
CONTINUOUS
 10
504.4492944341
 20
252.3649981406
 40
3.5
100
AcDbArc
 50
265.1538775079
 51
315.0
  0
ARC
  5
3DB
100
AcDbEntity
  8
KONSTRUKTIONSELEMENTE
100
AcDbCircle
 62
7
  6
CONTINUOUS
 10
515.0558961519
 20
262.9715998584
 40
3.5
100
AcDbArc
 50
315.0
 51
4.8461224921
  0
ARC
  5
3DC
100
AcDbEntity
  8
KONSTRUKTIONSELEMENTE
100
AcDbCircle
 62
7
  6
CONTINUOUS
 10
515.0558961519
 20
262.9715998584
 40
3.5
100
AcDbArc
 50
85.1538775079
 51
135.0
  0
ARC
  5
3DD
100
AcDbEntity
  8
KONSTRUKTIONSELEMENTE
100
AcDbCircle
 62
7
  6
CONTINUOUS
 10
515.9397796284
 20
263.8554833349
 40
2.25
100
AcDbArc
 50
135.0
 51
315.0
  0
ARC
  5
3DE
100
AcDbEntity
  8
KONSTRUKTIONSELEMENTE
100
AcDbCircle
 62
7
  6
CONTINUOUS
 10
503.5654109576
 20
251.4811146641
 40
2.25
100
AcDbArc
 50
315.0
 51
135.0
  0
ARC
  5
3DF
100
AcDbEntity
  8
0
100
AcDbCircle
 62
7
  6
CONTINUOUS
 10
516.1797571914
 20
278.9311377754
 40
98.6761507302
100
AcDbArc
 50
2.2609779608
 51
6.6069414076
  0
ARC
  5
3E0
100
AcDbEntity
  8
KONSTRUKTIONSELEMENTE
100
AcDbCircle
 62
7
  6
CONTINUOUS
 10
536.3044549265
 20
284.2201586331
 40
9.55
100
AcDbArc
 50
135.0
 51
211.3702929546
  0
ARC
  5
3E1
100
AcDbEntity
  8
KONSTRUKTIONSELEMENTE
100
AcDbCircle
 62
7
  6
CONTINUOUS
 10
536.3044549265
 20
284.2201586331
 40
9.55
100
AcDbArc
 50
238.6297070454
 51
315.0
  0
ARC
  5
3E2
100
AcDbEntity
  8
KONSTRUKTIONSELEMENTE
100
AcDbCircle
 62
7
  6
CONTINUOUS
 10
544.7190256227
 20
292.6347293292
 40
9.55
100
AcDbArc
 50
315.0
 51
23.4834236623
  0
ARC
  5
3E3
100
AcDbEntity
  8
KONSTRUKTIONSELEMENTE
100
AcDbCircle
 62
7
  6
CONTINUOUS
 10
544.7190256227
 20
292.6347293292
 40
9.55
100
AcDbArc
 50
66.5165763377
 51
135.0
  0
ARC
  5
3E4
100
AcDbEntity
  8
KONSTRUKTIONSELEMENTE
100
AcDbCircle
 62
7
  6
CONTINUOUS
 10
536.3044549265
 20
284.2201586331
 40
4.55
100
AcDbArc
 50
135.0
 51
195.3477978529
  0
ARC
  5
3E5
100
AcDbEntity
  8
KONSTRUKTIONSELEMENTE
100
AcDbCircle
 62
7
  6
CONTINUOUS
 10
536.3044549265
 20
284.2201586331
 40
4.55
100
AcDbArc
 50
254.6522021471
 51
315.0
  0
ARC
  5
3E6
100
AcDbEntity
  8
KONSTRUKTIONSELEMENTE
100
AcDbCircle
 62
7
  6
CONTINUOUS
 10
544.7190256227
 20
292.6347293292
 40
4.55
100
AcDbArc
 50
315.0
 51
354.6813067117
  0
ARC
  5
3E7
100
AcDbEntity
  8
KONSTRUKTIONSELEMENTE
100
AcDbCircle
 62
7
  6
CONTINUOUS
 10
544.7190256227
 20
292.6347293292
 40
4.55
100
AcDbArc
 50
95.3186932883
 51
135.0
  0
ARC
  5
3E8
100
AcDbEntity
  8
KONSTRUKTIONSELEMENTE
100
AcDbCircle
 62
7
  6
CONTINUOUS
 10
577.9883996775
 20
325.904103384
 40
3.5
100
AcDbArc
 50
315.0
 51
135.0
  0
ARC
  5
3E9
100
AcDbEntity
  8
KONSTRUKTIONSELEMENTE
100
AcDbCircle
 62
7
  6
CONTINUOUS
 10
544.7543809617
 20
292.6700846683
 40
3.5
100
AcDbArc
 50
135.0
 51
315.0
  0
ARC
  5
3EA
100
AcDbEntity
  8
KONSTRUKTIONSELEMENTE
100
AcDbCircle
 62
7
  6
CONTINUOUS
 10
534.6781093298
 20
282.5938130364
 40
2.25
100
AcDbArc
 50
315.0
 51
135.0
  0
ARC
  5
3EB
100
AcDbEntity
  8
0
100
AcDbCircle
 62
7
  6
CONTINUOUS
 10
705.5579728139
 20
278.9311377754
 40
98.6761507302
100
AcDbArc
 50
173.3930585924
 51
177.7390220392
  0
ARC
  5
3EC
100
AcDbEntity
  8
0
100
AcDbCircle
 62
7
  6
CONTINUOUS
 10
609.5688650027
 20
229.4845687092
 40
18.2
100
AcDbArc
 50
180.0
 51
270.0
  0
ARC
  5
3ED
100
AcDbEntity
  8
RUNDUNGEN
100
AcDbCircle
 62
7
  6
CONTINUOUS
 10
612.1688650027
 20
229.4845687092
 40
18.2
100
AcDbArc
 50
270.0
 51
360.0
  0
ARC
  5
3EE
100
AcDbEntity
  8
RUNDUNGEN
100
AcDbCircle
 62
7
  6
CONTINUOUS
 10
612.1692660809
 20
229.4463698901
 40
18.1618011854
100
AcDbArc
 50
269.9987258299
 51
273.5541637674
  0
ARC
  5
3EF
100
AcDbEntity
  8
RUNDUNGEN
100
AcDbCircle
 62
7
  6
CONTINUOUS
 10
612.1744847411
 20
229.3519977392
 40
18.0672870418
100
AcDbArc
 50
273.5561987662
 51
274.0823722751
  0
ARC
  5
3F0
100
AcDbEntity
  8
RUNDUNGEN
100
AcDbCircle
 62
7
  6
CONTINUOUS
 10
612.186591973
 20
229.1993459119
 40
17.9141606531
100
AcDbArc
 50
274.0785050125
 51
277.0820430932
  0
ARC
  5
3F1
100
AcDbEntity
  8
RUNDUNGEN
100
AcDbCircle
 62
7
  6
CONTINUOUS
 10
612.2106029232
 20
228.9954278149
 40
17.7088380507
100
AcDbArc
 50
277.0862924982
 51
277.6817854216
  0
ARC
  5
3F2
100
AcDbEntity
  8
BEZUGSACHSEN
100
AcDbCircle
 62
7
  6
CONTINUOUS
 10
610.8688650027
 20
318.2845687092
 40
9.5
100
AcDbArc
 50
0.0
 51
23.2527041394
  0
ARC
  5
3F3
100
AcDbEntity
  8
BEZUGSACHSEN
100
AcDbCircle
 62
7
  6
CONTINUOUS
 10
610.8688650027
 20
318.2845687092
 40
9.5
100
AcDbArc
 50
156.7472958606
 51
180.0
  0
CIRCLE
  5
3F4
100
AcDbEntity
  8
BEZUGSACHSEN
100
AcDbCircle
 62
7
  6
CONTINUOUS
 10
610.8688650027
 20
232.6845687092
 40
9.25
  0
ARC
  5
3F5
100
AcDbEntity
  8
0
100
AcDbCircle
 62
7
  6
CONTINUOUS
 10
602.8688650027
 20
265.7845687092
 40
6.0
100
AcDbArc
 50
96.8529514418
 51
179.9997541295
  0
ARC
  5
3F6
100
AcDbEntity
  8
RUNDUNGEN
100
AcDbCircle
 62
7
  6
CONTINUOUS
 10
618.8688650027
 20
265.7845687092
 40
6.0
100
AcDbArc
 50
0.0002458705
 51
83.1470485582
  0
ARC
  5
3F7
100
AcDbEntity
  8
0
100
AcDbCircle
 62
7
  6
CONTINUOUS
 10
610.8688650027
 20
358.7845687092
 40
76.0
100
AcDbArc
 50
277.1825907104
 51
360.0
  0
ARC
  5
3F8
100
AcDbEntity
  8
0
100
AcDbCircle
 62
7
  6
CONTINUOUS
 10
610.8688650027
 20
358.7845687092
 40
76.0
100
AcDbArc
 50
227.6403165894
 51
262.8174092896
  0
ARC
  5
3F9
100
AcDbEntity
  8
0
100
AcDbCircle
 62
7
  6
CONTINUOUS
 10
610.8688650027
 20
358.7845687092
 40
76.0
100
AcDbArc
 50
180.0
 51
222.3596834106
  0
ARC
  5
3FA
100
AcDbEntity
  8
0
100
AcDbCircle
 62
7
  6
CONTINUOUS
 10
610.8688650027
 20
438.7845687092
 40
76.0
100
AcDbArc
 50
0.0
 51
180.0
  0
ARC
  5
3FB
100
AcDbEntity
  8
0
100
AcDbCircle
 62
7
  6
CONTINUOUS
 10
610.8688650027
 20
358.7845687092
 40
50.0
100
AcDbArc
 50
280.9529989334
 51
360.0
  0
ARC
  5
3FC
100
AcDbEntity
  8
0
100
AcDbCircle
 62
7
  6
CONTINUOUS
 10
610.8688650027
 20
358.7845687092
 40
50.0
100
AcDbArc
 50
229.0140852861
 51
259.0470010666
  0
ARC
  5
3FD
100
AcDbEntity
  8
0
100
AcDbCircle
 62
7
  6
CONTINUOUS
 10
610.8688650027
 20
358.7845687092
 40
50.0
100
AcDbArc
 50
180.0
 51
220.9859147139
  0
ARC
  5
3FE
100
AcDbEntity
  8
0
100
AcDbCircle
 62
7
  6
CONTINUOUS
 10
610.8688650027
 20
438.7845687092
 40
50.0
100
AcDbArc
 50
0.0
 51
180.0
  0
ARC
  5
3FF
100
AcDbEntity
  8
KONSTRUKTIONSELEMENTE
100
AcDbCircle
 62
7
  6
CONTINUOUS
 10
189.5615779884
 20
172.1845687092
 40
46.8
100
AcDbArc
 50
56.6553646926
 51
80.9022287256
  0
ARC
  5
400
100
AcDbEntity
  8
KONSTRUKTIONSELEMENTE
100
AcDbCircle
 62
7
  6
CONTINUOUS
 10
189.5615779884
 20
172.1845687092
 40
46.8
100
AcDbArc
 50
99.0977712744
 51
123.3446353074
  0
ARC
  5
401
100
AcDbEntity
  8
BEZUGSACHSEN
100
AcDbCircle
 62
7
  6
CONTINUOUS
 10
189.5615779884
 20
290.2845687092
 40
18.5
100
AcDbArc
 50
134.6562818467
 51
45.3437181533
  0
ARC
  5
402
100
AcDbEntity
  8
0
100
AcDbCircle
 62
7
  6
CONTINUOUS
 10
189.5615779884
 20
501.7845687092
 40
13.0
100
AcDbArc
 50
0.0
 51
180.0
  0
ARC
  5
403
100
AcDbEntity
  8
0
100
AcDbCircle
 62
7
  6
CONTINUOUS
 10
189.5615779884
 20
295.7845687092
 40
13.0
100
AcDbArc
 50
180.0
 51
360.0
  0
ARC
  5
404
100
AcDbEntity
  8
RUNDUNGEN
100
AcDbCircle
 62
7
  6
CONTINUOUS
 10
160.5615779884
 20
263.7845687092
 40
8.0
100
AcDbArc
 50
102.037384222
 51
180.0
  0
ARC
  5
405
100
AcDbEntity
  8
RUNDUNGEN
100
AcDbCircle
 62
7
  6
CONTINUOUS
 10
218.5615779884
 20
263.7845687092
 40
8.0
100
AcDbArc
 50
0.0
 51
77.962615778
  0
ARC
  5
406
100
AcDbEntity
  8
KONSTRUKTIONSELEMENTE
100
AcDbCircle
 62
7
  6
CONTINUOUS
 10
189.5615779884
 20
250.4845687092
 40
7.4
100
AcDbArc
 50
0.0000004677
 51
180.0
  0
ARC
  5
407
100
AcDbEntity
  8
RUNDUNGEN
100
AcDbCircle
 62
7
  6
CONTINUOUS
 10
160.2355890462
 20
265.3019305814
 40
6.4480177704
100
AcDbArc
 50
87.1020929239
 51
102.0162769368
  0
ARC
  5
408
100
AcDbEntity
  8
RUNDUNGEN
100
AcDbCircle
 62
7
  6
CONTINUOUS
 10
218.8875679285
 20
265.3019407537
 40
6.4480076132
100
AcDbArc
 50
77.9837129179
 51
92.8957968452
  0
ARC
  5
409
100
AcDbEntity
  8
RUNDUNGEN
100
AcDbCircle
 62
7
  6
CONTINUOUS
 10
150.8681123603
 20
214.5533127498
 40
3.3334747012
100
AcDbArc
 50
296.2964744358
 51
302.2123623221
  0
CIRCLE
  5
40A
100
AcDbEntity
  8
BEZUGSACHSEN
100
AcDbCircle
 62
7
  6
CONTINUOUS
 10
164.9615779884
 20
232.6845687092
 40
3.0
  0
ARC
  5
40B
100
AcDbEntity
  8
0
100
AcDbCircle
 62
7
  6
CONTINUOUS
 10
205.7631956161
 20
202.9558500795
 40
2.7679754318
100
AcDbArc
 50
350.5636876715
 51
355.3957076166
  0
ARC
  5
40C
100
AcDbEntity
  8
KONSTRUKTIONSELEMENTE
100
AcDbCircle
 62
7
  6
CONTINUOUS
 10
189.5615779884
 20
216.0054220604
 40
2.5
100
AcDbArc
 50
180.0
 51
360.0
  0
ARC
  5
40D
100
AcDbEntity
  8
KONSTRUKTIONSELEMENTE
100
AcDbCircle
 62
7
  6
CONTINUOUS
 10
189.5615779884
 20
277.1701586331
 40
2.5
100
AcDbArc
 50
180.0
 51
360.0
  0
ARC
  5
40E
100
AcDbEntity
  8
KONSTRUKTIONSELEMENTE
100
AcDbCircle
 62
7
  6
CONTINUOUS
 10
189.5615779884
 20
246.6149981406
 40
2.25
100
AcDbArc
 50
180.0
 51
360.0
  0
ARC
  5
40F
100
AcDbEntity
  8
0
100
AcDbCircle
 62
7
  6
CONTINUOUS
 10
175.4728393008
 20
202.1345570022
 40
0.5420477023
100
AcDbArc
 50
78.8903114984
 51
89.9692795104
  0
SPLINE
  5
410
100
AcDbEntity
  8
0
100
AcDbSpline
 62
7
  6
CONTINUOUS
 70
0
 71
3
 72
11
 73
7
 74
0
 42
0.0000001
 43
0.0000001
 44
0.0000000001
 40
0.0
 40
0.0
 40
0.0
 40
0.0
 40
0.2551771482
 40
0.5000000006
 40
0.7448228526
 40
1.0
 40
1.0
 40
1.0
 40
1.0
 10
607.5371468178
 20
334.5943892308
 30
0.0
 10
607.3320172654
 20
334.1169993898
 30
0.0
 10
607.0053930691
 20
333.1452388979
 30
0.0
 10
606.8311415563
 20
331.6261940713
 30
0.0
 10
607.0053930715
 20
330.107149247
 30
0.0
 10
607.3320172661
 20
329.1353887573
 30
0.0
 10
607.5371468178
 20
328.657998918
 30
0.0
  0
SPLINE
  5
411
100
AcDbEntity
  8
0
100
AcDbSpline
 62
7
  6
CONTINUOUS
 70
0
 71
3
 72
11
 73
7
 74
0
 42
0.0000001
 43
0.0000001
 44
0.0000000001
 40
0.0
 40
0.0
 40
0.0
 40
0.0
 40
0.2551771482
 40
0.5000000006
 40
0.7448228526
 40
1.0
 40
1.0
 40
1.0
 40
1.0
 10
614.2005831876
 20
334.5943892308
 30
0.0
 10
614.40571274
 20
334.1169993898
 30
0.0
 10
614.7323369362
 20
333.1452388979
 30
0.0
 10
614.906588449
 20
331.6261940713
 30
0.0
 10
614.7323369338
 20
330.107149247
 30
0.0
 10
614.4057127393
 20
329.1353887573
 30
0.0
 10
614.2005831876
 20
328.657998918
 30
0.0
  0
SPLINE
  5
412
100
AcDbEntity
  8
0
100
AcDbSpline
 62
7
  6
CONTINUOUS
 70
0
 71
3
 72
9
 73
5
 74
0
 42
0.0000001
 43
0.0000001
 44
0.0000000001
 40
0.0
 40
0.0
 40
0.0
 40
0.0
 40
0.5000000006
 40
1.0
 40
1.0
 40
1.0
 40
1.0
 10
614.2005831876
 20
312.43947897
 30
0.0
 10
614.62365112
 20
308.7649422137
 30
0.0
 10
615.0749730295
 20
301.362023835
 30
0.0
 10
614.6236511189
 20
293.9591054564
 30
0.0
 10
614.2005831876
 20
290.2845687092
 30
0.0
  0
SPLINE
  5
413
100
AcDbEntity
  8
0
100
AcDbSpline
 62
7
  6
CONTINUOUS
 70
0
 71
3
 72
9
 73
5
 74
0
 42
0.0000001
 43
0.0000001
 44
0.0000000001
 40
0.0
 40
0.0
 40
0.0
 40
0.0
 40
0.5000000006
 40
1.0
 40
1.0
 40
1.0
 40
1.0
 10
614.2005831876
 20
328.657998918
 30
0.0
 10
614.6218967955
 20
325.9792056521
 30
0.0
 10
615.076727354
 20
320.5487389406
 30
0.0
 10
614.6218967944
 20
315.1182722293
 30
0.0
 10
614.2005831876
 20
312.43947897
 30
0.0
  0
SPLINE
  5
414
100
AcDbEntity
  8
RUNDUNGEN
100
AcDbSpline
 62
7
  6
CONTINUOUS
 70
0
 71
3
 72
20
 73
16
 74
0
 42
0.0000001
 43
0.0000001
 44
0.0000000001
 40
0.0
 40
0.0
 40
0.0
 40
0.0
 40
0.1327969968
 40
0.2637953994
 40
0.3919635724
 40
0.5161553332
 40
0.5765457972
 40
0.6356176948
 40
0.6934275994
 40
0.750392179
 40
0.8078064833
 40
0.8376883162
 40
0.8686705638
 40
0.933348673
 40
1.0
 40
1.0
 40
1.0
 40
1.0
 10
614.5777635072
 20
211.4455134026
 30
0.0
 10
615.3364286853
 20
211.5478464398
 30
0.0
 10
616.8323771457
 20
211.8492786622
 30
0.0
 10
618.9709613132
 20
212.6037137642
 30
0.0
 10
620.9209912477
 20
213.6648844245
 30
0.0
 10
622.3237206558
 20
214.8239706223
 30
0.0
 10
623.218514458
 20
215.9121413732
 30
0.0
 10
623.7417337741
 20
216.7957340885
 30
0.0
 10
624.0808065831
 20
217.7471074355
 30
0.0
 10
624.1730260886
 20
218.7491319496
 30
0.0
 10
623.9503693993
 20
219.5774236915
 30
0.0
 10
623.5569351579
 20
220.1418790938
 30
0.0
 10
623.0084876816
 20
220.6246964528
 30
0.0
 10
622.113272138
 20
220.9767086536
 30
0.0
 10
621.3529482872
 20
221.0345687092
 30
0.0
 10
620.9687229561
 20
221.0345687092
 30
0.0
  0
LINE
  5
415
100
AcDbEntity
  8
0
100
AcDbLine
 62
7
  6
CONTINUOUS
 10
602.8688650027
 20
253.247590013
 11
596.8688650027
 21
255.1393827463
  0
SPLINE
  5
416
100
AcDbEntity
  8
0
100
AcDbSpline
 62
7
  6
CONTINUOUS
 70
0
 71
3
 72
9
 73
5
 74
0
 42
0.0000001
 43
0.0000001
 44
0.0000000001
 40
0.0
 40
0.0
 40
0.0
 40
0.0
 40
0.4841561799
 40
1.0
 40
1.0
 40
1.0
 40
1.0
 10
602.1529354417
 20
271.7417026563
 30
0.0
 10
602.2708507097
 20
271.755873737
 30
0.0
 10
602.5204434499
 20
271.7463278715
 30
0.0
 10
602.7550415919
 20
271.6639417024
 30
0.0
 10
602.8688650027
 20
271.6086625874
 30
0.0
  0
LINE
  5
417
100
AcDbEntity
  8
0
100
AcDbLine
 62
7
  6
CONTINUOUS
 10
591.3688650027
 20
247.2845687092
 11
597.3688650027
 21
245.3927759759
  0
SPLINE
  5
418
100
AcDbEntity
  8
0
100
AcDbSpline
 62
7
  6
CONTINUOUS
 70
0
 71
3
 72
9
 73
5
 74
0
 42
0.0000001
 43
0.0000001
 44
0.0000000001
 40
0.0
 40
0.0
 40
0.0
 40
0.0
 40
0.5000000006
 40
1.0
 40
1.0
 40
1.0
 40
1.0
 10
607.5371468178
 20
312.43947897
 30
0.0
 10
607.1140788853
 20
308.7649422137
 30
0.0
 10
606.6627569758
 20
301.362023835
 30
0.0
 10
607.1140788864
 20
293.9591054564
 30
0.0
 10
607.5371468178
 20
290.2845687092
 30
0.0
  0
SPLINE
  5
419
100
AcDbEntity
  8
0
100
AcDbSpline
 62
7
  6
CONTINUOUS
 70
0
 71
3
 72
9
 73
5
 74
0
 42
0.0000001
 43
0.0000001
 44
0.0000000001
 40
0.0
 40
0.0
 40
0.0
 40
0.0
 40
0.5000000006
 40
1.0
 40
1.0
 40
1.0
 40
1.0
 10
607.5371468178
 20
328.657998918
 30
0.0
 10
607.1158332099
 20
325.9792056521
 30
0.0
 10
606.6610026513
 20
320.5487389406
 30
0.0
 10
607.1158332109
 20
315.1182722293
 30
0.0
 10
607.5371468178
 20
312.43947897
 30
0.0
  0
LINE
  5
41A
100
AcDbEntity
  8
RUNDUNGEN
100
AcDbLine
 62
7
  6
CONTINUOUS
 10
618.8688650027
 20
253.247590013
 11
624.8688650027
 21
255.1393827463
  0
SPLINE
  5
41B
100
AcDbEntity
  8
RUNDUNGEN
100
AcDbSpline
 62
7
  6
CONTINUOUS
 70
0
 71
3
 72
9
 73
5
 74
0
 42
0.0000001
 43
0.0000001
 44
0.0000000001
 40
0.0
 40
0.0
 40
0.0
 40
0.0
 40
0.4841561799
 40
1.0
 40
1.0
 40
1.0
 40
1.0
 10
619.5847945637
 20
271.7417026563
 30
0.0
 10
619.4668792956
 20
271.755873737
 30
0.0
 10
619.2172865554
 20
271.7463278715
 30
0.0
 10
618.9826884134
 20
271.6639417024
 30
0.0
 10
618.8688650027
 20
271.6086625874
 30
0.0
  0
LINE
  5
41C
100
AcDbEntity
  8
RUNDUNGEN
100
AcDbLine
 62
7
  6
CONTINUOUS
 10
630.3688650027
 20
247.2845687092
 11
624.3688650027
 21
245.3927759759
  0
SPLINE
  5
41D
100
AcDbEntity
  8
0
100
AcDbSpline
 62
7
  6
CONTINUOUS
 70
0
 71
3
 72
21
 73
17
 74
0
 42
0.0000001
 43
0.0000001
 44
0.0000000001
 40
0.0
 40
0.0
 40
0.0
 40
0.0
 40
0.1325740715
 40
0.2640572351
 40
0.3932759946
 40
0.5188651803
 40
0.5799690684
 40
0.6396655978
 40
0.6978762943
 40
0.7547602881
 40
0.8112030662
 40
0.8402163417
 40
0.8702721233
 40
0.901608802
 40
0.9340004899
 40
1.0
 40
1.0
 40
1.0
 40
1.0
 10
609.568867815
 20
211.2845687092
 30
0.0
 10
608.69788785
 20
211.2845685746
 30
0.0
 10
606.9604724126
 20
211.4087355768
 30
0.0
 10
604.4287000923
 20
211.9718192398
 30
0.0
 10
602.0614700222
 20
212.918892251
 30
0.0
 10
600.2995840822
 20
214.0501386943
 30
0.0
 10
599.1189341166
 20
215.1640627041
 30
0.0
 10
598.3873418775
 20
216.0914066666
 30
0.0
 10
597.8467482025
 20
217.1136390547
 30
0.0
 10
597.5624275203
 20
218.2175771265
 30
0.0
 10
597.6426734625
 20
219.1779839732
 30
0.0
 10
597.9686598746
 20
219.8722068118
 30
0.0
 10
598.3597082571
 20
220.3293003925
 30
0.0
 10
598.8767485787
 20
220.6770005503
 30
0.0
 10
599.680745671
 20
220.9769218141
 30
0.0
 10
600.3354060415
 20
221.0345687092
 30
0.0
 10
600.7690070493
 20
221.0345687092
 30
0.0
  0
SPLINE
  5
41E
100
AcDbEntity
  8
KONSTRUKTIONSELEMENTE
100
AcDbSpline
 62
7
  6
CONTINUOUS
 70
0
 71
3
 72
11
 73
7
 74
0
 42
0.0000001
 43
0.0000001
 44
0.0000000001
 40
0.0
 40
0.0
 40
0.0
 40
0.0
 40
0.2390759488
 40
0.4845199689
 40
0.7382329877
 40
1.0
 40
1.0
 40
1.0
 40
1.0
 10
182.1511897767
 20
249.8222224337
 30
0.0
 10
182.3874174461
 20
250.2843973815
 30
0.0
 10
182.9992251008
 20
251.157591994
 30
0.0
 10
184.2208783469
 20
252.2153956337
 30
0.0
 10
185.6803691909
 20
253.0124136551
 30
0.0
 10
186.7532276909
 20
253.355332957
 30
0.0
 10
187.3074656679
 20
253.481016793
 30
0.0
  0
SPLINE
  5
41F
100
AcDbEntity
  8
KONSTRUKTIONSELEMENTE
100
AcDbSpline
 62
7
  6
CONTINUOUS
 70
0
 71
3
 72
11
 73
7
 74
0
 42
0.0000001
 43
0.0000001
 44
0.0000000001
 40
0.0
 40
0.0
 40
0.0
 40
0.0
 40
0.2617931805
 40
0.5155111137
 40
0.7609431338
 40
1.0
 40
1.0
 40
1.0
 40
1.0
 10
191.8137487672
 20
253.4814480053
 30
0.0
 10
192.3682951153
 20
253.3557866069
 30
0.0
 10
193.4417403275
 20
253.0129247388
 30
0.0
 10
194.9019785046
 20
252.2156845911
 30
0.0
 10
196.1240608046
 20
251.1574320931
 30
0.0
 10
196.7361176266
 20
250.2839349443
 30
0.0
 10
196.9723597242
 20
249.8215688387
 30
0.0
  0
SPLINE
  5
420
100
AcDbEntity
  8
KONSTRUKTIONSELEMENTE
100
AcDbSpline
 62
7
  6
CONTINUOUS
 70
0
 71
3
 72
10
 73
6
 74
0
 42
0.0000001
 43
0.0000001
 44
0.0000000001
 40
0.0
 40
0.0
 40
0.0
 40
0.0
 40
0.3116645009
 40
0.6060899939
 40
1.0
 40
1.0
 40
1.0
 40
1.0
 10
186.0615779884
 20
247.4152506723
 30
0.0
 10
186.0615779884
 20
247.6124055188
 30
0.0
 10
186.2491065449
 20
247.9837317134
 30
0.0
 10
186.7064258146
 20
248.4176048032
 30
0.0
 10
187.0848271268
 20
248.6450148366
 30
0.0
 10
187.3095861001
 20
248.7526029676
 30
0.0
  0
SPLINE
  5
421
100
AcDbEntity
  8
KONSTRUKTIONSELEMENTE
100
AcDbSpline
 62
7
  6
CONTINUOUS
 70
0
 71
3
 72
10
 73
6
 74
0
 42
0.0000001
 43
0.0000001
 44
0.0000000001
 40
0.0
 40
0.0
 40
0.0
 40
0.0
 40
0.3939255147
 40
0.6883533687
 40
1.0
 40
1.0
 40
1.0
 40
1.0
 10
191.8133272239
 20
248.7527148957
 30
0.0
 10
192.0381351299
 20
248.6451249951
 30
0.0
 10
192.4165976515
 20
248.4176794268
 30
0.0
 10
192.8740391692
 20
247.9838016834
 30
0.0
 10
193.0615779884
 20
247.6124219762
 30
0.0
 10
193.0615779884
 20
247.4152506723
 30
0.0
  0
SPLINE
  5
422
100
AcDbEntity
  8
KONSTRUKTIONSELEMENTE
100
AcDbSpline
 62
7
  6
CONTINUOUS
 70
0
 71
3
 72
11
 73
7
 74
0
 42
0.0000001
 43
0.0000001
 44
0.0000000001
 40
0.0
 40
0.0
 40
0.0
 40
0.0
 40
0.2437667492
 40
0.4898190823
 40
0.7409718126
 40
1.0
 40
1.0
 40
1.0
 40
1.0
 10
181.5615779884
 20
278.5279490445
 30
0.0
 10
181.5615779884
 20
279.0480419372
 30
0.0
 10
181.7242781362
 20
280.0996906456
 30
0.0
 10
182.4226653571
 20
281.5408941837
 30
0.0
 10
183.4980654445
 20
282.7663093153
 30
0.0
 10
184.396188878
 20
283.399259425
 30
0.0
 10
184.8778214153
 20
283.6702885204
 30
0.0
  0
SPLINE
  5
423
100
AcDbEntity
  8
KONSTRUKTIONSELEMENTE
100
AcDbSpline
 62
7
  6
CONTINUOUS
 70
0
 71
3
 72
11
 73
7
 74
0
 42
0.0000001
 43
0.0000001
 44
0.0000000001
 40
0.0
 40
0.0
 40
0.0
 40
0.0
 40
0.2590071153
 40
0.510147388
 40
0.7561998027
 40
1.0
 40
1.0
 40
1.0
 40
1.0
 10
194.2494186621
 20
283.6679919825
 30
0.0
 10
194.7305155602
 20
283.3969212414
 30
0.0
 10
195.6275620932
 20
282.7639648665
 30
0.0
 10
196.701608647
 20
281.5390605656
 30
0.0
 10
197.3990838211
 20
280.0986837614
 30
0.0
 10
197.5615779884
 20
279.0477355239
 30
0.0
 10
197.5615779884
 20
278.5279490445
 30
0.0
  0
SPLINE
  5
424
100
AcDbEntity
  8
KONSTRUKTIONSELEMENTE
100
AcDbSpline
 62
7
  6
CONTINUOUS
 70
0
 71
3
 72
10
 73
6
 74
0
 42
0.0000001
 43
0.0000001
 44
0.0000000001
 40
0.0
 40
0.0
 40
0.0
 40
0.0
 40
0.3192646009
 40
0.6086079864
 40
1.0
 40
1.0
 40
1.0
 40
1.0
 10
186.0615779884
 20
278.5279490445
 30
0.0
 10
186.0615779884
 20
278.6996888197
 30
0.0
 10
186.203593775
 20
279.0205400347
 30
0.0
 10
186.5693997896
 20
279.4138923741
 30
0.0
 10
186.8726876223
 20
279.6269322873
 30
0.0
 10
187.0552239234
 20
279.7318468838
 30
0.0
  0
SPLINE
  5
425
100
AcDbEntity
  8
KONSTRUKTIONSELEMENTE
100
AcDbSpline
 62
7
  6
CONTINUOUS
 70
0
 71
3
 72
10
 73
6
 74
0
 42
0.0000001
 43
0.0000001
 44
0.0000000001
 40
0.0
 40
0.0
 40
0.0
 40
0.0
 40
0.3914026107
 40
0.6807340322
 40
1.0
 40
1.0
 40
1.0
 40
1.0
 10
192.0680235895
 20
279.7317944127
 30
0.0
 10
192.2505508329
 20
279.6268790031
 30
0.0
 10
192.5537904137
 20
279.4138199317
 30
0.0
 10
192.9196111183
 20
279.0205215711
 30
0.0
 10
193.0615779884
 20
278.6996788302
 30
0.0
 10
193.0615779884
 20
278.5279490445
 30
0.0
  0
SPLINE
  5
426
100
AcDbEntity
  8
KONSTRUKTIONSELEMENTE
100
AcDbSpline
 62
7
  6
CONTINUOUS
 70
0
 71
3
 72
9
 73
5
 74
0
 42
0.0000001
 43
0.0000001
 44
0.0000000001
 40
0.0
 40
0.0
 40
0.0
 40
0.0
 40
0.2447279741
 40
1.0
 40
1.0
 40
1.0
 40
1.0
 10
207.6237356084
 20
294.2841841329
 30
0.0
 10
207.1775461817
 20
293.9867373832
 30
0.0
 10
205.3166257354
 20
292.82835684
 30
0.0
 10
203.3174486066
 20
291.8963732297
 30
0.0
 10
201.7672133974
 20
291.3170499647
 30
0.0
  0
SPLINE
  5
427
100
AcDbEntity
  8
KONSTRUKTIONSELEMENTE
100
AcDbSpline
 62
7
  6
CONTINUOUS
 70
0
 71
3
 72
9
 73
5
 74
0
 42
0.0000001
 43
0.0000001
 44
0.0000000001
 40
0.0
 40
0.0
 40
0.0
 40
0.0
 40
0.2555066138
 40
1.0
 40
1.0
 40
1.0
 40
1.0
 10
177.3489205075
 20
291.3196775042
 30
0.0
 10
176.8254005781
 20
291.5154521131
 30
0.0
 10
174.7974922443
 20
292.3360258457
 30
0.0
 10
172.8572894199
 20
293.3792116628
 30
0.0
 10
171.5020855978
 20
294.2824086405
 30
0.0
  0
SPLINE
  5
428
100
AcDbEntity
  8
KONSTRUKTIONSELEMENTE
100
AcDbSpline
 62
7
  6
CONTINUOUS
 70
0
 71
3
 72
9
 73
5
 74
0
 42
0.0000001
 43
0.0000001
 44
0.0000000001
 40
0.0
 40
0.0
 40
0.0
 40
0.0
 40
0.2433104879
 40
1.0
 40
1.0
 40
1.0
 40
1.0
 10
204.753754823
 20
300.8351629321
 30
0.0
 10
204.5856594155
 20
300.7053787236
 30
0.0
 10
203.8849340241
 20
300.1848083504
 30
0.0
 10
203.1465526434
 20
299.7153532753
 30
0.0
 10
202.572673009
 20
299.3884482398
 30
0.0
  0
SPLINE
  5
429
100
AcDbEntity
  8
KONSTRUKTIONSELEMENTE
100
AcDbSpline
 62
7
  6
CONTINUOUS
 70
0
 71
3
 72
9
 73
5
 74
0
 42
0.0000001
 43
0.0000001
 44
0.0000000001
 40
0.0
 40
0.0
 40
0.0
 40
0.0
 40
0.2567145637
 40
1.0
 40
1.0
 40
1.0
 40
1.0
 10
176.5510264919
 20
299.3881326788
 30
0.0
 10
176.3562689918
 20
299.4990667165
 30
0.0
 10
175.6048213023
 20
299.9436610428
 30
0.0
 10
174.8829082966
 20
300.438680909
 30
0.0
 10
174.3692407911
 20
300.8352809614
 30
0.0
  0
SPLINE
  5
42A
100
AcDbEntity
  8
0
100
AcDbSpline
 62
7
  6
CONTINUOUS
 70
0
 71
3
 72
11
 73
7
 74
0
 42
0.0000001
 43
0.0000001
 44
0.0000000001
 40
0.0
 40
0.0
 40
0.0
 40
0.0
 40
0.2192989281
 40
0.4548225453
 40
0.7152180566
 40
1.0
 40
1.0
 40
1.0
 40
1.0
 10
208.5310029222
 20
202.4927568635
 30
0.0
 10
208.5310029222
 20
202.8684101997
 30
0.0
 10
208.3620825158
 20
203.6548526917
 30
0.0
 10
207.6571961203
 20
204.686247795
 30
0.0
 10
206.5869168262
 20
205.516374781
 30
0.0
 10
205.7193077107
 20
205.8881106176
 30
0.0
 10
205.2531338301
 20
206.0318263034
 30
0.0
  0
SPLINE
  5
42B
100
AcDbEntity
  8
0
100
AcDbSpline
 62
7
  6
CONTINUOUS
 70
0
 71
3
 72
17
 73
13
 74
0
 42
0.0000001
 43
0.0000001
 44
0.0000000001
 40
0.0
 40
0.0
 40
0.0
 40
0.0
 40
0.0517809237
 40
0.1054811646
 40
0.2228479209
 40
0.3562855052
 40
0.5
 40
0.6437144948
 40
0.7771520791
 40
0.8945188354
 40
0.9482190763
 40
1.0
 40
1.0
 40
1.0
 40
1.0
 10
191.5356716245
 20
201.5411933938
 30
0.0
 10
191.5356716245
 20
201.4273341245
 30
0.0
 10
191.5688223706
 20
201.1942259792
 30
0.0
 10
191.7669174571
 20
200.7404794954
 30
0.0
 10
192.2564403538
 20
200.2506495591
 30
0.0
 10
193.0601124582
 20
199.8896844706
 30
0.0
 10
193.9888596089
 20
199.7634073201
 30
0.0
 10
194.9176067595
 20
199.8896844706
 30
0.0
 10
195.7212788639
 20
200.2506495591
 30
0.0
 10
196.2108017606
 20
200.7404794954
 30
0.0
 10
196.4088968471
 20
201.1942259792
 30
0.0
 10
196.4420475932
 20
201.4273341245
 30
0.0
 10
196.4420475932
 20
201.5411933938
 30
0.0
  0
SPLINE
  5
42C
100
AcDbEntity
  8
0
100
AcDbSpline
 62
7
  6
CONTINUOUS
 70
0
 71
3
 72
12
 73
8
 74
0
 42
0.0000001
 43
0.0000001
 44
0.0000000001
 40
0.0
 40
0.0
 40
0.0
 40
0.0
 40
0.1035930223
 40
0.210949621
 40
0.4457011106
 40
0.7125563401
 40
1.0
 40
1.0
 40
1.0
 40
1.0
 10
188.4067827899
 20
204.246003717
 30
0.0
 10
188.4067647458
 20
204.3662870142
 30
0.0
 10
188.3717000116
 20
204.6124607843
 30
0.0
 10
188.1622715851
 20
205.0915583864
 30
0.0
 10
187.6452156614
 20
205.6088027054
 30
0.0
 10
186.7970538294
 20
205.9900099169
 30
0.0
 10
186.1494264546
 20
206.0777882442
 30
0.0
 10
185.8156716245
 20
206.0777882442
 30
0.0
  0
SPLINE
  5
42D
100
AcDbEntity
  8
0
100
AcDbSpline
 62
7
  6
CONTINUOUS
 70
0
 71
3
 72
9
 73
5
 74
0
 42
0.0000001
 43
0.0000001
 44
0.0000000001
 40
0.0
 40
0.0
 40
0.0
 40
0.0
 40
0.4402133985
 40
1.0
 40
1.0
 40
1.0
 40
1.0
 10
174.2056299326
 20
201.6378647651
 30
0.0
 10
174.2056299326
 20
201.6077317871
 30
0.0
 10
174.2520370587
 20
201.542113653
 30
0.0
 10
174.3233120681
 20
201.5275561072
 30
0.0
 10
174.3616299326
 20
201.5275561072
 30
0.0
  0
SPLINE
  5
42E
100
AcDbEntity
  8
0
100
AcDbSpline
 62
7
  6
CONTINUOUS
 70
0
 71
3
 72
9
 73
5
 74
0
 42
0.0000001
 43
0.0000001
 44
0.0000000001
 40
0.0
 40
0.0
 40
0.0
 40
0.0
 40
0.4402133985
 40
1.0
 40
1.0
 40
1.0
 40
1.0
 10
175.2781299326
 20
201.693019094
 30
0.0
 10
175.2781299326
 20
201.723152072
 30
0.0
 10
175.2317228064
 20
201.7887702061
 30
0.0
 10
175.160447797
 20
201.8033277519
 30
0.0
 10
175.1221299326
 20
201.8033277519
 30
0.0
  0
SPLINE
  5
42F
100
AcDbEntity
  8
0
100
AcDbSpline
 62
7
  6
CONTINUOUS
 70
0
 71
3
 72
9
 73
5
 74
0
 42
0.0000001
 43
0.0000001
 44
0.0000000001
 40
0.0
 40
0.0
 40
0.0
 40
0.0
 40
0.4402133985
 40
1.0
 40
1.0
 40
1.0
 40
1.0
 10
175.2781299326
 20
204.4507355406
 30
0.0
 10
175.2781299326
 20
204.4808685186
 30
0.0
 10
175.2317228064
 20
204.5464866528
 30
0.0
 10
175.160447797
 20
204.5610441985
 30
0.0
 10
175.1221299326
 20
204.5610441985
 30
0.0
  0
SPLINE
  5
430
100
AcDbEntity
  8
0
100
AcDbSpline
 62
7
  6
CONTINUOUS
 70
0
 71
3
 72
11
 73
7
 74
0
 42
0.0000001
 43
0.0000001
 44
0.0000000001
 40
0.0
 40
0.0
 40
0.0
 40
0.0
 40
0.2094668498
 40
0.4446559298
 40
0.7120302568
 40
1.0
 40
1.0
 40
1.0
 40
1.0
 10
173.1331299326
 20
203.0443001529
 30
0.0
 10
173.1331299326
 20
203.0077570557
 30
0.0
 10
173.1568620344
 20
202.9292644248
 30
0.0
 10
173.2477406845
 20
202.8393782913
 30
0.0
 10
173.3753974218
 20
202.7816630985
 30
0.0
 10
173.472891404
 20
202.7685285082
 30
0.0
 10
173.5231299326
 20
202.7685285082
 30
0.0
  0
SPLINE
  5
431
100
AcDbEntity
  8
0
100
AcDbSpline
 62
7
  6
CONTINUOUS
 70
0
 71
3
 72
11
 73
7
 74
0
 42
0.0000001
 43
0.0000001
 44
0.0000000001
 40
0.0
 40
0.0
 40
0.0
 40
0.0
 40
0.2094668498
 40
0.4446559298
 40
0.7120302568
 40
1.0
 40
1.0
 40
1.0
 40
1.0
 10
173.1331299326
 20
200.2865837062
 30
0.0
 10
173.1331299326
 20
200.2500406091
 30
0.0
 10
173.1568620344
 20
200.1715479782
 30
0.0
 10
173.2477406845
 20
200.0816618447
 30
0.0
 10
173.3753974218
 20
200.0239466518
 30
0.0
 10
173.472891404
 20
200.0108120616
 30
0.0
 10
173.5231299326
 20
200.0108120616
 30
0.0
  0
SPLINE
  5
432
100
AcDbEntity
  8
0
100
AcDbSpline
 62
7
  6
CONTINUOUS
 70
0
 71
3
 72
9
 73
5
 74
0
 42
0.0000001
 43
0.0000001
 44
0.0000000001
 40
0.0
 40
0.0
 40
0.0
 40
0.0
 40
0.2432035461
 40
1.0
 40
1.0
 40
1.0
 40
1.0
 10
178.3981299326
 20
205.5262449548
 30
0.0
 10
178.3981299326
 20
205.5478868564
 30
0.0
 10
178.3907302004
 20
205.6368767573
 30
0.0
 10
178.3524890707
 20
205.7220045737
 30
0.0
 10
178.3131163676
 20
205.7766408578
 30
0.0
  0
SPLINE
  5
433
100
AcDbEntity
  8
0
100
AcDbSpline
 62
7
  6
CONTINUOUS
 70
0
 71
3
 72
9
 73
5
 74
0
 42
0.0000001
 43
0.0000001
 44
0.0000000001
 40
0.0
 40
0.0
 40
0.0
 40
0.0
 40
0.2250156934
 40
1.0
 40
1.0
 40
1.0
 40
1.0
 10
178.3131163676
 20
205.7766408578
 30
0.0
 10
178.2791918103
 20
205.8237169182
 30
0.0
 10
178.0929903538
 20
206.0072776163
 30
0.0
 10
177.8179797063
 20
206.0777882442
 30
0.0
 10
177.6181299326
 20
206.0777882442
 30
0.0
  0
SPLINE
  5
434
100
AcDbEntity
  8
RUNDUNGEN
100
AcDbSpline
 62
7
  6
CONTINUOUS
 70
0
 71
3
 72
11
 73
7
 74
0
 42
0.0000001
 43
0.0000001
 44
0.0000000001
 40
0.0
 40
0.0
 40
0.0
 40
0.0
 40
0.2256934588
 40
0.4632957354
 40
0.7206235605
 40
1.0
 40
1.0
 40
1.0
 40
1.0
 10
147.1718788883
 20
208.2865078679
 30
0.0
 10
147.1719486932
 20
208.3972745566
 30
0.0
 10
147.212227532
 20
208.6262470556
 30
0.0
 10
147.384692771
 20
208.9409896854
 30
0.0
 10
147.654795137
 20
209.2140551733
 30
0.0
 10
147.8805123988
 20
209.3543951962
 30
0.0
 10
148.0033892429
 20
209.4152341634
 30
0.0
  0
SPLINE
  5
435
100
AcDbEntity
  8
RUNDUNGEN
100
AcDbSpline
 62
7
  6
CONTINUOUS
 70
0
 71
3
 72
9
 73
5
 74
0
 42
0.0000001
 43
0.0000001
 44
0.0000000001
 40
0.0
 40
0.0
 40
0.0
 40
0.0
 40
0.4805181646
 40
1.0
 40
1.0
 40
1.0
 40
1.0
 10
147.1718772081
 20
204.7509191181
 30
0.0
 10
147.171797237
 20
204.609366688
 30
0.0
 10
147.2390632796
 20
204.3120056547
 30
0.0
 10
147.4168396927
 20
204.0680632115
 30
0.0
 10
147.5245168074
 20
203.9593251391
 30
0.0
  0
SPLINE
  5
436
100
AcDbEntity
  8
RUNDUNGEN
100
AcDbSpline
 62
7
  6
CONTINUOUS
 70
0
 71
3
 72
11
 73
7
 74
0
 42
0.0000001
 43
0.0000001
 44
0.0000000001
 40
0.0
 40
0.0
 40
0.0
 40
0.0
 40
0.2256920307
 40
0.4632775486
 40
0.7205987639
 40
1.0
 40
1.0
 40
1.0
 40
1.0
 10
133.6199986459
 20
222.8733114543
 30
0.0
 10
133.6199323598
 20
223.2143631715
 30
0.0
 10
133.7432666142
 20
223.9194776069
 30
0.0
 10
134.2737453031
 20
224.8888898152
 30
0.0
 10
135.1051707756
 20
225.7299217348
 30
0.0
 10
135.800162192
 20
226.1621090357
 30
0.0
 10
136.1785371026
 20
226.3494505884
 30
0.0
  0
SPLINE
  5
437
100
AcDbEntity
  8
RUNDUNGEN
100
AcDbSpline
 62
7
  6
CONTINUOUS
 70
0
 71
3
 72
9
 73
5
 74
0
 42
0.0000001
 43
0.0000001
 44
0.0000000001
 40
0.0
 40
0.0
 40
0.0
 40
0.0
 40
0.4805190228
 40
1.0
 40
1.0
 40
1.0
 40
1.0
 10
133.6199986459
 20
219.3377775484
 30
0.0
 10
133.6200832076
 20
218.9026946193
 30
0.0
 10
133.827698741
 20
217.9889584082
 30
0.0
 10
134.3741226457
 20
217.2392919769
 30
0.0
 10
134.705083455
 20
216.9050701644
 30
0.0
  0
SPLINE
  5
438
100
AcDbEntity
  8
RUNDUNGEN
100
AcDbSpline
 62
7
  6
CONTINUOUS
 70
0
 71
3
 72
11
 73
7
 74
0
 42
0.0000001
 43
0.0000001
 44
0.0000000001
 40
0.0
 40
0.0
 40
0.0
 40
0.0
 40
0.2377805525
 40
0.4809056656
 40
0.7339193662
 40
1.0
 40
1.0
 40
1.0
 40
1.0
 10
209.8471394175
 20
177.5345071666
 30
0.0
 10
209.8471394426
 20
178.255811854
 30
0.0
 10
210.0071524546
 20
179.7192924266
 30
0.0
 10
210.7166454124
 20
181.8456002518
 30
0.0
 10
211.873907041
 20
183.8630817504
 30
0.0
 10
212.8961602497
 20
185.0725680743
 30
0.0
 10
213.4640985317
 20
185.6461023318
 30
0.0
  0
SPLINE
  5
439
100
AcDbEntity
  8
RUNDUNGEN
100
AcDbSpline
 62
7
  6
CONTINUOUS
 70
0
 71
3
 72
10
 73
6
 74
0
 42
0.0000001
 43
0.0000001
 44
0.0000000001
 40
0.0
 40
0.0
 40
0.0
 40
0.0
 40
0.2382962376
 40
0.4830925252
 40
1.0
 40
1.0
 40
1.0
 40
1.0
 10
210.0042308254
 20
179.3010480631
 30
0.0
 10
210.1062762221
 20
178.7286032204
 30
0.0
 10
210.4135140322
 20
177.5835718919
 30
0.0
 10
211.4213486513
 20
175.3528797863
 30
0.0
 10
212.5765997778
 20
173.8546881344
 30
0.0
 10
213.4640985317
 20
172.9584447308
 30
0.0
  0
SPLINE
  5
43A
100
AcDbEntity
  8
RUNDUNGEN
100
AcDbSpline
 62
7
  6
CONTINUOUS
 70
0
 71
3
 72
10
 73
6
 74
0
 42
0.0000001
 43
0.0000001
 44
0.0000000001
 40
0.0
 40
0.0
 40
0.0
 40
0.0
 40
0.2382825872
 40
0.4819247859
 40
1.0
 40
1.0
 40
1.0
 40
1.0
 10
145.5615779884
 20
151.325242523
 30
0.0
 10
145.5615779884
 20
151.5416324268
 30
0.0
 10
145.6097223016
 20
151.9808064355
 30
0.0
 10
145.898234561
 20
152.8473100501
 30
0.0
 10
146.3156238298
 20
153.4244175541
 30
0.0
 10
146.6466657227
 20
153.7587212491
 30
0.0
  0
SPLINE
  5
43B
100
AcDbEntity
  8
BEZUGSACHSEN
100
AcDbSpline
 62
7
  6
CONTINUOUS
 70
0
 71
3
 72
9
 73
5
 74
0
 42
0.0000001
 43
0.0000001
 44
0.0000000001
 40
0.0
 40
0.0
 40
0.0
 40
0.0
 40
0.4742902326
 40
1.0
 40
1.0
 40
1.0
 40
1.0
 10
184.6644033277
 20
218.0702102861
 30
0.0
 10
184.9389865266
 20
217.690489882
 30
0.0
 10
185.6743556369
 20
216.9997930367
 30
0.0
 10
186.5696254457
 20
216.5541416303
 30
0.0
 10
187.0581017381
 20
216.3775998214
 30
0.0
  0
SPLINE
  5
43C
100
AcDbEntity
  8
BEZUGSACHSEN
100
AcDbSpline
 62
7
  6
CONTINUOUS
 70
0
 71
3
 72
9
 73
5
 74
0
 42
0.0000001
 43
0.0000001
 44
0.0000000001
 40
0.0
 40
0.0
 40
0.0
 40
0.0
 40
0.5257097674
 40
1.0
 40
1.0
 40
1.0
 40
1.0
 10
192.0650542387
 20
216.3775998214
 30
0.0
 10
192.5535305311
 20
216.5541416303
 30
0.0
 10
193.4488003399
 20
216.9997930367
 30
0.0
 10
194.1841694502
 20
217.690489882
 30
0.0
 10
194.4587526491
 20
218.0702102861
 30
0.0
  0
SPLINE
  5
43D
100
AcDbEntity
  8
BEZUGSACHSEN
100
AcDbSpline
 62
7
  6
CONTINUOUS
 70
0
 71
3
 72
11
 73
7
 74
0
 42
0.0000001
 43
0.0000001
 44
0.0000000001
 40
0.0
 40
0.0
 40
0.0
 40
0.0
 40
0.2211899434
 40
0.4572145773
 40
0.7166495597
 40
1.0
 40
1.0
 40
1.0
 40
1.0
 10
195.0615779884
 20
216.304900347
 30
0.0
 10
195.0615779884
 20
216.6630353645
 30
0.0
 10
194.9104009944
 20
217.4098131956
 30
0.0
 10
194.2733087751
 20
218.4047630458
 30
0.0
 10
193.2960783713
 20
219.2258983482
 30
0.0
 10
192.4965207145
 20
219.6117970732
 30
0.0
 10
192.0650542387
 20
219.7677347785
 30
0.0
  0
SPLINE
  5
43E
100
AcDbEntity
  8
BEZUGSACHSEN
100
AcDbSpline
 62
7
  6
CONTINUOUS
 70
0
 71
3
 72
11
 73
7
 74
0
 42
0.0000001
 43
0.0000001
 44
0.0000000001
 40
0.0
 40
0.0
 40
0.0
 40
0.0
 40
0.2833504403
 40
0.5427854227
 40
0.7788100566
 40
1.0
 40
1.0
 40
1.0
 40
1.0
 10
187.0581017381
 20
219.7677347785
 30
0.0
 10
186.6266352623
 20
219.6117970732
 30
0.0
 10
185.8270776055
 20
219.2258983482
 30
0.0
 10
184.8498472017
 20
218.4047630458
 30
0.0
 10
184.2127549824
 20
217.4098131956
 30
0.0
 10
184.0615779884
 20
216.6630353645
 30
0.0
 10
184.0615779884
 20
216.304900347
 30
0.0
  0
SPLINE
  5
43F
100
AcDbEntity
  8
RUNDUNGEN
100
AcDbSpline
 62
7
  6
CONTINUOUS
 70
0
 71
3
 72
10
 73
6
 74
0
 42
0.0000001
 43
0.0000001
 44
0.0000000001
 40
0.0
 40
0.0
 40
0.0
 40
0.0
 40
0.518075049
 40
0.7617173212
 40
1.0
 40
1.0
 40
1.0
 40
1.0
 10
232.4764902541
 20
153.7587212491
 30
0.0
 10
232.807532042
 20
153.4244176601
 30
0.0
 10
233.224921288
 20
152.8473102613
 30
0.0
 10
233.5134336283
 20
151.9808066696
 30
0.0
 10
233.5615779884
 20
151.5416325104
 30
0.0
 10
233.5615779884
 20
151.325242523
 30
0.0
  0
SPLINE
  5
440
100
AcDbEntity
  8
RUNDUNGEN
100
AcDbSpline
 62
7
  6
CONTINUOUS
 70
0
 71
3
 72
11
 73
7
 74
0
 42
0.0000001
 43
0.0000001
 44
0.0000000001
 40
0.0
 40
0.0
 40
0.0
 40
0.0
 40
0.2793755178
 40
0.5367190517
 40
0.7743209251
 40
1.0
 40
1.0
 40
1.0
 40
1.0
 10
246.2212270513
 20
224.7271314377
 30
0.0
 10
246.3472563383
 20
224.6647316283
 30
0.0
 10
246.5787706265
 20
224.5207855788
 30
0.0
 10
246.8558080462
 20
224.2407064082
 30
0.0
 10
247.0326872647
 20
223.917880748
 30
0.0
 10
247.0739919803
 20
223.6830397769
 30
0.0
 10
247.0740597072
 20
223.5694381984
 30
0.0
  0
SPLINE
  5
441
100
AcDbEntity
  8
RUNDUNGEN
100
AcDbSpline
 62
7
  6
CONTINUOUS
 70
0
 71
3
 72
10
 73
6
 74
0
 42
0.0000001
 43
0.0000001
 44
0.0000000001
 40
0.0
 40
0.0
 40
0.0
 40
0.0
 40
0.480919237
 40
0.7459271749
 40
1.0
 40
1.0
 40
1.0
 40
1.0
 10
236.554892918
 20
227.7867052988
 30
0.0
 10
236.8869964802
 20
228.1220811239
 30
0.0
 10
237.6357687342
 20
228.4099719778
 30
0.0
 10
238.6182992794
 20
228.3926687208
 30
0.0
 10
239.1168876484
 20
228.2446426088
 30
0.0
 10
239.3403498793
 20
228.1340016542
 30
0.0
  0
SPLINE
  5
442
100
AcDbEntity
  8
RUNDUNGEN
100
AcDbSpline
 62
7
  6
CONTINUOUS
 70
0
 71
3
 72
9
 73
5
 74
0
 42
0.0000001
 43
0.0000001
 44
0.0000000001
 40
0.0
 40
0.0
 40
0.0
 40
0.0
 40
0.4904024046
 40
1.0
 40
1.0
 40
1.0
 40
1.0
 10
137.8168411912
 20
227.1606101638
 30
0.0
 10
140.0217612975
 20
228.2523135109
 30
0.0
 10
144.9483497551
 20
229.6442601583
 30
0.0
 10
150.0463181073
 20
229.523376154
 30
0.0
 10
152.562918228
 20
229.0724050241
 30
0.0
  0
SPLINE
  5
443
100
AcDbEntity
  8
0
100
AcDbSpline
 62
7
  6
CONTINUOUS
 70
0
 71
3
 72
11
 73
7
 74
0
 42
0.0000001
 43
0.0000001
 44
0.0000000001
 40
0.0
 40
0.0
 40
0.0
 40
0.0
 40
0.2880052506
 40
0.5553344723
 40
0.7905070702
 40
1.0
 40
1.0
 40
1.0
 40
1.0
 10
171.3781299326
 20
206.0777882442
 30
0.0
 10
171.2776411903
 20
206.0777882442
 30
0.0
 10
171.0826464955
 20
206.0515390998
 30
0.0
 10
170.8273874102
 20
205.9360405601
 30
0.0
 10
170.6455834756
 20
205.7563400721
 30
0.0
 10
170.5981299326
 20
205.5993397369
 30
0.0
 10
170.5981299326
 20
205.5262449548
 30
0.0
  0
SPLINE
  5
444
100
AcDbEntity
  8
0
100
AcDbSpline
 62
7
  6
CONTINUOUS
 70
0
 71
3
 72
11
 73
7
 74
0
 42
0.0000001
 43
0.0000001
 44
0.0000000001
 40
0.0
 40
0.0
 40
0.0
 40
0.0
 40
0.2879697432
 40
0.5553440702
 40
0.7905331502
 40
1.0
 40
1.0
 40
1.0
 40
1.0
 10
175.4731299326
 20
202.7685285082
 30
0.0
 10
175.5233684611
 20
202.7685285082
 30
0.0
 10
175.6208624433
 20
202.7816630985
 30
0.0
 10
175.7485191806
 20
202.8393782913
 30
0.0
 10
175.8393978307
 20
202.9292644248
 30
0.0
 10
175.8631299326
 20
203.0077570557
 30
0.0
 10
175.8631299326
 20
203.0443001529
 30
0.0
  0
SPLINE
  5
445
100
AcDbEntity
  8
0
100
AcDbSpline
 62
7
  6
CONTINUOUS
 70
0
 71
3
 72
11
 73
7
 74
0
 42
0.0000001
 43
0.0000001
 44
0.0000000001
 40
0.0
 40
0.0
 40
0.0
 40
0.0
 40
0.2879697432
 40
0.5553440702
 40
0.7905331502
 40
1.0
 40
1.0
 40
1.0
 40
1.0
 10
175.4731299326
 20
200.0108120616
 30
0.0
 10
175.5233684611
 20
200.0108120616
 30
0.0
 10
175.6208624433
 20
200.0239466518
 30
0.0
 10
175.7485191806
 20
200.0816618447
 30
0.0
 10
175.8393978307
 20
200.1715479782
 30
0.0
 10
175.8631299326
 20
200.2500406091
 30
0.0
 10
175.8631299326
 20
200.2865837062
 30
0.0
  0
SPLINE
  5
446
100
AcDbEntity
  8
0
100
AcDbSpline
 62
7
  6
CONTINUOUS
 70
0
 71
3
 72
9
 73
5
 74
0
 42
0.0000001
 43
0.0000001
 44
0.0000000001
 40
0.0
 40
0.0
 40
0.0
 40
0.0
 40
0.5597866015
 40
1.0
 40
1.0
 40
1.0
 40
1.0
 10
173.8741299326
 20
204.5610441985
 30
0.0
 10
173.8358120681
 20
204.5610441985
 30
0.0
 10
173.7645370587
 20
204.5464866528
 30
0.0
 10
173.7181299326
 20
204.4808685186
 30
0.0
 10
173.7181299326
 20
204.4507355406
 30
0.0
  0
SPLINE
  5
447
100
AcDbEntity
  8
0
100
AcDbSpline
 62
7
  6
CONTINUOUS
 70
0
 71
3
 72
9
 73
5
 74
0
 42
0.0000001
 43
0.0000001
 44
0.0000000001
 40
0.0
 40
0.0
 40
0.0
 40
0.0
 40
0.5597866015
 40
1.0
 40
1.0
 40
1.0
 40
1.0
 10
173.8741299326
 20
201.8033277519
 30
0.0
 10
173.8358120681
 20
201.8033277519
 30
0.0
 10
173.7645370587
 20
201.7887702061
 30
0.0
 10
173.7181299326
 20
201.723152072
 30
0.0
 10
173.7181299326
 20
201.693019094
 30
0.0
  0
SPLINE
  5
448
100
AcDbEntity
  8
0
100
AcDbSpline
 62
7
  6
CONTINUOUS
 70
0
 71
3
 72
9
 73
5
 74
0
 42
0.0000001
 43
0.0000001
 44
0.0000000001
 40
0.0
 40
0.0
 40
0.0
 40
0.0
 40
0.5597866015
 40
1.0
 40
1.0
 40
1.0
 40
1.0
 10
174.6346299326
 20
201.5275561072
 30
0.0
 10
174.672947797
 20
201.5275561072
 30
0.0
 10
174.7442228064
 20
201.542113653
 30
0.0
 10
174.7906299326
 20
201.6077317871
 30
0.0
 10
174.7906299326
 20
201.6378647651
 30
0.0
  0
SPLINE
  5
449
100
AcDbEntity
  8
0
100
AcDbSpline
 62
7
  6
CONTINUOUS
 70
0
 71
3
 72
11
 73
7
 74
0
 42
0.0000001
 43
0.0000001
 44
0.0000000001
 40
0.0
 40
0.0
 40
0.0
 40
0.0
 40
0.2880001164
 40
0.5553425139
 40
0.7905343079
 40
1.0
 40
1.0
 40
1.0
 40
1.0
 10
185.8156716245
 20
203.249903161
 30
0.0
 10
185.9970783624
 20
203.249903161
 30
0.0
 10
186.349088745
 20
203.2973206869
 30
0.0
 10
186.8099701894
 20
203.5057432414
 30
0.0
 10
187.1381079527
 20
203.8302407911
 30
0.0
 10
187.2237640366
 20
204.1136529007
 30
0.0
 10
187.2237640366
 20
204.2455920415
 30
0.0
  0
SPLINE
  5
44A
100
AcDbEntity
  8
0
100
AcDbSpline
 62
7
  6
CONTINUOUS
 70
0
 71
3
 72
9
 73
5
 74
0
 42
0.0000001
 43
0.0000001
 44
0.0000000001
 40
0.0
 40
0.0
 40
0.0
 40
0.0
 40
0.2457811574
 40
1.0
 40
1.0
 40
1.0
 40
1.0
 10
205.2531338301
 20
206.0318263034
 30
0.0
 10
205.228412554
 20
206.0394475694
 30
0.0
 10
205.1266236697
 20
206.0664433227
 30
0.0
 10
205.0207891385
 20
206.0777882442
 30
0.0
 10
204.9414047811
 20
206.0777882442
 30
0.0
  0
SPLINE
  5
44B
100
AcDbEntity
  8
0
100
AcDbSpline
 62
7
  6
CONTINUOUS
 70
0
 71
3
 72
11
 73
7
 74
0
 42
0.0000001
 43
0.0000001
 44
0.0000000001
 40
0.0
 40
0.0
 40
0.0
 40
0.0
 40
0.2779817175
 40
0.5346952233
 40
0.772857858
 40
1.0
 40
1.0
 40
1.0
 40
1.0
 10
205.2058709961
 20
199.8837899707
 30
0.0
 10
205.4792673872
 20
200.0318343072
 30
0.0
 10
205.9801742031
 20
200.3679537681
 30
0.0
 10
206.575424188
 20
201.0068325213
 30
0.0
 10
206.9530025244
 20
201.7332225387
 30
0.0
 10
207.0404220837
 20
202.2570964528
 30
0.0
 10
207.0404220837
 20
202.5111416399
 30
0.0
  0
SPLINE
  5
44C
100
AcDbEntity
  8
0
100
AcDbSpline
 62
7
  6
CONTINUOUS
 70
0
 71
3
 72
9
 73
5
 74
0
 42
0.0000001
 43
0.0000001
 44
0.0000000001
 40
0.0
 40
0.0
 40
0.0
 40
0.0
 40
0.2591205677
 40
1.0
 40
1.0
 40
1.0
 40
1.0
 10
204.9687522024
 20
199.8269642985
 30
0.0
 10
204.989928872
 20
199.8269642985
 30
0.0
 10
205.071508536
 20
199.8316381493
 30
0.0
 10
205.1526274956
 20
199.854958578
 30
0.0
 10
205.2058709961
 20
199.8837899707
 30
0.0
  0
SPLINE
  5
44D
100
AcDbEntity
  8
RUNDUNGEN
100
AcDbSpline
 62
7
  6
CONTINUOUS
 70
0
 71
3
 72
11
 73
7
 74
0
 42
0.0000001
 43
0.0000001
 44
0.0000000001
 40
0.0
 40
0.0
 40
0.0
 40
0.0
 40
0.287975155
 40
0.5553539353
 40
0.7905396327
 40
1.0
 40
1.0
 40
1.0
 40
1.0
 10
155.0615779884
 20
134.9852724637
 30
0.0
 10
155.1259875827
 20
134.9852724637
 30
0.0
 10
155.2509821199
 20
135.0021125182
 30
0.0
 10
155.4146454775
 20
135.0761082959
 30
0.0
 10
155.5311543649
 20
135.1913476639
 30
0.0
 10
155.5615779884
 20
135.2919771694
 30
0.0
 10
155.5615779884
 20
135.3388258543
 30
0.0
  0
SPLINE
  5
44E
100
AcDbEntity
  8
RUNDUNGEN
100
AcDbSpline
 62
7
  6
CONTINUOUS
 70
0
 71
3
 72
13
 73
9
 74
0
 42
0.0000001
 43
0.0000001
 44
0.0000000001
 40
0.0
 40
0.0
 40
0.0
 40
0.0
 40
0.1034546064
 40
0.2106689685
 40
0.3244963058
 40
0.4464318167
 40
0.7129512659
 40
1.0
 40
1.0
 40
1.0
 40
1.0
 10
145.5615779884
 20
139.2279131508
 30
0.0
 10
145.5615779884
 20
138.9493539751
 30
0.0
 10
145.6424167488
 20
138.3792189584
 30
0.0
 10
145.9961628277
 20
137.5702170434
 30
0.0
 10
146.5636087123
 20
136.8313540045
 30
0.0
 10
147.600782541
 20
135.9505346194
 30
0.0
 10
149.2905514262
 20
135.1865252446
 30
0.0
 10
150.7886780517
 20
134.9852724637
 30
0.0
 10
151.5615779884
 20
134.9852724637
 30
0.0
  0
SPLINE
  5
44F
100
AcDbEntity
  8
RUNDUNGEN
100
AcDbSpline
 62
7
  6
CONTINUOUS
 70
0
 71
3
 72
10
 73
6
 74
0
 42
0.0000001
 43
0.0000001
 44
0.0000000001
 40
0.0
 40
0.0
 40
0.0
 40
0.0
 40
0.4808964563
 40
0.7459158441
 40
1.0
 40
1.0
 40
1.0
 40
1.0
 10
138.1752208949
 20
213.4007409741
 30
0.0
 10
138.4990067541
 20
213.0737648075
 30
0.0
 10
139.2290392543
 20
212.7930658717
 30
0.0
 10
140.1870087513
 20
212.8099189886
 30
0.0
 10
140.6731558896
 20
212.9542472113
 30
0.0
 10
140.8910414322
 20
213.0621270276
 30
0.0
  0
SPLINE
  5
450
100
AcDbEntity
  8
RUNDUNGEN
100
AcDbSpline
 62
7
  6
CONTINUOUS
 70
0
 71
3
 72
9
 73
5
 74
0
 42
0.0000001
 43
0.0000001
 44
0.0000000001
 40
0.0
 40
0.0
 40
0.0
 40
0.0
 40
0.5194816466
 40
1.0
 40
1.0
 40
1.0
 40
1.0
 10
246.7123782672
 20
219.2219820258
 30
0.0
 10
246.8228257837
 20
219.3335177971
 30
0.0
 10
247.005174265
 20
219.5837400414
 30
0.0
 10
247.0741530398
 20
219.8887587606
 30
0.0
 10
247.0740580545
 20
220.0339532652
 30
0.0
  0
SPLINE
  5
451
100
AcDbEntity
  8
RUNDUNGEN
100
AcDbSpline
 62
7
  6
CONTINUOUS
 70
0
 71
3
 72
13
 73
9
 74
0
 42
0.0000001
 43
0.0000001
 44
0.0000000001
 40
0.0
 40
0.0
 40
0.0
 40
0.0
 40
0.2870489714
 40
0.5535683803
 40
0.6755038887
 40
0.7893312167
 40
0.8965454657
 40
1.0
 40
1.0
 40
1.0
 40
1.0
 10
227.5615779884
 20
134.9852724637
 30
0.0
 10
228.3344785635
 20
134.9852724637
 30
0.0
 10
229.8326057568
 20
135.1865254473
 30
0.0
 10
231.5223749023
 20
135.9505355257
 30
0.0
 10
232.5595483767
 20
136.8313551279
 30
0.0
 10
233.1269937186
 20
137.5702181552
 30
0.0
 10
233.4807394046
 20
138.3792196457
 30
0.0
 10
233.5615779884
 20
138.9493541695
 30
0.0
 10
233.5615779884
 20
139.2279131508
 30
0.0
  0
SPLINE
  5
452
100
AcDbEntity
  8
RUNDUNGEN
100
AcDbSpline
 62
7
  6
CONTINUOUS
 70
0
 71
3
 72
11
 73
7
 74
0
 42
0.0000001
 43
0.0000001
 44
0.0000000001
 40
0.0
 40
0.0
 40
0.0
 40
0.0
 40
0.2094711443
 40
0.4446658249
 40
0.7120384825
 40
1.0
 40
1.0
 40
1.0
 40
1.0
 10
223.5615779884
 20
135.3388258543
 30
0.0
 10
223.5615779884
 20
135.2919747751
 30
0.0
 10
223.5920054263
 20
135.1913410626
 30
0.0
 10
223.7085192522
 20
135.0761025287
 30
0.0
 10
223.8721814274
 20
135.0021105742
 30
0.0
 10
223.9971714665
 20
134.9852724637
 30
0.0
 10
224.0615779884
 20
134.9852724637
 30
0.0
  0
SPLINE
  5
453
100
AcDbEntity
  8
RUNDUNGEN
100
AcDbSpline
 62
7
  6
CONTINUOUS
 70
0
 71
3
 72
10
 73
6
 74
0
 42
0.0000001
 43
0.0000001
 44
0.0000000001
 40
0.0
 40
0.0
 40
0.0
 40
0.0
 40
0.47201694
 40
0.7322443513
 40
1.0
 40
1.0
 40
1.0
 40
1.0
 10
203.3816739124
 20
147.5517996393
 30
0.0
 10
204.0228099233
 20
146.9043464254
 30
0.0
 10
205.2967838742
 20
146.1666493825
 30
0.0
 10
207.1666077718
 20
145.6782702143
 30
0.0
 10
208.1892869073
 20
145.5918741815
 30
0.0
 10
208.7061622002
 20
145.5918741815
 30
0.0
  0
SPLINE
  5
454
100
AcDbEntity
  8
RUNDUNGEN
100
AcDbSpline
 62
7
  6
CONTINUOUS
 70
0
 71
3
 72
10
 73
6
 74
0
 42
0.0000001
 43
0.0000001
 44
0.0000000001
 40
0.0
 40
0.0
 40
0.0
 40
0.0
 40
0.2677558652
 40
0.5279833681
 40
1.0
 40
1.0
 40
1.0
 40
1.0
 10
170.4169937766
 20
145.5918741815
 30
0.0
 10
170.9338694901
 20
145.5918741815
 30
0.0
 10
171.9565492327
 20
145.6782703222
 30
0.0
 10
173.8263730638
 20
146.1666498524
 30
0.0
 10
175.1003464686
 20
146.9043468446
 30
0.0
 10
175.7414820644
 20
147.5517996393
 30
0.0
  0
SPLINE
  5
455
100
AcDbEntity
  8
RUNDUNGEN
100
AcDbSpline
 62
7
  6
CONTINUOUS
 70
0
 71
3
 72
13
 73
9
 74
0
 42
0.0000001
 43
0.0000001
 44
0.0000000001
 40
0.0
 40
0.0
 40
0.0
 40
0.0
 40
0.1034546064
 40
0.2106689685
 40
0.3244963058
 40
0.4464318167
 40
0.7129512659
 40
1.0
 40
1.0
 40
1.0
 40
1.0
 10
155.5615779884
 20
141.3492334943
 30
0.0
 10
155.5615779884
 20
141.6277926701
 30
0.0
 10
155.6424167488
 20
142.1979276868
 30
0.0
 10
155.9961628277
 20
143.0069296017
 30
0.0
 10
156.5636087123
 20
143.7457926406
 30
0.0
 10
157.600782541
 20
144.6266120257
 30
0.0
 10
159.2905514262
 20
145.3906214005
 30
0.0
 10
160.7886780517
 20
145.5918741815
 30
0.0
 10
161.5615779884
 20
145.5918741815
 30
0.0
  0
SPLINE
  5
456
100
AcDbEntity
  8
RUNDUNGEN
100
AcDbSpline
 62
7
  6
CONTINUOUS
 70
0
 71
3
 72
13
 73
9
 74
0
 42
0.0000001
 43
0.0000001
 44
0.0000000001
 40
0.0
 40
0.0
 40
0.0
 40
0.0
 40
0.2870489714
 40
0.5535683803
 40
0.6755038887
 40
0.7893312167
 40
0.8965454657
 40
1.0
 40
1.0
 40
1.0
 40
1.0
 10
217.5615779884
 20
145.5918741815
 30
0.0
 10
218.3344785635
 20
145.5918741815
 30
0.0
 10
219.8326057568
 20
145.3906211978
 30
0.0
 10
221.5223749023
 20
144.6266111195
 30
0.0
 10
222.5595483767
 20
143.7457915172
 30
0.0
 10
223.1269937186
 20
143.0069284899
 30
0.0
 10
223.4807394046
 20
142.1979269994
 30
0.0
 10
223.5615779884
 20
141.6277924756
 30
0.0
 10
223.5615779884
 20
141.3492334943
 30
0.0
  0
SPLINE
  5
457
100
AcDbEntity
  8
RUNDUNGEN
100
AcDbSpline
 62
7
  6
CONTINUOUS
 70
0
 71
3
 72
13
 73
9
 74
0
 42
0.0000001
 43
0.0000001
 44
0.0000000001
 40
0.0
 40
0.0
 40
0.0
 40
0.0
 40
0.2360077347
 40
0.3661261322
 40
0.5000000765
 40
0.633874052
 40
0.7639924192
 40
1.0
 40
1.0
 40
1.0
 40
1.0
 10
183.0083616341
 20
154.8902807915
 30
0.0
 10
183.7974496258
 20
155.6871437777
 30
0.0
 10
185.3651301075
 20
156.5951129409
 30
0.0
 10
187.6673133014
 20
157.1961398177
 30
0.0
 10
189.5615792636
 20
157.3564318199
 30
0.0
 10
191.4558450494
 20
157.1961394308
 30
0.0
 10
193.7580274231
 20
156.5951122401
 30
0.0
 10
195.3257068656
 20
155.687143258
 30
0.0
 10
196.1147943427
 20
154.8902807915
 30
0.0
  0
SPLINE
  5
458
100
AcDbEntity
  8
RUNDUNGEN
100
AcDbSpline
 62
7
  6
CONTINUOUS
 70
0
 71
3
 72
10
 73
6
 74
0
 42
0.0000001
 43
0.0000001
 44
0.0000000001
 40
0.0
 40
0.0
 40
0.0
 40
0.0
 40
0.5169074801
 40
0.7617037573
 40
1.0
 40
1.0
 40
1.0
 40
1.0
 10
165.659057445
 20
172.9584447308
 30
0.0
 10
166.5465605791
 20
173.8546925577
 30
0.0
 10
167.7018166939
 20
175.3528925877
 30
0.0
 10
168.7096517896
 20
177.5835978193
 30
0.0
 10
169.0168876526
 20
178.728635788
 30
0.0
 10
169.1189315119
 20
179.3010838264
 30
0.0
  0
SPLINE
  5
459
100
AcDbEntity
  8
RUNDUNGEN
100
AcDbSpline
 62
7
  6
CONTINUOUS
 70
0
 71
3
 72
11
 73
7
 74
0
 42
0.0000001
 43
0.0000001
 44
0.0000000001
 40
0.0
 40
0.0
 40
0.0
 40
0.0
 40
0.2660806569
 40
0.5190943725
 40
0.7622194677
 40
1.0
 40
1.0
 40
1.0
 40
1.0
 10
165.659057445
 20
185.6461023318
 30
0.0
 10
166.2269958493
 20
185.0725679509
 30
0.0
 10
167.2492492303
 20
183.8630813496
 30
0.0
 10
168.4065109506
 20
181.8455994831
 30
0.0
 10
169.1160037717
 20
179.7192913708
 30
0.0
 10
169.2760165843
 20
178.255810709
 30
0.0
 10
169.2760165593
 20
177.5345059901
 30
0.0
  0
SPLINE
  5
45A
100
AcDbEntity
  8
RUNDUNGEN
100
AcDbSpline
 62
7
  6
CONTINUOUS
 70
0
 71
3
 72
11
 73
7
 74
0
 42
0.0000001
 43
0.0000001
 44
0.0000000001
 40
0.0
 40
0.0
 40
0.0
 40
0.0
 40
0.2524507309
 40
0.5157647478
 40
0.7702968692
 40
1.0
 40
1.0
 40
1.0
 40
1.0
 10
145.2325472669
 20
215.2116999023
 30
0.0
 10
145.5956901288
 20
215.3914997403
 30
0.0
 10
146.4031644891
 20
215.6329749421
 30
0.0
 10
147.6537537298
 20
215.6504705117
 30
0.0
 10
148.8289719913
 20
215.341949653
 30
0.0
 10
149.4994829956
 20
214.9093313765
 30
0.0
 10
149.758914829
 20
214.6473433249
 30
0.0
  0
SPLINE
  5
45B
100
AcDbEntity
  8
RUNDUNGEN
100
AcDbSpline
 62
7
  6
CONTINUOUS
 70
0
 71
3
 72
9
 73
5
 74
0
 42
0.0000001
 43
0.0000001
 44
0.0000000001
 40
0.0
 40
0.0
 40
0.0
 40
0.0
 40
0.5194813996
 40
1.0
 40
1.0
 40
1.0
 40
1.0
 10
153.1430158034
 20
211.2298983294
 30
0.0
 10
153.3224814904
 20
211.0486643418
 30
0.0
 10
153.6187805129
 20
210.6420828605
 30
0.0
 10
153.7308869461
 20
210.1464677141
 30
0.0
 10
153.730748528
 20
209.9105415547
 30
0.0
  0
SPLINE
  5
45C
100
AcDbEntity
  8
RUNDUNGEN
100
AcDbSpline
 62
7
  6
CONTINUOUS
 70
0
 71
3
 72
9
 73
5
 74
0
 42
0.0000001
 43
0.0000001
 44
0.0000000001
 40
0.0
 40
0.0
 40
0.0
 40
0.0
 40
0.2672279233
 40
1.0
 40
1.0
 40
1.0
 40
1.0
 10
223.3647510348
 20
215.8318380687
 30
0.0
 10
223.651069308
 20
215.9040364489
 30
0.0
 10
224.7044587404
 20
216.233603229
 30
0.0
 10
225.6942814543
 20
216.8190827087
 30
0.0
 10
226.2640097116
 20
217.3944245784
 30
0.0
  0
SPLINE
  5
45D
100
AcDbEntity
  8
0
100
AcDbSpline
 62
7
  6
CONTINUOUS
 70
0
 71
3
 72
9
 73
5
 74
0
 42
0.0000001
 43
0.0000001
 44
0.0000000001
 40
0.0
 40
0.0
 40
0.0
 40
0.0
 40
0.4402133985
 40
1.0
 40
1.0
 40
1.0
 40
1.0
 10
174.7906299326
 20
203.347648962
 30
0.0
 10
174.7906299326
 20
203.37778194
 30
0.0
 10
174.7442228064
 20
203.4434000741
 30
0.0
 10
174.672947797
 20
203.4579576199
 30
0.0
 10
174.6346299326
 20
203.4579576199
 30
0.0
  0
SPLINE
  5
45E
100
AcDbEntity
  8
0
100
AcDbSpline
 62
7
  6
CONTINUOUS
 70
0
 71
3
 72
11
 73
7
 74
0
 42
0.0000001
 43
0.0000001
 44
0.0000000001
 40
0.0
 40
0.0
 40
0.0
 40
0.0
 40
0.2094656921
 40
0.4446574861
 40
0.7119998836
 40
1.0
 40
1.0
 40
1.0
 40
1.0
 10
187.2237640366
 20
204.2455920415
 30
0.0
 10
187.2237640366
 20
204.3775311823
 30
0.0
 10
187.1381079527
 20
204.6609432919
 30
0.0
 10
186.8099701894
 20
204.9854408416
 30
0.0
 10
186.349088745
 20
205.1938633961
 30
0.0
 10
185.9970783624
 20
205.241280922
 30
0.0
 10
185.8156716245
 20
205.241280922
 30
0.0
  0
SPLINE
  5
45F
100
AcDbEntity
  8
0
100
AcDbSpline
 62
7
  6
CONTINUOUS
 70
0
 71
3
 72
9
 73
5
 74
0
 42
0.0000001
 43
0.0000001
 44
0.0000000001
 40
0.0
 40
0.0
 40
0.0
 40
0.0
 40
0.4402133985
 40
1.0
 40
1.0
 40
1.0
 40
1.0
 10
173.7181299326
 20
203.2924946331
 30
0.0
 10
173.7181299326
 20
203.2623616551
 30
0.0
 10
173.7645370587
 20
203.1967435209
 30
0.0
 10
173.8358120681
 20
203.1821859752
 30
0.0
 10
173.8741299326
 20
203.1821859752
 30
0.0
  0
SPLINE
  5
460
100
AcDbEntity
  8
0
100
AcDbSpline
 62
7
  6
CONTINUOUS
 70
0
 71
3
 72
11
 73
7
 74
0
 42
0.0000001
 43
0.0000001
 44
0.0000000001
 40
0.0
 40
0.0
 40
0.0
 40
0.0
 40
0.2094929298
 40
0.4446655277
 40
0.7119947494
 40
1.0
 40
1.0
 40
1.0
 40
1.0
 10
170.5981299326
 20
199.4592687723
 30
0.0
 10
170.5981299326
 20
199.3861739901
 30
0.0
 10
170.6455834756
 20
199.2291736549
 30
0.0
 10
170.8273874102
 20
199.049473167
 30
0.0
 10
171.0826464955
 20
198.9339746272
 30
0.0
 10
171.2776411903
 20
198.9077254829
 30
0.0
 10
171.3781299326
 20
198.9077254829
 30
0.0
  0
SPLINE
  5
461
100
AcDbEntity
  8
0
100
AcDbSpline
 62
7
  6
CONTINUOUS
 70
0
 71
3
 72
11
 73
7
 74
0
 42
0.0000001
 43
0.0000001
 44
0.0000000001
 40
0.0
 40
0.0
 40
0.0
 40
0.0
 40
0.2094668498
 40
0.4446559298
 40
0.7120302568
 40
1.0
 40
1.0
 40
1.0
 40
1.0
 10
175.8631299326
 20
201.9412135742
 30
0.0
 10
175.8631299326
 20
201.9777566714
 30
0.0
 10
175.8393978307
 20
202.0562493022
 30
0.0
 10
175.7485191806
 20
202.1461354357
 30
0.0
 10
175.6208624433
 20
202.2038506286
 30
0.0
 10
175.5233684611
 20
202.2169852189
 30
0.0
 10
175.4731299326
 20
202.2169852189
 30
0.0
  0
SPLINE
  5
462
100
AcDbEntity
  8
0
100
AcDbSpline
 62
7
  6
CONTINUOUS
 70
0
 71
3
 72
9
 73
5
 74
0
 42
0.0000001
 43
0.0000001
 44
0.0000000001
 40
0.0
 40
0.0
 40
0.0
 40
0.0
 40
0.2445376398
 40
1.0
 40
1.0
 40
1.0
 40
1.0
 10
170.5981299326
 20
199.91888818
 30
0.0
 10
170.5981299326
 20
199.9008952404
 30
0.0
 10
170.6032978746
 20
199.8273402334
 30
0.0
 10
170.6294396507
 20
199.7558035281
 30
0.0
 10
170.6575038972
 20
199.707821701
 30
0.0
  0
SPLINE
  5
463
100
AcDbEntity
  8
0
100
AcDbSpline
 62
7
  6
CONTINUOUS
 70
0
 71
3
 72
9
 73
5
 74
0
 42
0.0000001
 43
0.0000001
 44
0.0000000001
 40
0.0
 40
0.0
 40
0.0
 40
0.0
 40
0.461013727
 40
1.0
 40
1.0
 40
1.0
 40
1.0
 10
170.6575038972
 20
199.707821701
 30
0.0
 10
170.7213098301
 20
199.5987318221
 30
0.0
 10
170.9531756547
 20
199.4192145495
 30
0.0
 10
171.230375417
 20
199.3673448907
 30
0.0
 10
171.3781299326
 20
199.3673448907
 30
0.0
  0
SPLINE
  5
464
100
AcDbEntity
  8
0
100
AcDbSpline
 62
7
  6
CONTINUOUS
 70
0
 71
3
 72
11
 73
7
 74
0
 42
0.0000001
 43
0.0000001
 44
0.0000000001
 40
0.0
 40
0.0
 40
0.0
 40
0.0
 40
0.2880052506
 40
0.5553344723
 40
0.7905070702
 40
1.0
 40
1.0
 40
1.0
 40
1.0
 10
177.6181299326
 20
198.9077254829
 30
0.0
 10
177.7186186748
 20
198.9077254829
 30
0.0
 10
177.9136133696
 20
198.9339746272
 30
0.0
 10
178.1688724549
 20
199.049473167
 30
0.0
 10
178.3506763895
 20
199.2291736549
 30
0.0
 10
178.3981299326
 20
199.3861739901
 30
0.0
 10
178.3981299326
 20
199.4592687723
 30
0.0
  0
SPLINE
  5
465
100
AcDbEntity
  8
RUNDUNGEN
100
AcDbSpline
 62
7
  6
CONTINUOUS
 70
0
 71
3
 72
11
 73
7
 74
0
 42
0.0000001
 43
0.0000001
 44
0.0000000001
 40
0.0
 40
0.0
 40
0.0
 40
0.0
 40
0.2377805525
 40
0.4809056656
 40
0.7339193662
 40
1.0
 40
1.0
 40
1.0
 40
1.0
 10
169.2760165593
 20
177.5345059901
 30
0.0
 10
169.2760165342
 20
176.8132013026
 30
0.0
 10
169.1160035222
 20
175.3497207301
 30
0.0
 10
168.4065105643
 20
173.2234129049
 30
0.0
 10
167.2492489358
 20
171.2059314063
 30
0.0
 10
166.2269957271
 20
169.9964450824
 30
0.0
 10
165.659057445
 20
169.4229108249
 30
0.0
  0
SPLINE
  5
466
100
AcDbEntity
  8
0
100
AcDbSpline
 62
7
  6
CONTINUOUS
 70
0
 71
3
 72
11
 73
7
 74
0
 42
0.0000001
 43
0.0000001
 44
0.0000000001
 40
0.0
 40
0.0
 40
0.0
 40
0.0
 40
0.2879697432
 40
0.5553440702
 40
0.7905331502
 40
1.0
 40
1.0
 40
1.0
 40
1.0
 10
173.5231299326
 20
202.2169852189
 30
0.0
 10
173.472891404
 20
202.2169852189
 30
0.0
 10
173.3753974218
 20
202.2038506286
 30
0.0
 10
173.2477406845
 20
202.1461354357
 30
0.0
 10
173.1568620344
 20
202.0562493022
 30
0.0
 10
173.1331299326
 20
201.9777566714
 30
0.0
 10
173.1331299326
 20
201.9412135742
 30
0.0
  0
SPLINE
  5
467
100
AcDbEntity
  8
0
100
AcDbSpline
 62
7
  6
CONTINUOUS
 70
0
 71
3
 72
11
 73
7
 74
0
 42
0.0000001
 43
0.0000001
 44
0.0000000001
 40
0.0
 40
0.0
 40
0.0
 40
0.0
 40
0.2879697432
 40
0.5553440702
 40
0.7905331502
 40
1.0
 40
1.0
 40
1.0
 40
1.0
 10
173.5231299326
 20
204.9747016655
 30
0.0
 10
173.472891404
 20
204.9747016655
 30
0.0
 10
173.3753974218
 20
204.9615670753
 30
0.0
 10
173.2477406845
 20
204.9038518824
 30
0.0
 10
173.1568620344
 20
204.8139657489
 30
0.0
 10
173.1331299326
 20
204.735473118
 30
0.0
 10
173.1331299326
 20
204.6989300208
 30
0.0
  0
SPLINE
  5
468
100
AcDbEntity
  8
0
100
AcDbSpline
 62
7
  6
CONTINUOUS
 70
0
 71
3
 72
9
 73
5
 74
0
 42
0.0000001
 43
0.0000001
 44
0.0000000001
 40
0.0
 40
0.0
 40
0.0
 40
0.0
 40
0.5597866015
 40
1.0
 40
1.0
 40
1.0
 40
1.0
 10
174.3616299326
 20
203.4579576199
 30
0.0
 10
174.3233120681
 20
203.4579576199
 30
0.0
 10
174.2520370587
 20
203.4434000741
 30
0.0
 10
174.2056299326
 20
203.37778194
 30
0.0
 10
174.2056299326
 20
203.347648962
 30
0.0
  0
SPLINE
  5
469
100
AcDbEntity
  8
0
100
AcDbSpline
 62
7
  6
CONTINUOUS
 70
0
 71
3
 72
9
 73
5
 74
0
 42
0.0000001
 43
0.0000001
 44
0.0000000001
 40
0.0
 40
0.0
 40
0.0
 40
0.0
 40
0.5597866015
 40
1.0
 40
1.0
 40
1.0
 40
1.0
 10
175.1221299326
 20
203.1821859752
 30
0.0
 10
175.160447797
 20
203.1821859752
 30
0.0
 10
175.2317228064
 20
203.1967435209
 30
0.0
 10
175.2781299326
 20
203.2623616551
 30
0.0
 10
175.2781299326
 20
203.2924946331
 30
0.0
  0
SPLINE
  5
46A
100
AcDbEntity
  8
0
100
AcDbSpline
 62
7
  6
CONTINUOUS
 70
0
 71
3
 72
9
 73
5
 74
0
 42
0.0000001
 43
0.0000001
 44
0.0000000001
 40
0.0
 40
0.0
 40
0.0
 40
0.0
 40
0.5597866015
 40
1.0
 40
1.0
 40
1.0
 40
1.0
 10
175.1221299326
 20
200.4244695286
 30
0.0
 10
175.160447797
 20
200.4244695286
 30
0.0
 10
175.2317228064
 20
200.4390270743
 30
0.0
 10
175.2781299326
 20
200.5046452085
 30
0.0
 10
175.2781299326
 20
200.5347781864
 30
0.0
  0
SPLINE
  5
46B
100
AcDbEntity
  8
RUNDUNGEN
100
AcDbSpline
 62
7
  6
CONTINUOUS
 70
0
 71
3
 72
10
 73
6
 74
0
 42
0.0000001
 43
0.0000001
 44
0.0000000001
 40
0.0
 40
0.0
 40
0.0
 40
0.0
 40
0.2382826788
 40
0.481924951
 40
1.0
 40
1.0
 40
1.0
 40
1.0
 10
233.5615779884
 20
147.7897086171
 30
0.0
 10
233.5615779884
 20
148.0060986045
 30
0.0
 10
233.5134336283
 20
148.4452727637
 30
0.0
 10
233.224921288
 20
149.3117763553
 30
0.0
 10
232.807532042
 20
149.8888837541
 30
0.0
 10
232.4764902541
 20
150.2231873431
 30
0.0
  0
SPLINE
  5
46C
100
AcDbEntity
  8
0
100
AcDbSpline
 62
7
  6
CONTINUOUS
 70
0
 71
3
 72
11
 73
7
 74
0
 42
0.0000001
 43
0.0000001
 44
0.0000000001
 40
0.0
 40
0.0
 40
0.0
 40
0.0
 40
0.2865059912
 40
0.5484241175
 40
0.7833822346
 40
1.0
 40
1.0
 40
1.0
 40
1.0
 10
186.6244646992
 20
202.5049399206
 30
0.0
 10
186.8730037343
 20
202.5626816853
 30
0.0
 10
187.3389663469
 20
202.7269771185
 30
0.0
 10
187.921706865
 20
203.1276420121
 30
0.0
 10
188.3118563022
 20
203.6467356552
 30
0.0
 10
188.40681173
 20
204.0530869052
 30
0.0
 10
188.4067827899
 20
204.246003717
 30
0.0
  0
SPLINE
  5
46D
100
AcDbEntity
  8
0
100
AcDbSpline
 62
7
  6
CONTINUOUS
 70
0
 71
3
 72
9
 73
5
 74
0
 42
0.0000001
 43
0.0000001
 44
0.0000000001
 40
0.0
 40
0.0
 40
0.0
 40
0.0
 40
0.2536121958
 40
1.0
 40
1.0
 40
1.0
 40
1.0
 10
204.9414047811
 20
198.9077254829
 30
0.0
 10
204.9680972485
 20
198.9077254829
 30
0.0
 10
205.0732969318
 20
198.9115388672
 30
0.0
 10
205.1780635793
 20
198.9305441867
 30
0.0
 10
205.2531338301
 20
198.9536874237
 30
0.0
  0
SPLINE
  5
46E
100
AcDbEntity
  8
0
100
AcDbSpline
 62
7
  6
CONTINUOUS
 70
0
 71
3
 72
11
 73
7
 74
0
 42
0.0000001
 43
0.0000001
 44
0.0000000001
 40
0.0
 40
0.0
 40
0.0
 40
0.0
 40
0.2847819434
 40
0.5451774547
 40
0.7807010719
 40
1.0
 40
1.0
 40
1.0
 40
1.0
 10
205.2531338301
 20
198.9536874237
 30
0.0
 10
205.7193077107
 20
199.0974031095
 30
0.0
 10
206.5869168262
 20
199.4691389461
 30
0.0
 10
207.6571961203
 20
200.299265932
 30
0.0
 10
208.3620825158
 20
201.3306610354
 30
0.0
 10
208.5310029222
 20
202.1171035274
 30
0.0
 10
208.5310029222
 20
202.4927568635
 30
0.0
  0
SPLINE
  5
46F
100
AcDbEntity
  8
0
100
AcDbSpline
 62
7
  6
CONTINUOUS
 70
0
 71
3
 72
9
 73
5
 74
0
 42
0.0000001
 43
0.0000001
 44
0.0000000001
 40
0.0
 40
0.0
 40
0.0
 40
0.0
 40
0.239729366
 40
1.0
 40
1.0
 40
1.0
 40
1.0
 10
205.2058709961
 20
205.138493309
 30
0.0
 10
205.1886376662
 20
205.1478251692
 30
0.0
 10
205.1139763257
 20
205.181537086
 30
0.0
 10
205.0309038851
 20
205.1953189812
 30
0.0
 10
204.9687522024
 20
205.1953189812
 30
0.0
  0
SPLINE
  5
470
100
AcDbEntity
  8
RUNDUNGEN
100
AcDbSpline
 62
7
  6
CONTINUOUS
 70
0
 71
3
 72
11
 73
7
 74
0
 42
0.0000001
 43
0.0000001
 44
0.0000000001
 40
0.0
 40
0.0
 40
0.0
 40
0.0
 40
0.2256941123
 40
0.4632959297
 40
0.7206237644
 40
1.0
 40
1.0
 40
1.0
 40
1.0
 10
247.0740580545
 20
220.0339532652
 30
0.0
 10
247.0739837347
 20
220.147558686
 30
0.0
 10
247.032667783
 20
220.3823976368
 30
0.0
 10
246.8557790856
 20
220.7052031393
 30
0.0
 10
246.5787538476
 20
220.9852637841
 30
0.0
 10
246.347252532
 20
221.129199607
 30
0.0
 10
246.2212270513
 20
221.1915975318
 30
0.0
  0
SPLINE
  5
471
100
AcDbEntity
  8
RUNDUNGEN
100
AcDbSpline
 62
7
  6
CONTINUOUS
 70
0
 71
3
 72
10
 73
6
 74
0
 42
0.0000001
 43
0.0000001
 44
0.0000000001
 40
0.0
 40
0.0
 40
0.0
 40
0.0
 40
0.5180752141
 40
0.7617174128
 40
1.0
 40
1.0
 40
1.0
 40
1.0
 10
146.6466657227
 20
150.2231873431
 30
0.0
 10
146.3156238298
 20
149.8888836481
 30
0.0
 10
145.898234561
 20
149.3117761442
 30
0.0
 10
145.6097223016
 20
148.4452725296
 30
0.0
 10
145.5615779884
 20
148.0060985209
 30
0.0
 10
145.5615779884
 20
147.7897086171
 30
0.0
  0
SPLINE
  5
472
100
AcDbEntity
  8
RUNDUNGEN
100
AcDbSpline
 62
7
  6
CONTINUOUS
 70
0
 71
3
 72
11
 73
7
 74
0
 42
0.0000001
 43
0.0000001
 44
0.0000000001
 40
0.0
 40
0.0
 40
0.0
 40
0.0
 40
0.2793752682
 40
0.5367194959
 40
0.7743217448
 40
1.0
 40
1.0
 40
1.0
 40
1.0
 10
148.0033892429
 20
205.8797002574
 30
0.0
 10
147.8805083003
 20
205.818859261
 30
0.0
 10
147.654777292
 20
205.6785084047
 30
0.0
 10
147.3846619505
 20
205.405423104
 30
0.0
 10
147.2122064783
 20
205.0906582313
 30
0.0
 10
147.1719397847
 20
204.8616825081
 30
0.0
 10
147.1718772081
 20
204.7509191181
 30
0.0
  0
SPLINE
  5
473
100
AcDbEntity
  8
0
100
AcDbSpline
 62
7
  6
CONTINUOUS
 70
0
 71
3
 72
9
 73
5
 74
0
 42
0.0000001
 43
0.0000001
 44
0.0000000001
 40
0.0
 40
0.0
 40
0.0
 40
0.0
 40
0.4402133985
 40
1.0
 40
1.0
 40
1.0
 40
1.0
 10
173.7181299326
 20
203.7521140408
 30
0.0
 10
173.7181299326
 20
203.7219810629
 30
0.0
 10
173.7645370587
 20
203.6563629287
 30
0.0
 10
173.8358120681
 20
203.641805383
 30
0.0
 10
173.8741299326
 20
203.641805383
 30
0.0
  0
SPLINE
  5
474
100
AcDbEntity
  8
0
100
AcDbSpline
 62
7
  6
CONTINUOUS
 70
0
 71
3
 72
11
 73
7
 74
0
 42
0.0000001
 43
0.0000001
 44
0.0000000001
 40
0.0
 40
0.0
 40
0.0
 40
0.0
 40
0.2094668498
 40
0.4446559298
 40
0.7120302568
 40
1.0
 40
1.0
 40
1.0
 40
1.0
 10
175.8631299326
 20
204.6989300208
 30
0.0
 10
175.8631299326
 20
204.735473118
 30
0.0
 10
175.8393978307
 20
204.8139657489
 30
0.0
 10
175.7485191806
 20
204.9038518824
 30
0.0
 10
175.6208624433
 20
204.9615670753
 30
0.0
 10
175.5233684611
 20
204.9747016655
 30
0.0
 10
175.4731299326
 20
204.9747016655
 30
0.0
  0
SPLINE
  5
475
100
AcDbEntity
  8
BEZUGSACHSEN
100
AcDbSpline
 62
7
  6
CONTINUOUS
 70
0
 71
3
 72
19
 73
15
 74
0
 42
0.0000001
 43
0.0000001
 44
0.0000000001
 40
0.0
 40
0.0
 40
0.0
 40
0.0
 40
0.0517263209
 40
0.1053355973
 40
0.1622490903
 40
0.223216447
 40
0.356475981
 40
0.5
 40
0.643524019
 40
0.776783553
 40
0.8377509097
 40
0.8946644027
 40
0.9482736791
 40
1.0
 40
1.0
 40
1.0
 40
1.0
 10
184.0615779884
 20
216.304900347
 30
0.0
 10
184.0615779884
 20
216.0495598211
 30
0.0
 10
184.1356991434
 20
215.526936379
 30
0.0
 10
184.4599320421
 20
214.7853342365
 30
0.0
 10
184.9801478372
 20
214.1080613167
 30
0.0
 10
185.9307553042
 20
213.3006367707
 30
0.0
 10
187.4807303294
 20
212.6003153377
 30
0.0
 10
189.5615779884
 20
212.3201706315
 30
0.0
 10
191.6424256473
 20
212.6003153377
 30
0.0
 10
193.1924006725
 20
213.3006367707
 30
0.0
 10
194.1430081396
 20
214.1080613167
 30
0.0
 10
194.6632239347
 20
214.7853342365
 30
0.0
 10
194.9874568333
 20
215.526936379
 30
0.0
 10
195.0615779884
 20
216.0495598211
 30
0.0
 10
195.0615779884
 20
216.304900347
 30
0.0
  0
SPLINE
  5
476
100
AcDbEntity
  8
RUNDUNGEN
100
AcDbSpline
 62
7
  6
CONTINUOUS
 70
0
 71
3
 72
11
 73
7
 74
0
 42
0.0000001
 43
0.0000001
 44
0.0000000001
 40
0.0
 40
0.0
 40
0.0
 40
0.0
 40
0.2794012361
 40
0.5367224514
 40
0.7743079693
 40
1.0
 40
1.0
 40
1.0
 40
1.0
 10
136.1785371026
 20
222.8139166825
 30
0.0
 10
135.800162192
 20
222.6265751297
 30
0.0
 10
135.1051707756
 20
222.1943878289
 30
0.0
 10
134.2737453031
 20
221.3533559093
 30
0.0
 10
133.7432666142
 20
220.383943701
 30
0.0
 10
133.6199323598
 20
219.6788292656
 30
0.0
 10
133.6199986459
 20
219.3377775484
 30
0.0
  0
SPLINE
  5
477
100
AcDbEntity
  8
RUNDUNGEN
100
AcDbSpline
 62
7
  6
CONTINUOUS
 70
0
 71
3
 72
9
 73
5
 74
0
 42
0.0000001
 43
0.0000001
 44
0.0000000001
 40
0.0
 40
0.0
 40
0.0
 40
0.0
 40
0.5095978648
 40
1.0
 40
1.0
 40
1.0
 40
1.0
 10
152.5625988282
 20
225.5369280467
 30
0.0
 10
150.0460442105
 20
225.987852327
 30
0.0
 10
144.9481877918
 20
226.1086939086
 30
0.0
 10
140.0217131666
 20
224.7167557743
 30
0.0
 10
137.8168411912
 20
223.6250762578
 30
0.0
  0
SPLINE
  5
478
100
AcDbEntity
  8
0
100
AcDbSpline
 62
7
  6
CONTINUOUS
 70
0
 71
3
 72
9
 73
5
 74
0
 42
0.0000001
 43
0.0000001
 44
0.0000000001
 40
0.0
 40
0.0
 40
0.0
 40
0.0
 40
0.2473355684
 40
1.0
 40
1.0
 40
1.0
 40
1.0
 10
196.9680764468
 20
222.7240542916
 30
0.0
 10
196.6519940492
 20
222.8131543178
 30
0.0
 10
195.3671656553
 20
223.1486387172
 30
0.0
 10
194.0569528552
 20
223.3859893764
 30
0.0
 10
193.0654188652
 20
223.510751135
 30
0.0
  0
SPLINE
  5
479
100
AcDbEntity
  8
0
100
AcDbSpline
 62
7
  6
CONTINUOUS
 70
0
 71
3
 72
9
 73
5
 74
0
 42
0.0000001
 43
0.0000001
 44
0.0000000001
 40
0.0
 40
0.0
 40
0.0
 40
0.0
 40
0.252560017
 40
1.0
 40
1.0
 40
1.0
 40
1.0
 10
186.0577371116
 20
223.510751135
 30
0.0
 10
185.7250257219
 20
223.4688870552
 30
0.0
 10
184.4108153932
 20
223.2792424618
 30
0.0
 10
183.1102632655
 20
222.9933097027
 30
0.0
 10
182.1550795299
 20
222.7240542916
 30
0.0
  0
SPLINE
  5
47A
100
AcDbEntity
  8
RUNDUNGEN
100
AcDbSpline
 62
7
  6
CONTINUOUS
 70
0
 71
3
 72
10
 73
6
 74
0
 42
0.0000001
 43
0.0000001
 44
0.0000000001
 40
0.0
 40
0.0
 40
0.0
 40
0.0
 40
0.2540840964
 40
0.5191023951
 40
1.0
 40
1.0
 40
1.0
 40
1.0
 10
239.3403498793
 20
224.5984677482
 30
0.0
 10
239.1168775879
 20
224.709113684
 30
0.0
 10
238.6182662714
 20
224.857142373
 30
0.0
 10
237.6357336096
 20
224.8744281974
 30
0.0
 10
236.8869817604
 20
224.5865323532
 30
0.0
 10
236.554892918
 20
224.2511713929
 30
0.0
  0
SPLINE
  5
47B
100
AcDbEntity
  8
0
100
AcDbSpline
 62
7
  6
CONTINUOUS
 70
0
 71
3
 72
11
 73
7
 74
0
 42
0.0000001
 43
0.0000001
 44
0.0000000001
 40
0.0
 40
0.0
 40
0.0
 40
0.0
 40
0.227142142
 40
0.4653047767
 40
0.7220182825
 40
1.0
 40
1.0
 40
1.0
 40
1.0
 10
207.0404220837
 20
202.5111416399
 30
0.0
 10
207.0404220837
 20
202.7651868269
 30
0.0
 10
206.9530025244
 20
203.289060741
 30
0.0
 10
206.575424188
 20
204.0154507584
 30
0.0
 10
205.9801742031
 20
204.6543295116
 30
0.0
 10
205.4792673872
 20
204.9904489725
 30
0.0
 10
205.2058709961
 20
205.138493309
 30
0.0
  0
SPLINE
  5
47C
100
AcDbEntity
  8
0
100
AcDbSpline
 62
7
  6
CONTINUOUS
 70
0
 71
3
 72
9
 73
5
 74
0
 42
0.0000001
 43
0.0000001
 44
0.0000000001
 40
0.0
 40
0.0
 40
0.0
 40
0.0
 40
0.2536121958
 40
1.0
 40
1.0
 40
1.0
 40
1.0
 10
204.9414047811
 20
199.3673448907
 30
0.0
 10
204.9680972485
 20
199.3673448907
 30
0.0
 10
205.0732969318
 20
199.371158275
 30
0.0
 10
205.1780635793
 20
199.3901635945
 30
0.0
 10
205.2531338301
 20
199.4133068315
 30
0.0
  0
SPLINE
  5
47D
100
AcDbEntity
  8
0
100
AcDbSpline
 62
7
  6
CONTINUOUS
 70
0
 71
3
 72
19
 73
15
 74
0
 42
0.0000001
 43
0.0000001
 44
0.0000000001
 40
0.0
 40
0.0
 40
0.0
 40
0.0
 40
0.0517234907
 40
0.1053372095
 40
0.1622487312
 40
0.2232163938
 40
0.3564752704
 40
0.5
 40
0.6435247296
 40
0.7767836062
 40
0.8377512688
 40
0.8946627905
 40
0.9482765093
 40
1.0
 40
1.0
 40
1.0
 40
1.0
 10
190.2876716245
 20
201.5411933938
 30
0.0
 10
190.2876716245
 20
201.3693733565
 30
0.0
 10
190.3375707591
 20
201.0176777716
 30
0.0
 10
190.5557294106
 20
200.518608649
 30
0.0
 10
190.9058430138
 20
200.0628589006
 30
0.0
 10
191.5455205912
 20
199.5194955948
 30
0.0
 10
192.5885695317
 20
199.0482188513
 30
0.0
 10
193.9888596089
 20
198.8596754352
 30
0.0
 10
195.3891496861
 20
199.0482188513
 30
0.0
 10
196.4321986266
 20
199.5194955948
 30
0.0
 10
197.071876204
 20
200.0628589006
 30
0.0
 10
197.4219898071
 20
200.518608649
 30
0.0
 10
197.6401484586
 20
201.0176777716
 30
0.0
 10
197.6900475932
 20
201.3693733565
 30
0.0
 10
197.6900475932
 20
201.5411933938
 30
0.0
  0
SPLINE
  5
47E
100
AcDbEntity
  8
0
100
AcDbSpline
 62
7
  6
CONTINUOUS
 70
0
 71
3
 72
9
 73
5
 74
0
 42
0.0000001
 43
0.0000001
 44
0.0000000001
 40
0.0
 40
0.0
 40
0.0
 40
0.0
 40
0.4402133985
 40
1.0
 40
1.0
 40
1.0
 40
1.0
 10
173.7181299326
 20
200.5347781864
 30
0.0
 10
173.7181299326
 20
200.5046452085
 30
0.0
 10
173.7645370587
 20
200.4390270743
 30
0.0
 10
173.8358120681
 20
200.4244695286
 30
0.0
 10
173.8741299326
 20
200.4244695286
 30
0.0
  0
SPLINE
  5
47F
100
AcDbEntity
  8
0
100
AcDbSpline
 62
7
  6
CONTINUOUS
 70
0
 71
3
 72
11
 73
7
 74
0
 42
0.0000001
 43
0.0000001
 44
0.0000000001
 40
0.0
 40
0.0
 40
0.0
 40
0.0
 40
0.2816347582
 40
0.5420479832
 40
0.7798483853
 40
1.0
 40
1.0
 40
1.0
 40
1.0
 10
205.2531338301
 20
199.4133068315
 30
0.0
 10
205.6741715283
 20
199.5431075862
 30
0.0
 10
206.4636438622
 20
199.872071345
 30
0.0
 10
207.4658421506
 20
200.5886349266
 30
0.0
 10
208.1837786982
 20
201.4736590456
 30
0.0
 10
208.4372851068
 20
202.162284852
 30
0.0
 10
208.4937160567
 20
202.5020372165
 30
0.0
  0
SPLINE
  5
480
100
AcDbEntity
  8
0
100
AcDbSpline
 62
7
  6
CONTINUOUS
 70
0
 71
3
 72
9
 73
5
 74
0
 42
0.0000001
 43
0.0000001
 44
0.0000000001
 40
0.0
 40
0.0
 40
0.0
 40
0.0
 40
0.2591205677
 40
1.0
 40
1.0
 40
1.0
 40
1.0
 10
204.9687522024
 20
205.654938389
 30
0.0
 10
204.989928872
 20
205.654938389
 30
0.0
 10
205.071508536
 20
205.6502645382
 30
0.0
 10
205.1526274956
 20
205.6269441095
 30
0.0
 10
205.2058709961
 20
205.5981127168
 30
0.0
  0
SPLINE
  5
481
100
AcDbEntity
  8
0
100
AcDbSpline
 62
7
  6
CONTINUOUS
 70
0
 71
3
 72
11
 73
7
 74
0
 42
0.0000001
 43
0.0000001
 44
0.0000000001
 40
0.0
 40
0.0
 40
0.0
 40
0.0
 40
0.2779697373
 40
0.5346991835
 40
0.7728568778
 40
1.0
 40
1.0
 40
1.0
 40
1.0
 10
205.2058709961
 20
205.5981127168
 30
0.0
 10
205.4792565841
 20
205.4500742301
 30
0.0
 10
205.9801574037
 20
205.1139405319
 30
0.0
 10
206.5754469328
 20
204.4750920669
 30
0.0
 10
206.953010875
 20
203.7486754381
 30
0.0
 10
207.040445472
 20
203.2248082411
 30
0.0
 10
207.040445472
 20
202.9707610476
 30
0.0
  0
SPLINE
  5
482
100
AcDbEntity
  8
0
100
AcDbSpline
 62
7
  6
CONTINUOUS
 70
0
 71
3
 72
9
 73
5
 74
0
 42
0.0000001
 43
0.0000001
 44
0.0000000001
 40
0.0
 40
0.0
 40
0.0
 40
0.0
 40
0.4402133985
 40
1.0
 40
1.0
 40
1.0
 40
1.0
 10
173.7181299326
 20
200.9943975942
 30
0.0
 10
173.7181299326
 20
200.9642646162
 30
0.0
 10
173.7645370587
 20
200.8986464821
 30
0.0
 10
173.8358120681
 20
200.8840889363
 30
0.0
 10
173.8741299326
 20
200.8840889363
 30
0.0
  0
SPLINE
  5
483
100
AcDbEntity
  8
0
100
AcDbSpline
 62
7
  6
CONTINUOUS
 70
0
 71
3
 72
17
 73
13
 74
0
 42
0.0000001
 43
0.0000001
 44
0.0000000001
 40
0.0
 40
0.0
 40
0.0
 40
0.0
 40
0.0519082659
 40
0.1062678596
 40
0.2250851405
 40
0.3581749994
 40
0.5
 40
0.6418250006
 40
0.7749148595
 40
0.8937321404
 40
0.9480917341
 40
1.0
 40
1.0
 40
1.0
 40
1.0
 10
190.3151236826
 20
201.6830833996
 30
0.0
 10
190.3426328533
 20
201.5240910511
 30
0.0
 10
190.4413841007
 20
201.2046771369
 30
0.0
 10
190.8023701995
 20
200.5990644906
 30
0.0
 10
191.5425790453
 20
199.9616139451
 30
0.0
 10
192.6894631504
 20
199.4913784532
 30
0.0
 10
193.9888596089
 20
199.3281522752
 30
0.0
 10
195.2882560674
 20
199.4913784532
 30
0.0
 10
196.4351401724
 20
199.9616139451
 30
0.0
 10
197.1753490182
 20
200.5990644906
 30
0.0
 10
197.536335117
 20
201.2046771369
 30
0.0
 10
197.6350863644
 20
201.5240910511
 30
0.0
 10
197.6625955351
 20
201.6830833996
 30
0.0
  0
SPLINE
  5
484
100
AcDbEntity
  8
0
100
AcDbSpline
 62
7
  6
CONTINUOUS
 70
0
 71
3
 72
11
 73
7
 74
0
 42
0.0000001
 43
0.0000001
 44
0.0000000001
 40
0.0
 40
0.0
 40
0.0
 40
0.0
 40
0.2782911642
 40
0.539206302
 40
0.7792454761
 40
1.0
 40
1.0
 40
1.0
 40
1.0
 10
186.6244646992
 20
202.9645593284
 30
0.0
 10
186.8221310113
 20
203.0104821013
 30
0.0
 10
187.1983534039
 20
203.1339245093
 30
0.0
 10
187.6957265667
 20
203.4176197406
 30
0.0
 10
188.0838903215
 20
203.7809529383
 30
0.0
 10
188.2587135621
 20
204.0752324847
 30
0.0
 10
188.3163707753
 20
204.2255273294
 30
0.0
  0
SPLINE
  5
485
100
AcDbEntity
  8
0
100
AcDbSpline
 62
7
  6
CONTINUOUS
 70
0
 71
3
 72
8
 73
4
 74
0
 42
0.0000001
 43
0.0000001
 44
0.0000000001
 40
0.0
 40
0.0
 40
0.0
 40
0.0
 40
1.0
 40
1.0
 40
1.0
 40
1.0
 10
188.3163707753
 20
204.2255273294
 30
0.0
 10
188.3462006115
 20
204.3032846531
 30
0.0
 10
188.3693287543
 20
204.3840096023
 30
0.0
 10
188.3845874349
 20
204.4658826332
 30
0.0
  0
SPLINE
  5
486
100
AcDbEntity
  8
0
100
AcDbSpline
 62
7
  6
CONTINUOUS
 70
0
 71
3
 72
11
 73
7
 74
0
 42
0.0000001
 43
0.0000001
 44
0.0000000001
 40
0.0
 40
0.0
 40
0.0
 40
0.0
 40
0.2880066977
 40
0.5553334191
 40
0.790532629
 40
1.0
 40
1.0
 40
1.0
 40
1.0
 10
185.8156716245
 20
205.7009003298
 30
0.0
 10
185.997081817
 20
205.7009003298
 30
0.0
 10
186.349091277
 20
205.6535012899
 30
0.0
 10
186.8099485547
 20
205.4450293792
 30
0.0
 10
187.1380852536
 20
205.1205592579
 30
0.0
 10
187.2237883432
 20
204.8371511451
 30
0.0
 10
187.2237883432
 20
204.7052114493
 30
0.0
  0
SPLINE
  5
487
100
AcDbEntity
  8
0
100
AcDbSpline
 62
7
  6
CONTINUOUS
 70
0
 71
3
 72
9
 73
5
 74
0
 42
0.0000001
 43
0.0000001
 44
0.0000000001
 40
0.0
 40
0.0
 40
0.0
 40
0.0
 40
0.5597866015
 40
1.0
 40
1.0
 40
1.0
 40
1.0
 10
175.1221299326
 20
200.8840889363
 30
0.0
 10
175.160447797
 20
200.8840889363
 30
0.0
 10
175.2317228064
 20
200.8986464821
 30
0.0
 10
175.2781299326
 20
200.9642646162
 30
0.0
 10
175.2781299326
 20
200.9943975942
 30
0.0
  0
SPLINE
  5
488
100
AcDbEntity
  8
0
100
AcDbSpline
 62
7
  6
CONTINUOUS
 70
0
 71
3
 72
9
 73
5
 74
0
 42
0.0000001
 43
0.0000001
 44
0.0000000001
 40
0.0
 40
0.0
 40
0.0
 40
0.0
 40
0.4402133985
 40
1.0
 40
1.0
 40
1.0
 40
1.0
 10
174.2056299326
 20
203.8072683698
 30
0.0
 10
174.2056299326
 20
203.8374013477
 30
0.0
 10
174.2520370587
 20
203.9030194819
 30
0.0
 10
174.3233120681
 20
203.9175770276
 30
0.0
 10
174.3616299326
 20
203.9175770276
 30
0.0
  0
SPLINE
  5
489
100
AcDbEntity
  8
RUNDUNGEN
100
AcDbSpline
 62
7
  6
CONTINUOUS
 70
0
 71
3
 72
11
 73
7
 74
0
 42
0.0000001
 43
0.0000001
 44
0.0000000001
 40
0.0
 40
0.0
 40
0.0
 40
0.0
 40
0.2256778953
 40
0.4632795617
 40
0.7206246471
 40
1.0
 40
1.0
 40
1.0
 40
1.0
 10
153.730748528
 20
209.9105415547
 30
0.0
 10
153.7306402214
 20
209.7259386867
 30
0.0
 10
153.6635233572
 20
209.3443200156
 30
0.0
 10
153.3760967499
 20
208.8197220519
 30
0.0
 10
152.9259079674
 20
208.3645884024
 30
0.0
 10
152.5496939534
 20
208.1306734583
 30
0.0
 10
152.3448950776
 20
208.0292731321
 30
0.0
  0
SPLINE
  5
48A
100
AcDbEntity
  8
0
100
AcDbSpline
 62
7
  6
CONTINUOUS
 70
0
 71
3
 72
9
 73
5
 74
0
 42
0.0000001
 43
0.0000001
 44
0.0000000001
 40
0.0
 40
0.0
 40
0.0
 40
0.0
 40
0.5597866015
 40
1.0
 40
1.0
 40
1.0
 40
1.0
 10
174.6346299326
 20
203.9175770276
 30
0.0
 10
174.672947797
 20
203.9175770276
 30
0.0
 10
174.7442228064
 20
203.9030194819
 30
0.0
 10
174.7906299326
 20
203.8374013477
 30
0.0
 10
174.7906299326
 20
203.8072683698
 30
0.0
  0
SPLINE
  5
48B
100
AcDbEntity
  8
0
100
AcDbSpline
 62
7
  6
CONTINUOUS
 70
0
 71
3
 72
9
 73
5
 74
0
 42
0.0000001
 43
0.0000001
 44
0.0000000001
 40
0.0
 40
0.0
 40
0.0
 40
0.0
 40
0.5597866015
 40
1.0
 40
1.0
 40
1.0
 40
1.0
 10
175.1221299326
 20
203.641805383
 30
0.0
 10
175.160447797
 20
203.641805383
 30
0.0
 10
175.2317228064
 20
203.6563629287
 30
0.0
 10
175.2781299326
 20
203.7219810629
 30
0.0
 10
175.2781299326
 20
203.7521140408
 30
0.0
  0
SPLINE
  5
48C
100
AcDbEntity
  8
0
100
AcDbSpline
 62
7
  6
CONTINUOUS
 70
0
 71
3
 72
11
 73
7
 74
0
 42
0.0000001
 43
0.0000001
 44
0.0000000001
 40
0.0
 40
0.0
 40
0.0
 40
0.0
 40
0.2876567391
 40
0.555407049
 40
0.7907201247
 40
1.0
 40
1.0
 40
1.0
 40
1.0
 10
175.4731299326
 20
205.4343210733
 30
0.0
 10
175.5233065853
 20
205.4343210733
 30
0.0
 10
175.6207249599
 20
205.4209873242
 30
0.0
 10
175.7486201791
 20
205.3636400811
 30
0.0
 10
175.8391962977
 20
205.273422221
 30
0.0
 10
175.8631299326
 20
205.1950546176
 30
0.0
 10
175.8631299326
 20
205.1585494286
 30
0.0
  0
SPLINE
  5
48D
100
AcDbEntity
  8
0
100
AcDbSpline
 62
7
  6
CONTINUOUS
 70
0
 71
3
 72
8
 73
4
 74
0
 42
0.0000001
 43
0.0000001
 44
0.0000000001
 40
0.0
 40
0.0
 40
0.0
 40
0.0
 40
1.0
 40
1.0
 40
1.0
 40
1.0
 10
175.5772853325
 20
202.6664467822
 30
0.0
 10
175.608264876
 20
202.6603660409
 30
0.0
 10
175.6388810739
 20
202.651541489
 30
0.0
 10
175.6681299326
 20
202.6396582319
 30
0.0
  0
SPLINE
  5
48E
100
AcDbEntity
  8
0
100
AcDbSpline
 62
7
  6
CONTINUOUS
 70
0
 71
3
 72
9
 73
5
 74
0
 42
0.0000001
 43
0.0000001
 44
0.0000000001
 40
0.0
 40
0.0
 40
0.0
 40
0.0
 40
0.5424756321
 40
1.0
 40
1.0
 40
1.0
 40
1.0
 10
175.6681299326
 20
202.6396582319
 30
0.0
 10
175.7221214165
 20
202.617722515
 30
0.0
 10
175.817333463
 20
202.5580081567
 30
0.0
 10
175.8631299326
 20
202.449984191
 30
0.0
 10
175.8631299326
 20
202.400832982
 30
0.0
  0
SPLINE
  5
48F
100
AcDbEntity
  8
0
100
AcDbSpline
 62
7
  6
CONTINUOUS
 70
0
 71
3
 72
9
 73
5
 74
0
 42
0.0000001
 43
0.0000001
 44
0.0000000001
 40
0.0
 40
0.0
 40
0.0
 40
0.0
 40
0.4575243679
 40
1.0
 40
1.0
 40
1.0
 40
1.0
 10
173.1331299326
 20
202.400832982
 30
0.0
 10
173.1331299326
 20
202.449984191
 30
0.0
 10
173.1789264021
 20
202.5580081567
 30
0.0
 10
173.2741384486
 20
202.617722515
 30
0.0
 10
173.3281299326
 20
202.6396582319
 30
0.0
  0
SPLINE
  5
490
100
AcDbEntity
  8
0
100
AcDbSpline
 62
7
  6
CONTINUOUS
 70
0
 71
3
 72
9
 73
5
 74
0
 42
0.0000001
 43
0.0000001
 44
0.0000000001
 40
0.0
 40
0.0
 40
0.0
 40
0.0
 40
0.2441493338
 40
1.0
 40
1.0
 40
1.0
 40
1.0
 10
173.3281299326
 20
202.6396582319
 30
0.0
 10
173.3431456568
 20
202.6457588362
 30
0.0
 10
173.4059890588
 20
202.667345058
 30
0.0
 10
173.4729532798
 20
202.6766046266
 30
0.0
 10
173.5231299326
 20
202.6766046266
 30
0.0
  0
SPLINE
  5
491
100
AcDbEntity
  8
0
100
AcDbSpline
 62
7
  6
CONTINUOUS
 70
0
 71
3
 72
11
 73
7
 74
0
 42
0.0000001
 43
0.0000001
 44
0.0000000001
 40
0.0
 40
0.0
 40
0.0
 40
0.0
 40
0.2092798753
 40
0.444592951
 40
0.7123432609
 40
1.0
 40
1.0
 40
1.0
 40
1.0
 10
173.1331299326
 20
205.1585494286
 30
0.0
 10
173.1331299326
 20
205.1950546176
 30
0.0
 10
173.1570635674
 20
205.273422221
 30
0.0
 10
173.247639686
 20
205.3636400811
 30
0.0
 10
173.3755349052
 20
205.4209873242
 30
0.0
 10
173.4729532798
 20
205.4343210733
 30
0.0
 10
173.5231299326
 20
205.4343210733
 30
0.0
  0
SPLINE
  5
492
100
AcDbEntity
  8
0
100
AcDbSpline
 62
7
  6
CONTINUOUS
 70
0
 71
3
 72
9
 73
5
 74
0
 42
0.0000001
 43
0.0000001
 44
0.0000000001
 40
0.0
 40
0.0
 40
0.0
 40
0.0
 40
0.538986273
 40
1.0
 40
1.0
 40
1.0
 40
1.0
 10
177.6181299326
 20
199.3673448907
 30
0.0
 10
177.7658844481
 20
199.3673448907
 30
0.0
 10
178.0430842105
 20
199.4192145495
 30
0.0
 10
178.274950035
 20
199.5987318221
 30
0.0
 10
178.3387559679
 20
199.707821701
 30
0.0
  0
SPLINE
  5
493
100
AcDbEntity
  8
0
100
AcDbSpline
 62
7
  6
CONTINUOUS
 70
0
 71
3
 72
9
 73
5
 74
0
 42
0.0000001
 43
0.0000001
 44
0.0000000001
 40
0.0
 40
0.0
 40
0.0
 40
0.0
 40
0.2592261758
 40
1.0
 40
1.0
 40
1.0
 40
1.0
 10
178.3387559679
 20
199.707821701
 30
0.0
 10
178.3483836424
 20
199.7242822682
 30
0.0
 10
178.3816939788
 20
199.7899047182
 30
0.0
 10
178.3981299326
 20
199.8643947649
 30
0.0
 10
178.3981299326
 20
199.91888818
 30
0.0
  0
SPLINE
  5
494
100
AcDbEntity
  8
RUNDUNGEN
100
AcDbSpline
 62
7
  6
CONTINUOUS
 70
0
 71
3
 72
11
 73
7
 74
0
 42
0.0000001
 43
0.0000001
 44
0.0000000001
 40
0.0
 40
0.0
 40
0.0
 40
0.0
 40
0.2660806569
 40
0.5190943725
 40
0.7622194677
 40
1.0
 40
1.0
 40
1.0
 40
1.0
 10
213.4640985317
 20
169.4229108249
 30
0.0
 10
212.8961601275
 20
169.9964452058
 30
0.0
 10
211.8739067464
 20
171.2059318071
 30
0.0
 10
210.7166450262
 20
173.2234136736
 30
0.0
 10
210.0071522051
 20
175.3497217859
 30
0.0
 10
209.8471393925
 20
176.8132024477
 30
0.0
 10
209.8471394175
 20
177.5345071666
 30
0.0
  0
SPLINE
  5
495
100
AcDbEntity
  8
RUNDUNGEN
100
AcDbSpline
 62
7
  6
CONTINUOUS
 70
0
 71
3
 72
10
 73
6
 74
0
 42
0.0000001
 43
0.0000001
 44
0.0000000001
 40
0.0
 40
0.0
 40
0.0
 40
0.0
 40
0.4718790713
 40
0.7326145219
 40
1.0
 40
1.0
 40
1.0
 40
1.0
 10
226.2640097116
 20
213.8588906724
 30
0.0
 10
225.6383617468
 20
213.2270781106
 30
0.0
 10
224.3794155266
 20
212.5215472699
 30
0.0
 10
222.5431300284
 20
212.0896013832
 30
0.0
 10
221.5417238078
 20
212.0369363215
 30
0.0
 10
221.0382245587
 20
212.0554330363
 30
0.0
  0
SPLINE
  5
496
100
AcDbEntity
  8
KONSTRUKTIONSELEMENTE
100
AcDbSpline
 62
7
  6
CONTINUOUS
 70
0
 71
3
 72
16
 73
12
 74
0
 42
0.0000001
 43
0.0000001
 44
0.0000000001
 40
0.0
 40
0.0
 40
0.0
 40
0.0
 40
0.0624754894
 40
0.1249640371
 40
0.1874690722
 40
0.2499892371
 40
0.3749244253
 40
0.499936218
 40
0.6249793315
 40
0.750038632
 40
1.0
 40
1.0
 40
1.0
 40
1.0
 10
168.1214287352
 20
235.7845687092
 30
0.0
 10
168.1214287352
 20
236.1781712516
 30
0.0
 10
168.2090428824
 20
236.9679166567
 30
0.0
 10
168.5794581015
 20
238.0965437579
 30
0.0
 10
169.1378633409
 20
239.1431124921
 30
0.0
 10
170.0669834852
 20
240.4192672869
 30
0.0
 10
171.4806498898
 20
241.8073165439
 30
0.0
 10
173.3995368107
 20
243.1949800343
 30
0.0
 10
175.4644656057
 20
244.3537396896
 30
0.0
 10
178.3489670858
 20
245.6283638664
 30
0.0
 10
180.6244393045
 20
246.3096780878
 30
0.0
 10
182.1615779884
 20
246.6519510379
 30
0.0
  0
SPLINE
  5
497
100
AcDbEntity
  8
KONSTRUKTIONSELEMENTE
100
AcDbSpline
 62
7
  6
CONTINUOUS
 70
0
 71
3
 72
9
 73
5
 74
0
 42
0.0000001
 43
0.0000001
 44
0.0000000001
 40
0.0
 40
0.0
 40
0.0
 40
0.0
 40
0.5000902521
 40
1.0
 40
1.0
 40
1.0
 40
1.0
 10
167.4241943865
 20
229.4845687092
 30
0.0
 10
167.6411418329
 20
230.0935140696
 30
0.0
 10
167.993749816
 20
231.3429954725
 30
0.0
 10
168.1214287352
 20
232.638365151
 30
0.0
 10
168.1214287352
 20
233.2845687092
 30
0.0
  0
SPLINE
  5
498
100
AcDbEntity
  8
KONSTRUKTIONSELEMENTE
100
AcDbSpline
 62
7
  6
CONTINUOUS
 70
0
 71
3
 72
9
 73
5
 74
0
 42
0.0000001
 43
0.0000001
 44
0.0000000001
 40
0.0
 40
0.0
 40
0.0
 40
0.0
 40
0.4999097479
 40
1.0
 40
1.0
 40
1.0
 40
1.0
 10
211.0017272416
 20
233.2845687092
 30
0.0
 10
211.0017272416
 20
232.638365151
 30
0.0
 10
211.1294061608
 20
231.3429954725
 30
0.0
 10
211.4820141439
 20
230.0935140696
 30
0.0
 10
211.6989615903
 20
229.4845687092
 30
0.0
  0
SPLINE
  5
499
100
AcDbEntity
  8
KONSTRUKTIONSELEMENTE
100
AcDbSpline
 62
7
  6
CONTINUOUS
 70
0
 71
3
 72
16
 73
12
 74
0
 42
0.0000001
 43
0.0000001
 44
0.0000000001
 40
0.0
 40
0.0
 40
0.0
 40
0.0
 40
0.2499649636
 40
0.3750266805
 40
0.500072585
 40
0.6250862547
 40
0.7500188482
 40
0.8125376998
 40
0.8750414562
 40
0.9375276187
 40
1.0
 40
1.0
 40
1.0
 40
1.0
 10
196.9615779884
 20
246.6519510379
 30
0.0
 10
198.4987388371
 20
246.3096731524
 30
0.0
 10
200.7742452485
 20
245.6283407968
 30
0.0
 10
203.6587983374
 20
244.3536951355
 30
0.0
 10
205.7237561841
 20
243.1948943077
 30
0.0
 10
207.6426389354
 20
241.8072030222
 30
0.0
 10
209.056281942
 20
240.4191469484
 30
0.0
 10
209.985358534
 20
239.1430010861
 30
0.0
 10
210.5437378472
 20
238.0964542372
 30
0.0
 10
210.9141222395
 20
236.9678620699
 30
0.0
 10
211.0017272416
 20
236.1781516844
 30
0.0
 10
211.0017272416
 20
235.7845687092
 30
0.0
  0
SPLINE
  5
49A
100
AcDbEntity
  8
RUNDUNGEN
100
AcDbSpline
 62
7
  6
CONTINUOUS
 70
0
 71
3
 72
10
 73
6
 74
0
 42
0.0000001
 43
0.0000001
 44
0.0000000001
 40
0.0
 40
0.0
 40
0.0
 40
0.0
 40
0.4906979984
 40
0.7439106322
 40
1.0
 40
1.0
 40
1.0
 40
1.0
 10
176.1048641694
 20
271.7845687092
 30
0.0
 10
174.8953656677
 20
271.7845687092
 30
0.0
 10
173.0626415473
 20
271.7041409587
 30
0.0
 10
170.5996354568
 20
271.6125465375
 30
0.0
 10
169.3441969777
 20
271.5940437285
 30
0.0
 10
168.7129742954
 20
271.5940437285
 30
0.0
  0
SPLINE
  5
49B
100
AcDbEntity
  8
RUNDUNGEN
100
AcDbSpline
 62
7
  6
CONTINUOUS
 70
0
 71
3
 72
16
 73
12
 74
0
 42
0.0000001
 43
0.0000001
 44
0.0000000001
 40
0.0
 40
0.0
 40
0.0
 40
0.0
 40
0.0570072422
 40
0.0907934067
 40
0.1296044925
 40
0.2244297782
 40
0.3432733938
 40
0.4846115686
 40
0.644871161
 40
0.8188315326
 40
1.0
 40
1.0
 40
1.0
 40
1.0
 10
226.5615779884
 20
253.247590013
 30
0.0
 10
226.5615779884
 20
253.3733354351
 30
0.0
 10
226.4913085632
 20
253.5747203811
 30
0.0
 10
226.3117367983
 20
253.7976155465
 30
0.0
 10
226.0337455429
 20
254.0434608483
 30
0.0
 10
225.5456736176
 20
254.3210362065
 30
0.0
 10
224.8121468778
 20
254.5994909116
 30
0.0
 10
223.9125289167
 20
254.8313260717
 30
0.0
 10
222.8772292096
 20
255.0061150159
 30
0.0
 10
221.7447656031
 20
255.1149112606
 30
0.0
 10
220.9611957302
 20
255.1393827463
 30
0.0
 10
220.5615779884
 20
255.1393827463
 30
0.0
  0
SPLINE
  5
49C
100
AcDbEntity
  8
KONSTRUKTIONSELEMENTE
100
AcDbSpline
 62
7
  6
CONTINUOUS
 70
0
 71
3
 72
24
 73
20
 74
0
 42
0.0000001
 43
0.0000001
 44
0.0000000001
 40
0.0
 40
0.0
 40
0.0
 40
0.0
 40
0.1921951008
 40
0.3778459574
 40
0.5499861603
 40
0.6287921382
 40
0.7016334782
 40
0.7677252977
 40
0.8263610973
 40
0.8769167603
 40
0.9188803311
 40
0.9365217123
 40
0.9518907133
 40
0.964973902
 40
0.9757901137
 40
0.9843980817
 40
0.9909521934
 40
0.9958486586
 40
1.0
 40
1.0
 40
1.0
 40
1.0
 10
167.4241943865
 20
229.4845687092
 30
0.0
 10
167.020297394
 20
228.3508784823
 30
0.0
 10
166.2846355173
 20
226.1009740792
 30
0.0
 10
165.3587781219
 20
222.7829812894
 30
0.0
 10
164.7250409653
 20
220.1228308802
 30
0.0
 10
164.3110429298
 20
218.137954628
 30
0.0
 10
164.0579781638
 20
216.7981121527
 30
0.0
 10
163.8530473406
 20
215.5779735541
 30
0.0
 10
163.6961776315
 20
214.4915229227
 30
0.0
 10
163.5872948374
 20
213.5511784471
 30
0.0
 10
163.5330641861
 20
212.8632188685
 30
0.0
 10
163.5167762498
 20
212.3939489762
 30
0.0
 10
163.5173237826
 20
212.1052424976
 30
0.0
 10
163.5297608419
 20
211.8595197466
 30
0.0
 10
163.5539300387
 20
211.6572254743
 30
0.0
 10
163.5898098549
 20
211.4979984987
 30
0.0
 10
163.6375210176
 20
211.3811656833
 30
0.0
 10
163.7012186845
 20
211.3028747498
 30
0.0
 10
163.7590530379
 20
211.2845687092
 30
0.0
 10
163.7850479494
 20
211.2845687092
 30
0.0
  0
SPLINE
  5
49D
100
AcDbEntity
  8
KONSTRUKTIONSELEMENTE
100
AcDbSpline
 62
7
  6
CONTINUOUS
 70
0
 71
3
 72
24
 73
20
 74
0
 42
0.0000001
 43
0.0000001
 44
0.0000000001
 40
0.0
 40
0.0
 40
0.0
 40
0.0
 40
0.0041513414
 40
0.0090478066
 40
0.0156019183
 40
0.0242098863
 40
0.035026098
 40
0.0481092867
 40
0.0634782877
 40
0.0811196689
 40
0.1230832397
 40
0.1736389027
 40
0.2322747023
 40
0.2983665218
 40
0.3712078618
 40
0.4500138397
 40
0.6221540426
 40
0.8078048992
 40
1.0
 40
1.0
 40
1.0
 40
1.0
 10
215.3381080274
 20
211.2845687092
 30
0.0
 10
215.3641029389
 20
211.2845687092
 30
0.0
 10
215.4219372923
 20
211.3028747498
 30
0.0
 10
215.4856349592
 20
211.3811656833
 30
0.0
 10
215.5333461218
 20
211.4979984987
 30
0.0
 10
215.5692259381
 20
211.6572254743
 30
0.0
 10
215.5933951349
 20
211.8595197466
 30
0.0
 10
215.6058321942
 20
212.1052424976
 30
0.0
 10
215.606379727
 20
212.3939489762
 30
0.0
 10
215.5900917907
 20
212.8632188685
 30
0.0
 10
215.5358611394
 20
213.5511784471
 30
0.0
 10
215.4269783453
 20
214.4915229227
 30
0.0
 10
215.2701086362
 20
215.5779735541
 30
0.0
 10
215.065177813
 20
216.7981121527
 30
0.0
 10
214.812113047
 20
218.137954628
 30
0.0
 10
214.3981150115
 20
220.1228308802
 30
0.0
 10
213.7643778549
 20
222.7829812894
 30
0.0
 10
212.8385204594
 20
226.1009740792
 30
0.0
 10
212.1028585828
 20
228.3508784823
 30
0.0
 10
211.6989615903
 20
229.4845687092
 30
0.0
  0
SPLINE
  5
49E
100
AcDbEntity
  8
RUNDUNGEN
100
AcDbSpline
 62
7
  6
CONTINUOUS
 70
0
 71
3
 72
9
 73
5
 74
0
 42
0.0000001
 43
0.0000001
 44
0.0000000001
 40
0.0
 40
0.0
 40
0.0
 40
0.0
 40
0.5098814585
 40
1.0
 40
1.0
 40
1.0
 40
1.0
 10
164.4252760665
 20
271.5940437285
 30
0.0
 10
163.7730892753
 20
271.5940437393
 30
0.0
 10
162.4939014936
 20
271.6288777367
 30
0.0
 10
161.2172551439
 20
271.7080910061
 30
0.0
 10
160.5911697232
 20
271.7401981241
 30
0.0
  0
SPLINE
  5
49F
100
AcDbEntity
  8
RUNDUNGEN
100
AcDbSpline
 62
7
  6
CONTINUOUS
 70
0
 71
3
 72
16
 73
12
 74
0
 42
0.0000001
 43
0.0000001
 44
0.0000000001
 40
0.0
 40
0.0
 40
0.0
 40
0.0
 40
0.0570072422
 40
0.0907934067
 40
0.1296044925
 40
0.2244297782
 40
0.3432733938
 40
0.4846115686
 40
0.644871161
 40
0.8188315326
 40
1.0
 40
1.0
 40
1.0
 40
1.0
 10
226.5615779884
 20
245.3927759759
 30
0.0
 10
226.5615779884
 20
245.518521398
 30
0.0
 10
226.4913085632
 20
245.719906344
 30
0.0
 10
226.3117367983
 20
245.9428015094
 30
0.0
 10
226.0337455429
 20
246.1886468112
 30
0.0
 10
225.5456736176
 20
246.4662221694
 30
0.0
 10
224.8121468778
 20
246.7446768745
 30
0.0
 10
223.9125289167
 20
246.9765120346
 30
0.0
 10
222.8772292096
 20
247.1513009788
 30
0.0
 10
221.7447656031
 20
247.2600972235
 30
0.0
 10
220.9611957302
 20
247.2845687092
 30
0.0
 10
220.5615779884
 20
247.2845687092
 30
0.0
  0
SPLINE
  5
4A0
100
AcDbEntity
  8
RUNDUNGEN
100
AcDbSpline
 62
7
  6
CONTINUOUS
 70
0
 71
3
 72
9
 73
5
 74
0
 42
0.0000001
 43
0.0000001
 44
0.0000000001
 40
0.0
 40
0.0
 40
0.0
 40
0.0
 40
0.4901185419
 40
1.0
 40
1.0
 40
1.0
 40
1.0
 10
218.5319861255
 20
271.7401981175
 30
0.0
 10
217.905900623
 20
271.7080909942
 30
0.0
 10
216.6292541075
 20
271.628877714
 30
0.0
 10
215.3500661589
 20
271.5940437285
 30
0.0
 10
214.6978792835
 20
271.5940437285
 30
0.0
  0
SPLINE
  5
4A1
100
AcDbEntity
  8
RUNDUNGEN
100
AcDbSpline
 62
7
  6
CONTINUOUS
 70
0
 71
3
 72
16
 73
12
 74
0
 42
0.0000001
 43
0.0000001
 44
0.0000000001
 40
0.0
 40
0.0
 40
0.0
 40
0.0
 40
0.1811684674
 40
0.355128839
 40
0.5153884314
 40
0.6567266062
 40
0.7755702218
 40
0.8703955075
 40
0.9092065933
 40
0.9429927578
 40
1.0
 40
1.0
 40
1.0
 40
1.0
 10
158.5615779884
 20
247.2845687092
 30
0.0
 10
158.1619602466
 20
247.2845687092
 30
0.0
 10
157.3783903737
 20
247.2600972235
 30
0.0
 10
156.2459267672
 20
247.1513009788
 30
0.0
 10
155.2106270601
 20
246.9765120346
 30
0.0
 10
154.311009099
 20
246.7446768745
 30
0.0
 10
153.5774823592
 20
246.4662221694
 30
0.0
 10
153.0894104339
 20
246.1886468112
 30
0.0
 10
152.8114191785
 20
245.9428015094
 30
0.0
 10
152.6318474136
 20
245.719906344
 30
0.0
 10
152.5615779884
 20
245.518521398
 30
0.0
 10
152.5615779884
 20
245.3927759759
 30
0.0
  0
SPLINE
  5
4A2
100
AcDbEntity
  8
RUNDUNGEN
100
AcDbSpline
 62
7
  6
CONTINUOUS
 70
0
 71
3
 72
16
 73
12
 74
0
 42
0.0000001
 43
0.0000001
 44
0.0000000001
 40
0.0
 40
0.0
 40
0.0
 40
0.0
 40
0.0570072422
 40
0.0907934067
 40
0.1296044925
 40
0.2244297782
 40
0.3432733938
 40
0.4846115686
 40
0.644871161
 40
0.8188315326
 40
1.0
 40
1.0
 40
1.0
 40
1.0
 10
152.5615779884
 20
253.247590013
 30
0.0
 10
152.5615779884
 20
253.3733354351
 30
0.0
 10
152.6318474136
 20
253.5747203811
 30
0.0
 10
152.8114191785
 20
253.7976155465
 30
0.0
 10
153.0894104339
 20
254.0434608483
 30
0.0
 10
153.5774823592
 20
254.3210362065
 30
0.0
 10
154.311009099
 20
254.5994909116
 30
0.0
 10
155.2106270601
 20
254.8313260717
 30
0.0
 10
156.2459267672
 20
255.0061150159
 30
0.0
 10
157.3783903737
 20
255.1149112606
 30
0.0
 10
158.1619602466
 20
255.1393827463
 30
0.0
 10
158.5615779884
 20
255.1393827463
 30
0.0
  0
SPLINE
  5
4A3
100
AcDbEntity
  8
RUNDUNGEN
100
AcDbSpline
 62
7
  6
CONTINUOUS
 70
0
 71
3
 72
10
 73
6
 74
0
 42
0.0000001
 43
0.0000001
 44
0.0000000001
 40
0.0
 40
0.0
 40
0.0
 40
0.0
 40
0.2560891884
 40
0.5093019317
 40
1.0
 40
1.0
 40
1.0
 40
1.0
 10
210.4101816814
 20
271.5940437285
 30
0.0
 10
209.7789588453
 20
271.5940437285
 30
0.0
 10
208.5235193528
 20
271.6125465584
 30
0.0
 10
206.060510939
 20
271.70414115
 30
0.0
 10
204.2277846376
 20
271.7845687092
 30
0.0
 10
203.0182848213
 20
271.7845687092
 30
0.0
  0
ELLIPSE
  5
4A4
100
AcDbEntity
  8
0
100
AcDbEllipse
 62
7
  6
CONTINUOUS
 10
602.746655824
 20
263.7845687092
 30
0.0
 11
-0.7255286101
 21
7.994185694
 31
0.0
 40
0.4203155586
 41
-1.6089244346
 42
-0.2482200958
  0
ELLIPSE
  5
4A5
100
AcDbEntity
  8
RUNDUNGEN
100
AcDbEllipse
 62
7
  6
CONTINUOUS
 10
618.9910741813
 20
263.7845687092
 30
0.0
 11
0.7255286101
 21
7.994185694
 31
0.0
 40
0.4203155586
 41
0.2482200958
 42
1.6089244346
  0
ELLIPSE
  5
4A6
100
AcDbEntity
  8
RUNDUNGEN
100
AcDbEllipse
 62
7
  6
CONTINUOUS
 10
159.9201239487
 20
265.7845687092
 30
0.0
 11
14.2165593702
 21
-0.5423133308
 31
0.0
 40
0.4203155586
 41
1.5396153878
 42
1.5416988386
  0
ELLIPSE
  5
4A7
100
AcDbEntity
  8
RUNDUNGEN
100
AcDbEllipse
 62
7
  6
CONTINUOUS
 10
219.2030320281
 20
265.7845687092
 30
0.0
 11
14.2165593702
 21
0.5423133308
 31
0.0
 40
0.4203155586
 41
1.5998770104
 42
1.6019772748
  0
ENDSEC
  0
SECTION
  2
OBJECTS
  0
DICTIONARY
  5
C
100
AcDbDictionary
280
0
281
1
  3
ACAD_GROUP
350
D
  3
ACAD_MLINESTYLE
350
17
  3
ACAD_LAYOUT
350
1A
  3
ACAD_PLOTSETTINGS
350
19
  3
ACAD_PLOTSTYLENAME
350
E
  0
DICTIONARY
  5
D
102
{ACAD_REACTORS
330
C
102
}
100
AcDbDictionary
280
0
281
1
  0
ACDBDICTIONARYWDFLT
  5
E
102
{ACAD_REACTORS
330
C
102
}
100
AcDbDictionary
281
1
  3
Normal
350
F
100
AcDbDictionaryWithDefault
340
F
  0
DICTIONARY
  5
17
102
{ACAD_REACTORS
330
C
102
}
100
AcDbDictionary
280
0
281
1
  3
Standard
350
18
  0
DICTIONARY
  5
19
102
{ACAD_REACTORS
330
C
102
}
100
AcDbDictionary
281
1
  0
DICTIONARY
  5
1A
102
{ACAD_REACTORS
330
C
102
}
100
AcDbDictionary
281
1
  3
Model
350
4A8
  3
Layout1
350
4A9
  0
ACDBPLACEHOLDER
  5
F
102
{ACAD_REACTORS
330
E
102
}
  0
MLINESTYLE
  5
18
102
{ACAD_REACTORS
330
17
102
}
100
AcDbMlineStyle
  2
STANDARD
 70
0
  3

 62
256
 51
90.0
 52
90.0
 71
2
 49
0.5
 62
256
  6
BYLAYER
 49
-0.5
 62
256
  6
BYLAYER
  0
LAYOUT
  5
4A8
102
{ACAD_REACTORS
330
1A
102
}
100
AcDbPlotSettings
  1

  2
none_device
  4
ISO_A1_(594.00_x_841.00_MM)
  6

 40
0.0
 41
0.0
 42
0.0
 43
0.0
 44
841.0
 45
594.0
 46
0.0
 47
0.0
 48
0.0
 49
0.0
140
0.0
141
0.0
142
1.0
143
1.0
 70
1024
 72
1
 73
0
 74
0
  7

 75
0
147
1.0
148
0.0
149
0.0
100
AcDbLayout
  1
Model
 70
0
 71
0
 10
0.0
 20
0.0
 11
841.0
 21
594.0
 12
0.0
 22
0.0
 32
0.0
 14
0.0
 24
0.0
 34
0.0
 15
0.0
 25
0.0
 35
0.0
146
0.0
 13
0.0
 23
0.0
 33
0.0
 16
1.0
 26
0.0
 36
0.0
 17
0.0
 27
1.0
 37
0.0
 76
0
330
20A
345
0
346
0
  0
LAYOUT
  5
4A9
102
{ACAD_REACTORS
330
1A
102
}
100
AcDbPlotSettings
  1

  2
none_device
  4
ISO_A1_(594.00_x_841.00_MM)
  6

 40
0.0
 41
0.0
 42
0.0
 43
0.0
 44
841.0
 45
594.0
 46
0.0
 47
0.0
 48
0.0
 49
0.0
140
0.0
141
0.0
142
1.0
143
1.0
 70
0
 72
1
 73
0
 74
0
  7

 75
0
147
1.0
148
0.0
149
0.0
100
AcDbLayout
  1
Layout1
 70
0
 71
1
 10
0.0
 20
0.0
 11
841.0
 21
594.0
 12
0.0
 22
0.0
 32
0.0
 14
0.0
 24
0.0
 34
0.0
 15
0.0
 25
0.0
 35
0.0
146
0.0
 13
0.0
 23
0.0
 33
0.0
 16
1.0
 26
0.0
 36
0.0
 17
0.0
 27
1.0
 37
0.0
 76
0
330
20B
345
0
346
0
  0
ENDSEC
  0
EOF
