999
DXF file: ICE-H-8_7901453_M34170-P-3.dxf
999
Pro/ENGINEER 2010140 by Parametric Technology Corporation
  0
SECTION
  2
HEADER
  9
$ACADVER
  1
AC1015
  9
$DWGCODEPAGE
  3
ANSI_1252
  9
$EXTMAX
 10
297.0
 20
210.0
 30
0.0
  9
$EXTMIN
 10
0.0
 20
0.0
 30
0.0
  9
$LIMMIN
 10
0.0
 20
0.0
  9
$LIMMAX
 10
297.0
 20
210.0
  9
$VIEWCTR
 10
148.5
 20
105.0
  9
$VIEWSIZE
 40
210.0
  9
$CLAYER
  8
0
  9
$LTSCALE
 40
16.335
  9
$CELTYPE
  6
BYLAYER
  9
$DIMSCALE
 40
1.0
  9
$DIMASZ
 40
3.5
  9
$DIMEXO
 40
1.85625
  9
$DIMDLI
 40
11.286
  9
$DIMEXE
 40
5.346
  9
$DIMCEN
 40
2.673
  9
$DIMLFAC
 40
1.0
  9
$DIMBLK
  1
_FILLED
  9
$DIMTXT
 40
3.5
  9
$DIMTOL
 70
1
  9
$DIMLIM
 70
0
  9
$DIMTFAC
 40
1.0
  9
$DIMTP
 40
0.005
  9
$DIMTM
 40
0.005
  9
$PDMODE
 70
3
  9
$PDSIZE
 40
0.3125
  9
$HANDSEED
  5
319
  9
$TILEMODE
 70
1
  9
$MEASUREMENT
 70
1
  9
$INSUNITS
 70
4
  0
ENDSEC
  0
SECTION
  2
CLASSES
  0
CLASS
  1
ACDBDICTIONARYWDFLT
  2
AcDbDictionaryWithDefault
  3
AutoCAD 2000
 90
0
280
0
281
0
  0
CLASS
  1
ACDBPLACEHOLDER
  2
AcDbPlaceHolder
  3
AutoCAD 2000
 90
0
280
0
281
0
  0
CLASS
  1
LAYOUT
  2
AcDbLayout
  3
AutoCAD 2000
 90
0
280
0
281
0
  0
ENDSEC
  0
SECTION
  2
TABLES
  0
TABLE
  2
VPORT
  5
8
100
AcDbSymbolTable
 70
2
  0
VPORT
  5
1F4
100
AcDbSymbolTableRecord
100
AcDbViewportTableRecord
  2
*ACTIVE
 70
0
 10
0.0
 20
0.0
 11
1.0
 21
1.0
 12
148.5
 22
105.0
 13
0.0
 23
0.0
 14
1.0
 24
1.0
 15
0.0
 25
0.0
 16
0.0
 26
0.0
 36
1.0
 17
0.0
 27
0.0
 37
0.0
 40
210.0
 41
1.4142857143
 42
50.0
 43
0.0
 44
0.0
 50
0.0
 51
0.0
 71
0
 72
100
 73
1
 74
1
 75
0
 76
0
 77
0
 78
0
  0
ENDTAB
  0
TABLE
  2
LTYPE
  5
5
100
AcDbSymbolTable
 70
6
  0
LTYPE
  5
14
100
AcDbSymbolTableRecord
100
AcDbLinetypeTableRecord
  2
BYBLOCK
 70
0
  3

 72
65
 73
0
 40
0.0
  0
LTYPE
  5
15
100
AcDbSymbolTableRecord
100
AcDbLinetypeTableRecord
  2
BYLAYER
 70
0
  3

 72
65
 73
0
 40
0.0
  0
LTYPE
  5
16
100
AcDbSymbolTableRecord
100
AcDbLinetypeTableRecord
  2
CONTINUOUS
 70
64
  3
Solid line
 72
65
 73
0
 40
0.0
  0
LTYPE
  5
1F5
100
AcDbSymbolTableRecord
100
AcDbLinetypeTableRecord
  2
CENTER
 70
64
  3
____ _ ____ _ ____ _ ____ _ ____ _ ____ _ ____
 72
65
 73
4
 40
0.6
 49
0.375
 74
0
 49
-0.075
 74
0
 49
0.075
 74
0
 49
-0.075
 74
0
  0
LTYPE
  5
1F6
100
AcDbSymbolTableRecord
100
AcDbLinetypeTableRecord
  2
HIDDEN
 70
64
  3
- - - - - - - - - - - - - - - - - - - -
 72
65
 73
2
 40
0.2
 49
0.1
 74
0
 49
-0.1
 74
0
  0
LTYPE
  5
1F7
100
AcDbSymbolTableRecord
100
AcDbLinetypeTableRecord
  2
PHANTOM
 70
64
  3
_____ _ _ _____ _ _ _____ _ _ _____
 72
65
 73
6
 40
0.8
 49
0.45
 74
0
 49
-0.05
 74
0
 49
0.1
 74
0
 49
-0.05
 74
0
 49
0.1
 74
0
 49
-0.05
 74
0
  0
LTYPE
  5
1F8
100
AcDbSymbolTableRecord
100
AcDbLinetypeTableRecord
  2
DOT
 70
64
  3
. . . . . . . . . . . . . . . . . . . .
 72
65
 73
2
 40
0.2
 49
0.1
 74
0
 49
-0.1
 74
0
  0
LTYPE
  5
1F9
100
AcDbSymbolTableRecord
100
AcDbLinetypeTableRecord
  2
DASHED
 70
64
  3
- - - - - - - - - - - - - - - - - - - -
 72
65
 73
2
 40
0.2
 49
0.1
 74
0
 49
-0.1
 74
0
  0
ENDTAB
  0
TABLE
  2
LAYER
  5
2
100
AcDbSymbolTable
 70
36
  0
LAYER
  5
10
100
AcDbSymbolTableRecord
100
AcDbLayerTableRecord
  2
0
 70
0
 62
7
  6
CONTINUOUS
370
-3
390
F
  0
LAYER
  5
1FA
100
AcDbSymbolTableRecord
100
AcDbLayerTableRecord
  2
DEFAULT_1
 70
0
 62
7
  6
CENTER
370
-3
390
F
  0
LAYER
  5
1FB
100
AcDbSymbolTableRecord
100
AcDbLayerTableRecord
  2
DEFAULT_2
 70
0
 62
8
  6
HIDDEN
370
-3
390
F
  0
LAYER
  5
1FC
100
AcDbSymbolTableRecord
100
AcDbLayerTableRecord
  2
DEFAULT_3
 70
0
 62
7
  6
PHANTOM
370
-3
390
F
  0
LAYER
  5
1FD
100
AcDbSymbolTableRecord
100
AcDbLayerTableRecord
  2
AUSFORMSCHRAEGEN
 70
0
 62
7
  6
CONTINUOUS
370
-3
390
F
  0
LAYER
  5
1FE
100
AcDbSymbolTableRecord
100
AcDbLayerTableRecord
  2
BEZUGSACHSEN
 70
0
 62
7
  6
CONTINUOUS
370
-3
390
F
  0
LAYER
  5
1FF
100
AcDbSymbolTableRecord
100
AcDbLayerTableRecord
  2
BEZUGSEBENEN
 70
0
 62
7
  6
CONTINUOUS
370
-3
390
F
  0
LAYER
  5
200
100
AcDbSymbolTableRecord
100
AcDbLayerTableRecord
  2
BOHRUNGEN
 70
0
 62
7
  6
CONTINUOUS
370
-3
390
F
  0
LAYER
  5
201
100
AcDbSymbolTableRecord
100
AcDbLayerTableRecord
  2
FASEN
 70
0
 62
7
  6
CONTINUOUS
370
-3
390
F
  0
LAYER
  5
202
100
AcDbSymbolTableRecord
100
AcDbLayerTableRecord
  2
FLAECHEN
 70
0
 62
7
  6
CONTINUOUS
370
-3
390
F
  0
LAYER
  5
203
100
AcDbSymbolTableRecord
100
AcDbLayerTableRecord
  2
HILFEN
 70
0
 62
7
  6
CONTINUOUS
370
-3
390
F
  0
LAYER
  5
204
100
AcDbSymbolTableRecord
100
AcDbLayerTableRecord
  2
KURVEN
 70
0
 62
7
  6
CONTINUOUS
370
-3
390
F
  0
LAYER
  5
205
100
AcDbSymbolTableRecord
100
AcDbLayerTableRecord
  2
PLATZIERUNG
 70
0
 62
7
  6
CONTINUOUS
370
-3
390
F
  0
LAYER
  5
206
100
AcDbSymbolTableRecord
100
AcDbLayerTableRecord
  2
RUNDUNGEN
 70
0
 62
7
  6
CONTINUOUS
370
-3
390
F
  0
LAYER
  5
207
100
AcDbSymbolTableRecord
100
AcDbLayerTableRecord
  2
T_STARTBEZUEGE
 70
0
 62
7
  6
CONTINUOUS
370
-3
390
F
  0
LAYER
  5
208
100
AcDbSymbolTableRecord
100
AcDbLayerTableRecord
  2
XSEC_DATUMS
 70
0
 62
7
  6
CONTINUOUS
370
-3
390
F
  0
ENDTAB
  0
TABLE
  2
STYLE
  5
3
100
AcDbSymbolTable
 70
1
  0
STYLE
  5
11
100
AcDbSymbolTableRecord
100
AcDbTextStyleTableRecord
  2
STANDARD
 70
0
 40
0.0
 41
0.7
 50
0.0
 71
0
 42
0.2
  3
txt
  4

  0
STYLE
  5
209
100
AcDbSymbolTableRecord
100
AcDbTextStyleTableRecord
  2
TEXTSTYLE_1
 70
0
 40
0.0
 41
0.8
 50
0.0
 71
0
 42
0.2
  3
gdt
  4

  0
ENDTAB
  0
TABLE
  2
VIEW
  5
6
100
AcDbSymbolTable
 70
0
  0
ENDTAB
  0
TABLE
  2
UCS
  5
7
100
AcDbSymbolTable
 70
0
  0
ENDTAB
  0
TABLE
  2
APPID
  5
9
100
AcDbSymbolTable
 70
1
  0
APPID
  5
20A
100
AcDbSymbolTableRecord
100
AcDbRegAppTableRecord
  2
ACAD
 70
0
  0
ENDTAB
  0
TABLE
  2
BLOCK_RECORD
  5
1
100
AcDbSymbolTable
 70
0
  0
BLOCK_RECORD
  5
20B
100
AcDbSymbolTableRecord
100
AcDbBlockTableRecord
  2
*Model_Space
  0
BLOCK_RECORD
  5
20C
100
AcDbSymbolTableRecord
100
AcDbBlockTableRecord
  2
*Paper_Space
  0
ENDTAB
  0
TABLE
  2
DIMSTYLE
  5
A
100
AcDbSymbolTable
 70
1
100
AcDbDimStyleTable
 71
0
  0
DIMSTYLE
105
20D
100
AcDbSymbolTableRecord
100
AcDbDimStyleTableRecord
  2
STANDARD
 70
0
  3

  4

 40
1.0
 41
3.5
 42
0.0625
 43
0.38
 44
0.18
 45
0.0
 46
0.0
 47
0.005
 48
0.005
140
3.5
141
0.09
142
0.0
143
25.4
144
1.0
145
0.0
146
1.0
147
0.09
 71
1.0
 72
0.0
 73
0
 74
0
 75
0
 76
0
 77
1
 78
8
170
0
171
2
172
0
173
0
174
0
175
0
176
0
177
0
178
5
270
2
271
3
272
3
273
2
274
2
275
0
280
0
281
0
282
0
283
1
284
8
285
0
286
0
287
3
288
0
340
11
  0
ENDTAB
  0
ENDSEC
  0
SECTION
  2
BLOCKS
  0
BLOCK
  5
20
100
AcDbEntity
  8
0
100
AcDbBlockBegin
  2
*Model_Space
 70
0
 10
0.0
 20
0.0
 30
0.0
  3
*Model_Space
  1

  0
ENDBLK
  5
21
100
AcDbEntity
  8
0
100
AcDbBlockEnd
  0
BLOCK
  5
1C
100
AcDbEntity
  8
0
100
AcDbBlockBegin
  2
*Paper_Space
 70
0
 10
0.0
 20
0.0
 30
0.0
  3
*Paper_Space
  1

  0
ENDBLK
  5
1D
100
AcDbEntity
  8
0
100
AcDbBlockEnd
  0
ENDSEC
  0
SECTION
  2
ENTITIES
  0
MTEXT
  5
20E
100
AcDbEntity
  8
0
100
AcDbMText
 62
5
  6
CONTINUOUS
  7
STANDARD
 71
1
 72
1
 10
83.292805446
 20
145.7149926455
 30
0.0
 11
0.0
 21
1.0
 31
0.0
 44
0.9
  1
RUD
 40
4.0
 41
10.6666666667
  0
MTEXT
  5
20F
100
AcDbEntity
  8
0
100
AcDbMText
 62
5
  6
CONTINUOUS
  7
STANDARD
 71
2
 72
1
 10
147.0018611053
 20
151.0525112433
 30
0.0
 11
0.0
 21
1.0
 31
0.0
 44
0.9
  1
RUD\PICE-H 8
 40
4.0
 41
21.0476190476
  0
LINE
  5
210
100
AcDbEntity
  8
0
100
AcDbLine
 62
7
  6
CONTINUOUS
 10
0.0
 20
0.0
 11
0.0
 21
210.0
  0
LINE
  5
211
100
AcDbEntity
  8
0
100
AcDbLine
 62
7
  6
CONTINUOUS
 10
0.0
 20
0.0
 11
297.0
 21
0.0
  0
LINE
  5
212
100
AcDbEntity
  8
0
100
AcDbLine
 62
7
  6
CONTINUOUS
 10
0.0
 20
210.0
 11
297.0
 21
210.0
  0
LINE
  5
213
100
AcDbEntity
  8
0
100
AcDbLine
 62
7
  6
CONTINUOUS
 10
297.0
 20
0.0
 11
297.0
 21
210.0
  0
LINE
  5
214
100
AcDbEntity
  8
0
100
AcDbLine
 62
7
  6
CONTINUOUS
 10
50.6195095528
 20
175.4220393277
 11
56.9074410801
 21
181.4942242204
  0
LINE
  5
215
100
AcDbEntity
  8
BEZUGSACHSEN
100
AcDbLine
 62
7
  6
CONTINUOUS
 10
56.9074410801
 20
120.7636299311
 11
50.6195095528
 21
126.8358148238
  0
LINE
  5
216
100
AcDbEntity
  8
FASEN
100
AcDbLine
 62
7
  6
CONTINUOUS
 10
54.4929726973
 20
175.5298876804
 11
50.6195095528
 21
171.5492670013
  0
LINE
  5
217
100
AcDbEntity
  8
BEZUGSACHSEN
100
AcDbLine
 62
7
  6
CONTINUOUS
 10
88.3315780254
 20
120.7636299311
 11
86.0122124707
 21
120.4317138116
  0
LINE
  5
218
100
AcDbEntity
  8
BEZUGSACHSEN
100
AcDbLine
 62
7
  6
CONTINUOUS
 10
59.2268066348
 20
120.4317138116
 11
56.9074410801
 21
120.7636299311
  0
LINE
  5
219
100
AcDbEntity
  8
BEZUGSACHSEN
100
AcDbLine
 62
7
  6
CONTINUOUS
 10
54.4929726973
 20
126.7279664711
 11
50.6195095528
 21
130.7085871502
  0
LINE
  5
21A
100
AcDbEntity
  8
0
100
AcDbLine
 62
7
  6
CONTINUOUS
 10
67.5695095528
 20
127.4789270757
 11
77.6695095528
 21
127.4789270757
  0
LINE
  5
21B
100
AcDbEntity
  8
BEZUGSACHSEN
100
AcDbLine
 62
7
  6
CONTINUOUS
 10
50.6195095528
 20
175.4220393277
 11
50.6195095528
 21
175.0425182206
  0
LINE
  5
21C
100
AcDbEntity
  8
BEZUGSACHSEN
100
AcDbLine
 62
7
  6
CONTINUOUS
 10
50.6195095528
 20
171.5492670013
 11
50.6195095528
 21
126.8358148238
  0
LINE
  5
21D
100
AcDbEntity
  8
0
100
AcDbLine
 62
7
  6
CONTINUOUS
 10
50.6195095528
 20
171.5492670013
 11
50.6195095528
 21
175.0425182206
  0
LINE
  5
21E
100
AcDbEntity
  8
BEZUGSACHSEN
100
AcDbLine
 62
7
  6
CONTINUOUS
 10
56.6195095528
 20
144.6289270757
 11
56.6195095528
 21
157.6289270757
  0
LINE
  5
21F
100
AcDbEntity
  8
BEZUGSACHSEN
100
AcDbLine
 62
7
  6
CONTINUOUS
 10
56.9074410801
 20
120.7636299311
 11
56.9074410474
 21
121.5093482947
  0
LINE
  5
220
100
AcDbEntity
  8
BEZUGSACHSEN
100
AcDbLine
 62
7
  6
CONTINUOUS
 10
56.9074410474
 20
180.7485058567
 11
56.9074410801
 21
181.4942242204
  0
LINE
  5
221
100
AcDbEntity
  8
0
100
AcDbLine
 62
7
  6
CONTINUOUS
 10
58.2939776355
 20
157.4760104786
 11
58.2195095528
 21
157.1114270757
  0
LINE
  5
222
100
AcDbEntity
  8
0
100
AcDbLine
 62
7
  6
CONTINUOUS
 10
58.6663180623
 20
157.1114270757
 11
58.7407861385
 21
157.4030936729
  0
LINE
  5
223
100
AcDbEntity
  8
0
100
AcDbLine
 62
7
  6
CONTINUOUS
 10
58.4429138075
 20
157.7676770757
 11
58.2939776355
 21
157.4760104786
  0
LINE
  5
224
100
AcDbEntity
  8
0
100
AcDbLine
 62
7
  6
CONTINUOUS
 10
58.7407861385
 20
157.4030936729
 11
58.8897223431
 21
157.6218437772
  0
LINE
  5
225
100
AcDbEntity
  8
0
100
AcDbLine
 62
7
  6
CONTINUOUS
 10
58.5173818838
 20
143.3985104786
 11
58.7407861385
 21
143.1797604786
  0
LINE
  5
226
100
AcDbEntity
  8
0
100
AcDbLine
 62
7
  6
CONTINUOUS
 10
58.2939776355
 20
143.7630936729
 11
58.5173818838
 21
143.3985104786
  0
LINE
  5
227
100
AcDbEntity
  8
0
100
AcDbLine
 62
7
  6
CONTINUOUS
 10
58.8152542147
 20
143.6172604786
 11
58.6663180623
 21
143.9089270757
  0
LINE
  5
228
100
AcDbEntity
  8
0
100
AcDbLine
 62
7
  6
CONTINUOUS
 10
58.6663180623
 20
143.9089270757
 11
58.5918499861
 21
144.2005937772
  0
LINE
  5
229
100
AcDbEntity
  8
0
100
AcDbLine
 62
7
  6
CONTINUOUS
 10
58.2195095528
 20
144.1276770757
 11
58.2939776355
 21
143.7630936729
  0
LINE
  5
22A
100
AcDbEntity
  8
0
100
AcDbLine
 62
7
  6
CONTINUOUS
 10
58.2195095528
 20
159.2989270757
 11
58.2195095528
 21
158.8614270757
  0
LINE
  5
22B
100
AcDbEntity
  8
0
100
AcDbLine
 62
7
  6
CONTINUOUS
 10
58.2195095528
 20
157.1114270757
 11
58.2195095528
 21
156.4551770757
  0
LINE
  5
22C
100
AcDbEntity
  8
0
100
AcDbLine
 62
7
  6
CONTINUOUS
 10
58.2195095528
 20
154.85101027
 11
58.2195095528
 21
152.2260106872
  0
LINE
  5
22D
100
AcDbEntity
  8
0
100
AcDbLine
 62
7
  6
CONTINUOUS
 10
58.2195095528
 20
150.0385106872
 11
58.2195095528
 21
149.6010106872
  0
LINE
  5
22E
100
AcDbEntity
  8
0
100
AcDbLine
 62
7
  6
CONTINUOUS
 10
58.2195095528
 20
147.5593434642
 11
58.2195095528
 21
147.1218434642
  0
LINE
  5
22F
100
AcDbEntity
  8
0
100
AcDbLine
 62
7
  6
CONTINUOUS
 10
58.2195095528
 20
144.5651770757
 11
58.2195095528
 21
144.1276770757
  0
LINE
  5
230
100
AcDbEntity
  8
0
100
AcDbLine
 62
7
  6
CONTINUOUS
 10
58.5918499861
 20
144.2005937772
 11
58.5918499861
 21
144.4922603743
  0
LINE
  5
231
100
AcDbEntity
  8
0
100
AcDbLine
 62
7
  6
CONTINUOUS
 10
58.6663180623
 20
152.2260106872
 11
58.6663180623
 21
154.41351027
  0
LINE
  5
232
100
AcDbEntity
  8
0
100
AcDbLine
 62
7
  6
CONTINUOUS
 10
58.6663180623
 20
156.4551770757
 11
58.6663180623
 21
157.1114270757
  0
LINE
  5
233
100
AcDbEntity
  8
0
100
AcDbLine
 62
7
  6
CONTINUOUS
 10
59.1131265718
 20
155.4343438815
 11
59.1131265718
 21
155.8718436729
  0
LINE
  5
234
100
AcDbEntity
  8
BEZUGSACHSEN
100
AcDbLine
 62
7
  6
CONTINUOUS
 10
59.2268066348
 20
181.8261403398
 11
59.2268066336
 21
181.0604045847
  0
LINE
  5
235
100
AcDbEntity
  8
BEZUGSACHSEN
100
AcDbLine
 62
7
  6
CONTINUOUS
 10
59.2268066336
 20
121.1974495667
 11
59.2268066348
 21
120.4317138116
  0
LINE
  5
236
100
AcDbEntity
  8
0
100
AcDbLine
 62
7
  6
CONTINUOUS
 10
59.485466953
 20
151.6426770757
 11
59.485466953
 21
150.6218434642
  0
LINE
  5
237
100
AcDbEntity
  8
0
100
AcDbLine
 62
7
  6
CONTINUOUS
 10
59.8578074384
 20
154.41351027
 11
59.8578074384
 21
152.5176770757
  0
LINE
  5
238
100
AcDbEntity
  8
0
100
AcDbLine
 62
7
  6
CONTINUOUS
 10
59.8578074384
 20
149.6010106872
 11
59.8578074384
 21
147.5593434642
  0
LINE
  5
239
100
AcDbEntity
  8
0
100
AcDbLine
 62
7
  6
CONTINUOUS
 10
59.8578074384
 20
144.4922603743
 11
59.8578074384
 21
144.2005937772
  0
LINE
  5
23A
100
AcDbEntity
  8
0
100
AcDbLine
 62
7
  6
CONTINUOUS
 10
59.8578074384
 20
150.6218434642
 11
59.8578074384
 21
151.6426770757
  0
LINE
  5
23B
100
AcDbEntity
  8
0
100
AcDbLine
 62
7
  6
CONTINUOUS
 10
60.1556797433
 20
144.2005937772
 11
60.1556797433
 21
144.4922603743
  0
LINE
  5
23C
100
AcDbEntity
  8
0
100
AcDbLine
 62
7
  6
CONTINUOUS
 10
60.3046158958
 20
147.5593434642
 11
60.3046158958
 21
149.6010106872
  0
LINE
  5
23D
100
AcDbEntity
  8
0
100
AcDbLine
 62
7
  6
CONTINUOUS
 10
60.3046158958
 20
152.5176770757
 11
60.3046158958
 21
154.41351027
  0
LINE
  5
23E
100
AcDbEntity
  8
0
100
AcDbLine
 62
7
  6
CONTINUOUS
 10
58.2939776355
 20
144.9297604264
 11
58.2195095528
 21
144.5651770757
  0
LINE
  5
23F
100
AcDbEntity
  8
0
100
AcDbLine
 62
7
  6
CONTINUOUS
 10
61.2727010954
 20
156.4551770757
 11
61.1982330192
 21
156.1635104786
  0
LINE
  5
240
100
AcDbEntity
  8
0
100
AcDbLine
 62
7
  6
CONTINUOUS
 10
61.1982330192
 20
156.1635104786
 11
61.0492968667
 21
155.9447604786
  0
LINE
  5
241
100
AcDbEntity
  8
0
100
AcDbLine
 62
7
  6
CONTINUOUS
 10
58.7407861385
 20
158.0593437772
 11
58.4429138075
 21
157.7676770757
  0
LINE
  5
242
100
AcDbEntity
  8
0
100
AcDbLine
 62
7
  6
CONTINUOUS
 10
58.8897223431
 20
157.6218437772
 11
59.1131265718
 21
157.7676770757
  0
LINE
  5
243
100
AcDbEntity
  8
0
100
AcDbLine
 62
7
  6
CONTINUOUS
 10
59.0386584956
 20
158.2051770757
 11
58.7407861385
 21
158.0593437772
  0
LINE
  5
244
100
AcDbEntity
  8
0
100
AcDbLine
 62
7
  6
CONTINUOUS
 10
77.6695095528
 20
138.7789270757
 11
67.5695095528
 21
138.7789270757
  0
LINE
  5
245
100
AcDbEntity
  8
0
100
AcDbLine
 62
7
  6
CONTINUOUS
 10
58.7407861385
 20
143.1797604786
 11
59.1131265718
 21
143.0339270757
  0
LINE
  5
246
100
AcDbEntity
  8
0
100
AcDbLine
 62
7
  6
CONTINUOUS
 10
60.3046158958
 20
143.2526770757
 11
60.6024882007
 21
143.1068436729
  0
LINE
  5
247
100
AcDbEntity
  8
0
100
AcDbLine
 62
7
  6
CONTINUOUS
 10
60.6769562769
 20
143.4714270757
 11
60.4535520482
 21
143.6172604786
  0
LINE
  5
248
100
AcDbEntity
  8
0
100
AcDbLine
 62
7
  6
CONTINUOUS
 10
59.1131265718
 20
143.3985104786
 11
58.8152542147
 21
143.6172604786
  0
LINE
  5
249
100
AcDbEntity
  8
0
100
AcDbLine
 62
7
  6
CONTINUOUS
 10
59.3365308005
 20
145.2943437511
 11
59.6344032097
 21
145.075593725
  0
LINE
  5
24A
100
AcDbEntity
  8
0
100
AcDbLine
 62
7
  6
CONTINUOUS
 10
60.0812116671
 20
143.4714270757
 11
60.3046158958
 21
143.2526770757
  0
LINE
  5
24B
100
AcDbEntity
  8
0
100
AcDbLine
 62
7
  6
CONTINUOUS
 10
60.4535520482
 20
143.6172604786
 11
60.2301478196
 21
143.9089270757
  0
LINE
  5
24C
100
AcDbEntity
  8
0
100
AcDbLine
 62
7
  6
CONTINUOUS
 10
59.9322755146
 20
145.2214270757
 11
59.708871286
 21
145.5130937381
  0
LINE
  5
24D
100
AcDbEntity
  8
0
100
AcDbLine
 62
7
  6
CONTINUOUS
 10
61.0492968667
 20
145.075593725
 11
61.2727010954
 21
144.7839270757
  0
LINE
  5
24E
100
AcDbEntity
  8
0
100
AcDbLine
 62
7
  6
CONTINUOUS
 10
61.6450414765
 20
144.856843725
 11
61.4216372478
 21
145.2214270757
  0
LINE
  5
24F
100
AcDbEntity
  8
0
100
AcDbLine
 62
7
  6
CONTINUOUS
 10
60.0067435909
 20
143.6172604786
 11
60.0812116671
 21
143.4714270757
  0
LINE
  5
250
100
AcDbEntity
  8
0
100
AcDbLine
 62
7
  6
CONTINUOUS
 10
59.6344032097
 20
145.075593725
 11
59.7833393622
 21
144.7839270757
  0
LINE
  5
251
100
AcDbEntity
  8
0
100
AcDbLine
 62
7
  6
CONTINUOUS
 10
60.0067435909
 20
145.075593725
 11
59.9322755146
 21
145.2214270757
  0
LINE
  5
252
100
AcDbEntity
  8
0
100
AcDbLine
 62
7
  6
CONTINUOUS
 10
59.7833393622
 20
144.7839270757
 11
59.8578074384
 21
144.4922603743
  0
LINE
  5
253
100
AcDbEntity
  8
0
100
AcDbLine
 62
7
  6
CONTINUOUS
 10
60.2301478196
 20
143.9089270757
 11
60.1556797433
 21
144.2005937772
  0
LINE
  5
254
100
AcDbEntity
  8
0
100
AcDbLine
 62
7
  6
CONTINUOUS
 10
61.2727010954
 20
144.7839270757
 11
61.3471691716
 21
144.4922603743
  0
LINE
  5
255
100
AcDbEntity
  8
0
100
AcDbLine
 62
7
  6
CONTINUOUS
 10
58.2195095528
 20
156.4551770757
 11
58.2939776355
 21
156.0905936729
  0
LINE
  5
256
100
AcDbEntity
  8
0
100
AcDbLine
 62
7
  6
CONTINUOUS
 10
60.8258924294
 20
155.8718436729
 11
60.8258924294
 21
155.4343438815
  0
LINE
  5
257
100
AcDbEntity
  8
0
100
AcDbLine
 62
7
  6
CONTINUOUS
 10
61.2104831245
 20
169.1289270757
 11
61.2104831245
 21
167.3789270757
  0
LINE
  5
258
100
AcDbEntity
  8
BEZUGSACHSEN
100
AcDbLine
 62
7
  6
CONTINUOUS
 10
61.2104831245
 20
133.1289270757
 11
61.2104831245
 21
134.8789270757
  0
LINE
  5
259
100
AcDbEntity
  8
0
100
AcDbLine
 62
7
  6
CONTINUOUS
 10
61.2727010954
 20
157.1114270757
 11
61.2727010954
 21
156.4551770757
  0
LINE
  5
25A
100
AcDbEntity
  8
0
100
AcDbLine
 62
7
  6
CONTINUOUS
 10
61.2727010954
 20
154.41351027
 11
61.2727010954
 21
152.2260106872
  0
LINE
  5
25B
100
AcDbEntity
  8
0
100
AcDbLine
 62
7
  6
CONTINUOUS
 10
61.3471691716
 20
144.4922603743
 11
61.3471691716
 21
144.2005937772
  0
LINE
  5
25C
100
AcDbEntity
  8
0
100
AcDbLine
 62
7
  6
CONTINUOUS
 10
61.7195095528
 20
144.2005937772
 11
61.7195095528
 21
144.4922603743
  0
LINE
  5
25D
100
AcDbEntity
  8
0
100
AcDbLine
 62
7
  6
CONTINUOUS
 10
61.7195095528
 20
147.1218434642
 11
61.7195095528
 21
147.5593434642
  0
LINE
  5
25E
100
AcDbEntity
  8
0
100
AcDbLine
 62
7
  6
CONTINUOUS
 10
61.7195095528
 20
149.6010106872
 11
61.7195095528
 21
150.0385106872
  0
LINE
  5
25F
100
AcDbEntity
  8
0
100
AcDbLine
 62
7
  6
CONTINUOUS
 10
61.7195095528
 20
152.2260106872
 11
61.7195095528
 21
154.85101027
  0
LINE
  5
260
100
AcDbEntity
  8
0
100
AcDbLine
 62
7
  6
CONTINUOUS
 10
61.7195095528
 20
156.4551770757
 11
61.7195095528
 21
157.1114270757
  0
LINE
  5
261
100
AcDbEntity
  8
0
100
AcDbLine
 62
7
  6
CONTINUOUS
 10
61.7195095528
 20
158.8614270757
 11
61.7195095528
 21
159.2989270757
  0
LINE
  5
262
100
AcDbEntity
  8
0
100
AcDbLine
 62
7
  6
CONTINUOUS
 10
61.6450414765
 20
156.0905936729
 11
61.7195095528
 21
156.4551770757
  0
LINE
  5
263
100
AcDbEntity
  8
0
100
AcDbLine
 62
7
  6
CONTINUOUS
 10
58.5918499861
 20
144.4922603743
 11
58.6663180623
 21
144.7839270757
  0
LINE
  5
264
100
AcDbEntity
  8
0
100
AcDbLine
 62
7
  6
CONTINUOUS
 10
59.8578074384
 20
144.2005937772
 11
59.7833393622
 21
143.9089270757
  0
LINE
  5
265
100
AcDbEntity
  8
0
100
AcDbLine
 62
7
  6
CONTINUOUS
 10
60.1556797433
 20
144.4922603743
 11
60.2301478196
 21
144.7839270757
  0
LINE
  5
266
100
AcDbEntity
  8
0
100
AcDbLine
 62
7
  6
CONTINUOUS
 10
61.4961053241
 20
155.7989270757
 11
61.6450414765
 21
156.0905936729
  0
LINE
  5
267
100
AcDbEntity
  8
0
100
AcDbLine
 62
7
  6
CONTINUOUS
 10
61.1982330192
 20
155.50726027
 11
61.4961053241
 21
155.7989270757
  0
LINE
  5
268
100
AcDbEntity
  8
0
100
AcDbLine
 62
7
  6
CONTINUOUS
 10
59.708871286
 20
145.5130937381
 11
59.3365308005
 21
145.6589270757
  0
LINE
  5
269
100
AcDbEntity
  8
0
100
AcDbLine
 62
7
  6
CONTINUOUS
 10
60.8258924294
 20
145.2214270757
 11
61.0492968667
 21
145.075593725
  0
LINE
  5
26A
100
AcDbEntity
  8
0
100
AcDbLine
 62
7
  6
CONTINUOUS
 10
61.4216372478
 20
145.2214270757
 11
61.1982330192
 21
145.4401770757
  0
LINE
  5
26B
100
AcDbEntity
  8
0
100
AcDbLine
 62
7
  6
CONTINUOUS
 10
58.2939776355
 20
156.0905936729
 11
58.4429138075
 21
155.7989270757
  0
LINE
  5
26C
100
AcDbEntity
  8
0
100
AcDbLine
 62
7
  6
CONTINUOUS
 10
58.7407861385
 20
156.1635104786
 11
58.6663180623
 21
156.4551770757
  0
LINE
  5
26D
100
AcDbEntity
  8
0
100
AcDbLine
 62
7
  6
CONTINUOUS
 10
61.7195095528
 20
144.4922603743
 11
61.6450414765
 21
144.856843725
  0
LINE
  5
26E
100
AcDbEntity
  8
BEZUGSACHSEN
100
AcDbLine
 62
7
  6
CONTINUOUS
 10
63.6195095528
 20
157.6289270757
 11
63.6195095528
 21
144.6289270757
  0
LINE
  5
26F
100
AcDbEntity
  8
0
100
AcDbLine
 62
7
  6
CONTINUOUS
 10
61.6450414765
 20
143.8360104786
 11
61.7195095528
 21
144.2005937772
  0
LINE
  5
270
100
AcDbEntity
  8
0
100
AcDbLine
 62
7
  6
CONTINUOUS
 10
61.3471691716
 20
144.2005937772
 11
61.2727010954
 21
143.9089270757
  0
LINE
  5
271
100
AcDbEntity
  8
0
100
AcDbLine
 62
7
  6
CONTINUOUS
 10
58.6663180623
 20
144.7839270757
 11
58.8152542147
 21
145.075593725
  0
LINE
  5
272
100
AcDbEntity
  8
0
100
AcDbLine
 62
7
  6
CONTINUOUS
 10
60.0812116671
 20
145.2214270757
 11
60.0067435909
 21
145.075593725
  0
LINE
  5
273
100
AcDbEntity
  8
0
100
AcDbLine
 62
7
  6
CONTINUOUS
 10
59.7833393622
 20
143.9089270757
 11
59.6344032097
 21
143.6172604786
  0
LINE
  5
274
100
AcDbEntity
  8
0
100
AcDbLine
 62
7
  6
CONTINUOUS
 10
59.9322755146
 20
143.4714270757
 11
60.0067435909
 21
143.6172604786
  0
LINE
  5
275
100
AcDbEntity
  8
0
100
AcDbLine
 62
7
  6
CONTINUOUS
 10
58.5173818838
 20
145.2943437511
 11
58.2939776355
 21
144.9297604264
  0
LINE
  5
276
100
AcDbEntity
  8
0
100
AcDbLine
 62
7
  6
CONTINUOUS
 10
61.0492968667
 20
155.9447604786
 11
60.8258924294
 21
155.8718436729
  0
LINE
  5
277
100
AcDbEntity
  8
0
100
AcDbLine
 62
7
  6
CONTINUOUS
 10
59.1131265718
 20
143.0339270757
 11
59.3365308005
 21
143.0339270757
  0
LINE
  5
278
100
AcDbEntity
  8
0
100
AcDbLine
 62
7
  6
CONTINUOUS
 10
60.6024882007
 20
143.1068436729
 11
60.8258924294
 21
143.1068436729
  0
LINE
  5
279
100
AcDbEntity
  8
0
100
AcDbLine
 62
7
  6
CONTINUOUS
 10
59.3365308005
 20
143.3985104786
 11
59.1131265718
 21
143.3985104786
  0
LINE
  5
27A
100
AcDbEntity
  8
0
100
AcDbLine
 62
7
  6
CONTINUOUS
 10
60.8258924294
 20
143.4714270757
 11
60.6769562769
 21
143.4714270757
  0
LINE
  5
27B
100
AcDbEntity
  8
0
100
AcDbLine
 62
7
  6
CONTINUOUS
 10
61.1982330192
 20
145.4401770757
 11
60.8258924294
 21
145.5860104069
  0
LINE
  5
27C
100
AcDbEntity
  8
0
100
AcDbLine
 62
7
  6
CONTINUOUS
 10
58.8897223431
 20
155.9447604786
 11
58.7407861385
 21
156.1635104786
  0
LINE
  5
27D
100
AcDbEntity
  8
0
100
AcDbLine
 62
7
  6
CONTINUOUS
 10
61.1982330192
 20
157.4030936729
 11
61.2727010954
 21
157.1114270757
  0
LINE
  5
27E
100
AcDbEntity
  8
0
100
AcDbLine
 62
7
  6
CONTINUOUS
 10
61.7195095528
 20
157.1114270757
 11
61.6450414765
 21
157.4760104786
  0
LINE
  5
27F
100
AcDbEntity
  8
BEZUGSACHSEN
100
AcDbLine
 62
7
  6
CONTINUOUS
 10
67.5695095528
 20
123.2889270757
 11
67.5695095528
 21
143.1789270757
  0
LINE
  5
280
100
AcDbEntity
  8
0
100
AcDbLine
 62
7
  6
CONTINUOUS
 10
67.5695095528
 20
159.0789270757
 11
67.5695095528
 21
169.1289270757
  0
LINE
  5
281
100
AcDbEntity
  8
BEZUGSACHSEN
100
AcDbLine
 62
7
  6
CONTINUOUS
 10
67.5695095528
 20
169.1289270757
 11
67.5695095528
 21
178.9689270757
  0
LINE
  5
282
100
AcDbEntity
  8
0
100
AcDbLine
 62
7
  6
CONTINUOUS
 10
61.4216372478
 20
143.4714270757
 11
61.6450414765
 21
143.8360104786
  0
LINE
  5
283
100
AcDbEntity
  8
0
100
AcDbLine
 62
7
  6
CONTINUOUS
 10
60.2301478196
 20
144.7839270757
 11
60.4535520482
 21
145.075593725
  0
LINE
  5
284
100
AcDbEntity
  8
0
100
AcDbLine
 62
7
  6
CONTINUOUS
 10
59.708871286
 20
143.1797604786
 11
59.9322755146
 21
143.4714270757
  0
LINE
  5
285
100
AcDbEntity
  8
0
100
AcDbLine
 62
7
  6
CONTINUOUS
 10
58.7407861385
 20
145.5130937381
 11
58.5173818838
 21
145.2943437511
  0
LINE
  5
286
100
AcDbEntity
  8
0
100
AcDbLine
 62
7
  6
CONTINUOUS
 10
60.6769562769
 20
145.2214270757
 11
60.8258924294
 21
145.2214270757
  0
LINE
  5
287
100
AcDbEntity
  8
0
100
AcDbLine
 62
7
  6
CONTINUOUS
 10
59.1131265718
 20
145.2943437511
 11
59.3365308005
 21
145.2943437511
  0
LINE
  5
288
100
AcDbEntity
  8
0
100
AcDbLine
 62
7
  6
CONTINUOUS
 10
60.8258924294
 20
145.5860104069
 11
60.6024882007
 21
145.5860104069
  0
LINE
  5
289
100
AcDbEntity
  8
0
100
AcDbLine
 62
7
  6
CONTINUOUS
 10
59.3365308005
 20
145.6589270757
 11
59.1131265718
 21
145.6589270757
  0
LINE
  5
28A
100
AcDbEntity
  8
0
100
AcDbLine
 62
7
  6
CONTINUOUS
 10
58.4429138075
 20
155.7989270757
 11
58.7407861385
 21
155.50726027
  0
LINE
  5
28B
100
AcDbEntity
  8
0
100
AcDbLine
 62
7
  6
CONTINUOUS
 10
61.0492968667
 20
157.6218437772
 11
61.1982330192
 21
157.4030936729
  0
LINE
  5
28C
100
AcDbEntity
  8
0
100
AcDbLine
 62
7
  6
CONTINUOUS
 10
61.6450414765
 20
157.4760104786
 11
61.4961053241
 21
157.7676770757
  0
LINE
  5
28D
100
AcDbEntity
  8
0
100
AcDbLine
 62
7
  6
CONTINUOUS
 10
61.2727010954
 20
143.9089270757
 11
61.0492968667
 21
143.6172604786
  0
LINE
  5
28E
100
AcDbEntity
  8
0
100
AcDbLine
 62
7
  6
CONTINUOUS
 10
60.3046158958
 20
145.4401770757
 11
60.0812116671
 21
145.2214270757
  0
LINE
  5
28F
100
AcDbEntity
  8
0
100
AcDbLine
 62
7
  6
CONTINUOUS
 10
61.1982330192
 20
143.2526770757
 11
61.4216372478
 21
143.4714270757
  0
LINE
  5
290
100
AcDbEntity
  8
0
100
AcDbLine
 62
7
  6
CONTINUOUS
 10
58.8152542147
 20
145.075593725
 11
59.1131265718
 21
145.2943437511
  0
LINE
  5
291
100
AcDbEntity
  8
0
100
AcDbLine
 62
7
  6
CONTINUOUS
 10
58.2195095528
 20
147.1218434642
 11
61.7195095528
 21
147.1218434642
  0
LINE
  5
292
100
AcDbEntity
  8
0
100
AcDbLine
 62
7
  6
CONTINUOUS
 10
61.7195095528
 20
147.5593434642
 11
60.3046158958
 21
147.5593434642
  0
LINE
  5
293
100
AcDbEntity
  8
0
100
AcDbLine
 62
7
  6
CONTINUOUS
 10
59.8578074384
 20
147.5593434642
 11
58.2195095528
 21
147.5593434642
  0
LINE
  5
294
100
AcDbEntity
  8
0
100
AcDbLine
 62
7
  6
CONTINUOUS
 10
61.4961053241
 20
157.7676770757
 11
61.1982330192
 21
158.0593437772
  0
LINE
  5
295
100
AcDbEntity
  8
0
100
AcDbLine
 62
7
  6
CONTINUOUS
 10
59.6344032097
 20
143.6172604786
 11
59.3365308005
 21
143.3985104786
  0
LINE
  5
296
100
AcDbEntity
  8
0
100
AcDbLine
 62
7
  6
CONTINUOUS
 10
60.4535520482
 20
145.075593725
 11
60.6769562769
 21
145.2214270757
  0
LINE
  5
297
100
AcDbEntity
  8
0
100
AcDbLine
 62
7
  6
CONTINUOUS
 10
61.0492968667
 20
143.6172604786
 11
60.8258924294
 21
143.4714270757
  0
LINE
  5
298
100
AcDbEntity
  8
0
100
AcDbLine
 62
7
  6
CONTINUOUS
 10
60.6024882007
 20
145.5860104069
 11
60.3046158958
 21
145.4401770757
  0
LINE
  5
299
100
AcDbEntity
  8
0
100
AcDbLine
 62
7
  6
CONTINUOUS
 10
59.1131265718
 20
145.6589270757
 11
58.7407861385
 21
145.5130937381
  0
LINE
  5
29A
100
AcDbEntity
  8
0
100
AcDbLine
 62
7
  6
CONTINUOUS
 10
58.2195095528
 20
149.6010106872
 11
59.8578074384
 21
149.6010106872
  0
LINE
  5
29B
100
AcDbEntity
  8
0
100
AcDbLine
 62
7
  6
CONTINUOUS
 10
60.3046158958
 20
149.6010106872
 11
61.7195095528
 21
149.6010106872
  0
LINE
  5
29C
100
AcDbEntity
  8
0
100
AcDbLine
 62
7
  6
CONTINUOUS
 10
61.7195095528
 20
150.0385106872
 11
58.2195095528
 21
150.0385106872
  0
LINE
  5
29D
100
AcDbEntity
  8
0
100
AcDbLine
 62
7
  6
CONTINUOUS
 10
59.485466953
 20
150.6218434642
 11
59.8578074384
 21
150.6218434642
  0
LINE
  5
29E
100
AcDbEntity
  8
0
100
AcDbLine
 62
7
  6
CONTINUOUS
 10
59.1131265718
 20
155.8718436729
 11
58.8897223431
 21
155.9447604786
  0
LINE
  5
29F
100
AcDbEntity
  8
0
100
AcDbLine
 62
7
  6
CONTINUOUS
 10
60.8258924294
 20
157.7676770757
 11
61.0492968667
 21
157.6218437772
  0
LINE
  5
2A0
100
AcDbEntity
  8
0
100
AcDbLine
 62
7
  6
CONTINUOUS
 10
59.3365308005
 20
143.0339270757
 11
59.708871286
 21
143.1797604786
  0
LINE
  5
2A1
100
AcDbEntity
  8
0
100
AcDbLine
 62
7
  6
CONTINUOUS
 10
59.8578074384
 20
151.6426770757
 11
59.485466953
 21
151.6426770757
  0
LINE
  5
2A2
100
AcDbEntity
  8
0
100
AcDbLine
 62
7
  6
CONTINUOUS
 10
58.2195095528
 20
152.2260106872
 11
58.6663180623
 21
152.2260106872
  0
LINE
  5
2A3
100
AcDbEntity
  8
0
100
AcDbLine
 62
7
  6
CONTINUOUS
 10
61.2727010954
 20
152.2260106872
 11
61.7195095528
 21
152.2260106872
  0
LINE
  5
2A4
100
AcDbEntity
  8
0
100
AcDbLine
 62
7
  6
CONTINUOUS
 10
59.8578074384
 20
152.5176770757
 11
60.3046158958
 21
152.5176770757
  0
LINE
  5
2A5
100
AcDbEntity
  8
0
100
AcDbLine
 62
7
  6
CONTINUOUS
 10
58.7407861385
 20
155.50726027
 11
59.1131265718
 21
155.4343438815
  0
LINE
  5
2A6
100
AcDbEntity
  8
0
100
AcDbLine
 62
7
  6
CONTINUOUS
 10
61.1982330192
 20
158.0593437772
 11
60.9003607142
 21
158.2051770757
  0
LINE
  5
2A7
100
AcDbEntity
  8
BEZUGSACHSEN
100
AcDbLine
 62
7
  6
CONTINUOUS
 10
77.6695095528
 20
123.2889270757
 11
77.6695095528
 21
143.1789270757
  0
LINE
  5
2A8
100
AcDbEntity
  8
BEZUGSACHSEN
100
AcDbLine
 62
7
  6
CONTINUOUS
 10
77.6695095528
 20
159.0789270757
 11
77.6695095528
 21
178.9689270757
  0
LINE
  5
2A9
100
AcDbEntity
  8
0
100
AcDbLine
 62
7
  6
CONTINUOUS
 10
60.8258924294
 20
143.1068436729
 11
61.1982330192
 21
143.2526770757
  0
LINE
  5
2AA
100
AcDbEntity
  8
0
100
AcDbLine
 62
7
  6
CONTINUOUS
 10
58.6663180623
 20
154.41351027
 11
59.8578074384
 21
154.41351027
  0
LINE
  5
2AB
100
AcDbEntity
  8
0
100
AcDbLine
 62
7
  6
CONTINUOUS
 10
60.3046158958
 20
154.41351027
 11
61.2727010954
 21
154.41351027
  0
LINE
  5
2AC
100
AcDbEntity
  8
0
100
AcDbLine
 62
7
  6
CONTINUOUS
 10
61.7195095528
 20
154.85101027
 11
58.2195095528
 21
154.85101027
  0
LINE
  5
2AD
100
AcDbEntity
  8
0
100
AcDbLine
 62
7
  6
CONTINUOUS
 10
60.9003607142
 20
158.2051770757
 11
60.5280201245
 21
158.2780937772
  0
LINE
  5
2AE
100
AcDbEntity
  8
0
100
AcDbLine
 62
7
  6
CONTINUOUS
 10
60.5280201245
 20
157.8405937772
 11
60.8258924294
 21
157.7676770757
  0
LINE
  5
2AF
100
AcDbEntity
  8
0
100
AcDbLine
 62
7
  6
CONTINUOUS
 10
60.8258924294
 20
155.4343438815
 11
61.1982330192
 21
155.50726027
  0
LINE
  5
2B0
100
AcDbEntity
  8
0
100
AcDbLine
 62
7
  6
CONTINUOUS
 10
59.4109988767
 20
157.8405937772
 11
60.5280201245
 21
157.8405937772
  0
LINE
  5
2B1
100
AcDbEntity
  8
0
100
AcDbLine
 62
7
  6
CONTINUOUS
 10
60.5280201245
 20
158.2780937772
 11
59.4109988767
 21
158.2780937772
  0
LINE
  5
2B2
100
AcDbEntity
  8
0
100
AcDbLine
 62
7
  6
CONTINUOUS
 10
58.2195095528
 20
158.8614270757
 11
61.7195095528
 21
158.8614270757
  0
LINE
  5
2B3
100
AcDbEntity
  8
BEZUGSACHSEN
100
AcDbLine
 62
7
  6
CONTINUOUS
 10
81.6195095528
 20
144.6289270757
 11
81.6195095528
 21
157.6289270757
  0
LINE
  5
2B4
100
AcDbEntity
  8
0
100
AcDbLine
 62
7
  6
CONTINUOUS
 10
59.1131265718
 20
157.7676770757
 11
59.4109988767
 21
157.8405937772
  0
LINE
  5
2B5
100
AcDbEntity
  8
0
100
AcDbLine
 62
7
  6
CONTINUOUS
 10
59.4109988767
 20
158.2780937772
 11
59.0386584956
 21
158.2051770757
  0
LINE
  5
2B6
100
AcDbEntity
  8
0
100
AcDbLine
 62
7
  6
CONTINUOUS
 10
61.7195095528
 20
159.2989270757
 11
58.2195095528
 21
159.2989270757
  0
LINE
  5
2B7
100
AcDbEntity
  8
BEZUGSACHSEN
100
AcDbLine
 62
7
  6
CONTINUOUS
 10
84.028535981
 20
169.1289270757
 11
84.028535981
 21
167.3789270757
  0
LINE
  5
2B8
100
AcDbEntity
  8
BEZUGSACHSEN
100
AcDbLine
 62
7
  6
CONTINUOUS
 10
84.028535981
 20
133.1289270757
 11
84.028535981
 21
134.8789270757
  0
LINE
  5
2B9
100
AcDbEntity
  8
0
100
AcDbLine
 62
7
  6
CONTINUOUS
 10
67.5695095528
 20
163.4789270757
 11
77.6695095528
 21
163.4789270757
  0
LINE
  5
2BA
100
AcDbEntity
  8
BEZUGSACHSEN
100
AcDbLine
 62
7
  6
CONTINUOUS
 10
86.0122124707
 20
120.4317138116
 11
86.0122124719
 21
121.1974495667
  0
LINE
  5
2BB
100
AcDbEntity
  8
BEZUGSACHSEN
100
AcDbLine
 62
7
  6
CONTINUOUS
 10
86.0122124719
 20
181.0604045847
 11
86.0122124707
 21
181.8261403398
  0
LINE
  5
2BC
100
AcDbEntity
  8
BEZUGSACHSEN
100
AcDbLine
 62
7
  6
CONTINUOUS
 10
88.3315780254
 20
181.4942242204
 11
88.3315780581
 21
180.7485058567
  0
LINE
  5
2BD
100
AcDbEntity
  8
BEZUGSACHSEN
100
AcDbLine
 62
7
  6
CONTINUOUS
 10
88.3315780581
 20
121.5093482947
 11
88.3315780254
 21
120.7636299311
  0
LINE
  5
2BE
100
AcDbEntity
  8
BEZUGSACHSEN
100
AcDbLine
 62
7
  6
CONTINUOUS
 10
88.6195095528
 20
157.6289270757
 11
88.6195095528
 21
144.6289270757
  0
LINE
  5
2BF
100
AcDbEntity
  8
BEZUGSACHSEN
100
AcDbLine
 62
7
  6
CONTINUOUS
 10
94.6195095528
 20
126.8358148238
 11
94.6195095528
 21
175.4220393277
  0
LINE
  5
2C0
100
AcDbEntity
  8
0
100
AcDbLine
 62
7
  6
CONTINUOUS
 10
77.6695095528
 20
174.7789270757
 11
67.5695095528
 21
174.7789270757
  0
LINE
  5
2C1
100
AcDbEntity
  8
BEZUGSACHSEN
100
AcDbLine
 62
7
  6
CONTINUOUS
 10
90.7460464082
 20
126.7279664711
 11
94.6195095528
 21
130.7085871502
  0
LINE
  5
2C2
100
AcDbEntity
  8
BEZUGSACHSEN
100
AcDbLine
 62
7
  6
CONTINUOUS
 10
90.7460464082
 20
175.5298876804
 11
94.6195095528
 21
171.5492670013
  0
LINE
  5
2C3
100
AcDbEntity
  8
BEZUGSACHSEN
100
AcDbLine
 62
7
  6
CONTINUOUS
 10
94.6195095528
 20
126.8358148238
 11
88.3315780254
 21
120.7636299311
  0
LINE
  5
2C4
100
AcDbEntity
  8
BEZUGSACHSEN
100
AcDbLine
 62
7
  6
CONTINUOUS
 10
59.2268066348
 20
181.8261403398
 11
56.9074410801
 21
181.4942242204
  0
LINE
  5
2C5
100
AcDbEntity
  8
BEZUGSACHSEN
100
AcDbLine
 62
7
  6
CONTINUOUS
 10
88.3315780254
 20
181.4942242204
 11
86.0122124707
 21
181.8261403398
  0
LINE
  5
2C6
100
AcDbEntity
  8
BEZUGSACHSEN
100
AcDbLine
 62
7
  6
CONTINUOUS
 10
94.6195095528
 20
175.4220393277
 11
88.3315780254
 21
181.4942242204
  0
LINE
  5
2C7
100
AcDbEntity
  8
BEZUGSACHSEN
100
AcDbLine
 62
7
  6
CONTINUOUS
 10
140.025373612
 20
171.5492670013
 11
149.6230024576
 21
175.0425182206
  0
LINE
  5
2C8
100
AcDbEntity
  8
BEZUGSACHSEN
100
AcDbLine
 62
7
  6
CONTINUOUS
 10
140.025373612
 20
130.7085871502
 11
149.6230024576
 21
127.2153359308
  0
LINE
  5
2C9
100
AcDbEntity
  8
BEZUGSACHSEN
100
AcDbLine
 62
7
  6
CONTINUOUS
 10
140.025373612
 20
126.2009419764
 11
140.025373612
 21
176.056912175
  0
LINE
  5
2CA
100
AcDbEntity
  8
FASEN
100
AcDbLine
 62
7
  6
CONTINUOUS
 10
163.525373612
 20
176.056912175
 11
163.525373612
 21
171.5492670013
  0
LINE
  5
2CB
100
AcDbEntity
  8
BEZUGSACHSEN
100
AcDbLine
 62
7
  6
CONTINUOUS
 10
163.525373612
 20
126.2009419764
 11
163.525373612
 21
171.5492670013
  0
LINE
  5
2CC
100
AcDbEntity
  8
BEZUGSACHSEN
100
AcDbLine
 62
7
  6
CONTINUOUS
 10
163.525373612
 20
130.7085871502
 11
153.9277447664
 21
127.2153359308
  0
LINE
  5
2CD
100
AcDbEntity
  8
0
100
AcDbLine
 62
7
  6
CONTINUOUS
 10
163.525373612
 20
171.5492670013
 11
153.9277447664
 21
175.0425182206
  0
LINE
  5
2CE
100
AcDbEntity
  8
BEZUGSACHSEN
100
AcDbLine
 62
7
  6
CONTINUOUS
 10
50.6195095528
 20
81.0524107632
 11
50.6195095528
 21
67.1500396088
  0
LINE
  5
2CF
100
AcDbEntity
  8
0
100
AcDbLine
 62
7
  6
CONTINUOUS
 10
50.6195095528
 20
57.5524107632
 11
50.6195095528
 21
67.1500396088
  0
LINE
  5
2D0
100
AcDbEntity
  8
BEZUGSACHSEN
100
AcDbLine
 62
7
  6
CONTINUOUS
 10
56.9074410474
 20
65.0732309003
 11
56.9074410474
 21
73.531590626
  0
LINE
  5
2D1
100
AcDbEntity
  8
BEZUGSACHSEN
100
AcDbLine
 62
7
  6
CONTINUOUS
 10
59.2268066336
 20
73.6451137373
 11
59.2268066336
 21
64.959707789
  0
LINE
  5
2D2
100
AcDbEntity
  8
FASEN
100
AcDbLine
 62
7
  6
CONTINUOUS
 10
50.6195095528
 20
57.5524107632
 11
61.2104831245
 21
57.5524107632
  0
LINE
  5
2D3
100
AcDbEntity
  8
0
100
AcDbLine
 62
7
  6
CONTINUOUS
 10
61.2104831245
 20
57.5524107632
 11
67.5695095528
 21
57.5524107632
  0
LINE
  5
2D4
100
AcDbEntity
  8
BEZUGSACHSEN
100
AcDbLine
 62
7
  6
CONTINUOUS
 10
67.5695095528
 20
57.5524107632
 11
94.6195095528
 21
57.5524107632
  0
LINE
  5
2D5
100
AcDbEntity
  8
0
100
AcDbLine
 62
7
  6
CONTINUOUS
 10
67.5695095528
 20
59.4624107632
 11
67.5695095528
 21
57.5524107632
  0
LINE
  5
2D6
100
AcDbEntity
  8
BEZUGSACHSEN
100
AcDbLine
 62
7
  6
CONTINUOUS
 10
67.5695095528
 20
59.4624107632
 11
67.5695095528
 21
81.0524107632
  0
LINE
  5
2D7
100
AcDbEntity
  8
0
100
AcDbLine
 62
7
  6
CONTINUOUS
 10
67.5695095528
 20
64.3024107632
 11
77.6695095528
 21
64.3024107632
  0
LINE
  5
2D8
100
AcDbEntity
  8
BEZUGSACHSEN
100
AcDbLine
 62
7
  6
CONTINUOUS
 10
77.6695095528
 20
57.5524107632
 11
77.6695095528
 21
81.0524107632
  0
LINE
  5
2D9
100
AcDbEntity
  8
0
100
AcDbLine
 62
7
  6
CONTINUOUS
 10
67.5695095528
 20
74.3024107632
 11
77.6695095528
 21
74.3024107632
  0
LINE
  5
2DA
100
AcDbEntity
  8
BEZUGSACHSEN
100
AcDbLine
 62
7
  6
CONTINUOUS
 10
50.6195095528
 20
81.0524107632
 11
94.6195095528
 21
81.0524107632
  0
LINE
  5
2DB
100
AcDbEntity
  8
BEZUGSACHSEN
100
AcDbLine
 62
7
  6
CONTINUOUS
 10
86.0122124719
 20
64.959707789
 11
86.0122124719
 21
73.6451137373
  0
LINE
  5
2DC
100
AcDbEntity
  8
BEZUGSACHSEN
100
AcDbLine
 62
7
  6
CONTINUOUS
 10
88.3315780581
 20
73.531590626
 11
88.3315780581
 21
65.0732309003
  0
LINE
  5
2DD
100
AcDbEntity
  8
BEZUGSACHSEN
100
AcDbLine
 62
7
  6
CONTINUOUS
 10
94.6195095528
 20
57.5524107632
 11
94.6195095528
 21
81.0524107632
  0
ARC
  5
2DE
100
AcDbEntity
  8
BEZUGSACHSEN
100
AcDbCircle
 62
7
  6
CONTINUOUS
 10
72.6195095528
 20
207.3227187093
 40
28.8
100
AcDbArc
 50
280.0988649225
 51
297.7118016314
  0
ARC
  5
2DF
100
AcDbEntity
  8
BEZUGSACHSEN
100
AcDbCircle
 62
7
  6
CONTINUOUS
 10
72.6195095528
 20
94.9351354422
 40
28.8
100
AcDbArc
 50
62.2881983686
 51
79.9011350775
  0
ARC
  5
2E0
100
AcDbEntity
  8
BEZUGSACHSEN
100
AcDbCircle
 62
7
  6
CONTINUOUS
 10
72.6195095528
 20
94.9351354422
 40
28.8
100
AcDbArc
 50
100.0988649225
 51
117.7118016314
  0
ARC
  5
2E1
100
AcDbEntity
  8
0
100
AcDbCircle
 62
7
  6
CONTINUOUS
 10
72.6195095528
 20
207.3227187093
 40
28.8
100
AcDbArc
 50
242.2881983686
 51
259.9011350775
  0
ARC
  5
2E2
100
AcDbEntity
  8
BEZUGSACHSEN
100
AcDbCircle
 62
7
  6
CONTINUOUS
 10
72.6195095528
 20
159.0789270757
 40
5.05
100
AcDbArc
 50
180.0
 51
360.0
  0
ARC
  5
2E3
100
AcDbEntity
  8
BEZUGSACHSEN
100
AcDbCircle
 62
7
  6
CONTINUOUS
 10
72.6195095528
 20
143.1789270757
 40
5.05
100
AcDbArc
 50
0.0
 51
180.0
  0
ARC
  5
2E4
100
AcDbEntity
  8
BEZUGSACHSEN
100
AcDbCircle
 62
7
  6
CONTINUOUS
 10
85.1195095528
 20
144.6289270757
 40
3.5
100
AcDbArc
 50
180.0
 51
360.0
  0
ARC
  5
2E5
100
AcDbEntity
  8
BEZUGSACHSEN
100
AcDbCircle
 62
7
  6
CONTINUOUS
 10
85.1195095528
 20
157.6289270757
 40
3.5
100
AcDbArc
 50
0.0
 51
180.0
  0
ARC
  5
2E6
100
AcDbEntity
  8
BEZUGSACHSEN
100
AcDbCircle
 62
7
  6
CONTINUOUS
 10
60.1195095528
 20
144.6289270757
 40
3.5
100
AcDbArc
 50
180.0
 51
360.0
  0
ARC
  5
2E7
100
AcDbEntity
  8
0
100
AcDbCircle
 62
7
  6
CONTINUOUS
 10
60.1195095528
 20
157.6289270757
 40
3.5
100
AcDbArc
 50
0.0
 51
180.0
  0
ARC
  5
2E8
100
AcDbEntity
  8
BEZUGSACHSEN
100
AcDbCircle
 62
7
  6
CONTINUOUS
 10
151.775373612
 20
169.1289270757
 40
12.6972132641
100
AcDbArc
 50
69.9999986854
 51
110.0000013146
  0
ARC
  5
2E9
100
AcDbEntity
  8
BEZUGSACHSEN
100
AcDbCircle
 62
7
  6
CONTINUOUS
 10
151.775373612
 20
133.1289270757
 40
12.6972132641
100
AcDbArc
 50
249.9999986854
 51
290.0000013146
  0
ARC
  5
2EA
100
AcDbEntity
  8
BEZUGSACHSEN
100
AcDbCircle
 62
7
  6
CONTINUOUS
 10
151.775373612
 20
169.1289270757
 40
12.3652971447
100
AcDbArc
 50
70.0000041283
 51
109.9999958717
  0
ARC
  5
2EB
100
AcDbEntity
  8
BEZUGSACHSEN
100
AcDbCircle
 62
7
  6
CONTINUOUS
 10
151.775373612
 20
133.1289270757
 40
12.3652971447
100
AcDbArc
 50
250.0000041283
 51
289.9999958717
  0
ARC
  5
2EC
100
AcDbEntity
  8
BEZUGSACHSEN
100
AcDbCircle
 62
7
  6
CONTINUOUS
 10
151.775373612
 20
169.1289270757
 40
6.2931122519
100
AcDbArc
 50
70.0
 51
110.0
  0
ARC
  5
2ED
100
AcDbEntity
  8
BEZUGSACHSEN
100
AcDbCircle
 62
7
  6
CONTINUOUS
 10
151.775373612
 20
133.1289270757
 40
6.2931122519
100
AcDbArc
 50
250.0
 51
290.0
  0
ARC
  5
2EE
100
AcDbEntity
  8
0
100
AcDbCircle
 62
7
  6
CONTINUOUS
 10
72.6195095528
 20
31.1086191296
 40
28.8
100
AcDbArc
 50
100.0988649225
 51
113.3375131934
  0
ARC
  5
2EF
100
AcDbEntity
  8
0
100
AcDbCircle
 62
7
  6
CONTINUOUS
 10
72.6195095528
 20
107.4962023967
 40
28.8
100
AcDbArc
 50
246.6624868066
 51
259.9011350775
  0
ARC
  5
2F0
100
AcDbEntity
  8
BEZUGSACHSEN
100
AcDbCircle
 62
7
  6
CONTINUOUS
 10
72.6195095528
 20
31.1086191296
 40
28.8
100
AcDbArc
 50
66.6624868066
 51
79.9011350775
  0
ARC
  5
2F1
100
AcDbEntity
  8
BEZUGSACHSEN
100
AcDbCircle
 62
7
  6
CONTINUOUS
 10
72.6195095528
 20
107.4962023967
 40
28.8
100
AcDbArc
 50
280.0988649225
 51
293.3375131934
  0
ARC
  5
2F2
100
AcDbEntity
  8
BEZUGSACHSEN
100
AcDbCircle
 62
7
  6
CONTINUOUS
 10
72.6195095528
 20
107.4962023967
 40
28.8
100
AcDbArc
 50
246.6624868066
 51
259.9011350775
  0
SPLINE
  5
2F3
100
AcDbEntity
  8
BEZUGSACHSEN
100
AcDbSpline
 62
7
  6
CONTINUOUS
 70
0
 71
3
 72
14
 73
10
 74
0
 42
0.0000001
 43
0.0000001
 44
0.0000000001
 40
0.0
 40
0.0
 40
0.0
 40
0.0
 40
0.0654951219
 40
0.1447689128
 40
0.2396963686
 40
0.351857656
 40
0.4826531493
 40
0.6334225841
 40
1.0
 40
1.0
 40
1.0
 40
1.0
 10
88.3315087668
 20
180.7485684267
 30
0.0
 10
88.3313343203
 20
180.621838017
 30
0.0
 10
88.3586592845
 20
180.3416517114
 30
0.0
 10
88.4636569887
 20
179.8890803981
 30
0.0
 10
88.6404834267
 20
179.3632257705
 30
0.0
 10
88.8938079841
 20
178.7600453098
 30
0.0
 10
89.2283811043
 20
178.0752289393
 30
0.0
 10
89.8295994435
 20
176.9742468537
 30
0.0
 10
90.3596086521
 20
176.1239991125
 30
0.0
 10
90.7466238769
 20
175.5295713738
 30
0.0
  0
SPLINE
  5
2F4
100
AcDbEntity
  8
FASEN
100
AcDbSpline
 62
7
  6
CONTINUOUS
 70
0
 71
3
 72
14
 73
10
 74
0
 42
0.0000001
 43
0.0000001
 44
0.0000000001
 40
0.0
 40
0.0
 40
0.0
 40
0.0
 40
0.2500613184
 40
0.3750962779
 40
0.500125623
 40
0.6251408517
 40
0.7501313942
 40
0.8750831359
 40
1.0
 40
1.0
 40
1.0
 40
1.0
 10
57.5672934907
 20
176.056912175
 30
0.0
 10
57.9915584231
 20
175.5448237853
 30
0.0
 10
58.6198859112
 20
174.7695323003
 30
0.0
 10
59.4089597263
 20
173.6984908982
 30
0.0
 10
59.962630888
 20
172.8681555393
 30
0.0
 10
60.4582883485
 20
172.0014299298
 30
0.0
 10
60.8660242711
 20
171.0888894477
 30
0.0
 10
61.1436063059
 20
170.1272161637
 30
0.0
 10
61.2104831245
 20
169.4611283054
 30
0.0
 10
61.2104831245
 20
169.1289270757
 30
0.0
  0
SPLINE
  5
2F5
100
AcDbEntity
  8
BEZUGSACHSEN
100
AcDbSpline
 62
7
  6
CONTINUOUS
 70
0
 71
3
 72
17
 73
13
 74
0
 42
0.0000001
 43
0.0000001
 44
0.0000000001
 40
0.0
 40
0.0
 40
0.0
 40
0.0
 40
0.0625486588
 40
0.1251830922
 40
0.1877659178
 40
0.2503148897
 40
0.3752571338
 40
0.5002066422
 40
0.6251550017
 40
0.750096582
 40
0.8750602973
 40
1.0
 40
1.0
 40
1.0
 40
1.0
 10
61.2104831245
 20
134.8789270757
 30
0.0
 10
61.2104831245
 20
135.0605272689
 30
0.0
 10
61.24956064
 20
135.4248975836
 30
0.0
 10
61.4118492765
 20
135.948370101
 30
0.0
 10
61.6610740069
 20
136.4357242935
 30
0.0
 10
62.077394979
 20
137.032623299
 30
0.0
 10
62.7165055863
 20
137.684641139
 30
0.0
 10
63.5875855587
 20
138.3411572904
 30
0.0
 10
64.5258223672
 20
138.8962530438
 30
0.0
 10
65.5094774742
 20
139.364762971
 30
0.0
 10
66.5258775965
 20
139.7563204487
 30
0.0
 10
67.2197207718
 20
139.9705215779
 30
0.0
 10
67.5695095528
 20
140.0665951453
 30
0.0
  0
SPLINE
  5
2F6
100
AcDbEntity
  8
BEZUGSACHSEN
100
AcDbSpline
 62
7
  6
CONTINUOUS
 70
0
 71
3
 72
9
 73
5
 74
0
 42
0.0000001
 43
0.0000001
 44
0.0000000001
 40
0.0
 40
0.0
 40
0.0
 40
0.0
 40
0.5000006235
 40
1.0
 40
1.0
 40
1.0
 40
1.0
 10
57.5672934907
 20
126.2009419764
 30
0.0
 10
57.0566343007
 20
126.2984792473
 30
0.0
 10
56.0338934428
 20
126.4862884866
 30
0.0
 10
55.0072159154
 20
126.6515538277
 30
0.0
 10
54.4929726973
 20
126.7279664711
 30
0.0
  0
SPLINE
  5
2F7
100
AcDbEntity
  8
BEZUGSACHSEN
100
AcDbSpline
 62
7
  6
CONTINUOUS
 70
0
 71
3
 72
14
 73
10
 74
0
 42
0.0000001
 43
0.0000001
 44
0.0000000001
 40
0.0
 40
0.0
 40
0.0
 40
0.0
 40
0.0716163879
 40
0.1566965699
 40
0.2562710865
 40
0.3712299651
 40
0.502377723
 40
0.6504628832
 40
1.0
 40
1.0
 40
1.0
 40
1.0
 10
59.2268714293
 20
121.1972454707
 30
0.0
 10
59.2270106498
 20
121.3238655363
 30
0.0
 10
59.2083062684
 20
121.6009620513
 30
0.0
 10
59.135766119
 20
122.0486356945
 30
0.0
 10
59.0135703269
 20
122.5644684105
 30
0.0
 10
58.8388475891
 20
123.1504053538
 30
0.0
 10
58.6087215266
 20
123.8084885273
 30
0.0
 10
58.2011486232
 20
124.8429837493
 30
0.0
 10
57.8362646018
 20
125.6443444041
 30
0.0
 10
57.567475581
 20
126.2008226478
 30
0.0
  0
SPLINE
  5
2F8
100
AcDbEntity
  8
BEZUGSACHSEN
100
AcDbSpline
 62
7
  6
CONTINUOUS
 70
0
 71
3
 72
14
 73
10
 74
0
 42
0.0000001
 43
0.0000001
 44
0.0000000001
 40
0.0
 40
0.0
 40
0.0
 40
0.0
 40
0.2500613184
 40
0.3750962779
 40
0.500125623
 40
0.6251408517
 40
0.7501313942
 40
0.8750831359
 40
1.0
 40
1.0
 40
1.0
 40
1.0
 10
57.5672934907
 20
126.2009419764
 30
0.0
 10
57.9915584231
 20
126.7130303661
 30
0.0
 10
58.6198859112
 20
127.4883218511
 30
0.0
 10
59.4089597263
 20
128.5593632532
 30
0.0
 10
59.962630888
 20
129.3896986121
 30
0.0
 10
60.4582883485
 20
130.2564242217
 30
0.0
 10
60.8660242711
 20
131.1689647038
 30
0.0
 10
61.1436063059
 20
132.1306379878
 30
0.0
 10
61.2104831245
 20
132.796725846
 30
0.0
 10
61.2104831245
 20
133.1289270757
 30
0.0
  0
SPLINE
  5
2F9
100
AcDbEntity
  8
BEZUGSACHSEN
100
AcDbSpline
 62
7
  6
CONTINUOUS
 70
0
 71
3
 72
14
 73
10
 74
0
 42
0.0000001
 43
0.0000001
 44
0.0000000001
 40
0.0
 40
0.0
 40
0.0
 40
0.0
 40
0.0654951219
 40
0.1447689128
 40
0.2396963686
 40
0.351857656
 40
0.4826531493
 40
0.6334225841
 40
1.0
 40
1.0
 40
1.0
 40
1.0
 10
56.9075103387
 20
121.5092857248
 30
0.0
 10
56.9076847852
 20
121.6360161345
 30
0.0
 10
56.8803598211
 20
121.91620244
 30
0.0
 10
56.7753621168
 20
122.3687737534
 30
0.0
 10
56.5985356789
 20
122.894628381
 30
0.0
 10
56.3452111214
 20
123.4978088416
 30
0.0
 10
56.0106380012
 20
124.1826252121
 30
0.0
 10
55.4094196621
 20
125.2836072978
 30
0.0
 10
54.8794104534
 20
126.133855039
 30
0.0
 10
54.4923952286
 20
126.7282827776
 30
0.0
  0
SPLINE
  5
2FA
100
AcDbEntity
  8
FASEN
100
AcDbSpline
 62
7
  6
CONTINUOUS
 70
0
 71
3
 72
9
 73
5
 74
0
 42
0.0000001
 43
0.0000001
 44
0.0000000001
 40
0.0
 40
0.0
 40
0.0
 40
0.0
 40
0.5000006235
 40
1.0
 40
1.0
 40
1.0
 40
1.0
 10
57.5672934907
 20
176.056912175
 30
0.0
 10
57.0566343007
 20
175.9593749042
 30
0.0
 10
56.0338934428
 20
175.7715656649
 30
0.0
 10
55.0072159154
 20
175.6063003238
 30
0.0
 10
54.4929726973
 20
175.5298876804
 30
0.0
  0
SPLINE
  5
2FB
100
AcDbEntity
  8
BEZUGSACHSEN
100
AcDbSpline
 62
7
  6
CONTINUOUS
 70
0
 71
3
 72
14
 73
10
 74
0
 42
0.0000001
 43
0.0000001
 44
0.0000000001
 40
0.0
 40
0.0
 40
0.0
 40
0.0
 40
0.2500613184
 40
0.3750962779
 40
0.500125623
 40
0.6251408517
 40
0.7501313942
 40
0.8750831359
 40
1.0
 40
1.0
 40
1.0
 40
1.0
 10
87.6717256148
 20
126.2009419764
 30
0.0
 10
87.2474606824
 20
126.7130303661
 30
0.0
 10
86.6191331943
 20
127.4883218511
 30
0.0
 10
85.8300593792
 20
128.5593632532
 30
0.0
 10
85.2763882175
 20
129.3896986121
 30
0.0
 10
84.780730757
 20
130.2564242217
 30
0.0
 10
84.3729948344
 20
131.1689647038
 30
0.0
 10
84.0954127997
 20
132.1306379878
 30
0.0
 10
84.028535981
 20
132.796725846
 30
0.0
 10
84.028535981
 20
133.1289270757
 30
0.0
  0
SPLINE
  5
2FC
100
AcDbEntity
  8
BEZUGSACHSEN
100
AcDbSpline
 62
7
  6
CONTINUOUS
 70
0
 71
3
 72
14
 73
10
 74
0
 42
0.0000001
 43
0.0000001
 44
0.0000000001
 40
0.0
 40
0.0
 40
0.0
 40
0.0
 40
0.0716163879
 40
0.1566965699
 40
0.2562710865
 40
0.3712299651
 40
0.502377723
 40
0.6504628832
 40
1.0
 40
1.0
 40
1.0
 40
1.0
 10
86.0121476763
 20
121.1972454707
 30
0.0
 10
86.0120084557
 20
121.3238655363
 30
0.0
 10
86.0307128372
 20
121.6009620513
 30
0.0
 10
86.1032529865
 20
122.0486356945
 30
0.0
 10
86.2254487786
 20
122.5644684105
 30
0.0
 10
86.4001715164
 20
123.1504053538
 30
0.0
 10
86.6302975789
 20
123.8084885273
 30
0.0
 10
87.0378704823
 20
124.8429837493
 30
0.0
 10
87.4027545037
 20
125.6443444041
 30
0.0
 10
87.6715435246
 20
126.2008226478
 30
0.0
  0
SPLINE
  5
2FD
100
AcDbEntity
  8
BEZUGSACHSEN
100
AcDbSpline
 62
7
  6
CONTINUOUS
 70
0
 71
3
 72
14
 73
10
 74
0
 42
0.0000001
 43
0.0000001
 44
0.0000000001
 40
0.0
 40
0.0
 40
0.0
 40
0.0
 40
0.0654951219
 40
0.1447689128
 40
0.2396963686
 40
0.351857656
 40
0.4826531493
 40
0.6334225841
 40
1.0
 40
1.0
 40
1.0
 40
1.0
 10
88.3315087668
 20
121.5092857248
 30
0.0
 10
88.3313343203
 20
121.6360161345
 30
0.0
 10
88.3586592845
 20
121.91620244
 30
0.0
 10
88.4636569887
 20
122.3687737534
 30
0.0
 10
88.6404834267
 20
122.894628381
 30
0.0
 10
88.8938079841
 20
123.4978088416
 30
0.0
 10
89.2283811043
 20
124.1826252121
 30
0.0
 10
89.8295994435
 20
125.2836072978
 30
0.0
 10
90.3596086521
 20
126.133855039
 30
0.0
 10
90.7466238769
 20
126.7282827776
 30
0.0
  0
SPLINE
  5
2FE
100
AcDbEntity
  8
0
100
AcDbSpline
 62
7
  6
CONTINUOUS
 70
0
 71
3
 72
17
 73
13
 74
0
 42
0.0000001
 43
0.0000001
 44
0.0000000001
 40
0.0
 40
0.0
 40
0.0
 40
0.0
 40
0.0625486588
 40
0.1251830922
 40
0.1877659178
 40
0.2503148897
 40
0.3752571338
 40
0.5002066422
 40
0.6251550017
 40
0.750096582
 40
0.8750602973
 40
1.0
 40
1.0
 40
1.0
 40
1.0
 10
61.2104831245
 20
167.3789270757
 30
0.0
 10
61.2104831245
 20
167.1973268826
 30
0.0
 10
61.24956064
 20
166.8329565678
 30
0.0
 10
61.4118492765
 20
166.3094840505
 30
0.0
 10
61.6610740069
 20
165.822129858
 30
0.0
 10
62.077394979
 20
165.2252308525
 30
0.0
 10
62.7165055863
 20
164.5732130125
 30
0.0
 10
63.5875855587
 20
163.9166968611
 30
0.0
 10
64.5258223672
 20
163.3616011077
 30
0.0
 10
65.5094774742
 20
162.8930911804
 30
0.0
 10
66.5258775965
 20
162.5015337027
 30
0.0
 10
67.2197207718
 20
162.2873325736
 30
0.0
 10
67.5695095528
 20
162.1912590062
 30
0.0
  0
SPLINE
  5
2FF
100
AcDbEntity
  8
FASEN
100
AcDbSpline
 62
7
  6
CONTINUOUS
 70
0
 71
3
 72
14
 73
10
 74
0
 42
0.0000001
 43
0.0000001
 44
0.0000000001
 40
0.0
 40
0.0
 40
0.0
 40
0.0
 40
0.0716163879
 40
0.1566965699
 40
0.2562710865
 40
0.3712299651
 40
0.502377723
 40
0.6504628832
 40
1.0
 40
1.0
 40
1.0
 40
1.0
 10
59.2268714293
 20
181.0606086808
 30
0.0
 10
59.2270106498
 20
180.9339886151
 30
0.0
 10
59.2083062684
 20
180.6568921001
 30
0.0
 10
59.135766119
 20
180.2092184569
 30
0.0
 10
59.0135703269
 20
179.693385741
 30
0.0
 10
58.8388475891
 20
179.1074487977
 30
0.0
 10
58.6087215266
 20
178.4493656242
 30
0.0
 10
58.2011486232
 20
177.4148704022
 30
0.0
 10
57.8362646018
 20
176.6135097473
 30
0.0
 10
57.567475581
 20
176.0570315037
 30
0.0
  0
SPLINE
  5
300
100
AcDbEntity
  8
BEZUGSACHSEN
100
AcDbSpline
 62
7
  6
CONTINUOUS
 70
0
 71
3
 72
17
 73
13
 74
0
 42
0.0000001
 43
0.0000001
 44
0.0000000001
 40
0.0
 40
0.0
 40
0.0
 40
0.0
 40
0.0625486588
 40
0.1251830922
 40
0.1877659178
 40
0.2503148897
 40
0.3752571338
 40
0.5002066422
 40
0.6251550017
 40
0.750096582
 40
0.8750602973
 40
1.0
 40
1.0
 40
1.0
 40
1.0
 10
84.028535981
 20
167.3789270757
 30
0.0
 10
84.028535981
 20
167.1973268826
 30
0.0
 10
83.9894584656
 20
166.8329565678
 30
0.0
 10
83.827169829
 20
166.3094840505
 30
0.0
 10
83.5779450986
 20
165.822129858
 30
0.0
 10
83.1616241265
 20
165.2252308525
 30
0.0
 10
82.5225135192
 20
164.5732130125
 30
0.0
 10
81.6514335468
 20
163.9166968611
 30
0.0
 10
80.7131967383
 20
163.3616011077
 30
0.0
 10
79.7295416313
 20
162.8930911804
 30
0.0
 10
78.713141509
 20
162.5015337027
 30
0.0
 10
78.0192983337
 20
162.2873325736
 30
0.0
 10
77.6695095528
 20
162.1912590062
 30
0.0
  0
SPLINE
  5
301
100
AcDbEntity
  8
BEZUGSACHSEN
100
AcDbSpline
 62
7
  6
CONTINUOUS
 70
0
 71
3
 72
14
 73
10
 74
0
 42
0.0000001
 43
0.0000001
 44
0.0000000001
 40
0.0
 40
0.0
 40
0.0
 40
0.0
 40
0.2500613184
 40
0.3750962779
 40
0.500125623
 40
0.6251408517
 40
0.7501313942
 40
0.8750831359
 40
1.0
 40
1.0
 40
1.0
 40
1.0
 10
87.6717256148
 20
176.056912175
 30
0.0
 10
87.2474606824
 20
175.5448237853
 30
0.0
 10
86.6191331943
 20
174.7695323003
 30
0.0
 10
85.8300593792
 20
173.6984908982
 30
0.0
 10
85.2763882175
 20
172.8681555393
 30
0.0
 10
84.780730757
 20
172.0014299298
 30
0.0
 10
84.3729948344
 20
171.0888894477
 30
0.0
 10
84.0954127997
 20
170.1272161637
 30
0.0
 10
84.028535981
 20
169.4611283054
 30
0.0
 10
84.028535981
 20
169.1289270757
 30
0.0
  0
SPLINE
  5
302
100
AcDbEntity
  8
BEZUGSACHSEN
100
AcDbSpline
 62
7
  6
CONTINUOUS
 70
0
 71
3
 72
9
 73
5
 74
0
 42
0.0000001
 43
0.0000001
 44
0.0000000001
 40
0.0
 40
0.0
 40
0.0
 40
0.0
 40
0.5000006235
 40
1.0
 40
1.0
 40
1.0
 40
1.0
 10
87.6717256148
 20
176.056912175
 30
0.0
 10
88.1823848048
 20
175.9593749042
 30
0.0
 10
89.2051256627
 20
175.7715656649
 30
0.0
 10
90.2318031902
 20
175.6063003238
 30
0.0
 10
90.7460464082
 20
175.5298876804
 30
0.0
  0
SPLINE
  5
303
100
AcDbEntity
  8
BEZUGSACHSEN
100
AcDbSpline
 62
7
  6
CONTINUOUS
 70
0
 71
3
 72
14
 73
10
 74
0
 42
0.0000001
 43
0.0000001
 44
0.0000000001
 40
0.0
 40
0.0
 40
0.0
 40
0.0
 40
0.0716163879
 40
0.1566965699
 40
0.2562710865
 40
0.3712299651
 40
0.502377723
 40
0.6504628832
 40
1.0
 40
1.0
 40
1.0
 40
1.0
 10
86.0121476763
 20
181.0606086808
 30
0.0
 10
86.0120084557
 20
180.9339886151
 30
0.0
 10
86.0307128372
 20
180.6568921001
 30
0.0
 10
86.1032529865
 20
180.2092184569
 30
0.0
 10
86.2254487786
 20
179.693385741
 30
0.0
 10
86.4001715164
 20
179.1074487977
 30
0.0
 10
86.6302975789
 20
178.4493656242
 30
0.0
 10
87.0378704823
 20
177.4148704022
 30
0.0
 10
87.4027545037
 20
176.6135097473
 30
0.0
 10
87.6715435246
 20
176.0570315037
 30
0.0
  0
SPLINE
  5
304
100
AcDbEntity
  8
BEZUGSACHSEN
100
AcDbSpline
 62
7
  6
CONTINUOUS
 70
0
 71
3
 72
9
 73
5
 74
0
 42
0.0000001
 43
0.0000001
 44
0.0000000001
 40
0.0
 40
0.0
 40
0.0
 40
0.0
 40
0.5000006235
 40
1.0
 40
1.0
 40
1.0
 40
1.0
 10
87.6717256148
 20
126.2009419764
 30
0.0
 10
88.1823848048
 20
126.2984792473
 30
0.0
 10
89.2051256627
 20
126.4862884866
 30
0.0
 10
90.2318031902
 20
126.6515538277
 30
0.0
 10
90.7460464082
 20
126.7279664711
 30
0.0
  0
SPLINE
  5
305
100
AcDbEntity
  8
BEZUGSACHSEN
100
AcDbSpline
 62
7
  6
CONTINUOUS
 70
0
 71
3
 72
17
 73
13
 74
0
 42
0.0000001
 43
0.0000001
 44
0.0000000001
 40
0.0
 40
0.0
 40
0.0
 40
0.0
 40
0.0625486588
 40
0.1251830922
 40
0.1877659178
 40
0.2503148897
 40
0.3752571338
 40
0.5002066422
 40
0.6251550017
 40
0.750096582
 40
0.8750602973
 40
1.0
 40
1.0
 40
1.0
 40
1.0
 10
84.028535981
 20
134.8789270757
 30
0.0
 10
84.028535981
 20
135.0605272689
 30
0.0
 10
83.9894584656
 20
135.4248975836
 30
0.0
 10
83.827169829
 20
135.948370101
 30
0.0
 10
83.5779450986
 20
136.4357242935
 30
0.0
 10
83.1616241265
 20
137.032623299
 30
0.0
 10
82.5225135192
 20
137.684641139
 30
0.0
 10
81.6514335468
 20
138.3411572904
 30
0.0
 10
80.7131967383
 20
138.8962530438
 30
0.0
 10
79.7295416313
 20
139.364762971
 30
0.0
 10
78.713141509
 20
139.7563204487
 30
0.0
 10
78.0192983337
 20
139.9705215779
 30
0.0
 10
77.6695095528
 20
140.0665951453
 30
0.0
  0
SPLINE
  5
306
100
AcDbEntity
  8
FASEN
100
AcDbSpline
 62
7
  6
CONTINUOUS
 70
0
 71
3
 72
14
 73
10
 74
0
 42
0.0000001
 43
0.0000001
 44
0.0000000001
 40
0.0
 40
0.0
 40
0.0
 40
0.0
 40
0.0654951219
 40
0.1447689128
 40
0.2396963686
 40
0.351857656
 40
0.4826531493
 40
0.6334225841
 40
1.0
 40
1.0
 40
1.0
 40
1.0
 10
56.9075103387
 20
180.7485684267
 30
0.0
 10
56.9076847852
 20
180.621838017
 30
0.0
 10
56.8803598211
 20
180.3416517114
 30
0.0
 10
56.7753621168
 20
179.8890803981
 30
0.0
 10
56.5985356789
 20
179.3632257705
 30
0.0
 10
56.3452111214
 20
178.7600453098
 30
0.0
 10
56.0106380012
 20
178.0752289393
 30
0.0
 10
55.4094196621
 20
176.9742468537
 30
0.0
 10
54.8794104534
 20
176.1239991125
 30
0.0
 10
54.4923952286
 20
175.5295713738
 30
0.0
  0
SPLINE
  5
307
100
AcDbEntity
  8
BEZUGSACHSEN
100
AcDbSpline
 62
7
  6
CONTINUOUS
 70
0
 71
3
 72
11
 73
7
 74
0
 42
0.0000001
 43
0.0000001
 44
0.0000000001
 40
0.0
 40
0.0
 40
0.0
 40
0.0
 40
0.2307806562
 40
0.4732452573
 40
0.7289293053
 40
1.0
 40
1.0
 40
1.0
 40
1.0
 10
147.4325969772
 20
181.0606086808
 30
0.0
 10
146.780389917
 20
180.8241465106
 30
0.0
 10
145.4711811845
 20
180.2575345942
 30
0.0
 10
143.5736619947
 20
179.1516429747
 30
0.0
 10
141.7250261515
 20
177.7536526193
 30
0.0
 10
140.5808526798
 20
176.6530058725
 30
0.0
 10
140.0251368042
 20
176.0570315037
 30
0.0
  0
SPLINE
  5
308
100
AcDbEntity
  8
FASEN
100
AcDbSpline
 62
7
  6
CONTINUOUS
 70
0
 71
3
 72
11
 73
7
 74
0
 42
0.0000001
 43
0.0000001
 44
0.0000000001
 40
0.0
 40
0.0
 40
0.0
 40
0.0
 40
0.2307806562
 40
0.4732452573
 40
0.7289293053
 40
1.0
 40
1.0
 40
1.0
 40
1.0
 10
156.1181502468
 20
181.0606086808
 30
0.0
 10
156.770357307
 20
180.8241465106
 30
0.0
 10
158.0795660395
 20
180.2575345942
 30
0.0
 10
159.9770852293
 20
179.1516429747
 30
0.0
 10
161.8257210725
 20
177.7536526193
 30
0.0
 10
162.9698945442
 20
176.6530058725
 30
0.0
 10
163.5256104198
 20
176.0570315037
 30
0.0
  0
SPLINE
  5
309
100
AcDbEntity
  8
BEZUGSACHSEN
100
AcDbSpline
 62
7
  6
CONTINUOUS
 70
0
 71
3
 72
11
 73
7
 74
0
 42
0.0000001
 43
0.0000001
 44
0.0000000001
 40
0.0
 40
0.0
 40
0.0
 40
0.0
 40
0.2307806562
 40
0.4732452573
 40
0.7289293053
 40
1.0
 40
1.0
 40
1.0
 40
1.0
 10
147.4325969772
 20
121.1972454707
 30
0.0
 10
146.780389917
 20
121.4337076408
 30
0.0
 10
145.4711811845
 20
122.0003195573
 30
0.0
 10
143.5736619947
 20
123.1062111767
 30
0.0
 10
141.7250261515
 20
124.5042015321
 30
0.0
 10
140.5808526798
 20
125.604848279
 30
0.0
 10
140.0251368042
 20
126.2008226478
 30
0.0
  0
SPLINE
  5
30A
100
AcDbEntity
  8
BEZUGSACHSEN
100
AcDbSpline
 62
7
  6
CONTINUOUS
 70
0
 71
3
 72
11
 73
7
 74
0
 42
0.0000001
 43
0.0000001
 44
0.0000000001
 40
0.0
 40
0.0
 40
0.0
 40
0.0
 40
0.2307806562
 40
0.4732452573
 40
0.7289293053
 40
1.0
 40
1.0
 40
1.0
 40
1.0
 10
156.1181502468
 20
121.1972454707
 30
0.0
 10
156.770357307
 20
121.4337076408
 30
0.0
 10
158.0795660395
 20
122.0003195573
 30
0.0
 10
159.9770852293
 20
123.1062111767
 30
0.0
 10
161.8257210725
 20
124.5042015321
 30
0.0
 10
162.9698945442
 20
125.604848279
 30
0.0
 10
163.5256104198
 20
126.2008226478
 30
0.0
  0
SPLINE
  5
30B
100
AcDbEntity
  8
BEZUGSACHSEN
100
AcDbSpline
 62
7
  6
CONTINUOUS
 70
0
 71
3
 72
11
 73
7
 74
0
 42
0.0000001
 43
0.0000001
 44
0.0000000001
 40
0.0
 40
0.0
 40
0.0
 40
0.0
 40
0.2246049073
 40
0.4635243327
 40
0.7203441708
 40
1.0
 40
1.0
 40
1.0
 40
1.0
 10
147.5461700944
 20
121.5092857248
 30
0.0
 10
146.8959823233
 20
121.7456004301
 30
0.0
 10
145.5832804098
 20
122.3176965739
 30
0.0
 10
143.6709960112
 20
123.4537849956
 30
0.0
 10
141.7807175364
 20
124.9232707945
 30
0.0
 10
140.6055830693
 20
126.0909562512
 30
0.0
 10
140.026135041
 20
126.7282827776
 30
0.0
  0
SPLINE
  5
30C
100
AcDbEntity
  8
BEZUGSACHSEN
100
AcDbSpline
 62
7
  6
CONTINUOUS
 70
0
 71
3
 72
11
 73
7
 74
0
 42
0.0000001
 43
0.0000001
 44
0.0000000001
 40
0.0
 40
0.0
 40
0.0
 40
0.0
 40
0.2246049073
 40
0.4635243327
 40
0.7203441708
 40
1.0
 40
1.0
 40
1.0
 40
1.0
 10
147.5461700944
 20
180.7485684267
 30
0.0
 10
146.8959823233
 20
180.5122537213
 30
0.0
 10
145.5832804098
 20
179.9401575776
 30
0.0
 10
143.6709960112
 20
178.8040691559
 30
0.0
 10
141.7807175364
 20
177.334583357
 30
0.0
 10
140.6055830693
 20
176.1668979002
 30
0.0
 10
140.026135041
 20
175.5295713738
 30
0.0
  0
SPLINE
  5
30D
100
AcDbEntity
  8
FASEN
100
AcDbSpline
 62
7
  6
CONTINUOUS
 70
0
 71
3
 72
11
 73
7
 74
0
 42
0.0000001
 43
0.0000001
 44
0.0000000001
 40
0.0
 40
0.0
 40
0.0
 40
0.0
 40
0.2246049073
 40
0.4635243327
 40
0.7203441708
 40
1.0
 40
1.0
 40
1.0
 40
1.0
 10
156.0045771296
 20
180.7485684267
 30
0.0
 10
156.6547649007
 20
180.5122537213
 30
0.0
 10
157.9674668142
 20
179.9401575776
 30
0.0
 10
159.8797512128
 20
178.8040691559
 30
0.0
 10
161.7700296876
 20
177.334583357
 30
0.0
 10
162.9451641547
 20
176.1668979002
 30
0.0
 10
163.524612183
 20
175.5295713738
 30
0.0
  0
SPLINE
  5
30E
100
AcDbEntity
  8
BEZUGSACHSEN
100
AcDbSpline
 62
7
  6
CONTINUOUS
 70
0
 71
3
 72
11
 73
7
 74
0
 42
0.0000001
 43
0.0000001
 44
0.0000000001
 40
0.0
 40
0.0
 40
0.0
 40
0.0
 40
0.2246049073
 40
0.4635243327
 40
0.7203441708
 40
1.0
 40
1.0
 40
1.0
 40
1.0
 10
156.0045771296
 20
121.5092857248
 30
0.0
 10
156.6547649007
 20
121.7456004301
 30
0.0
 10
157.9674668142
 20
122.3176965739
 30
0.0
 10
159.8797512128
 20
123.4537849956
 30
0.0
 10
161.7700296876
 20
124.9232707945
 30
0.0
 10
162.9451641547
 20
126.0909562512
 30
0.0
 10
163.524612183
 20
126.7282827776
 30
0.0
  0
SPLINE
  5
30F
100
AcDbEntity
  8
BEZUGSACHSEN
100
AcDbSpline
 62
7
  6
CONTINUOUS
 70
0
 71
3
 72
12
 73
8
 74
0
 42
0.0000001
 43
0.0000001
 44
0.0000000001
 40
0.0
 40
0.0
 40
0.0
 40
0.0
 40
0.2376570851
 40
0.4800827768
 40
0.7318049482
 40
0.8633884275
 40
1.0
 40
1.0
 40
1.0
 40
1.0
 10
88.3315087668
 20
73.5316142808
 30
0.0
 10
88.3311906393
 20
74.1674837091
 30
0.0
 10
88.4171353961
 20
75.4541685424
 30
0.0
 10
88.8404460368
 20
77.3736928268
 30
0.0
 10
89.4651859131
 20
78.9360161831
 30
0.0
 10
90.1369358873
 20
80.1555402672
 30
0.0
 10
90.5338150618
 20
80.7544737497
 30
0.0
 10
90.7466238769
 20
81.0516493342
 30
0.0
  0
SPLINE
  5
310
100
AcDbEntity
  8
BEZUGSACHSEN
100
AcDbSpline
 62
7
  6
CONTINUOUS
 70
0
 71
3
 72
11
 73
7
 74
0
 42
0.0000001
 43
0.0000001
 44
0.0000000001
 40
0.0
 40
0.0
 40
0.0
 40
0.0
 40
0.2497428854
 40
0.4994513011
 40
0.7490223379
 40
1.0
 40
1.0
 40
1.0
 40
1.0
 10
86.0121476763
 20
73.645187398
 30
0.0
 10
86.0118934892
 20
74.2828288318
 30
0.0
 10
86.070685656
 20
75.5590538423
 30
0.0
 10
86.358899814
 20
77.4535714967
 30
0.0
 10
86.8713254802
 20
79.3043556359
 30
0.0
 10
87.3768030693
 20
80.4836614987
 30
0.0
 10
87.6715435246
 20
81.052647571
 30
0.0
  0
SPLINE
  5
311
100
AcDbEntity
  8
BEZUGSACHSEN
100
AcDbSpline
 62
7
  6
CONTINUOUS
 70
0
 71
3
 72
11
 73
7
 74
0
 42
0.0000001
 43
0.0000001
 44
0.0000000001
 40
0.0
 40
0.0
 40
0.0
 40
0.0
 40
0.2497428854
 40
0.4994513011
 40
0.7490223379
 40
1.0
 40
1.0
 40
1.0
 40
1.0
 10
86.0121476763
 20
64.9596341283
 30
0.0
 10
86.0118934892
 20
64.3219926946
 30
0.0
 10
86.070685656
 20
63.0457676841
 30
0.0
 10
86.358899814
 20
61.1512500297
 30
0.0
 10
86.8713254802
 20
59.3004658904
 30
0.0
 10
87.3768030693
 20
58.1211600276
 30
0.0
 10
87.6715435246
 20
57.5521739554
 30
0.0
  0
SPLINE
  5
312
100
AcDbEntity
  8
FASEN
100
AcDbSpline
 62
7
  6
CONTINUOUS
 70
0
 71
3
 72
12
 73
8
 74
0
 42
0.0000001
 43
0.0000001
 44
0.0000000001
 40
0.0
 40
0.0
 40
0.0
 40
0.0
 40
0.2376570851
 40
0.4800827768
 40
0.7318049482
 40
0.8633884275
 40
1.0
 40
1.0
 40
1.0
 40
1.0
 10
56.9075103387
 20
65.0732072455
 30
0.0
 10
56.9078284662
 20
64.4373378172
 30
0.0
 10
56.8218837094
 20
63.1506529839
 30
0.0
 10
56.3985730687
 20
61.2311286996
 30
0.0
 10
55.7738331924
 20
59.6688053432
 30
0.0
 10
55.1020832182
 20
58.4492812591
 30
0.0
 10
54.7052040437
 20
57.8503477766
 30
0.0
 10
54.4923952286
 20
57.5531721922
 30
0.0
  0
SPLINE
  5
313
100
AcDbEntity
  8
FASEN
100
AcDbSpline
 62
7
  6
CONTINUOUS
 70
0
 71
3
 72
11
 73
7
 74
0
 42
0.0000001
 43
0.0000001
 44
0.0000000001
 40
0.0
 40
0.0
 40
0.0
 40
0.0
 40
0.2497428854
 40
0.4994513011
 40
0.7490223379
 40
1.0
 40
1.0
 40
1.0
 40
1.0
 10
59.2268714293
 20
64.9596341283
 30
0.0
 10
59.2271256164
 20
64.3219926946
 30
0.0
 10
59.1683334496
 20
63.0457676841
 30
0.0
 10
58.8801192915
 20
61.1512500297
 30
0.0
 10
58.3676936253
 20
59.3004658904
 30
0.0
 10
57.8622160362
 20
58.1211600276
 30
0.0
 10
57.567475581
 20
57.5521739554
 30
0.0
  0
SPLINE
  5
314
100
AcDbEntity
  8
BEZUGSACHSEN
100
AcDbSpline
 62
7
  6
CONTINUOUS
 70
0
 71
3
 72
12
 73
8
 74
0
 42
0.0000001
 43
0.0000001
 44
0.0000000001
 40
0.0
 40
0.0
 40
0.0
 40
0.0
 40
0.2376570851
 40
0.4800827768
 40
0.7318049482
 40
0.8633884275
 40
1.0
 40
1.0
 40
1.0
 40
1.0
 10
56.9075103387
 20
73.5316142808
 30
0.0
 10
56.9078284662
 20
74.1674837091
 30
0.0
 10
56.8218837094
 20
75.4541685424
 30
0.0
 10
56.3985730687
 20
77.3736928268
 30
0.0
 10
55.7738331924
 20
78.9360161831
 30
0.0
 10
55.1020832182
 20
80.1555402672
 30
0.0
 10
54.7052040437
 20
80.7544737497
 30
0.0
 10
54.4923952286
 20
81.0516493342
 30
0.0
  0
SPLINE
  5
315
100
AcDbEntity
  8
BEZUGSACHSEN
100
AcDbSpline
 62
7
  6
CONTINUOUS
 70
0
 71
3
 72
12
 73
8
 74
0
 42
0.0000001
 43
0.0000001
 44
0.0000000001
 40
0.0
 40
0.0
 40
0.0
 40
0.0
 40
0.2376570851
 40
0.4800827768
 40
0.7318049482
 40
0.8633884275
 40
1.0
 40
1.0
 40
1.0
 40
1.0
 10
88.3315087668
 20
65.0732072455
 30
0.0
 10
88.3311906393
 20
64.4373378172
 30
0.0
 10
88.4171353961
 20
63.1506529839
 30
0.0
 10
88.8404460368
 20
61.2311286996
 30
0.0
 10
89.4651859131
 20
59.6688053432
 30
0.0
 10
90.1369358873
 20
58.4492812591
 30
0.0
 10
90.5338150618
 20
57.8503477766
 30
0.0
 10
90.7466238769
 20
57.5531721922
 30
0.0
  0
SPLINE
  5
316
100
AcDbEntity
  8
BEZUGSACHSEN
100
AcDbSpline
 62
7
  6
CONTINUOUS
 70
0
 71
3
 72
11
 73
7
 74
0
 42
0.0000001
 43
0.0000001
 44
0.0000000001
 40
0.0
 40
0.0
 40
0.0
 40
0.0
 40
0.2497428854
 40
0.4994513011
 40
0.7490223379
 40
1.0
 40
1.0
 40
1.0
 40
1.0
 10
59.2268714293
 20
73.645187398
 30
0.0
 10
59.2271256164
 20
74.2828288318
 30
0.0
 10
59.1683334496
 20
75.5590538423
 30
0.0
 10
58.8801192915
 20
77.4535714967
 30
0.0
 10
58.3676936253
 20
79.3043556359
 30
0.0
 10
57.8622160362
 20
80.4836614987
 30
0.0
 10
57.567475581
 20
81.052647571
 30
0.0
  0
ENDSEC
  0
SECTION
  2
OBJECTS
  0
DICTIONARY
  5
C
100
AcDbDictionary
280
0
281
1
  3
ACAD_GROUP
350
D
  3
ACAD_MLINESTYLE
350
17
  3
ACAD_LAYOUT
350
1A
  3
ACAD_PLOTSETTINGS
350
19
  3
ACAD_PLOTSTYLENAME
350
E
  0
DICTIONARY
  5
D
102
{ACAD_REACTORS
330
C
102
}
100
AcDbDictionary
280
0
281
1
  0
ACDBDICTIONARYWDFLT
  5
E
102
{ACAD_REACTORS
330
C
102
}
100
AcDbDictionary
281
1
  3
Normal
350
F
100
AcDbDictionaryWithDefault
340
F
  0
DICTIONARY
  5
17
102
{ACAD_REACTORS
330
C
102
}
100
AcDbDictionary
280
0
281
1
  3
Standard
350
18
  0
DICTIONARY
  5
19
102
{ACAD_REACTORS
330
C
102
}
100
AcDbDictionary
281
1
  0
DICTIONARY
  5
1A
102
{ACAD_REACTORS
330
C
102
}
100
AcDbDictionary
281
1
  3
Model
350
317
  3
Layout1
350
318
  0
ACDBPLACEHOLDER
  5
F
102
{ACAD_REACTORS
330
E
102
}
  0
MLINESTYLE
  5
18
102
{ACAD_REACTORS
330
17
102
}
100
AcDbMlineStyle
  2
STANDARD
 70
0
  3

 62
256
 51
90.0
 52
90.0
 71
2
 49
0.5
 62
256
  6
BYLAYER
 49
-0.5
 62
256
  6
BYLAYER
  0
LAYOUT
  5
317
102
{ACAD_REACTORS
330
1A
102
}
100
AcDbPlotSettings
  1

  2
none_device
  4
ISO_A4_(297.00_x_210.00_MM)
  6

 40
0.0
 41
0.0
 42
0.0
 43
0.0
 44
297.0
 45
210.0
 46
0.0
 47
0.0
 48
0.0
 49
0.0
140
0.0
141
0.0
142
1.0
143
1.0
 70
1024
 72
1
 73
0
 74
0
  7

 75
0
147
1.0
148
0.0
149
0.0
100
AcDbLayout
  1
Model
 70
0
 71
0
 10
0.0
 20
0.0
 11
297.0
 21
210.0
 12
0.0
 22
0.0
 32
0.0
 14
0.0
 24
0.0
 34
0.0
 15
0.0
 25
0.0
 35
0.0
146
0.0
 13
0.0
 23
0.0
 33
0.0
 16
1.0
 26
0.0
 36
0.0
 17
0.0
 27
1.0
 37
0.0
 76
0
330
20B
345
0
346
0
  0
LAYOUT
  5
318
102
{ACAD_REACTORS
330
1A
102
}
100
AcDbPlotSettings
  1

  2
none_device
  4
ISO_A4_(297.00_x_210.00_MM)
  6

 40
0.0
 41
0.0
 42
0.0
 43
0.0
 44
297.0
 45
210.0
 46
0.0
 47
0.0
 48
0.0
 49
0.0
140
0.0
141
0.0
142
1.0
143
1.0
 70
0
 72
1
 73
0
 74
0
  7

 75
0
147
1.0
148
0.0
149
0.0
100
AcDbLayout
  1
Layout1
 70
0
 71
1
 10
0.0
 20
0.0
 11
297.0
 21
210.0
 12
0.0
 22
0.0
 32
0.0
 14
0.0
 24
0.0
 34
0.0
 15
0.0
 25
0.0
 35
0.0
146
0.0
 13
0.0
 23
0.0
 33
0.0
 16
1.0
 26
0.0
 36
0.0
 17
0.0
 27
1.0
 37
0.0
 76
0
330
20C
345
0
346
0
  0
ENDSEC
  0
EOF
