999
DXF file: ICE-H-6_7901922_M34301-P-3.dxf
999
Pro/ENGINEER 2010140 by Parametric Technology Corporation
  0
SECTION
  2
HEADER
  9
$ACADVER
  1
AC1015
  9
$DWGCODEPAGE
  3
ANSI_1252
  9
$EXTMAX
 10
297.0
 20
210.0
 30
0.0
  9
$EXTMIN
 10
0.0
 20
0.0
 30
0.0
  9
$LIMMIN
 10
0.0
 20
0.0
  9
$LIMMAX
 10
297.0
 20
210.0
  9
$VIEWCTR
 10
148.5
 20
105.0
  9
$VIEWSIZE
 40
210.0
  9
$CLAYER
  8
0
  9
$LTSCALE
 40
16.335
  9
$CELTYPE
  6
BYLAYER
  9
$DIMSCALE
 40
1.0
  9
$DIMASZ
 40
3.5
  9
$DIMEXO
 40
1.85625
  9
$DIMDLI
 40
11.286
  9
$DIMEXE
 40
5.346
  9
$DIMCEN
 40
2.673
  9
$DIMLFAC
 40
1.0
  9
$DIMBLK
  1
_FILLED
  9
$DIMTXT
 40
3.5
  9
$DIMTOL
 70
1
  9
$DIMLIM
 70
0
  9
$DIMTFAC
 40
1.0
  9
$DIMTP
 40
0.005
  9
$DIMTM
 40
0.005
  9
$PDMODE
 70
3
  9
$PDSIZE
 40
0.3125
  9
$HANDSEED
  5
313
  9
$TILEMODE
 70
1
  9
$MEASUREMENT
 70
1
  9
$INSUNITS
 70
4
  0
ENDSEC
  0
SECTION
  2
CLASSES
  0
CLASS
  1
ACDBDICTIONARYWDFLT
  2
AcDbDictionaryWithDefault
  3
AutoCAD 2000
 90
0
280
0
281
0
  0
CLASS
  1
ACDBPLACEHOLDER
  2
AcDbPlaceHolder
  3
AutoCAD 2000
 90
0
280
0
281
0
  0
CLASS
  1
LAYOUT
  2
AcDbLayout
  3
AutoCAD 2000
 90
0
280
0
281
0
  0
ENDSEC
  0
SECTION
  2
TABLES
  0
TABLE
  2
VPORT
  5
8
100
AcDbSymbolTable
 70
2
  0
VPORT
  5
1F4
100
AcDbSymbolTableRecord
100
AcDbViewportTableRecord
  2
*ACTIVE
 70
0
 10
0.0
 20
0.0
 11
1.0
 21
1.0
 12
148.5
 22
105.0
 13
0.0
 23
0.0
 14
1.0
 24
1.0
 15
0.0
 25
0.0
 16
0.0
 26
0.0
 36
1.0
 17
0.0
 27
0.0
 37
0.0
 40
210.0
 41
1.4142857143
 42
50.0
 43
0.0
 44
0.0
 50
0.0
 51
0.0
 71
0
 72
100
 73
1
 74
1
 75
0
 76
0
 77
0
 78
0
  0
ENDTAB
  0
TABLE
  2
LTYPE
  5
5
100
AcDbSymbolTable
 70
6
  0
LTYPE
  5
14
100
AcDbSymbolTableRecord
100
AcDbLinetypeTableRecord
  2
BYBLOCK
 70
0
  3

 72
65
 73
0
 40
0.0
  0
LTYPE
  5
15
100
AcDbSymbolTableRecord
100
AcDbLinetypeTableRecord
  2
BYLAYER
 70
0
  3

 72
65
 73
0
 40
0.0
  0
LTYPE
  5
16
100
AcDbSymbolTableRecord
100
AcDbLinetypeTableRecord
  2
CONTINUOUS
 70
64
  3
Solid line
 72
65
 73
0
 40
0.0
  0
LTYPE
  5
1F5
100
AcDbSymbolTableRecord
100
AcDbLinetypeTableRecord
  2
CENTER
 70
64
  3
____ _ ____ _ ____ _ ____ _ ____ _ ____ _ ____
 72
65
 73
4
 40
0.6
 49
0.375
 74
0
 49
-0.075
 74
0
 49
0.075
 74
0
 49
-0.075
 74
0
  0
LTYPE
  5
1F6
100
AcDbSymbolTableRecord
100
AcDbLinetypeTableRecord
  2
HIDDEN
 70
64
  3
- - - - - - - - - - - - - - - - - - - -
 72
65
 73
2
 40
0.2
 49
0.1
 74
0
 49
-0.1
 74
0
  0
LTYPE
  5
1F7
100
AcDbSymbolTableRecord
100
AcDbLinetypeTableRecord
  2
PHANTOM
 70
64
  3
_____ _ _ _____ _ _ _____ _ _ _____
 72
65
 73
6
 40
0.8
 49
0.45
 74
0
 49
-0.05
 74
0
 49
0.1
 74
0
 49
-0.05
 74
0
 49
0.1
 74
0
 49
-0.05
 74
0
  0
LTYPE
  5
1F8
100
AcDbSymbolTableRecord
100
AcDbLinetypeTableRecord
  2
DOT
 70
64
  3
. . . . . . . . . . . . . . . . . . . .
 72
65
 73
2
 40
0.2
 49
0.1
 74
0
 49
-0.1
 74
0
  0
LTYPE
  5
1F9
100
AcDbSymbolTableRecord
100
AcDbLinetypeTableRecord
  2
DASHED
 70
64
  3
- - - - - - - - - - - - - - - - - - - -
 72
65
 73
2
 40
0.2
 49
0.1
 74
0
 49
-0.1
 74
0
  0
ENDTAB
  0
TABLE
  2
LAYER
  5
2
100
AcDbSymbolTable
 70
36
  0
LAYER
  5
10
100
AcDbSymbolTableRecord
100
AcDbLayerTableRecord
  2
0
 70
0
 62
7
  6
CONTINUOUS
370
-3
390
F
  0
LAYER
  5
1FA
100
AcDbSymbolTableRecord
100
AcDbLayerTableRecord
  2
DEFAULT_1
 70
0
 62
7
  6
CENTER
370
-3
390
F
  0
LAYER
  5
1FB
100
AcDbSymbolTableRecord
100
AcDbLayerTableRecord
  2
DEFAULT_2
 70
0
 62
8
  6
HIDDEN
370
-3
390
F
  0
LAYER
  5
1FC
100
AcDbSymbolTableRecord
100
AcDbLayerTableRecord
  2
DEFAULT_3
 70
0
 62
7
  6
PHANTOM
370
-3
390
F
  0
LAYER
  5
1FD
100
AcDbSymbolTableRecord
100
AcDbLayerTableRecord
  2
AUSFORMSCHRAEGEN
 70
0
 62
7
  6
CONTINUOUS
370
-3
390
F
  0
LAYER
  5
1FE
100
AcDbSymbolTableRecord
100
AcDbLayerTableRecord
  2
BEZUGSACHSEN
 70
0
 62
7
  6
CONTINUOUS
370
-3
390
F
  0
LAYER
  5
1FF
100
AcDbSymbolTableRecord
100
AcDbLayerTableRecord
  2
BEZUGSEBENEN
 70
0
 62
7
  6
CONTINUOUS
370
-3
390
F
  0
LAYER
  5
200
100
AcDbSymbolTableRecord
100
AcDbLayerTableRecord
  2
BOHRUNGEN
 70
0
 62
7
  6
CONTINUOUS
370
-3
390
F
  0
LAYER
  5
201
100
AcDbSymbolTableRecord
100
AcDbLayerTableRecord
  2
FASEN
 70
0
 62
7
  6
CONTINUOUS
370
-3
390
F
  0
LAYER
  5
202
100
AcDbSymbolTableRecord
100
AcDbLayerTableRecord
  2
FLAECHEN
 70
0
 62
7
  6
CONTINUOUS
370
-3
390
F
  0
LAYER
  5
203
100
AcDbSymbolTableRecord
100
AcDbLayerTableRecord
  2
HILFEN
 70
0
 62
7
  6
CONTINUOUS
370
-3
390
F
  0
LAYER
  5
204
100
AcDbSymbolTableRecord
100
AcDbLayerTableRecord
  2
KURVEN
 70
0
 62
7
  6
CONTINUOUS
370
-3
390
F
  0
LAYER
  5
205
100
AcDbSymbolTableRecord
100
AcDbLayerTableRecord
  2
PLATZIERUNG
 70
0
 62
7
  6
CONTINUOUS
370
-3
390
F
  0
LAYER
  5
206
100
AcDbSymbolTableRecord
100
AcDbLayerTableRecord
  2
RUNDUNGEN
 70
0
 62
7
  6
CONTINUOUS
370
-3
390
F
  0
LAYER
  5
207
100
AcDbSymbolTableRecord
100
AcDbLayerTableRecord
  2
T_STARTBEZUEGE
 70
0
 62
7
  6
CONTINUOUS
370
-3
390
F
  0
LAYER
  5
208
100
AcDbSymbolTableRecord
100
AcDbLayerTableRecord
  2
XSEC_DATUMS
 70
0
 62
7
  6
CONTINUOUS
370
-3
390
F
  0
ENDTAB
  0
TABLE
  2
STYLE
  5
3
100
AcDbSymbolTable
 70
1
  0
STYLE
  5
11
100
AcDbSymbolTableRecord
100
AcDbTextStyleTableRecord
  2
STANDARD
 70
0
 40
0.0
 41
0.7
 50
0.0
 71
0
 42
0.2
  3
txt
  4

  0
STYLE
  5
209
100
AcDbSymbolTableRecord
100
AcDbTextStyleTableRecord
  2
TEXTSTYLE_1
 70
0
 40
0.0
 41
0.8
 50
0.0
 71
0
 42
0.2
  3
gdt
  4

  0
ENDTAB
  0
TABLE
  2
VIEW
  5
6
100
AcDbSymbolTable
 70
0
  0
ENDTAB
  0
TABLE
  2
UCS
  5
7
100
AcDbSymbolTable
 70
0
  0
ENDTAB
  0
TABLE
  2
APPID
  5
9
100
AcDbSymbolTable
 70
1
  0
APPID
  5
20A
100
AcDbSymbolTableRecord
100
AcDbRegAppTableRecord
  2
ACAD
 70
0
  0
ENDTAB
  0
TABLE
  2
BLOCK_RECORD
  5
1
100
AcDbSymbolTable
 70
0
  0
BLOCK_RECORD
  5
20B
100
AcDbSymbolTableRecord
100
AcDbBlockTableRecord
  2
*Model_Space
  0
BLOCK_RECORD
  5
20C
100
AcDbSymbolTableRecord
100
AcDbBlockTableRecord
  2
*Paper_Space
  0
ENDTAB
  0
TABLE
  2
DIMSTYLE
  5
A
100
AcDbSymbolTable
 70
1
100
AcDbDimStyleTable
 71
0
  0
DIMSTYLE
105
20D
100
AcDbSymbolTableRecord
100
AcDbDimStyleTableRecord
  2
STANDARD
 70
0
  3

  4

 40
1.0
 41
3.5
 42
0.0625
 43
0.38
 44
0.18
 45
0.0
 46
0.0
 47
0.005
 48
0.005
140
3.5
141
0.09
142
0.0
143
25.4
144
1.0
145
0.0
146
1.0
147
0.09
 71
1.0
 72
0.0
 73
0
 74
0
 75
0
 76
0
 77
1
 78
8
170
0
171
2
172
0
173
0
174
0
175
0
176
0
177
0
178
5
270
2
271
3
272
3
273
2
274
2
275
0
280
0
281
0
282
0
283
1
284
8
285
0
286
0
287
3
288
0
340
11
  0
ENDTAB
  0
ENDSEC
  0
SECTION
  2
BLOCKS
  0
BLOCK
  5
20
100
AcDbEntity
  8
0
100
AcDbBlockBegin
  2
*Model_Space
 70
0
 10
0.0
 20
0.0
 30
0.0
  3
*Model_Space
  1

  0
ENDBLK
  5
21
100
AcDbEntity
  8
0
100
AcDbBlockEnd
  0
BLOCK
  5
1C
100
AcDbEntity
  8
0
100
AcDbBlockBegin
  2
*Paper_Space
 70
0
 10
0.0
 20
0.0
 30
0.0
  3
*Paper_Space
  1

  0
ENDBLK
  5
1D
100
AcDbEntity
  8
0
100
AcDbBlockEnd
  0
ENDSEC
  0
SECTION
  2
ENTITIES
  0
MTEXT
  5
20E
100
AcDbEntity
  8
0
100
AcDbMText
 62
5
  6
CONTINUOUS
  7
STANDARD
 71
1
 72
1
 10
101.1338615591
 20
130.855522967
 30
0.0
 11
0.0
 21
1.0
 31
0.0
 44
0.9
  1
RUD
 40
3.0
 41
8.0
  0
MTEXT
  5
20F
100
AcDbEntity
  8
0
100
AcDbMText
 62
5
  6
CONTINUOUS
  7
STANDARD
 71
2
 72
1
 10
149.8372147309
 20
135.0306237452
 30
0.0
 11
0.0
 21
1.0
 31
0.0
 44
0.9
  1
RUD\PICE-H 6
 40
3.0
 41
15.7857142857
  0
LINE
  5
210
100
AcDbEntity
  8
0
100
AcDbLine
 62
7
  6
CONTINUOUS
 10
0.0
 20
0.0
 11
0.0
 21
210.0
  0
LINE
  5
211
100
AcDbEntity
  8
0
100
AcDbLine
 62
7
  6
CONTINUOUS
 10
0.0
 20
0.0
 11
297.0
 21
0.0
  0
LINE
  5
212
100
AcDbEntity
  8
0
100
AcDbLine
 62
7
  6
CONTINUOUS
 10
0.0
 20
210.0
 11
297.0
 21
210.0
  0
LINE
  5
213
100
AcDbEntity
  8
0
100
AcDbLine
 62
7
  6
CONTINUOUS
 10
297.0
 20
0.0
 11
297.0
 21
210.0
  0
LINE
  5
214
100
AcDbEntity
  8
0
100
AcDbLine
 62
7
  6
CONTINUOUS
 10
76.7750228611
 20
153.7299584384
 11
81.5013017886
 21
158.2940729453
  0
LINE
  5
215
100
AcDbEntity
  8
BEZUGSACHSEN
100
AcDbLine
 62
7
  6
CONTINUOUS
 10
105.0487439337
 20
111.7261755537
 11
103.3098905652
 21
111.4768863274
  0
LINE
  5
216
100
AcDbEntity
  8
BEZUGSACHSEN
100
AcDbLine
 62
7
  6
CONTINUOUS
 10
83.2401551571
 20
111.4768863274
 11
81.5013017886
 21
111.7261755537
  0
LINE
  5
217
100
AcDbEntity
  8
BEZUGSACHSEN
100
AcDbLine
 62
7
  6
CONTINUOUS
 10
81.5013017886
 20
111.7261755537
 11
76.7750228611
 21
116.2902900606
  0
LINE
  5
218
100
AcDbEntity
  8
FASEN
100
AcDbLine
 62
7
  6
CONTINUOUS
 10
79.6945380843
 20
153.8256614312
 11
76.7750228611
 21
150.8253791937
  0
LINE
  5
219
100
AcDbEntity
  8
BEZUGSACHSEN
100
AcDbLine
 62
7
  6
CONTINUOUS
 10
79.6945380843
 20
116.1945870678
 11
76.7750228611
 21
119.1948693053
  0
LINE
  5
21A
100
AcDbEntity
  8
0
100
AcDbLine
 62
7
  6
CONTINUOUS
 10
89.5750228611
 20
115.9601242495
 11
96.9750228611
 21
115.9601242495
  0
LINE
  5
21B
100
AcDbEntity
  8
BEZUGSACHSEN
100
AcDbLine
 62
7
  6
CONTINUOUS
 10
76.7750228611
 20
153.7299584384
 11
76.7750228611
 21
153.4453176082
  0
LINE
  5
21C
100
AcDbEntity
  8
BEZUGSACHSEN
100
AcDbLine
 62
7
  6
CONTINUOUS
 10
76.7750228611
 20
150.8253791937
 11
76.7750228611
 21
116.2902900606
  0
LINE
  5
21D
100
AcDbEntity
  8
0
100
AcDbLine
 62
7
  6
CONTINUOUS
 10
76.7750228611
 20
150.8253791937
 11
76.7750228611
 21
153.4453176082
  0
LINE
  5
21E
100
AcDbEntity
  8
BEZUGSACHSEN
100
AcDbLine
 62
7
  6
CONTINUOUS
 10
81.2750228611
 20
130.1351242495
 11
81.2750228611
 21
139.8851242495
  0
LINE
  5
21F
100
AcDbEntity
  8
BEZUGSACHSEN
100
AcDbLine
 62
7
  6
CONTINUOUS
 10
81.5013017886
 20
111.7261755537
 11
81.5013017646
 21
112.2860659466
  0
LINE
  5
220
100
AcDbEntity
  8
BEZUGSACHSEN
100
AcDbLine
 62
7
  6
CONTINUOUS
 10
81.5013017646
 20
157.7341825524
 11
81.5013017886
 21
158.2940729453
  0
LINE
  5
221
100
AcDbEntity
  8
0
100
AcDbLine
 62
7
  6
CONTINUOUS
 10
82.5574696678
 20
139.7313743031
 11
82.5000228611
 21
139.4501242495
  0
LINE
  5
222
100
AcDbEntity
  8
0
100
AcDbLine
 62
7
  6
CONTINUOUS
 10
82.6723632862
 20
139.9563742495
 11
82.5574696678
 21
139.7313743031
  0
LINE
  5
223
100
AcDbEntity
  8
0
100
AcDbLine
 62
7
  6
CONTINUOUS
 10
82.9425760386
 20
129.3909576345
 11
82.8319377539
 21
129.5534576345
  0
LINE
  5
224
100
AcDbEntity
  8
0
100
AcDbLine
 62
7
  6
CONTINUOUS
 10
82.5553420083
 20
129.4992908645
 11
82.7212994499
 21
129.2284576345
  0
LINE
  5
225
100
AcDbEntity
  8
0
100
AcDbLine
 62
7
  6
CONTINUOUS
 10
82.8319377539
 20
129.5534576345
 11
82.7766186116
 21
129.715957557
  0
LINE
  5
226
100
AcDbEntity
  8
0
100
AcDbLine
 62
7
  6
CONTINUOUS
 10
82.5000228611
 20
129.7701242495
 11
82.5553420083
 21
129.4992908645
  0
LINE
  5
227
100
AcDbEntity
  8
0
100
AcDbLine
 62
7
  6
CONTINUOUS
 10
82.5000228611
 20
141.1376242495
 11
82.5000228611
 21
140.8001242495
  0
LINE
  5
228
100
AcDbEntity
  8
0
100
AcDbLine
 62
7
  6
CONTINUOUS
 10
82.5000228611
 20
139.4501242495
 11
82.5000228611
 21
138.9438742495
  0
LINE
  5
229
100
AcDbEntity
  8
0
100
AcDbLine
 62
7
  6
CONTINUOUS
 10
82.5000228611
 20
137.7063741422
 11
82.5000228611
 21
135.6813744641
  0
LINE
  5
22A
100
AcDbEntity
  8
0
100
AcDbLine
 62
7
  6
CONTINUOUS
 10
82.5000228611
 20
133.9938744641
 11
82.5000228611
 21
133.6563744641
  0
LINE
  5
22B
100
AcDbEntity
  8
0
100
AcDbLine
 62
7
  6
CONTINUOUS
 10
82.5000228611
 20
132.0813740349
 11
82.5000228611
 21
131.7438740349
  0
LINE
  5
22C
100
AcDbEntity
  8
0
100
AcDbLine
 62
7
  6
CONTINUOUS
 10
82.5000228611
 20
130.040957557
 11
82.5000228611
 21
129.7701242495
  0
LINE
  5
22D
100
AcDbEntity
  8
0
100
AcDbLine
 62
7
  6
CONTINUOUS
 10
82.7766186116
 20
129.715957557
 11
82.7766186116
 21
130.0951242495
  0
LINE
  5
22E
100
AcDbEntity
  8
0
100
AcDbLine
 62
7
  6
CONTINUOUS
 10
82.8447037113
 20
135.6813744641
 11
82.8447037113
 21
137.3688741422
  0
LINE
  5
22F
100
AcDbEntity
  8
0
100
AcDbLine
 62
7
  6
CONTINUOUS
 10
82.8447037113
 20
138.9438742495
 11
82.8447037113
 21
139.4501242495
  0
LINE
  5
230
100
AcDbEntity
  8
0
100
AcDbLine
 62
7
  6
CONTINUOUS
 10
83.1893845616
 20
138.1563743568
 11
83.1893845616
 21
138.4938741959
  0
LINE
  5
231
100
AcDbEntity
  8
BEZUGSACHSEN
100
AcDbLine
 62
7
  6
CONTINUOUS
 10
83.2401551571
 20
158.5433621716
 11
83.2401551562
 21
157.9684375022
  0
LINE
  5
232
100
AcDbEntity
  8
BEZUGSACHSEN
100
AcDbLine
 62
7
  6
CONTINUOUS
 10
83.2401551562
 20
112.0518109968
 11
83.2401551571
 21
111.4768863274
  0
LINE
  5
233
100
AcDbEntity
  8
0
100
AcDbLine
 62
7
  6
CONTINUOUS
 10
83.4766185699
 20
135.2313742495
 11
83.4766185699
 21
134.4438740349
  0
LINE
  5
234
100
AcDbEntity
  8
0
100
AcDbLine
 62
7
  6
CONTINUOUS
 10
83.7638526586
 20
137.3688741422
 11
83.7638526586
 21
135.9063742495
  0
LINE
  5
235
100
AcDbEntity
  8
0
100
AcDbLine
 62
7
  6
CONTINUOUS
 10
83.7638526586
 20
133.6563744641
 11
83.7638526586
 21
132.0813740349
  0
LINE
  5
236
100
AcDbEntity
  8
0
100
AcDbLine
 62
7
  6
CONTINUOUS
 10
83.7638526586
 20
134.4438740349
 11
83.7638526586
 21
135.2313742495
  0
LINE
  5
237
100
AcDbEntity
  8
0
100
AcDbLine
 62
7
  6
CONTINUOUS
 10
83.8830015746
 20
130.0951242495
 11
83.8830015746
 21
129.715957557
  0
LINE
  5
238
100
AcDbEntity
  8
0
100
AcDbLine
 62
7
  6
CONTINUOUS
 10
82.5553420083
 20
130.3117909033
 11
82.5000228611
 21
130.040957557
  0
LINE
  5
239
100
AcDbEntity
  8
0
100
AcDbLine
 62
7
  6
CONTINUOUS
 10
82.8447037113
 20
139.4501242495
 11
82.902150513
 21
139.6751241959
  0
LINE
  5
23A
100
AcDbEntity
  8
0
100
AcDbLine
 62
7
  6
CONTINUOUS
 10
82.902150513
 20
139.6751241959
 11
83.0170441566
 21
139.8438742763
  0
LINE
  5
23B
100
AcDbEntity
  8
0
100
AcDbLine
 62
7
  6
CONTINUOUS
 10
82.902150513
 20
140.1813742763
 11
82.6723632862
 21
139.9563742495
  0
LINE
  5
23C
100
AcDbEntity
  8
0
100
AcDbLine
 62
7
  6
CONTINUOUS
 10
83.0170441566
 20
139.8438742763
 11
83.1893845616
 21
139.9563742495
  0
LINE
  5
23D
100
AcDbEntity
  8
0
100
AcDbLine
 62
7
  6
CONTINUOUS
 10
96.9750228611
 20
124.4601242495
 11
89.5750228611
 21
124.4601242495
  0
LINE
  5
23E
100
AcDbEntity
  8
0
100
AcDbLine
 62
7
  6
CONTINUOUS
 10
83.1085335044
 20
129.2826242495
 11
82.9425760386
 21
129.3909576345
  0
LINE
  5
23F
100
AcDbEntity
  8
0
100
AcDbLine
 62
7
  6
CONTINUOUS
 10
82.7212994499
 20
129.2284576345
 11
82.9425760386
 21
129.0659576345
  0
LINE
  5
240
100
AcDbEntity
  8
0
100
AcDbLine
 62
7
  6
CONTINUOUS
 10
83.6064058629
 20
130.5284575958
 11
83.7170441476
 21
130.4201242495
  0
LINE
  5
241
100
AcDbEntity
  8
0
100
AcDbLine
 62
7
  6
CONTINUOUS
 10
83.7170441476
 20
130.4201242495
 11
83.8276824323
 21
130.2576242495
  0
LINE
  5
242
100
AcDbEntity
  8
0
100
AcDbLine
 62
7
  6
CONTINUOUS
 10
84.104278144
 20
130.3117909033
 11
83.8830015746
 21
130.6367909226
  0
LINE
  5
243
100
AcDbEntity
  8
0
100
AcDbLine
 62
7
  6
CONTINUOUS
 10
84.6574697224
 20
130.4201242495
 11
84.7681080071
 21
130.2576242495
  0
LINE
  5
244
100
AcDbEntity
  8
0
100
AcDbLine
 62
7
  6
CONTINUOUS
 10
85.0447037188
 20
130.3117909033
 11
84.8787462918
 21
130.5826242495
  0
LINE
  5
245
100
AcDbEntity
  8
0
100
AcDbLine
 62
7
  6
CONTINUOUS
 10
83.8276824323
 20
130.2576242495
 11
83.8830015746
 21
130.0951242495
  0
LINE
  5
246
100
AcDbEntity
  8
0
100
AcDbLine
 62
7
  6
CONTINUOUS
 10
84.7681080071
 20
130.2576242495
 11
84.8234271494
 21
130.0951242495
  0
LINE
  5
247
100
AcDbEntity
  8
0
100
AcDbLine
 62
7
  6
CONTINUOUS
 10
84.1595972864
 20
130.040957557
 11
84.104278144
 21
130.3117909033
  0
LINE
  5
248
100
AcDbEntity
  8
0
100
AcDbLine
 62
7
  6
CONTINUOUS
 10
82.5000228611
 20
138.9438742495
 11
82.5574696678
 21
138.6626241959
  0
LINE
  5
249
100
AcDbEntity
  8
0
100
AcDbLine
 62
7
  6
CONTINUOUS
 10
84.1085334686
 20
132.0813740349
 11
84.1085334686
 21
133.6563744641
  0
LINE
  5
24A
100
AcDbEntity
  8
0
100
AcDbLine
 62
7
  6
CONTINUOUS
 10
84.1085334686
 20
135.9063742495
 11
84.1085334686
 21
137.3688741422
  0
LINE
  5
24B
100
AcDbEntity
  8
0
100
AcDbLine
 62
7
  6
CONTINUOUS
 10
84.1595972864
 20
129.7701242495
 11
84.1595972864
 21
130.040957557
  0
LINE
  5
24C
100
AcDbEntity
  8
0
100
AcDbLine
 62
7
  6
CONTINUOUS
 10
84.4915122954
 20
129.3367908645
 11
84.4915122954
 21
129.0659576345
  0
LINE
  5
24D
100
AcDbEntity
  8
0
100
AcDbLine
 62
7
  6
CONTINUOUS
 10
84.5106610803
 20
138.4938741959
 11
84.5106610803
 21
138.1563743568
  0
LINE
  5
24E
100
AcDbEntity
  8
0
100
AcDbLine
 62
7
  6
CONTINUOUS
 10
84.7540328411
 20
149.0101242495
 11
84.7540328411
 21
147.6976242495
  0
LINE
  5
24F
100
AcDbEntity
  8
BEZUGSACHSEN
100
AcDbLine
 62
7
  6
CONTINUOUS
 10
84.7540328411
 20
121.0101242495
 11
84.7540328411
 21
122.3226242495
  0
LINE
  5
250
100
AcDbEntity
  8
0
100
AcDbLine
 62
7
  6
CONTINUOUS
 10
84.8234271494
 20
130.0951242495
 11
84.8234271494
 21
129.7701242495
  0
LINE
  5
251
100
AcDbEntity
  8
0
100
AcDbLine
 62
7
  6
CONTINUOUS
 10
84.8553420512
 20
139.4501242495
 11
84.8553420512
 21
138.9438742495
  0
LINE
  5
252
100
AcDbEntity
  8
0
100
AcDbLine
 62
7
  6
CONTINUOUS
 10
84.8553420512
 20
137.3688741422
 11
84.8553420512
 21
135.6813744641
  0
LINE
  5
253
100
AcDbEntity
  8
0
100
AcDbLine
 62
7
  6
CONTINUOUS
 10
85.1000228611
 20
129.824290942
 11
85.1000228611
 21
130.040957557
  0
LINE
  5
254
100
AcDbEntity
  8
0
100
AcDbLine
 62
7
  6
CONTINUOUS
 10
85.2000228611
 20
131.7438740349
 11
85.2000228611
 21
132.0813740349
  0
LINE
  5
255
100
AcDbEntity
  8
0
100
AcDbLine
 62
7
  6
CONTINUOUS
 10
85.2000228611
 20
133.6563744641
 11
85.2000228611
 21
133.9938744641
  0
LINE
  5
256
100
AcDbEntity
  8
0
100
AcDbLine
 62
7
  6
CONTINUOUS
 10
85.2000228611
 20
135.6813744641
 11
85.2000228611
 21
137.7063741422
  0
LINE
  5
257
100
AcDbEntity
  8
0
100
AcDbLine
 62
7
  6
CONTINUOUS
 10
85.2000228611
 20
138.9438742495
 11
85.2000228611
 21
139.4501242495
  0
LINE
  5
258
100
AcDbEntity
  8
0
100
AcDbLine
 62
7
  6
CONTINUOUS
 10
85.2000228611
 20
140.8001242495
 11
85.2000228611
 21
141.1376242495
  0
LINE
  5
259
100
AcDbEntity
  8
0
100
AcDbLine
 62
7
  6
CONTINUOUS
 10
85.1425760595
 20
138.6626241959
 11
85.2000228611
 21
138.9438742495
  0
LINE
  5
25A
100
AcDbEntity
  8
0
100
AcDbLine
 62
7
  6
CONTINUOUS
 10
84.104278144
 20
129.4992908645
 11
84.1595972864
 21
129.7701242495
  0
LINE
  5
25B
100
AcDbEntity
  8
0
100
AcDbLine
 62
7
  6
CONTINUOUS
 10
84.8553420512
 20
138.9438742495
 11
84.7978952495
 21
138.7188743031
  0
LINE
  5
25C
100
AcDbEntity
  8
0
100
AcDbLine
 62
7
  6
CONTINUOUS
 10
82.7766186116
 20
130.0951242495
 11
82.8319377539
 21
130.2576242495
  0
LINE
  5
25D
100
AcDbEntity
  8
0
100
AcDbLine
 62
7
  6
CONTINUOUS
 10
85.0276824561
 20
138.4376242495
 11
85.1425760595
 21
138.6626241959
  0
LINE
  5
25E
100
AcDbEntity
  8
0
100
AcDbLine
 62
7
  6
CONTINUOUS
 10
84.7978952495
 20
138.7188743031
 11
84.6830016462
 21
138.5501243031
  0
LINE
  5
25F
100
AcDbEntity
  8
0
100
AcDbLine
 62
7
  6
CONTINUOUS
 10
84.7978952495
 20
138.2126241422
 11
85.0276824561
 21
138.4376242495
  0
LINE
  5
260
100
AcDbEntity
  8
0
100
AcDbLine
 62
7
  6
CONTINUOUS
 10
83.1319377599
 20
140.2938742495
 11
82.902150513
 21
140.1813742763
  0
LINE
  5
261
100
AcDbEntity
  8
0
100
AcDbLine
 62
7
  6
CONTINUOUS
 10
83.2744909314
 20
129.2284576345
 11
83.1085335044
 21
129.2826242495
  0
LINE
  5
262
100
AcDbEntity
  8
0
100
AcDbLine
 62
7
  6
CONTINUOUS
 10
82.9425760386
 20
129.0659576345
 11
83.2191717891
 21
128.9576242495
  0
LINE
  5
263
100
AcDbEntity
  8
0
100
AcDbLine
 62
7
  6
CONTINUOUS
 10
84.4915122954
 20
130.5284575958
 11
84.6574697224
 21
130.4201242495
  0
LINE
  5
264
100
AcDbEntity
  8
0
100
AcDbLine
 62
7
  6
CONTINUOUS
 10
84.8787462918
 20
130.5826242495
 11
84.6574697224
 21
130.7451242495
  0
LINE
  5
265
100
AcDbEntity
  8
0
100
AcDbLine
 62
7
  6
CONTINUOUS
 10
82.5574696678
 20
138.6626241959
 11
82.6723632862
 21
138.4376242495
  0
LINE
  5
266
100
AcDbEntity
  8
0
100
AcDbLine
 62
7
  6
CONTINUOUS
 10
82.902150513
 20
138.7188743031
 11
82.8447037113
 21
138.9438742495
  0
LINE
  5
267
100
AcDbEntity
  8
0
100
AcDbLine
 62
7
  6
CONTINUOUS
 10
85.1000228611
 20
130.040957557
 11
85.0447037188
 21
130.3117909033
  0
LINE
  5
268
100
AcDbEntity
  8
BEZUGSACHSEN
100
AcDbLine
 62
7
  6
CONTINUOUS
 10
86.5250228611
 20
139.8851242495
 11
86.5250228611
 21
130.1351242495
  0
LINE
  5
269
100
AcDbEntity
  8
0
100
AcDbLine
 62
7
  6
CONTINUOUS
 10
85.0447037188
 20
129.5534576345
 11
85.1000228611
 21
129.824290942
  0
LINE
  5
26A
100
AcDbEntity
  8
0
100
AcDbLine
 62
7
  6
CONTINUOUS
 10
83.8830015746
 20
129.715957557
 11
83.8276824323
 21
129.5534576345
  0
LINE
  5
26B
100
AcDbEntity
  8
0
100
AcDbLine
 62
7
  6
CONTINUOUS
 10
84.8234271494
 20
129.7701242495
 11
84.7681080071
 21
129.6076242495
  0
LINE
  5
26C
100
AcDbEntity
  8
0
100
AcDbLine
 62
7
  6
CONTINUOUS
 10
82.7212994499
 20
130.5826242495
 11
82.5553420083
 21
130.3117909033
  0
LINE
  5
26D
100
AcDbEntity
  8
0
100
AcDbLine
 62
7
  6
CONTINUOUS
 10
82.8319377539
 20
130.2576242495
 11
82.9425760386
 21
130.4201242495
  0
LINE
  5
26E
100
AcDbEntity
  8
0
100
AcDbLine
 62
7
  6
CONTINUOUS
 10
84.6830016462
 20
138.5501243031
 11
84.5106610803
 21
138.4938741959
  0
LINE
  5
26F
100
AcDbEntity
  8
0
100
AcDbLine
 62
7
  6
CONTINUOUS
 10
83.2191717891
 20
128.9576242495
 11
83.4957675783
 21
128.9576242495
  0
LINE
  5
270
100
AcDbEntity
  8
0
100
AcDbLine
 62
7
  6
CONTINUOUS
 10
83.4404483584
 20
129.2284576345
 11
83.2744909314
 21
129.2284576345
  0
LINE
  5
271
100
AcDbEntity
  8
0
100
AcDbLine
 62
7
  6
CONTINUOUS
 10
83.9936398593
 20
130.6367909226
 11
84.3255547134
 21
130.5826242495
  0
LINE
  5
272
100
AcDbEntity
  8
0
100
AcDbLine
 62
7
  6
CONTINUOUS
 10
83.4404483584
 20
130.5826242495
 11
83.6064058629
 21
130.5284575958
  0
LINE
  5
273
100
AcDbEntity
  8
0
100
AcDbLine
 62
7
  6
CONTINUOUS
 10
84.3255547134
 20
130.5826242495
 11
84.4915122954
 21
130.5284575958
  0
LINE
  5
274
100
AcDbEntity
  8
0
100
AcDbLine
 62
7
  6
CONTINUOUS
 10
84.6574697224
 20
130.7451242495
 11
84.3808738557
 21
130.8534575812
  0
LINE
  5
275
100
AcDbEntity
  8
0
100
AcDbLine
 62
7
  6
CONTINUOUS
 10
83.0170441566
 20
138.5501243031
 11
82.902150513
 21
138.7188743031
  0
LINE
  5
276
100
AcDbEntity
  8
0
100
AcDbLine
 62
7
  6
CONTINUOUS
 10
84.7978952495
 20
139.6751241959
 11
84.8553420512
 21
139.4501242495
  0
LINE
  5
277
100
AcDbEntity
  8
0
100
AcDbLine
 62
7
  6
CONTINUOUS
 10
85.2000228611
 20
139.4501242495
 11
85.1425760595
 21
139.7313743031
  0
LINE
  5
278
100
AcDbEntity
  8
BEZUGSACHSEN
100
AcDbLine
 62
7
  6
CONTINUOUS
 10
89.5750228611
 20
113.6301242495
 11
89.5750228611
 21
129.1101242495
  0
LINE
  5
279
100
AcDbEntity
  8
0
100
AcDbLine
 62
7
  6
CONTINUOUS
 10
89.5750228611
 20
140.9101242495
 11
89.5750228611
 21
149.0101242495
  0
LINE
  5
27A
100
AcDbEntity
  8
BEZUGSACHSEN
100
AcDbLine
 62
7
  6
CONTINUOUS
 10
89.5750228611
 20
149.0101242495
 11
89.5750228611
 21
156.3901242495
  0
LINE
  5
27B
100
AcDbEntity
  8
0
100
AcDbLine
 62
7
  6
CONTINUOUS
 10
83.938320717
 20
129.2284576345
 11
84.104278144
 21
129.4992908645
  0
LINE
  5
27C
100
AcDbEntity
  8
0
100
AcDbLine
 62
7
  6
CONTINUOUS
 10
84.8787462918
 20
129.2826242495
 11
85.0447037188
 21
129.5534576345
  0
LINE
  5
27D
100
AcDbEntity
  8
0
100
AcDbLine
 62
7
  6
CONTINUOUS
 10
83.8276824323
 20
129.5534576345
 11
83.7170441476
 21
129.3909576345
  0
LINE
  5
27E
100
AcDbEntity
  8
0
100
AcDbLine
 62
7
  6
CONTINUOUS
 10
84.7681080071
 20
129.6076242495
 11
84.6574697224
 21
129.4451242495
  0
LINE
  5
27F
100
AcDbEntity
  8
0
100
AcDbLine
 62
7
  6
CONTINUOUS
 10
83.2744909314
 20
130.5826242495
 11
83.4404483584
 21
130.5826242495
  0
LINE
  5
280
100
AcDbEntity
  8
0
100
AcDbLine
 62
7
  6
CONTINUOUS
 10
83.8830015746
 20
130.6367909226
 11
83.9936398593
 21
130.6367909226
  0
LINE
  5
281
100
AcDbEntity
  8
0
100
AcDbLine
 62
7
  6
CONTINUOUS
 10
83.9936398593
 20
130.9076242495
 11
83.6064058629
 21
130.9076242495
  0
LINE
  5
282
100
AcDbEntity
  8
0
100
AcDbLine
 62
7
  6
CONTINUOUS
 10
84.3808738557
 20
130.8534575812
 11
83.9936398593
 21
130.9076242495
  0
LINE
  5
283
100
AcDbEntity
  8
0
100
AcDbLine
 62
7
  6
CONTINUOUS
 10
82.6723632862
 20
138.4376242495
 11
82.902150513
 21
138.2126241422
  0
LINE
  5
284
100
AcDbEntity
  8
0
100
AcDbLine
 62
7
  6
CONTINUOUS
 10
84.6830016462
 20
139.8438742763
 11
84.7978952495
 21
139.6751241959
  0
LINE
  5
285
100
AcDbEntity
  8
0
100
AcDbLine
 62
7
  6
CONTINUOUS
 10
85.1425760595
 20
139.7313743031
 11
85.0276824561
 21
139.9563742495
  0
LINE
  5
286
100
AcDbEntity
  8
0
100
AcDbLine
 62
7
  6
CONTINUOUS
 10
83.7170441476
 20
129.3909576345
 11
83.6064058629
 21
129.2826242495
  0
LINE
  5
287
100
AcDbEntity
  8
0
100
AcDbLine
 62
7
  6
CONTINUOUS
 10
83.77236329
 20
129.0659576345
 11
83.938320717
 21
129.2284576345
  0
LINE
  5
288
100
AcDbEntity
  8
0
100
AcDbLine
 62
7
  6
CONTINUOUS
 10
82.9425760386
 20
130.7451242495
 11
82.7212994499
 21
130.5826242495
  0
LINE
  5
289
100
AcDbEntity
  8
0
100
AcDbLine
 62
7
  6
CONTINUOUS
 10
82.9425760386
 20
130.4201242495
 11
83.1085335044
 21
130.5284575958
  0
LINE
  5
28A
100
AcDbEntity
  8
0
100
AcDbLine
 62
7
  6
CONTINUOUS
 10
83.6064058629
 20
130.9076242495
 11
83.2191717891
 21
130.8534575812
  0
LINE
  5
28B
100
AcDbEntity
  8
0
100
AcDbLine
 62
7
  6
CONTINUOUS
 10
82.5000228611
 20
131.7438740349
 11
85.2000228611
 21
131.7438740349
  0
LINE
  5
28C
100
AcDbEntity
  8
0
100
AcDbLine
 62
7
  6
CONTINUOUS
 10
85.2000228611
 20
132.0813740349
 11
84.1085334686
 21
132.0813740349
  0
LINE
  5
28D
100
AcDbEntity
  8
0
100
AcDbLine
 62
7
  6
CONTINUOUS
 10
83.7638526586
 20
132.0813740349
 11
82.5000228611
 21
132.0813740349
  0
LINE
  5
28E
100
AcDbEntity
  8
0
100
AcDbLine
 62
7
  6
CONTINUOUS
 10
85.0276824561
 20
139.9563742495
 11
84.7978952495
 21
140.1813742763
  0
LINE
  5
28F
100
AcDbEntity
  8
0
100
AcDbLine
 62
7
  6
CONTINUOUS
 10
84.6574697224
 20
129.1201242495
 11
84.8787462918
 21
129.2826242495
  0
LINE
  5
290
100
AcDbEntity
  8
0
100
AcDbLine
 62
7
  6
CONTINUOUS
 10
84.6574697224
 20
129.4451242495
 11
84.4915122954
 21
129.3367908645
  0
LINE
  5
291
100
AcDbEntity
  8
0
100
AcDbLine
 62
7
  6
CONTINUOUS
 10
83.2191717891
 20
130.8534575812
 11
82.9425760386
 21
130.7451242495
  0
LINE
  5
292
100
AcDbEntity
  8
0
100
AcDbLine
 62
7
  6
CONTINUOUS
 10
82.5000228611
 20
133.6563744641
 11
83.7638526586
 21
133.6563744641
  0
LINE
  5
293
100
AcDbEntity
  8
0
100
AcDbLine
 62
7
  6
CONTINUOUS
 10
84.1085334686
 20
133.6563744641
 11
85.2000228611
 21
133.6563744641
  0
LINE
  5
294
100
AcDbEntity
  8
0
100
AcDbLine
 62
7
  6
CONTINUOUS
 10
85.2000228611
 20
133.9938744641
 11
82.5000228611
 21
133.9938744641
  0
LINE
  5
295
100
AcDbEntity
  8
0
100
AcDbLine
 62
7
  6
CONTINUOUS
 10
83.4766185699
 20
134.4438740349
 11
83.7638526586
 21
134.4438740349
  0
LINE
  5
296
100
AcDbEntity
  8
0
100
AcDbLine
 62
7
  6
CONTINUOUS
 10
83.7638526586
 20
135.2313742495
 11
83.4766185699
 21
135.2313742495
  0
LINE
  5
297
100
AcDbEntity
  8
0
100
AcDbLine
 62
7
  6
CONTINUOUS
 10
83.1893845616
 20
138.4938741959
 11
83.0170441566
 21
138.5501243031
  0
LINE
  5
298
100
AcDbEntity
  8
0
100
AcDbLine
 62
7
  6
CONTINUOUS
 10
84.5106610803
 20
139.9563742495
 11
84.6830016462
 21
139.8438742763
  0
LINE
  5
299
100
AcDbEntity
  8
0
100
AcDbLine
 62
7
  6
CONTINUOUS
 10
83.4957675783
 20
128.9576242495
 11
83.77236329
 21
129.0659576345
  0
LINE
  5
29A
100
AcDbEntity
  8
0
100
AcDbLine
 62
7
  6
CONTINUOUS
 10
83.1085335044
 20
130.5284575958
 11
83.2744909314
 21
130.5826242495
  0
LINE
  5
29B
100
AcDbEntity
  8
0
100
AcDbLine
 62
7
  6
CONTINUOUS
 10
82.5000228611
 20
135.6813744641
 11
82.8447037113
 21
135.6813744641
  0
LINE
  5
29C
100
AcDbEntity
  8
0
100
AcDbLine
 62
7
  6
CONTINUOUS
 10
84.8553420512
 20
135.6813744641
 11
85.2000228611
 21
135.6813744641
  0
LINE
  5
29D
100
AcDbEntity
  8
0
100
AcDbLine
 62
7
  6
CONTINUOUS
 10
83.7638526586
 20
135.9063742495
 11
84.1085334686
 21
135.9063742495
  0
LINE
  5
29E
100
AcDbEntity
  8
0
100
AcDbLine
 62
7
  6
CONTINUOUS
 10
82.902150513
 20
138.2126241422
 11
83.1893845616
 21
138.1563743568
  0
LINE
  5
29F
100
AcDbEntity
  8
0
100
AcDbLine
 62
7
  6
CONTINUOUS
 10
84.7978952495
 20
140.1813742763
 11
84.5681080428
 21
140.2938742495
  0
LINE
  5
2A0
100
AcDbEntity
  8
BEZUGSACHSEN
100
AcDbLine
 62
7
  6
CONTINUOUS
 10
96.9750228611
 20
113.6301242495
 11
96.9750228611
 21
129.1101242495
  0
LINE
  5
2A1
100
AcDbEntity
  8
BEZUGSACHSEN
100
AcDbLine
 62
7
  6
CONTINUOUS
 10
96.9750228611
 20
140.9101242495
 11
96.9750228611
 21
156.3901242495
  0
LINE
  5
2A2
100
AcDbEntity
  8
0
100
AcDbLine
 62
7
  6
CONTINUOUS
 10
83.6064058629
 20
129.2826242495
 11
83.4404483584
 21
129.2284576345
  0
LINE
  5
2A3
100
AcDbEntity
  8
0
100
AcDbLine
 62
7
  6
CONTINUOUS
 10
84.4915122954
 20
129.0659576345
 11
84.6574697224
 21
129.1201242495
  0
LINE
  5
2A4
100
AcDbEntity
  8
0
100
AcDbLine
 62
7
  6
CONTINUOUS
 10
82.8447037113
 20
137.3688741422
 11
83.7638526586
 21
137.3688741422
  0
LINE
  5
2A5
100
AcDbEntity
  8
0
100
AcDbLine
 62
7
  6
CONTINUOUS
 10
84.1085334686
 20
137.3688741422
 11
84.8553420512
 21
137.3688741422
  0
LINE
  5
2A6
100
AcDbEntity
  8
0
100
AcDbLine
 62
7
  6
CONTINUOUS
 10
85.2000228611
 20
137.7063741422
 11
82.5000228611
 21
137.7063741422
  0
LINE
  5
2A7
100
AcDbEntity
  8
0
100
AcDbLine
 62
7
  6
CONTINUOUS
 10
84.5681080428
 20
140.2938742495
 11
84.2808738736
 21
140.3501242763
  0
LINE
  5
2A8
100
AcDbEntity
  8
0
100
AcDbLine
 62
7
  6
CONTINUOUS
 10
84.2808738736
 20
140.0126242763
 11
84.5106610803
 21
139.9563742495
  0
LINE
  5
2A9
100
AcDbEntity
  8
0
100
AcDbLine
 62
7
  6
CONTINUOUS
 10
84.5106610803
 20
138.1563743568
 11
84.7978952495
 21
138.2126241422
  0
LINE
  5
2AA
100
AcDbEntity
  8
0
100
AcDbLine
 62
7
  6
CONTINUOUS
 10
83.4191717682
 20
140.0126242763
 11
84.2808738736
 21
140.0126242763
  0
LINE
  5
2AB
100
AcDbEntity
  8
0
100
AcDbLine
 62
7
  6
CONTINUOUS
 10
84.2808738736
 20
140.3501242763
 11
83.4191717682
 21
140.3501242763
  0
LINE
  5
2AC
100
AcDbEntity
  8
0
100
AcDbLine
 62
7
  6
CONTINUOUS
 10
82.5000228611
 20
140.8001242495
 11
85.2000228611
 21
140.8001242495
  0
LINE
  5
2AD
100
AcDbEntity
  8
BEZUGSACHSEN
100
AcDbLine
 62
7
  6
CONTINUOUS
 10
100.0250228611
 20
130.1351242495
 11
100.0250228611
 21
139.8851242495
  0
LINE
  5
2AE
100
AcDbEntity
  8
0
100
AcDbLine
 62
7
  6
CONTINUOUS
 10
83.1893845616
 20
139.9563742495
 11
83.4191717682
 21
140.0126242763
  0
LINE
  5
2AF
100
AcDbEntity
  8
0
100
AcDbLine
 62
7
  6
CONTINUOUS
 10
83.4191717682
 20
140.3501242763
 11
83.1319377599
 21
140.2938742495
  0
LINE
  5
2B0
100
AcDbEntity
  8
0
100
AcDbLine
 62
7
  6
CONTINUOUS
 10
85.2000228611
 20
141.1376242495
 11
82.5000228611
 21
141.1376242495
  0
LINE
  5
2B1
100
AcDbEntity
  8
BEZUGSACHSEN
100
AcDbLine
 62
7
  6
CONTINUOUS
 10
101.7960128812
 20
149.0101242495
 11
101.7960128812
 21
147.6976242495
  0
LINE
  5
2B2
100
AcDbEntity
  8
BEZUGSACHSEN
100
AcDbLine
 62
7
  6
CONTINUOUS
 10
101.7960128812
 20
121.0101242495
 11
101.7960128812
 21
122.3226242495
  0
LINE
  5
2B3
100
AcDbEntity
  8
BEZUGSACHSEN
100
AcDbLine
 62
7
  6
CONTINUOUS
 10
103.3098905652
 20
111.4768863274
 11
103.3098905661
 21
112.0518109968
  0
LINE
  5
2B4
100
AcDbEntity
  8
BEZUGSACHSEN
100
AcDbLine
 62
7
  6
CONTINUOUS
 10
103.3098905661
 20
157.9684375022
 11
103.3098905652
 21
158.5433621716
  0
LINE
  5
2B5
100
AcDbEntity
  8
0
100
AcDbLine
 62
7
  6
CONTINUOUS
 10
89.5750228611
 20
145.5601242495
 11
96.9750228611
 21
145.5601242495
  0
LINE
  5
2B6
100
AcDbEntity
  8
BEZUGSACHSEN
100
AcDbLine
 62
7
  6
CONTINUOUS
 10
105.0487439337
 20
158.2940729453
 11
105.0487439577
 21
157.7341825524
  0
LINE
  5
2B7
100
AcDbEntity
  8
BEZUGSACHSEN
100
AcDbLine
 62
7
  6
CONTINUOUS
 10
105.0487439577
 20
112.2860659466
 11
105.0487439337
 21
111.7261755537
  0
LINE
  5
2B8
100
AcDbEntity
  8
BEZUGSACHSEN
100
AcDbLine
 62
7
  6
CONTINUOUS
 10
105.2750228611
 20
139.8851242495
 11
105.2750228611
 21
130.1351242495
  0
LINE
  5
2B9
100
AcDbEntity
  8
BEZUGSACHSEN
100
AcDbLine
 62
7
  6
CONTINUOUS
 10
109.7750228611
 20
116.2902900606
 11
109.7750228611
 21
153.7299584384
  0
LINE
  5
2BA
100
AcDbEntity
  8
0
100
AcDbLine
 62
7
  6
CONTINUOUS
 10
96.9750228611
 20
154.0601242495
 11
89.5750228611
 21
154.0601242495
  0
LINE
  5
2BB
100
AcDbEntity
  8
BEZUGSACHSEN
100
AcDbLine
 62
7
  6
CONTINUOUS
 10
106.855507638
 20
116.1945870678
 11
109.7750228611
 21
119.1948693053
  0
LINE
  5
2BC
100
AcDbEntity
  8
BEZUGSACHSEN
100
AcDbLine
 62
7
  6
CONTINUOUS
 10
106.855507638
 20
153.8256614312
 11
109.7750228611
 21
150.8253791937
  0
LINE
  5
2BD
100
AcDbEntity
  8
BEZUGSACHSEN
100
AcDbLine
 62
7
  6
CONTINUOUS
 10
109.7750228611
 20
116.2902900606
 11
105.0487439337
 21
111.7261755537
  0
LINE
  5
2BE
100
AcDbEntity
  8
BEZUGSACHSEN
100
AcDbLine
 62
7
  6
CONTINUOUS
 10
83.2401551571
 20
158.5433621716
 11
81.5013017886
 21
158.2940729453
  0
LINE
  5
2BF
100
AcDbEntity
  8
BEZUGSACHSEN
100
AcDbLine
 62
7
  6
CONTINUOUS
 10
105.0487439337
 20
158.2940729453
 11
103.3098905652
 21
158.5433621716
  0
LINE
  5
2C0
100
AcDbEntity
  8
BEZUGSACHSEN
100
AcDbLine
 62
7
  6
CONTINUOUS
 10
109.7750228611
 20
153.7299584384
 11
105.0487439337
 21
158.2940729453
  0
LINE
  5
2C1
100
AcDbEntity
  8
BEZUGSACHSEN
100
AcDbLine
 62
7
  6
CONTINUOUS
 10
144.7059271183
 20
150.8253791937
 11
151.9041487525
 21
153.4453176082
  0
LINE
  5
2C2
100
AcDbEntity
  8
BEZUGSACHSEN
100
AcDbLine
 62
7
  6
CONTINUOUS
 10
144.7059271183
 20
119.1948693053
 11
151.9041487525
 21
116.5749308908
  0
LINE
  5
2C3
100
AcDbEntity
  8
BEZUGSACHSEN
100
AcDbLine
 62
7
  6
CONTINUOUS
 10
144.7059271183
 20
115.7988791922
 11
144.7059271183
 21
154.2213693068
  0
LINE
  5
2C4
100
AcDbEntity
  8
FASEN
100
AcDbLine
 62
7
  6
CONTINUOUS
 10
162.3309271183
 20
154.2213693068
 11
162.3309271183
 21
150.8253791937
  0
LINE
  5
2C5
100
AcDbEntity
  8
BEZUGSACHSEN
100
AcDbLine
 62
7
  6
CONTINUOUS
 10
162.3309271183
 20
115.7988791922
 11
162.3309271183
 21
150.8253791937
  0
LINE
  5
2C6
100
AcDbEntity
  8
BEZUGSACHSEN
100
AcDbLine
 62
7
  6
CONTINUOUS
 10
162.3309271183
 20
119.1948693053
 11
155.1327054841
 21
116.5749308908
  0
LINE
  5
2C7
100
AcDbEntity
  8
0
100
AcDbLine
 62
7
  6
CONTINUOUS
 10
162.3309271183
 20
150.8253791937
 11
155.1327054841
 21
153.4453176082
  0
LINE
  5
2C8
100
AcDbEntity
  8
BEZUGSACHSEN
100
AcDbLine
 62
7
  6
CONTINUOUS
 10
76.7750228611
 20
79.1338647741
 11
76.7750228611
 21
68.7070864083
  0
LINE
  5
2C9
100
AcDbEntity
  8
0
100
AcDbLine
 62
7
  6
CONTINUOUS
 10
76.7750228611
 20
61.5088647741
 11
76.7750228611
 21
68.7070864083
  0
LINE
  5
2CA
100
AcDbEntity
  8
BEZUGSACHSEN
100
AcDbLine
 62
7
  6
CONTINUOUS
 10
81.5013017646
 20
67.1460679296
 11
81.5013017646
 21
73.4966616186
  0
LINE
  5
2CB
100
AcDbEntity
  8
BEZUGSACHSEN
100
AcDbLine
 62
7
  6
CONTINUOUS
 10
83.2401551562
 20
73.58192438
 11
83.2401551562
 21
67.0608051682
  0
LINE
  5
2CC
100
AcDbEntity
  8
FASEN
100
AcDbLine
 62
7
  6
CONTINUOUS
 10
76.7750228611
 20
61.5088647741
 11
84.7540328411
 21
61.5088647741
  0
LINE
  5
2CD
100
AcDbEntity
  8
0
100
AcDbLine
 62
7
  6
CONTINUOUS
 10
84.7540328411
 20
61.5088647741
 11
89.5750228611
 21
61.5088647741
  0
LINE
  5
2CE
100
AcDbEntity
  8
BEZUGSACHSEN
100
AcDbLine
 62
7
  6
CONTINUOUS
 10
89.5750228611
 20
61.5088647741
 11
109.7750228611
 21
61.5088647741
  0
LINE
  5
2CF
100
AcDbEntity
  8
0
100
AcDbLine
 62
7
  6
CONTINUOUS
 10
89.5750228611
 20
62.9413647741
 11
89.5750228611
 21
61.5088647741
  0
LINE
  5
2D0
100
AcDbEntity
  8
BEZUGSACHSEN
100
AcDbLine
 62
7
  6
CONTINUOUS
 10
89.5750228611
 20
62.9413647741
 11
89.5750228611
 21
79.1338647741
  0
LINE
  5
2D1
100
AcDbEntity
  8
0
100
AcDbLine
 62
7
  6
CONTINUOUS
 10
89.5750228611
 20
66.5713647741
 11
96.9750228611
 21
66.5713647741
  0
LINE
  5
2D2
100
AcDbEntity
  8
BEZUGSACHSEN
100
AcDbLine
 62
7
  6
CONTINUOUS
 10
96.9750228611
 20
61.5088647741
 11
96.9750228611
 21
79.1338647741
  0
LINE
  5
2D3
100
AcDbEntity
  8
0
100
AcDbLine
 62
7
  6
CONTINUOUS
 10
89.5750228611
 20
74.0713647741
 11
96.9750228611
 21
74.0713647741
  0
LINE
  5
2D4
100
AcDbEntity
  8
BEZUGSACHSEN
100
AcDbLine
 62
7
  6
CONTINUOUS
 10
76.7750228611
 20
79.1338647741
 11
109.7750228611
 21
79.1338647741
  0
LINE
  5
2D5
100
AcDbEntity
  8
BEZUGSACHSEN
100
AcDbLine
 62
7
  6
CONTINUOUS
 10
103.3098905661
 20
67.0608051682
 11
103.3098905661
 21
73.58192438
  0
LINE
  5
2D6
100
AcDbEntity
  8
BEZUGSACHSEN
100
AcDbLine
 62
7
  6
CONTINUOUS
 10
105.0487439577
 20
73.4966616186
 11
105.0487439577
 21
67.1460679296
  0
LINE
  5
2D7
100
AcDbEntity
  8
BEZUGSACHSEN
100
AcDbLine
 62
7
  6
CONTINUOUS
 10
109.7750228611
 20
61.5088647741
 11
109.7750228611
 21
79.1338647741
  0
ARC
  5
2D8
100
AcDbEntity
  8
BEZUGSACHSEN
100
AcDbCircle
 62
7
  6
CONTINUOUS
 10
93.2750228611
 20
177.6708667178
 40
21.6
100
AcDbArc
 50
279.8631970109
 51
297.6828631441
  0
ARC
  5
2D9
100
AcDbEntity
  8
BEZUGSACHSEN
100
AcDbCircle
 62
7
  6
CONTINUOUS
 10
93.2750228611
 20
92.3493817813
 40
21.6
100
AcDbArc
 50
62.3171368559
 51
80.1368029891
  0
ARC
  5
2DA
100
AcDbEntity
  8
BEZUGSACHSEN
100
AcDbCircle
 62
7
  6
CONTINUOUS
 10
93.2750228611
 20
92.3493817813
 40
21.6
100
AcDbArc
 50
99.8631970109
 51
117.6828631441
  0
ARC
  5
2DB
100
AcDbEntity
  8
0
100
AcDbCircle
 62
7
  6
CONTINUOUS
 10
93.2750228611
 20
177.6708667178
 40
21.6
100
AcDbArc
 50
242.3171368559
 51
260.1368029891
  0
ARC
  5
2DC
100
AcDbEntity
  8
BEZUGSACHSEN
100
AcDbCircle
 62
7
  6
CONTINUOUS
 10
93.2750228611
 20
140.9101242495
 40
3.7
100
AcDbArc
 50
180.0
 51
360.0
  0
ARC
  5
2DD
100
AcDbEntity
  8
BEZUGSACHSEN
100
AcDbCircle
 62
7
  6
CONTINUOUS
 10
93.2750228611
 20
129.1101242495
 40
3.7
100
AcDbArc
 50
0.0
 51
180.0
  0
ARC
  5
2DE
100
AcDbEntity
  8
BEZUGSACHSEN
100
AcDbCircle
 62
7
  6
CONTINUOUS
 10
102.6500228611
 20
130.1351242495
 40
2.625
100
AcDbArc
 50
180.0
 51
360.0
  0
ARC
  5
2DF
100
AcDbEntity
  8
BEZUGSACHSEN
100
AcDbCircle
 62
7
  6
CONTINUOUS
 10
102.6500228611
 20
139.8851242495
 40
2.625
100
AcDbArc
 50
0.0
 51
180.0
  0
ARC
  5
2E0
100
AcDbEntity
  8
BEZUGSACHSEN
100
AcDbCircle
 62
7
  6
CONTINUOUS
 10
83.9000228611
 20
130.1351242495
 40
2.625
100
AcDbArc
 50
180.0
 51
360.0
  0
ARC
  5
2E1
100
AcDbEntity
  8
0
100
AcDbCircle
 62
7
  6
CONTINUOUS
 10
83.9000228611
 20
139.8851242495
 40
2.625
100
AcDbArc
 50
0.0
 51
180.0
  0
ARC
  5
2E2
100
AcDbEntity
  8
BEZUGSACHSEN
100
AcDbCircle
 62
7
  6
CONTINUOUS
 10
153.5184271183
 20
149.0101242495
 40
9.5332379221
100
AcDbArc
 50
69.9999986857
 51
110.0000013143
  0
ARC
  5
2E3
100
AcDbEntity
  8
BEZUGSACHSEN
100
AcDbCircle
 62
7
  6
CONTINUOUS
 10
153.5184271183
 20
121.0101242495
 40
9.5332379221
100
AcDbArc
 50
249.9999986857
 51
290.0000013143
  0
ARC
  5
2E4
100
AcDbEntity
  8
BEZUGSACHSEN
100
AcDbCircle
 62
7
  6
CONTINUOUS
 10
153.5184271183
 20
149.0101242495
 40
9.2839486958
100
AcDbArc
 50
70.0000040579
 51
109.9999959421
  0
ARC
  5
2E5
100
AcDbEntity
  8
BEZUGSACHSEN
100
AcDbCircle
 62
7
  6
CONTINUOUS
 10
153.5184271183
 20
121.0101242495
 40
9.2839486958
100
AcDbArc
 50
250.0000040579
 51
289.9999959421
  0
ARC
  5
2E6
100
AcDbEntity
  8
BEZUGSACHSEN
100
AcDbCircle
 62
7
  6
CONTINUOUS
 10
153.5184271183
 20
121.0101242495
 40
4.7198341889
100
AcDbArc
 50
250.0
 51
290.0
  0
ARC
  5
2E7
100
AcDbEntity
  8
BEZUGSACHSEN
100
AcDbCircle
 62
7
  6
CONTINUOUS
 10
153.5184271183
 20
149.0101242495
 40
4.7198341889
100
AcDbArc
 50
70.0
 51
110.0
  0
ARC
  5
2E8
100
AcDbEntity
  8
0
100
AcDbCircle
 62
7
  6
CONTINUOUS
 10
93.2750228611
 20
41.6606223058
 40
21.6
100
AcDbArc
 50
99.8631970109
 51
113.2341878443
  0
ARC
  5
2E9
100
AcDbEntity
  8
0
100
AcDbCircle
 62
7
  6
CONTINUOUS
 10
93.2750228611
 20
98.9821072423
 40
21.6
100
AcDbArc
 50
246.7658121557
 51
260.1368029891
  0
ARC
  5
2EA
100
AcDbEntity
  8
BEZUGSACHSEN
100
AcDbCircle
 62
7
  6
CONTINUOUS
 10
93.2750228611
 20
41.6606223058
 40
21.6
100
AcDbArc
 50
66.7658121557
 51
80.1368029891
  0
ARC
  5
2EB
100
AcDbEntity
  8
BEZUGSACHSEN
100
AcDbCircle
 62
7
  6
CONTINUOUS
 10
93.2750228611
 20
98.9821072423
 40
21.6
100
AcDbArc
 50
279.8631970109
 51
293.2341878443
  0
ARC
  5
2EC
100
AcDbEntity
  8
BEZUGSACHSEN
100
AcDbCircle
 62
7
  6
CONTINUOUS
 10
93.2750228611
 20
98.9821072423
 40
21.6
100
AcDbArc
 50
246.7658121557
 51
260.1368029891
  0
SPLINE
  5
2ED
100
AcDbEntity
  8
BEZUGSACHSEN
100
AcDbSpline
 62
7
  6
CONTINUOUS
 70
0
 71
3
 72
18
 73
14
 74
0
 42
0.0000001
 43
0.0000001
 44
0.0000000001
 40
0.0
 40
0.0
 40
0.0
 40
0.0
 40
0.0625408863
 40
0.1251671024
 40
0.1877431078
 40
0.2502835801
 40
0.3128252893
 40
0.375340251
 40
0.5002731336
 40
0.6252047832
 40
0.750129601
 40
0.8750769703
 40
1.0
 40
1.0
 40
1.0
 40
1.0
 10
101.7960128812
 20
122.3226242495
 30
0.0
 10
101.7960128812
 20
122.4597630527
 30
0.0
 10
101.7661373243
 20
122.7349357514
 30
0.0
 10
101.6422417532
 20
123.1298783303
 30
0.0
 10
101.4522660753
 20
123.4970058334
 30
0.0
 10
101.2145938498
 20
123.8341623468
 30
0.0
 10
100.9407037601
 20
124.1420383233
 30
0.0
 10
100.5405433325
 20
124.5175231282
 30
0.0
 10
99.9893030343
 20
124.92785084
 30
0.0
 10
99.2786404123
 20
125.3429713133
 30
0.0
 10
98.5337685428
 20
125.6925720666
 30
0.0
 10
97.7645346415
 20
125.9838079932
 30
0.0
 10
97.2396070096
 20
126.1424344209
 30
0.0
 10
96.9750228611
 20
126.2133753017
 30
0.0
  0
SPLINE
  5
2EE
100
AcDbEntity
  8
FASEN
100
AcDbSpline
 62
7
  6
CONTINUOUS
 70
0
 71
3
 72
14
 73
10
 74
0
 42
0.0000001
 43
0.0000001
 44
0.0000000001
 40
0.0
 40
0.0
 40
0.0
 40
0.0
 40
0.0655699836
 40
0.1448840615
 40
0.2398239543
 40
0.3519781153
 40
0.4827555407
 40
0.6335015128
 40
1.0
 40
1.0
 40
1.0
 40
1.0
 10
81.5013449968
 20
157.7342215512
 30
0.0
 10
81.5014540418
 20
157.6392126219
 30
0.0
 10
81.4810018495
 20
157.4292346608
 30
0.0
 10
81.4024343528
 20
157.0901286368
 30
0.0
 10
81.2701301363
 20
156.6962429172
 30
0.0
 10
81.0805858132
 20
156.244513957
 30
0.0
 10
80.8302385327
 20
155.7316820635
 30
0.0
 10
80.3803665136
 20
154.9072377391
 30
0.0
 10
79.9837461807
 20
154.2705465592
 30
0.0
 10
79.6941206328
 20
153.8254325512
 30
0.0
  0
SPLINE
  5
2EF
100
AcDbEntity
  8
BEZUGSACHSEN
100
AcDbSpline
 62
7
  6
CONTINUOUS
 70
0
 71
3
 72
14
 73
10
 74
0
 42
0.0000001
 43
0.0000001
 44
0.0000000001
 40
0.0
 40
0.0
 40
0.0
 40
0.0
 40
0.0655699836
 40
0.1448840615
 40
0.2398239543
 40
0.3519781153
 40
0.4827555407
 40
0.6335015128
 40
1.0
 40
1.0
 40
1.0
 40
1.0
 10
81.5013449968
 20
112.2860269478
 30
0.0
 10
81.5014540418
 20
112.3810358771
 30
0.0
 10
81.4810018495
 20
112.5910138382
 30
0.0
 10
81.4024343528
 20
112.9301198622
 30
0.0
 10
81.2701301363
 20
113.3240055818
 30
0.0
 10
81.0805858132
 20
113.775734542
 30
0.0
 10
80.8302385327
 20
114.2885664355
 30
0.0
 10
80.3803665136
 20
115.11301076
 30
0.0
 10
79.9837461807
 20
115.7497019398
 30
0.0
 10
79.6941206328
 20
116.1948159478
 30
0.0
  0
SPLINE
  5
2F0
100
AcDbEntity
  8
BEZUGSACHSEN
100
AcDbSpline
 62
7
  6
CONTINUOUS
 70
0
 71
3
 72
14
 73
10
 74
0
 42
0.0000001
 43
0.0000001
 44
0.0000000001
 40
0.0
 40
0.0
 40
0.0
 40
0.0
 40
0.0655699836
 40
0.1448840615
 40
0.2398239543
 40
0.3519781153
 40
0.4827555407
 40
0.6335015128
 40
1.0
 40
1.0
 40
1.0
 40
1.0
 10
105.0487007254
 20
157.7342215512
 30
0.0
 10
105.0485916805
 20
157.6392126219
 30
0.0
 10
105.0690438728
 20
157.4292346608
 30
0.0
 10
105.1476113694
 20
157.0901286368
 30
0.0
 10
105.279915586
 20
156.6962429172
 30
0.0
 10
105.4694599091
 20
156.244513957
 30
0.0
 10
105.7198071896
 20
155.7316820635
 30
0.0
 10
106.1696792087
 20
154.9072377391
 30
0.0
 10
106.5662995415
 20
154.2705465592
 30
0.0
 10
106.8559250895
 20
153.8254325512
 30
0.0
  0
SPLINE
  5
2F1
100
AcDbEntity
  8
FASEN
100
AcDbSpline
 62
7
  6
CONTINUOUS
 70
0
 71
3
 72
14
 73
10
 74
0
 42
0.0000001
 43
0.0000001
 44
0.0000000001
 40
0.0
 40
0.0
 40
0.0
 40
0.0
 40
0.2500428621
 40
0.3750689152
 40
0.5000902472
 40
0.625101058
 40
0.7500968432
 40
0.8750602699
 40
1.0
 40
1.0
 40
1.0
 40
1.0
 10
81.9983359678
 20
154.2213693068
 30
0.0
 10
82.3185529774
 20
153.8362922685
 30
0.0
 10
82.7929537586
 20
153.2533997375
 30
0.0
 10
83.3892328046
 20
152.4482832435
 30
0.0
 10
83.8079448904
 20
151.8241026916
 30
0.0
 10
84.1831935493
 20
151.1724482359
 30
0.0
 10
84.4923199843
 20
150.4860346455
 30
0.0
 10
84.7031644338
 20
149.76213337
 30
0.0
 10
84.7540328411
 20
149.2603718978
 30
0.0
 10
84.7540328411
 20
149.0101242495
 30
0.0
  0
SPLINE
  5
2F2
100
AcDbEntity
  8
BEZUGSACHSEN
100
AcDbSpline
 62
7
  6
CONTINUOUS
 70
0
 71
3
 72
18
 73
14
 74
0
 42
0.0000001
 43
0.0000001
 44
0.0000000001
 40
0.0
 40
0.0
 40
0.0
 40
0.0
 40
0.0625408863
 40
0.1251671024
 40
0.1877431078
 40
0.2502835801
 40
0.3128252893
 40
0.375340251
 40
0.5002731336
 40
0.6252047832
 40
0.750129601
 40
0.8750769703
 40
1.0
 40
1.0
 40
1.0
 40
1.0
 10
84.7540328411
 20
122.3226242495
 30
0.0
 10
84.7540328411
 20
122.4597630527
 30
0.0
 10
84.7839083979
 20
122.7349357514
 30
0.0
 10
84.9078039691
 20
123.1298783303
 30
0.0
 10
85.097779647
 20
123.4970058334
 30
0.0
 10
85.3354518725
 20
123.8341623468
 30
0.0
 10
85.6093419622
 20
124.1420383233
 30
0.0
 10
86.0095023897
 20
124.5175231282
 30
0.0
 10
86.560742688
 20
124.92785084
 30
0.0
 10
87.27140531
 20
125.3429713133
 30
0.0
 10
88.0162771795
 20
125.6925720666
 30
0.0
 10
88.7855110808
 20
125.9838079932
 30
0.0
 10
89.3104387127
 20
126.1424344209
 30
0.0
 10
89.5750228611
 20
126.2133753017
 30
0.0
  0
SPLINE
  5
2F3
100
AcDbEntity
  8
BEZUGSACHSEN
100
AcDbSpline
 62
7
  6
CONTINUOUS
 70
0
 71
3
 72
9
 73
5
 74
0
 42
0.0000001
 43
0.0000001
 44
0.0000000001
 40
0.0
 40
0.0
 40
0.0
 40
0.0
 40
0.5000006291
 40
1.0
 40
1.0
 40
1.0
 40
1.0
 10
81.9983359678
 20
115.7988791922
 30
0.0
 10
81.6156603703
 20
115.8720652224
 30
0.0
 10
80.8492489538
 20
116.013028203
 30
0.0
 10
80.0798943781
 20
116.1371712963
 30
0.0
 10
79.6945380843
 20
116.1945870678
 30
0.0
  0
SPLINE
  5
2F4
100
AcDbEntity
  8
FASEN
100
AcDbSpline
 62
7
  6
CONTINUOUS
 70
0
 71
3
 72
9
 73
5
 74
0
 42
0.0000001
 43
0.0000001
 44
0.0000000001
 40
0.0
 40
0.0
 40
0.0
 40
0.0
 40
0.5000006291
 40
1.0
 40
1.0
 40
1.0
 40
1.0
 10
81.9983359678
 20
154.2213693068
 30
0.0
 10
81.6156603703
 20
154.1481832766
 30
0.0
 10
80.8492489538
 20
154.007220296
 30
0.0
 10
80.0798943781
 20
153.8830772027
 30
0.0
 10
79.6945380843
 20
153.8256614312
 30
0.0
  0
SPLINE
  5
2F5
100
AcDbEntity
  8
0
100
AcDbSpline
 62
7
  6
CONTINUOUS
 70
0
 71
3
 72
18
 73
14
 74
0
 42
0.0000001
 43
0.0000001
 44
0.0000000001
 40
0.0
 40
0.0
 40
0.0
 40
0.0
 40
0.0625408863
 40
0.1251671024
 40
0.1877431078
 40
0.2502835801
 40
0.3128252893
 40
0.375340251
 40
0.5002731336
 40
0.6252047832
 40
0.750129601
 40
0.8750769703
 40
1.0
 40
1.0
 40
1.0
 40
1.0
 10
84.7540328411
 20
147.6976242495
 30
0.0
 10
84.7540328411
 20
147.5604854463
 30
0.0
 10
84.7839083979
 20
147.2853127476
 30
0.0
 10
84.9078039691
 20
146.8903701687
 30
0.0
 10
85.097779647
 20
146.5232426656
 30
0.0
 10
85.3354518725
 20
146.1860861522
 30
0.0
 10
85.6093419622
 20
145.8782101757
 30
0.0
 10
86.0095023897
 20
145.5027253708
 30
0.0
 10
86.560742688
 20
145.092397659
 30
0.0
 10
87.27140531
 20
144.6772771857
 30
0.0
 10
88.0162771795
 20
144.3276764324
 30
0.0
 10
88.7855110808
 20
144.0364405058
 30
0.0
 10
89.3104387127
 20
143.8778140781
 30
0.0
 10
89.5750228611
 20
143.8068731973
 30
0.0
  0
SPLINE
  5
2F6
100
AcDbEntity
  8
FASEN
100
AcDbSpline
 62
7
  6
CONTINUOUS
 70
0
 71
3
 72
14
 73
10
 74
0
 42
0.0000001
 43
0.0000001
 44
0.0000000001
 40
0.0
 40
0.0
 40
0.0
 40
0.0
 40
0.0716936947
 40
0.1568136493
 40
0.2563979862
 40
0.3713451462
 40
0.5024682498
 40
0.6505241058
 40
1.0
 40
1.0
 40
1.0
 40
1.0
 10
83.2401955803
 20
157.9685792667
 30
0.0
 10
83.2402824355
 20
157.8736600484
 30
0.0
 10
83.2262771833
 20
157.6660087438
 30
0.0
 10
83.1719910789
 20
157.3306016461
 30
0.0
 10
83.0805590654
 20
156.944262563
 30
0.0
 10
82.9498265001
 20
156.5055009521
 30
0.0
 10
82.7776346502
 20
156.0127543579
 30
0.0
 10
82.4726546977
 20
155.2381699733
 30
0.0
 10
82.199603731
 20
154.6381354017
 30
0.0
 10
81.9984617814
 20
154.2214527532
 30
0.0
  0
SPLINE
  5
2F7
100
AcDbEntity
  8
BEZUGSACHSEN
100
AcDbSpline
 62
7
  6
CONTINUOUS
 70
0
 71
3
 72
14
 73
10
 74
0
 42
0.0000001
 43
0.0000001
 44
0.0000000001
 40
0.0
 40
0.0
 40
0.0
 40
0.0
 40
0.2500428621
 40
0.3750689152
 40
0.5000902472
 40
0.625101058
 40
0.7500968432
 40
0.8750602699
 40
1.0
 40
1.0
 40
1.0
 40
1.0
 10
104.5517097545
 20
154.2213693068
 30
0.0
 10
104.2314927448
 20
153.8362922685
 30
0.0
 10
103.7570919636
 20
153.2533997375
 30
0.0
 10
103.1608129176
 20
152.4482832435
 30
0.0
 10
102.7421008319
 20
151.8241026916
 30
0.0
 10
102.366852173
 20
151.1724482359
 30
0.0
 10
102.0577257379
 20
150.4860346455
 30
0.0
 10
101.8468812884
 20
149.76213337
 30
0.0
 10
101.7960128812
 20
149.2603718978
 30
0.0
 10
101.7960128812
 20
149.0101242495
 30
0.0
  0
SPLINE
  5
2F8
100
AcDbEntity
  8
BEZUGSACHSEN
100
AcDbSpline
 62
7
  6
CONTINUOUS
 70
0
 71
3
 72
14
 73
10
 74
0
 42
0.0000001
 43
0.0000001
 44
0.0000000001
 40
0.0
 40
0.0
 40
0.0
 40
0.0
 40
0.0716936947
 40
0.1568136493
 40
0.2563979862
 40
0.3713451462
 40
0.5024682498
 40
0.6505241058
 40
1.0
 40
1.0
 40
1.0
 40
1.0
 10
103.309850142
 20
157.9685792667
 30
0.0
 10
103.3097632868
 20
157.8736600484
 30
0.0
 10
103.323768539
 20
157.6660087438
 30
0.0
 10
103.3780546434
 20
157.3306016461
 30
0.0
 10
103.4694866569
 20
156.944262563
 30
0.0
 10
103.6002192221
 20
156.5055009521
 30
0.0
 10
103.7724110721
 20
156.0127543579
 30
0.0
 10
104.0773910245
 20
155.2381699733
 30
0.0
 10
104.3504419913
 20
154.6381354017
 30
0.0
 10
104.5515839409
 20
154.2214527532
 30
0.0
  0
SPLINE
  5
2F9
100
AcDbEntity
  8
BEZUGSACHSEN
100
AcDbSpline
 62
7
  6
CONTINUOUS
 70
0
 71
3
 72
18
 73
14
 74
0
 42
0.0000001
 43
0.0000001
 44
0.0000000001
 40
0.0
 40
0.0
 40
0.0
 40
0.0
 40
0.0625408863
 40
0.1251671024
 40
0.1877431078
 40
0.2502835801
 40
0.3128252893
 40
0.375340251
 40
0.5002731336
 40
0.6252047832
 40
0.750129601
 40
0.8750769703
 40
1.0
 40
1.0
 40
1.0
 40
1.0
 10
101.7960128812
 20
147.6976242495
 30
0.0
 10
101.7960128812
 20
147.5604854463
 30
0.0
 10
101.7661373243
 20
147.2853127476
 30
0.0
 10
101.6422417532
 20
146.8903701687
 30
0.0
 10
101.4522660753
 20
146.5232426656
 30
0.0
 10
101.2145938498
 20
146.1860861522
 30
0.0
 10
100.9407037601
 20
145.8782101757
 30
0.0
 10
100.5405433325
 20
145.5027253708
 30
0.0
 10
99.9893030343
 20
145.092397659
 30
0.0
 10
99.2786404123
 20
144.6772771857
 30
0.0
 10
98.5337685428
 20
144.3276764324
 30
0.0
 10
97.7645346415
 20
144.0364405058
 30
0.0
 10
97.2396070096
 20
143.8778140781
 30
0.0
 10
96.9750228611
 20
143.8068731973
 30
0.0
  0
SPLINE
  5
2FA
100
AcDbEntity
  8
BEZUGSACHSEN
100
AcDbSpline
 62
7
  6
CONTINUOUS
 70
0
 71
3
 72
9
 73
5
 74
0
 42
0.0000001
 43
0.0000001
 44
0.0000000001
 40
0.0
 40
0.0
 40
0.0
 40
0.0
 40
0.5000006291
 40
1.0
 40
1.0
 40
1.0
 40
1.0
 10
104.5517097545
 20
154.2213693068
 30
0.0
 10
104.934385352
 20
154.1481832766
 30
0.0
 10
105.7007967685
 20
154.007220296
 30
0.0
 10
106.4701513442
 20
153.8830772027
 30
0.0
 10
106.855507638
 20
153.8256614312
 30
0.0
  0
SPLINE
  5
2FB
100
AcDbEntity
  8
BEZUGSACHSEN
100
AcDbSpline
 62
7
  6
CONTINUOUS
 70
0
 71
3
 72
14
 73
10
 74
0
 42
0.0000001
 43
0.0000001
 44
0.0000000001
 40
0.0
 40
0.0
 40
0.0
 40
0.0
 40
0.0716936947
 40
0.1568136493
 40
0.2563979862
 40
0.3713451462
 40
0.5024682498
 40
0.6505241058
 40
1.0
 40
1.0
 40
1.0
 40
1.0
 10
83.2401955803
 20
112.0516692323
 30
0.0
 10
83.2402824355
 20
112.1465884506
 30
0.0
 10
83.2262771833
 20
112.3542397553
 30
0.0
 10
83.1719910789
 20
112.6896468529
 30
0.0
 10
83.0805590654
 20
113.075985936
 30
0.0
 10
82.9498265001
 20
113.5147475469
 30
0.0
 10
82.7776346502
 20
114.0074941411
 30
0.0
 10
82.4726546977
 20
114.7820785258
 30
0.0
 10
82.199603731
 20
115.3821130973
 30
0.0
 10
81.9984617814
 20
115.7987957459
 30
0.0
  0
SPLINE
  5
2FC
100
AcDbEntity
  8
BEZUGSACHSEN
100
AcDbSpline
 62
7
  6
CONTINUOUS
 70
0
 71
3
 72
14
 73
10
 74
0
 42
0.0000001
 43
0.0000001
 44
0.0000000001
 40
0.0
 40
0.0
 40
0.0
 40
0.0
 40
0.2500428621
 40
0.3750689152
 40
0.5000902472
 40
0.625101058
 40
0.7500968432
 40
0.8750602699
 40
1.0
 40
1.0
 40
1.0
 40
1.0
 10
81.9983359678
 20
115.7988791922
 30
0.0
 10
82.3185529774
 20
116.1839562305
 30
0.0
 10
82.7929537586
 20
116.7668487615
 30
0.0
 10
83.3892328046
 20
117.5719652555
 30
0.0
 10
83.8079448904
 20
118.1961458074
 30
0.0
 10
84.1831935493
 20
118.8478002631
 30
0.0
 10
84.4923199843
 20
119.5342138535
 30
0.0
 10
84.7031644338
 20
120.258115129
 30
0.0
 10
84.7540328411
 20
120.7598766012
 30
0.0
 10
84.7540328411
 20
121.0101242495
 30
0.0
  0
SPLINE
  5
2FD
100
AcDbEntity
  8
BEZUGSACHSEN
100
AcDbSpline
 62
7
  6
CONTINUOUS
 70
0
 71
3
 72
14
 73
10
 74
0
 42
0.0000001
 43
0.0000001
 44
0.0000000001
 40
0.0
 40
0.0
 40
0.0
 40
0.0
 40
0.2500428621
 40
0.3750689152
 40
0.5000902472
 40
0.625101058
 40
0.7500968432
 40
0.8750602699
 40
1.0
 40
1.0
 40
1.0
 40
1.0
 10
104.5517097545
 20
115.7988791922
 30
0.0
 10
104.2314927448
 20
116.1839562305
 30
0.0
 10
103.7570919636
 20
116.7668487615
 30
0.0
 10
103.1608129176
 20
117.5719652555
 30
0.0
 10
102.7421008319
 20
118.1961458074
 30
0.0
 10
102.366852173
 20
118.8478002631
 30
0.0
 10
102.0577257379
 20
119.5342138535
 30
0.0
 10
101.8468812884
 20
120.258115129
 30
0.0
 10
101.7960128812
 20
120.7598766012
 30
0.0
 10
101.7960128812
 20
121.0101242495
 30
0.0
  0
SPLINE
  5
2FE
100
AcDbEntity
  8
BEZUGSACHSEN
100
AcDbSpline
 62
7
  6
CONTINUOUS
 70
0
 71
3
 72
14
 73
10
 74
0
 42
0.0000001
 43
0.0000001
 44
0.0000000001
 40
0.0
 40
0.0
 40
0.0
 40
0.0
 40
0.0716936947
 40
0.1568136493
 40
0.2563979862
 40
0.3713451462
 40
0.5024682498
 40
0.6505241058
 40
1.0
 40
1.0
 40
1.0
 40
1.0
 10
103.309850142
 20
112.0516692323
 30
0.0
 10
103.3097632868
 20
112.1465884506
 30
0.0
 10
103.323768539
 20
112.3542397553
 30
0.0
 10
103.3780546434
 20
112.6896468529
 30
0.0
 10
103.4694866569
 20
113.075985936
 30
0.0
 10
103.6002192221
 20
113.5147475469
 30
0.0
 10
103.7724110721
 20
114.0074941411
 30
0.0
 10
104.0773910245
 20
114.7820785258
 30
0.0
 10
104.3504419913
 20
115.3821130973
 30
0.0
 10
104.5515839409
 20
115.7987957459
 30
0.0
  0
SPLINE
  5
2FF
100
AcDbEntity
  8
BEZUGSACHSEN
100
AcDbSpline
 62
7
  6
CONTINUOUS
 70
0
 71
3
 72
14
 73
10
 74
0
 42
0.0000001
 43
0.0000001
 44
0.0000000001
 40
0.0
 40
0.0
 40
0.0
 40
0.0
 40
0.0655699836
 40
0.1448840615
 40
0.2398239543
 40
0.3519781153
 40
0.4827555407
 40
0.6335015128
 40
1.0
 40
1.0
 40
1.0
 40
1.0
 10
105.0487007254
 20
112.2860269478
 30
0.0
 10
105.0485916805
 20
112.3810358771
 30
0.0
 10
105.0690438728
 20
112.5910138382
 30
0.0
 10
105.1476113694
 20
112.9301198622
 30
0.0
 10
105.279915586
 20
113.3240055818
 30
0.0
 10
105.4694599091
 20
113.775734542
 30
0.0
 10
105.7198071896
 20
114.2885664355
 30
0.0
 10
106.1696792087
 20
115.11301076
 30
0.0
 10
106.5662995415
 20
115.7497019398
 30
0.0
 10
106.8559250895
 20
116.1948159478
 30
0.0
  0
SPLINE
  5
300
100
AcDbEntity
  8
BEZUGSACHSEN
100
AcDbSpline
 62
7
  6
CONTINUOUS
 70
0
 71
3
 72
9
 73
5
 74
0
 42
0.0000001
 43
0.0000001
 44
0.0000000001
 40
0.0
 40
0.0
 40
0.0
 40
0.0
 40
0.5000006291
 40
1.0
 40
1.0
 40
1.0
 40
1.0
 10
104.5517097545
 20
115.7988791922
 30
0.0
 10
104.934385352
 20
115.8720652224
 30
0.0
 10
105.7007967685
 20
116.013028203
 30
0.0
 10
106.4701513442
 20
116.1371712963
 30
0.0
 10
106.855507638
 20
116.1945870678
 30
0.0
  0
SPLINE
  5
301
100
AcDbEntity
  8
BEZUGSACHSEN
100
AcDbSpline
 62
7
  6
CONTINUOUS
 70
0
 71
3
 72
11
 73
7
 74
0
 42
0.0000001
 43
0.0000001
 44
0.0000000001
 40
0.0
 40
0.0
 40
0.0
 40
0.0
 40
0.230851673
 40
0.4732982525
 40
0.7289452664
 40
1.0
 40
1.0
 40
1.0
 40
1.0
 10
150.2578163459
 20
157.9685792667
 30
0.0
 10
149.7689805797
 20
157.7912974284
 30
0.0
 10
148.787836322
 20
157.3668105212
 30
0.0
 10
147.3657329844
 20
156.5385917329
 30
0.0
 10
145.9802103216
 20
155.4917944683
 30
0.0
 10
145.122446637
 20
154.667706293
 30
0.0
 10
144.7057636604
 20
154.2214527532
 30
0.0
  0
SPLINE
  5
302
100
AcDbEntity
  8
FASEN
100
AcDbSpline
 62
7
  6
CONTINUOUS
 70
0
 71
3
 72
11
 73
7
 74
0
 42
0.0000001
 43
0.0000001
 44
0.0000000001
 40
0.0
 40
0.0
 40
0.0
 40
0.0
 40
0.230851673
 40
0.4732982525
 40
0.7289452664
 40
1.0
 40
1.0
 40
1.0
 40
1.0
 10
156.7790378907
 20
157.9685792667
 30
0.0
 10
157.2678736569
 20
157.7912974284
 30
0.0
 10
158.2490179145
 20
157.3668105212
 30
0.0
 10
159.6711212522
 20
156.5385917329
 30
0.0
 10
161.056643915
 20
155.4917944683
 30
0.0
 10
161.9144075996
 20
154.667706293
 30
0.0
 10
162.3310905761
 20
154.2214527532
 30
0.0
  0
SPLINE
  5
303
100
AcDbEntity
  8
BEZUGSACHSEN
100
AcDbSpline
 62
7
  6
CONTINUOUS
 70
0
 71
3
 72
11
 73
7
 74
0
 42
0.0000001
 43
0.0000001
 44
0.0000000001
 40
0.0
 40
0.0
 40
0.0
 40
0.0
 40
0.230851673
 40
0.4732982525
 40
0.7289452664
 40
1.0
 40
1.0
 40
1.0
 40
1.0
 10
150.2578163459
 20
112.0516692323
 30
0.0
 10
149.7689805797
 20
112.2289510706
 30
0.0
 10
148.787836322
 20
112.6534379778
 30
0.0
 10
147.3657329844
 20
113.4816567661
 30
0.0
 10
145.9802103216
 20
114.5284540307
 30
0.0
 10
145.122446637
 20
115.352542206
 30
0.0
 10
144.7057636604
 20
115.7987957459
 30
0.0
  0
SPLINE
  5
304
100
AcDbEntity
  8
BEZUGSACHSEN
100
AcDbSpline
 62
7
  6
CONTINUOUS
 70
0
 71
3
 72
11
 73
7
 74
0
 42
0.0000001
 43
0.0000001
 44
0.0000000001
 40
0.0
 40
0.0
 40
0.0
 40
0.0
 40
0.230851673
 40
0.4732982525
 40
0.7289452664
 40
1.0
 40
1.0
 40
1.0
 40
1.0
 10
156.7790378907
 20
112.0516692323
 30
0.0
 10
157.2678736569
 20
112.2289510706
 30
0.0
 10
158.2490179145
 20
112.6534379778
 30
0.0
 10
159.6711212522
 20
113.4816567661
 30
0.0
 10
161.056643915
 20
114.5284540307
 30
0.0
 10
161.9144075996
 20
115.352542206
 30
0.0
 10
162.3310905761
 20
115.7987957459
 30
0.0
  0
SPLINE
  5
305
100
AcDbEntity
  8
BEZUGSACHSEN
100
AcDbSpline
 62
7
  6
CONTINUOUS
 70
0
 71
3
 72
11
 73
7
 74
0
 42
0.0000001
 43
0.0000001
 44
0.0000000001
 40
0.0
 40
0.0
 40
0.0
 40
0.0
 40
0.2246827326
 40
0.4635877763
 40
0.7203797457
 40
1.0
 40
1.0
 40
1.0
 40
1.0
 10
156.6937388221
 20
112.2860269478
 30
0.0
 10
157.181104814
 20
112.4632046835
 30
0.0
 10
158.1649392968
 20
112.8918266891
 30
0.0
 10
159.5981915841
 20
113.742774686
 30
0.0
 10
161.0149586516
 20
114.8432048419
 30
0.0
 10
161.8959388828
 20
115.7175684226
 30
0.0
 10
162.3303772928
 20
116.1948159478
 30
0.0
  0
SPLINE
  5
306
100
AcDbEntity
  8
FASEN
100
AcDbSpline
 62
7
  6
CONTINUOUS
 70
0
 71
3
 72
11
 73
7
 74
0
 42
0.0000001
 43
0.0000001
 44
0.0000000001
 40
0.0
 40
0.0
 40
0.0
 40
0.0
 40
0.2246827326
 40
0.4635877763
 40
0.7203797457
 40
1.0
 40
1.0
 40
1.0
 40
1.0
 10
156.6937388221
 20
157.7342215512
 30
0.0
 10
157.181104814
 20
157.5570438155
 30
0.0
 10
158.1649392968
 20
157.1284218099
 30
0.0
 10
159.5981915841
 20
156.277473813
 30
0.0
 10
161.0149586516
 20
155.1770436571
 30
0.0
 10
161.8959388828
 20
154.3026800764
 30
0.0
 10
162.3303772928
 20
153.8254325512
 30
0.0
  0
SPLINE
  5
307
100
AcDbEntity
  8
BEZUGSACHSEN
100
AcDbSpline
 62
7
  6
CONTINUOUS
 70
0
 71
3
 72
11
 73
7
 74
0
 42
0.0000001
 43
0.0000001
 44
0.0000000001
 40
0.0
 40
0.0
 40
0.0
 40
0.0
 40
0.2246827326
 40
0.4635877763
 40
0.7203797457
 40
1.0
 40
1.0
 40
1.0
 40
1.0
 10
150.3431154145
 20
112.2860269478
 30
0.0
 10
149.8557494226
 20
112.4632046835
 30
0.0
 10
148.8719149398
 20
112.8918266891
 30
0.0
 10
147.4386626525
 20
113.742774686
 30
0.0
 10
146.021895585
 20
114.8432048419
 30
0.0
 10
145.1409153537
 20
115.7175684226
 30
0.0
 10
144.7064769438
 20
116.1948159478
 30
0.0
  0
SPLINE
  5
308
100
AcDbEntity
  8
BEZUGSACHSEN
100
AcDbSpline
 62
7
  6
CONTINUOUS
 70
0
 71
3
 72
11
 73
7
 74
0
 42
0.0000001
 43
0.0000001
 44
0.0000000001
 40
0.0
 40
0.0
 40
0.0
 40
0.0
 40
0.2246827326
 40
0.4635877763
 40
0.7203797457
 40
1.0
 40
1.0
 40
1.0
 40
1.0
 10
150.3431154145
 20
157.7342215512
 30
0.0
 10
149.8557494226
 20
157.5570438155
 30
0.0
 10
148.8719149398
 20
157.1284218099
 30
0.0
 10
147.4386626525
 20
156.277473813
 30
0.0
 10
146.021895585
 20
155.1770436571
 30
0.0
 10
145.1409153537
 20
154.3026800764
 30
0.0
 10
144.7064769438
 20
153.8254325512
 30
0.0
  0
SPLINE
  5
309
100
AcDbEntity
  8
FASEN
100
AcDbSpline
 62
7
  6
CONTINUOUS
 70
0
 71
3
 72
12
 73
8
 74
0
 42
0.0000001
 43
0.0000001
 44
0.0000000001
 40
0.0
 40
0.0
 40
0.0
 40
0.0
 40
0.2377273453
 40
0.480139957
 40
0.7318401639
 40
0.863411644
 40
1.0
 40
1.0
 40
1.0
 40
1.0
 10
81.5013449968
 20
67.1460530703
 30
0.0
 10
81.5015438826
 20
66.6693930786
 30
0.0
 10
81.4372598974
 20
65.7050468893
 30
0.0
 10
81.1205185497
 20
64.2663943239
 30
0.0
 10
80.6530416006
 20
63.0954338477
 30
0.0
 10
80.1503735316
 20
62.1812525201
 30
0.0
 10
79.8533789246
 20
61.7322175704
 30
0.0
 10
79.6941206328
 20
61.5094145996
 30
0.0
  0
SPLINE
  5
30A
100
AcDbEntity
  8
FASEN
100
AcDbSpline
 62
7
  6
CONTINUOUS
 70
0
 71
3
 72
11
 73
7
 74
0
 42
0.0000001
 43
0.0000001
 44
0.0000000001
 40
0.0
 40
0.0
 40
0.0
 40
0.0
 40
0.2497819974
 40
0.4994605522
 40
0.7490064695
 40
1.0
 40
1.0
 40
1.0
 40
1.0
 10
83.2401955803
 20
67.0607540017
 30
0.0
 10
83.2403541883
 20
66.582804426
 30
0.0
 10
83.1963634886
 20
65.6263357354
 30
0.0
 10
82.9807043594
 20
64.2064925317
 30
0.0
 10
82.5972425996
 20
62.8193715518
 30
0.0
 10
82.2190196152
 20
61.9353292935
 30
0.0
 10
81.9984617814
 20
61.5087013162
 30
0.0
  0
SPLINE
  5
30B
100
AcDbEntity
  8
BEZUGSACHSEN
100
AcDbSpline
 62
7
  6
CONTINUOUS
 70
0
 71
3
 72
11
 73
7
 74
0
 42
0.0000001
 43
0.0000001
 44
0.0000000001
 40
0.0
 40
0.0
 40
0.0
 40
0.0
 40
0.2497819974
 40
0.4994605522
 40
0.7490064695
 40
1.0
 40
1.0
 40
1.0
 40
1.0
 10
83.2401955803
 20
73.5819755465
 30
0.0
 10
83.2403541883
 20
74.0599251222
 30
0.0
 10
83.1963634886
 20
75.0163938128
 30
0.0
 10
82.9807043594
 20
76.4362370165
 30
0.0
 10
82.5972425996
 20
77.8233579964
 30
0.0
 10
82.2190196152
 20
78.7074002547
 30
0.0
 10
81.9984617814
 20
79.1340282319
 30
0.0
  0
SPLINE
  5
30C
100
AcDbEntity
  8
BEZUGSACHSEN
100
AcDbSpline
 62
7
  6
CONTINUOUS
 70
0
 71
3
 72
12
 73
8
 74
0
 42
0.0000001
 43
0.0000001
 44
0.0000000001
 40
0.0
 40
0.0
 40
0.0
 40
0.0
 40
0.2377273453
 40
0.480139957
 40
0.7318401639
 40
0.863411644
 40
1.0
 40
1.0
 40
1.0
 40
1.0
 10
105.0487007254
 20
73.4966764779
 30
0.0
 10
105.0485018396
 20
73.9733364696
 30
0.0
 10
105.1127858249
 20
74.9376826589
 30
0.0
 10
105.4295271726
 20
76.3763352243
 30
0.0
 10
105.8970041217
 20
77.5472957005
 30
0.0
 10
106.3996721907
 20
78.461477028
 30
0.0
 10
106.6966667977
 20
78.9105119778
 30
0.0
 10
106.8559250895
 20
79.1333149486
 30
0.0
  0
SPLINE
  5
30D
100
AcDbEntity
  8
BEZUGSACHSEN
100
AcDbSpline
 62
7
  6
CONTINUOUS
 70
0
 71
3
 72
11
 73
7
 74
0
 42
0.0000001
 43
0.0000001
 44
0.0000000001
 40
0.0
 40
0.0
 40
0.0
 40
0.0
 40
0.2497819974
 40
0.4994605522
 40
0.7490064695
 40
1.0
 40
1.0
 40
1.0
 40
1.0
 10
103.309850142
 20
73.5819755465
 30
0.0
 10
103.309691534
 20
74.0599251222
 30
0.0
 10
103.3536822337
 20
75.0163938128
 30
0.0
 10
103.5693413628
 20
76.4362370165
 30
0.0
 10
103.9528031227
 20
77.8233579964
 30
0.0
 10
104.3310261071
 20
78.7074002547
 30
0.0
 10
104.5515839409
 20
79.1340282319
 30
0.0
  0
SPLINE
  5
30E
100
AcDbEntity
  8
BEZUGSACHSEN
100
AcDbSpline
 62
7
  6
CONTINUOUS
 70
0
 71
3
 72
12
 73
8
 74
0
 42
0.0000001
 43
0.0000001
 44
0.0000000001
 40
0.0
 40
0.0
 40
0.0
 40
0.0
 40
0.2377273453
 40
0.480139957
 40
0.7318401639
 40
0.863411644
 40
1.0
 40
1.0
 40
1.0
 40
1.0
 10
105.0487007254
 20
67.1460530703
 30
0.0
 10
105.0485018396
 20
66.6693930786
 30
0.0
 10
105.1127858249
 20
65.7050468893
 30
0.0
 10
105.4295271726
 20
64.2663943239
 30
0.0
 10
105.8970041217
 20
63.0954338477
 30
0.0
 10
106.3996721907
 20
62.1812525201
 30
0.0
 10
106.6966667977
 20
61.7322175704
 30
0.0
 10
106.8559250895
 20
61.5094145996
 30
0.0
  0
SPLINE
  5
30F
100
AcDbEntity
  8
BEZUGSACHSEN
100
AcDbSpline
 62
7
  6
CONTINUOUS
 70
0
 71
3
 72
11
 73
7
 74
0
 42
0.0000001
 43
0.0000001
 44
0.0000000001
 40
0.0
 40
0.0
 40
0.0
 40
0.0
 40
0.2497819974
 40
0.4994605522
 40
0.7490064695
 40
1.0
 40
1.0
 40
1.0
 40
1.0
 10
103.309850142
 20
67.0607540017
 30
0.0
 10
103.309691534
 20
66.582804426
 30
0.0
 10
103.3536822337
 20
65.6263357354
 30
0.0
 10
103.5693413628
 20
64.2064925317
 30
0.0
 10
103.9528031227
 20
62.8193715518
 30
0.0
 10
104.3310261071
 20
61.9353292935
 30
0.0
 10
104.5515839409
 20
61.5087013162
 30
0.0
  0
SPLINE
  5
310
100
AcDbEntity
  8
BEZUGSACHSEN
100
AcDbSpline
 62
7
  6
CONTINUOUS
 70
0
 71
3
 72
12
 73
8
 74
0
 42
0.0000001
 43
0.0000001
 44
0.0000000001
 40
0.0
 40
0.0
 40
0.0
 40
0.0
 40
0.2377273453
 40
0.480139957
 40
0.7318401639
 40
0.863411644
 40
1.0
 40
1.0
 40
1.0
 40
1.0
 10
81.5013449968
 20
73.4966764779
 30
0.0
 10
81.5015438826
 20
73.9733364696
 30
0.0
 10
81.4372598974
 20
74.9376826589
 30
0.0
 10
81.1205185497
 20
76.3763352243
 30
0.0
 10
80.6530416006
 20
77.5472957005
 30
0.0
 10
80.1503735316
 20
78.461477028
 30
0.0
 10
79.8533789246
 20
78.9105119778
 30
0.0
 10
79.6941206328
 20
79.1333149486
 30
0.0
  0
ENDSEC
  0
SECTION
  2
OBJECTS
  0
DICTIONARY
  5
C
100
AcDbDictionary
280
0
281
1
  3
ACAD_GROUP
350
D
  3
ACAD_MLINESTYLE
350
17
  3
ACAD_LAYOUT
350
1A
  3
ACAD_PLOTSETTINGS
350
19
  3
ACAD_PLOTSTYLENAME
350
E
  0
DICTIONARY
  5
D
102
{ACAD_REACTORS
330
C
102
}
100
AcDbDictionary
280
0
281
1
  0
ACDBDICTIONARYWDFLT
  5
E
102
{ACAD_REACTORS
330
C
102
}
100
AcDbDictionary
281
1
  3
Normal
350
F
100
AcDbDictionaryWithDefault
340
F
  0
DICTIONARY
  5
17
102
{ACAD_REACTORS
330
C
102
}
100
AcDbDictionary
280
0
281
1
  3
Standard
350
18
  0
DICTIONARY
  5
19
102
{ACAD_REACTORS
330
C
102
}
100
AcDbDictionary
281
1
  0
DICTIONARY
  5
1A
102
{ACAD_REACTORS
330
C
102
}
100
AcDbDictionary
281
1
  3
Model
350
311
  3
Layout1
350
312
  0
ACDBPLACEHOLDER
  5
F
102
{ACAD_REACTORS
330
E
102
}
  0
MLINESTYLE
  5
18
102
{ACAD_REACTORS
330
17
102
}
100
AcDbMlineStyle
  2
STANDARD
 70
0
  3

 62
256
 51
90.0
 52
90.0
 71
2
 49
0.5
 62
256
  6
BYLAYER
 49
-0.5
 62
256
  6
BYLAYER
  0
LAYOUT
  5
311
102
{ACAD_REACTORS
330
1A
102
}
100
AcDbPlotSettings
  1

  2
none_device
  4
ISO_A4_(297.00_x_210.00_MM)
  6

 40
0.0
 41
0.0
 42
0.0
 43
0.0
 44
297.0
 45
210.0
 46
0.0
 47
0.0
 48
0.0
 49
0.0
140
0.0
141
0.0
142
1.0
143
1.0
 70
1024
 72
1
 73
0
 74
0
  7

 75
0
147
1.0
148
0.0
149
0.0
100
AcDbLayout
  1
Model
 70
0
 71
0
 10
0.0
 20
0.0
 11
297.0
 21
210.0
 12
0.0
 22
0.0
 32
0.0
 14
0.0
 24
0.0
 34
0.0
 15
0.0
 25
0.0
 35
0.0
146
0.0
 13
0.0
 23
0.0
 33
0.0
 16
1.0
 26
0.0
 36
0.0
 17
0.0
 27
1.0
 37
0.0
 76
0
330
20B
345
0
346
0
  0
LAYOUT
  5
312
102
{ACAD_REACTORS
330
1A
102
}
100
AcDbPlotSettings
  1

  2
none_device
  4
ISO_A4_(297.00_x_210.00_MM)
  6

 40
0.0
 41
0.0
 42
0.0
 43
0.0
 44
297.0
 45
210.0
 46
0.0
 47
0.0
 48
0.0
 49
0.0
140
0.0
141
0.0
142
1.0
143
1.0
 70
0
 72
1
 73
0
 74
0
  7

 75
0
147
1.0
148
0.0
149
0.0
100
AcDbLayout
  1
Layout1
 70
0
 71
1
 10
0.0
 20
0.0
 11
297.0
 21
210.0
 12
0.0
 22
0.0
 32
0.0
 14
0.0
 24
0.0
 34
0.0
 15
0.0
 25
0.0
 35
0.0
146
0.0
 13
0.0
 23
0.0
 33
0.0
 16
1.0
 26
0.0
 36
0.0
 17
0.0
 27
1.0
 37
0.0
 76
0
330
20C
345
0
346
0
  0
ENDSEC
  0
EOF
