999
DXF file: ICE-H-16_7901924_M34300-P-3.dxf
999
Pro/ENGINEER 2010140 by Parametric Technology Corporation
  0
SECTION
  2
HEADER
  9
$ACADVER
  1
AC1015
  9
$DWGCODEPAGE
  3
ANSI_1252
  9
$EXTMAX
 10
420.0
 20
297.0
 30
0.0
  9
$EXTMIN
 10
0.0
 20
-0.0
 30
0.0
  9
$LIMMIN
 10
0.0
 20
-0.0
  9
$LIMMAX
 10
420.0
 20
297.0
  9
$VIEWCTR
 10
210.0
 20
148.5
  9
$VIEWSIZE
 40
297.0
  9
$CLAYER
  8
0
  9
$LTSCALE
 40
23.1
  9
$CELTYPE
  6
BYLAYER
  9
$DIMSCALE
 40
1.0
  9
$DIMASZ
 40
3.5
  9
$DIMEXO
 40
2.625
  9
$DIMDLI
 40
15.96
  9
$DIMEXE
 40
7.56
  9
$DIMCEN
 40
3.78
  9
$DIMLFAC
 40
1.0
  9
$DIMBLK
  1
_FILLED
  9
$DIMTXT
 40
3.5
  9
$DIMTOL
 70
1
  9
$DIMLIM
 70
0
  9
$DIMTFAC
 40
1.0
  9
$DIMTP
 40
0.005
  9
$DIMTM
 40
0.005
  9
$PDMODE
 70
3
  9
$PDSIZE
 40
0.3125
  9
$HANDSEED
  5
31A
  9
$TILEMODE
 70
1
  9
$MEASUREMENT
 70
1
  9
$INSUNITS
 70
4
  0
ENDSEC
  0
SECTION
  2
CLASSES
  0
CLASS
  1
ACDBDICTIONARYWDFLT
  2
AcDbDictionaryWithDefault
  3
AutoCAD 2000
 90
0
280
0
281
0
  0
CLASS
  1
ACDBPLACEHOLDER
  2
AcDbPlaceHolder
  3
AutoCAD 2000
 90
0
280
0
281
0
  0
CLASS
  1
LAYOUT
  2
AcDbLayout
  3
AutoCAD 2000
 90
0
280
0
281
0
  0
ENDSEC
  0
SECTION
  2
TABLES
  0
TABLE
  2
VPORT
  5
8
100
AcDbSymbolTable
 70
2
  0
VPORT
  5
1F4
100
AcDbSymbolTableRecord
100
AcDbViewportTableRecord
  2
*ACTIVE
 70
0
 10
0.0
 20
0.0
 11
1.0
 21
1.0
 12
210.0
 22
148.5
 13
0.0
 23
0.0
 14
1.0
 24
1.0
 15
0.0
 25
0.0
 16
0.0
 26
0.0
 36
1.0
 17
0.0
 27
0.0
 37
0.0
 40
297.0
 41
1.4141414141
 42
50.0
 43
0.0
 44
0.0
 50
0.0
 51
0.0
 71
0
 72
100
 73
1
 74
1
 75
0
 76
0
 77
0
 78
0
  0
ENDTAB
  0
TABLE
  2
LTYPE
  5
5
100
AcDbSymbolTable
 70
6
  0
LTYPE
  5
14
100
AcDbSymbolTableRecord
100
AcDbLinetypeTableRecord
  2
BYBLOCK
 70
0
  3

 72
65
 73
0
 40
0.0
  0
LTYPE
  5
15
100
AcDbSymbolTableRecord
100
AcDbLinetypeTableRecord
  2
BYLAYER
 70
0
  3

 72
65
 73
0
 40
0.0
  0
LTYPE
  5
16
100
AcDbSymbolTableRecord
100
AcDbLinetypeTableRecord
  2
CONTINUOUS
 70
64
  3
Solid line
 72
65
 73
0
 40
0.0
  0
LTYPE
  5
1F5
100
AcDbSymbolTableRecord
100
AcDbLinetypeTableRecord
  2
CENTER
 70
64
  3
____ _ ____ _ ____ _ ____ _ ____ _ ____ _ ____
 72
65
 73
4
 40
0.6
 49
0.375
 74
0
 49
-0.075
 74
0
 49
0.075
 74
0
 49
-0.075
 74
0
  0
LTYPE
  5
1F6
100
AcDbSymbolTableRecord
100
AcDbLinetypeTableRecord
  2
HIDDEN
 70
64
  3
- - - - - - - - - - - - - - - - - - - -
 72
65
 73
2
 40
0.2
 49
0.1
 74
0
 49
-0.1
 74
0
  0
LTYPE
  5
1F7
100
AcDbSymbolTableRecord
100
AcDbLinetypeTableRecord
  2
PHANTOM
 70
64
  3
_____ _ _ _____ _ _ _____ _ _ _____
 72
65
 73
6
 40
0.8
 49
0.45
 74
0
 49
-0.05
 74
0
 49
0.1
 74
0
 49
-0.05
 74
0
 49
0.1
 74
0
 49
-0.05
 74
0
  0
LTYPE
  5
1F8
100
AcDbSymbolTableRecord
100
AcDbLinetypeTableRecord
  2
DOT
 70
64
  3
. . . . . . . . . . . . . . . . . . . .
 72
65
 73
2
 40
0.2
 49
0.1
 74
0
 49
-0.1
 74
0
  0
LTYPE
  5
1F9
100
AcDbSymbolTableRecord
100
AcDbLinetypeTableRecord
  2
DASHED
 70
64
  3
- - - - - - - - - - - - - - - - - - - -
 72
65
 73
2
 40
0.2
 49
0.1
 74
0
 49
-0.1
 74
0
  0
ENDTAB
  0
TABLE
  2
LAYER
  5
2
100
AcDbSymbolTable
 70
36
  0
LAYER
  5
10
100
AcDbSymbolTableRecord
100
AcDbLayerTableRecord
  2
0
 70
0
 62
7
  6
CONTINUOUS
370
-3
390
F
  0
LAYER
  5
1FA
100
AcDbSymbolTableRecord
100
AcDbLayerTableRecord
  2
DEFAULT_1
 70
0
 62
7
  6
CENTER
370
-3
390
F
  0
LAYER
  5
1FB
100
AcDbSymbolTableRecord
100
AcDbLayerTableRecord
  2
DEFAULT_2
 70
0
 62
8
  6
HIDDEN
370
-3
390
F
  0
LAYER
  5
1FC
100
AcDbSymbolTableRecord
100
AcDbLayerTableRecord
  2
DEFAULT_3
 70
0
 62
7
  6
PHANTOM
370
-3
390
F
  0
LAYER
  5
1FD
100
AcDbSymbolTableRecord
100
AcDbLayerTableRecord
  2
AUSFORMSCHRAEGEN
 70
0
 62
7
  6
CONTINUOUS
370
-3
390
F
  0
LAYER
  5
1FE
100
AcDbSymbolTableRecord
100
AcDbLayerTableRecord
  2
BEZUGSACHSEN
 70
0
 62
7
  6
CONTINUOUS
370
-3
390
F
  0
LAYER
  5
1FF
100
AcDbSymbolTableRecord
100
AcDbLayerTableRecord
  2
BEZUGSEBENEN
 70
0
 62
7
  6
CONTINUOUS
370
-3
390
F
  0
LAYER
  5
200
100
AcDbSymbolTableRecord
100
AcDbLayerTableRecord
  2
BOHRUNGEN
 70
0
 62
7
  6
CONTINUOUS
370
-3
390
F
  0
LAYER
  5
201
100
AcDbSymbolTableRecord
100
AcDbLayerTableRecord
  2
FASEN
 70
0
 62
7
  6
CONTINUOUS
370
-3
390
F
  0
LAYER
  5
202
100
AcDbSymbolTableRecord
100
AcDbLayerTableRecord
  2
FLAECHEN
 70
0
 62
7
  6
CONTINUOUS
370
-3
390
F
  0
LAYER
  5
203
100
AcDbSymbolTableRecord
100
AcDbLayerTableRecord
  2
HILFEN
 70
0
 62
7
  6
CONTINUOUS
370
-3
390
F
  0
LAYER
  5
204
100
AcDbSymbolTableRecord
100
AcDbLayerTableRecord
  2
KURVEN
 70
0
 62
7
  6
CONTINUOUS
370
-3
390
F
  0
LAYER
  5
205
100
AcDbSymbolTableRecord
100
AcDbLayerTableRecord
  2
PLATZIERUNG
 70
0
 62
7
  6
CONTINUOUS
370
-3
390
F
  0
LAYER
  5
206
100
AcDbSymbolTableRecord
100
AcDbLayerTableRecord
  2
RUNDUNGEN
 70
0
 62
7
  6
CONTINUOUS
370
-3
390
F
  0
LAYER
  5
207
100
AcDbSymbolTableRecord
100
AcDbLayerTableRecord
  2
T_STARTBEZUEGE
 70
0
 62
7
  6
CONTINUOUS
370
-3
390
F
  0
LAYER
  5
208
100
AcDbSymbolTableRecord
100
AcDbLayerTableRecord
  2
XSEC_DATUMS
 70
0
 62
7
  6
CONTINUOUS
370
-3
390
F
  0
ENDTAB
  0
TABLE
  2
STYLE
  5
3
100
AcDbSymbolTable
 70
1
  0
STYLE
  5
11
100
AcDbSymbolTableRecord
100
AcDbTextStyleTableRecord
  2
STANDARD
 70
0
 40
0.0
 41
0.7
 50
0.0
 71
0
 42
0.2
  3
txt
  4

  0
STYLE
  5
209
100
AcDbSymbolTableRecord
100
AcDbTextStyleTableRecord
  2
TEXTSTYLE_1
 70
0
 40
0.0
 41
0.8
 50
0.0
 71
0
 42
0.2
  3
gdt
  4

  0
ENDTAB
  0
TABLE
  2
VIEW
  5
6
100
AcDbSymbolTable
 70
0
  0
ENDTAB
  0
TABLE
  2
UCS
  5
7
100
AcDbSymbolTable
 70
0
  0
ENDTAB
  0
TABLE
  2
APPID
  5
9
100
AcDbSymbolTable
 70
1
  0
APPID
  5
20A
100
AcDbSymbolTableRecord
100
AcDbRegAppTableRecord
  2
ACAD
 70
0
  0
ENDTAB
  0
TABLE
  2
BLOCK_RECORD
  5
1
100
AcDbSymbolTable
 70
0
  0
BLOCK_RECORD
  5
20B
100
AcDbSymbolTableRecord
100
AcDbBlockTableRecord
  2
*Model_Space
  0
BLOCK_RECORD
  5
20C
100
AcDbSymbolTableRecord
100
AcDbBlockTableRecord
  2
*Paper_Space
  0
ENDTAB
  0
TABLE
  2
DIMSTYLE
  5
A
100
AcDbSymbolTable
 70
1
100
AcDbDimStyleTable
 71
0
  0
DIMSTYLE
105
20D
100
AcDbSymbolTableRecord
100
AcDbDimStyleTableRecord
  2
STANDARD
 70
0
  3

  4

 40
1.0
 41
3.5
 42
0.0625
 43
0.38
 44
0.18
 45
0.0
 46
0.0
 47
0.005
 48
0.005
140
3.5
141
0.09
142
0.0
143
25.4
144
1.0
145
0.0
146
1.0
147
0.09
 71
1.0
 72
0.0
 73
0
 74
0
 75
0
 76
0
 77
1
 78
8
170
0
171
2
172
0
173
0
174
0
175
0
176
0
177
0
178
5
270
2
271
3
272
3
273
2
274
2
275
0
280
0
281
0
282
0
283
1
284
8
285
0
286
0
287
3
288
0
340
11
  0
ENDTAB
  0
ENDSEC
  0
SECTION
  2
BLOCKS
  0
BLOCK
  5
20
100
AcDbEntity
  8
0
100
AcDbBlockBegin
  2
*Model_Space
 70
0
 10
0.0
 20
0.0
 30
0.0
  3
*Model_Space
  1

  0
ENDBLK
  5
21
100
AcDbEntity
  8
0
100
AcDbBlockEnd
  0
BLOCK
  5
1C
100
AcDbEntity
  8
0
100
AcDbBlockBegin
  2
*Paper_Space
 70
0
 10
0.0
 20
0.0
 30
0.0
  3
*Paper_Space
  1

  0
ENDBLK
  5
1D
100
AcDbEntity
  8
0
100
AcDbBlockEnd
  0
ENDSEC
  0
SECTION
  2
ENTITIES
  0
MTEXT
  5
20E
100
AcDbEntity
  8
0
100
AcDbMText
 62
5
  6
CONTINUOUS
  7
STANDARD
 71
1
 72
1
 10
122.9400091241
 20
191.8604999293
 30
0.0
 11
0.0
 21
1.0
 31
0.0
 44
0.9
  1
RUD
 40
8.0
 41
21.3333333333
  0
MTEXT
  5
20F
100
AcDbEntity
  8
0
100
AcDbMText
 62
5
  6
CONTINUOUS
  7
STANDARD
 71
2
 72
1
 10
222.5840331718
 20
204.0013814821
 30
0.0
 11
0.0
 21
1.0
 31
0.0
 44
0.9
  1
RUD\PICE-H 16
 40
8.0
 41
46.6666666667
  0
LINE
  5
210
100
AcDbEntity
  8
0
100
AcDbLine
 62
7
  6
CONTINUOUS
 10
0.0
 20
-0.0
 11
0.0
 21
297.0
  0
LINE
  5
211
100
AcDbEntity
  8
0
100
AcDbLine
 62
7
  6
CONTINUOUS
 10
0.0
 20
-0.0
 11
420.0
 21
-0.0
  0
LINE
  5
212
100
AcDbEntity
  8
0
100
AcDbLine
 62
7
  6
CONTINUOUS
 10
0.0
 20
297.0
 11
420.0
 21
297.0
  0
LINE
  5
213
100
AcDbEntity
  8
0
100
AcDbLine
 62
7
  6
CONTINUOUS
 10
420.0
 20
-0.0
 11
420.0
 21
297.0
  0
LINE
  5
214
100
AcDbEntity
  8
0
100
AcDbLine
 62
7
  6
CONTINUOUS
 10
57.9802707899
 20
251.8256633725
 11
70.8916179365
 21
264.2940063796
  0
LINE
  5
215
100
AcDbEntity
  8
BEZUGSACHSEN
100
AcDbLine
 62
7
  6
CONTINUOUS
 10
70.8916179365
 20
142.1848713576
 11
57.9802707899
 21
154.6532143648
  0
LINE
  5
216
100
AcDbEntity
  8
FASEN
100
AcDbLine
 62
7
  6
CONTINUOUS
 10
66.3524538191
 20
252.6839142515
 11
57.9802707899
 21
244.0801187198
  0
LINE
  5
217
100
AcDbEntity
  8
BEZUGSACHSEN
100
AcDbLine
 62
7
  6
CONTINUOUS
 10
133.0689236433
 20
142.1848713576
 11
128.9960363688
 21
141.6114111434
  0
LINE
  5
218
100
AcDbEntity
  8
BEZUGSACHSEN
100
AcDbLine
 62
7
  6
CONTINUOUS
 10
74.964505211
 20
141.6114111434
 11
70.8916179365
 21
142.1848713576
  0
LINE
  5
219
100
AcDbEntity
  8
BEZUGSACHSEN
100
AcDbLine
 62
7
  6
CONTINUOUS
 10
66.3524538191
 20
153.7949634857
 11
57.9802707899
 21
162.3987590175
  0
LINE
  5
21A
100
AcDbEntity
  8
0
100
AcDbLine
 62
7
  6
CONTINUOUS
 10
92.5302707899
 20
155.9894388686
 11
111.4302707899
 21
155.9894388686
  0
LINE
  5
21B
100
AcDbEntity
  8
BEZUGSACHSEN
100
AcDbLine
 62
7
  6
CONTINUOUS
 10
57.9802707899
 20
251.8256633725
 11
57.9802707899
 21
251.0666211584
  0
LINE
  5
21C
100
AcDbEntity
  8
BEZUGSACHSEN
100
AcDbLine
 62
7
  6
CONTINUOUS
 10
57.9802707899
 20
244.0801187198
 11
57.9802707899
 21
154.6532143648
  0
LINE
  5
21D
100
AcDbEntity
  8
0
100
AcDbLine
 62
7
  6
CONTINUOUS
 10
57.9802707899
 20
244.0801187198
 11
57.9802707899
 21
251.0666211584
  0
LINE
  5
21E
100
AcDbEntity
  8
BEZUGSACHSEN
100
AcDbLine
 62
7
  6
CONTINUOUS
 10
69.9802707899
 20
190.2394388686
 11
69.9802707899
 21
216.2394388686
  0
LINE
  5
21F
100
AcDbEntity
  8
BEZUGSACHSEN
100
AcDbLine
 62
7
  6
CONTINUOUS
 10
70.8916179365
 20
142.1848713576
 11
70.8916178786
 21
143.6958460998
  0
LINE
  5
220
100
AcDbEntity
  8
BEZUGSACHSEN
100
AcDbLine
 62
7
  6
CONTINUOUS
 10
70.8916178786
 20
262.7830316374
 11
70.8916179365
 21
264.2940063796
  0
LINE
  5
221
100
AcDbEntity
  8
0
100
AcDbLine
 62
7
  6
CONTINUOUS
 10
73.3564409983
 20
216.2461056624
 11
73.2202707899
 21
215.5794388686
  0
LINE
  5
222
100
AcDbEntity
  8
0
100
AcDbLine
 62
7
  6
CONTINUOUS
 10
74.0372920645
 20
215.5794388686
 11
74.173462261
 21
216.1127720748
  0
LINE
  5
223
100
AcDbEntity
  8
0
100
AcDbLine
 62
7
  6
CONTINUOUS
 10
73.6287814272
 20
216.7794388686
 11
73.3564409983
 21
216.2461056624
  0
LINE
  5
224
100
AcDbEntity
  8
0
100
AcDbLine
 62
7
  6
CONTINUOUS
 10
74.173462261
 20
216.1127720748
 11
74.4458027494
 21
216.5127722655
  0
LINE
  5
225
100
AcDbEntity
  8
0
100
AcDbLine
 62
7
  6
CONTINUOUS
 10
74.4117601139
 20
187.8994388686
 11
74.1138878089
 21
188.3369388686
  0
LINE
  5
226
100
AcDbEntity
  8
0
100
AcDbLine
 62
7
  6
CONTINUOUS
 10
73.3692069554
 20
188.1911056744
 11
73.8160154519
 21
187.4619388686
  0
LINE
  5
227
100
AcDbEntity
  8
0
100
AcDbLine
 62
7
  6
CONTINUOUS
 10
74.1138878089
 20
188.3369388686
 11
73.9649516565
 21
188.7744388686
  0
LINE
  5
228
100
AcDbEntity
  8
0
100
AcDbLine
 62
7
  6
CONTINUOUS
 10
73.2202707899
 20
188.9202720629
 11
73.3692069554
 21
188.1911056744
  0
LINE
  5
229
100
AcDbEntity
  8
0
100
AcDbLine
 62
7
  6
CONTINUOUS
 10
73.2202707899
 20
219.5794388686
 11
73.2202707899
 21
218.7794388686
  0
LINE
  5
22A
100
AcDbEntity
  8
0
100
AcDbLine
 62
7
  6
CONTINUOUS
 10
73.2202707899
 20
215.5794388686
 11
73.2202707899
 21
214.3794388686
  0
LINE
  5
22B
100
AcDbEntity
  8
0
100
AcDbLine
 62
7
  6
CONTINUOUS
 10
73.2202707899
 20
211.446105281
 11
73.2202707899
 21
206.6461060439
  0
LINE
  5
22C
100
AcDbEntity
  8
0
100
AcDbLine
 62
7
  6
CONTINUOUS
 10
73.2202707899
 20
202.6461060439
 11
73.2202707899
 21
201.8461060439
  0
LINE
  5
22D
100
AcDbEntity
  8
0
100
AcDbLine
 62
7
  6
CONTINUOUS
 10
73.2202707899
 20
198.1127716933
 11
73.2202707899
 21
197.3127716933
  0
LINE
  5
22E
100
AcDbEntity
  8
0
100
AcDbLine
 62
7
  6
CONTINUOUS
 10
73.2202707899
 20
194.0244388686
 11
73.2202707899
 21
193.1494388686
  0
LINE
  5
22F
100
AcDbEntity
  8
0
100
AcDbLine
 62
7
  6
CONTINUOUS
 10
73.2202707899
 20
189.6494388686
 11
73.2202707899
 21
188.9202720629
  0
LINE
  5
230
100
AcDbEntity
  8
0
100
AcDbLine
 62
7
  6
CONTINUOUS
 10
73.9649516565
 20
188.7744388686
 11
73.9649516565
 21
189.7952720629
  0
LINE
  5
231
100
AcDbEntity
  8
0
100
AcDbLine
 62
7
  6
CONTINUOUS
 10
74.0372920645
 20
206.6461060439
 11
74.0372920645
 21
210.646105281
  0
LINE
  5
232
100
AcDbEntity
  8
0
100
AcDbLine
 62
7
  6
CONTINUOUS
 10
74.0372920645
 20
214.3794388686
 11
74.0372920645
 21
215.5794388686
  0
LINE
  5
233
100
AcDbEntity
  8
0
100
AcDbLine
 62
7
  6
CONTINUOUS
 10
74.854313339
 20
212.5127724563
 11
74.854313339
 21
213.3127720748
  0
LINE
  5
234
100
AcDbEntity
  8
BEZUGSACHSEN
100
AcDbLine
 62
7
  6
CONTINUOUS
 10
74.964505211
 20
264.8674665939
 11
74.9645052087
 21
263.3219072059
  0
LINE
  5
235
100
AcDbEntity
  8
BEZUGSACHSEN
100
AcDbLine
 62
7
  6
CONTINUOUS
 10
74.9645052087
 20
143.1569705314
 11
74.964505211
 21
141.6114111434
  0
LINE
  5
236
100
AcDbEntity
  8
0
100
AcDbLine
 62
7
  6
CONTINUOUS
 10
75.5351643217
 20
205.5794388686
 11
75.5351643217
 21
203.7127716933
  0
LINE
  5
237
100
AcDbEntity
  8
0
100
AcDbLine
 62
7
  6
CONTINUOUS
 10
76.2160154951
 20
210.646105281
 11
76.2160154951
 21
207.1794388686
  0
LINE
  5
238
100
AcDbEntity
  8
0
100
AcDbLine
 62
7
  6
CONTINUOUS
 10
76.2160154951
 20
201.8461060439
 11
76.2160154951
 21
198.1127716933
  0
LINE
  5
239
100
AcDbEntity
  8
0
100
AcDbLine
 62
7
  6
CONTINUOUS
 10
76.2160154951
 20
203.7127716933
 11
76.2160154951
 21
205.5794388686
  0
LINE
  5
23A
100
AcDbEntity
  8
0
100
AcDbLine
 62
7
  6
CONTINUOUS
 10
76.9436750186
 20
189.7952720629
 11
76.9436750186
 21
188.7744388686
  0
LINE
  5
23B
100
AcDbEntity
  8
0
100
AcDbLine
 62
7
  6
CONTINUOUS
 10
77.0330366743
 20
198.1127716933
 11
77.0330366743
 21
201.8461060439
  0
LINE
  5
23C
100
AcDbEntity
  8
0
100
AcDbLine
 62
7
  6
CONTINUOUS
 10
77.0330366743
 20
207.1794388686
 11
77.0330366743
 21
210.646105281
  0
LINE
  5
23D
100
AcDbEntity
  8
0
100
AcDbLine
 62
7
  6
CONTINUOUS
 10
73.3692069554
 20
190.3786056744
 11
73.2202707899
 21
189.6494388686
  0
LINE
  5
23E
100
AcDbEntity
  8
0
100
AcDbLine
 62
7
  6
CONTINUOUS
 10
78.8032496107
 20
214.3794388686
 11
78.6670794142
 21
213.8461056624
  0
LINE
  5
23F
100
AcDbEntity
  8
0
100
AcDbLine
 62
7
  6
CONTINUOUS
 10
79.2117602003
 20
213.1794388686
 11
79.4841005934
 21
213.7127720748
  0
LINE
  5
240
100
AcDbEntity
  8
0
100
AcDbLine
 62
7
  6
CONTINUOUS
 10
78.6670794142
 20
213.8461056624
 11
78.3947390211
 21
213.4461056624
  0
LINE
  5
241
100
AcDbEntity
  8
0
100
AcDbLine
 62
7
  6
CONTINUOUS
 10
74.173462261
 20
217.3127722655
 11
73.6287814272
 21
216.7794388686
  0
LINE
  5
242
100
AcDbEntity
  8
0
100
AcDbLine
 62
7
  6
CONTINUOUS
 10
74.4458027494
 20
216.5127722655
 11
74.854313339
 21
216.7794388686
  0
LINE
  5
243
100
AcDbEntity
  8
0
100
AcDbLine
 62
7
  6
CONTINUOUS
 10
74.7181431425
 20
217.5794388686
 11
74.173462261
 21
217.3127722655
  0
LINE
  5
244
100
AcDbEntity
  8
0
100
AcDbLine
 62
7
  6
CONTINUOUS
 10
111.4302707899
 20
178.4894388686
 11
92.5302707899
 21
178.4894388686
  0
LINE
  5
245
100
AcDbEntity
  8
0
100
AcDbLine
 62
7
  6
CONTINUOUS
 10
74.4117601139
 20
187.0244388686
 11
75.1564409805
 21
186.7327724801
  0
LINE
  5
246
100
AcDbEntity
  8
0
100
AcDbLine
 62
7
  6
CONTINUOUS
 10
74.8585686755
 20
187.6077724801
 11
74.4117601139
 21
187.8994388686
  0
LINE
  5
247
100
AcDbEntity
  8
0
100
AcDbLine
 62
7
  6
CONTINUOUS
 10
73.8160154519
 20
187.4619388686
 11
74.4117601139
 21
187.0244388686
  0
LINE
  5
248
100
AcDbEntity
  8
0
100
AcDbLine
 62
7
  6
CONTINUOUS
 10
76.1989942563
 20
190.9619388686
 11
76.4968665612
 21
190.6702720629
  0
LINE
  5
249
100
AcDbEntity
  8
0
100
AcDbLine
 62
7
  6
CONTINUOUS
 10
76.4968665612
 20
190.6702720629
 11
76.7947388661
 21
190.2327720629
  0
LINE
  5
24A
100
AcDbEntity
  8
0
100
AcDbLine
 62
7
  6
CONTINUOUS
 10
77.5394196284
 20
190.3786056744
 11
76.9436750186
 21
191.2536056744
  0
LINE
  5
24B
100
AcDbEntity
  8
0
100
AcDbLine
 62
7
  6
CONTINUOUS
 10
79.0287815702
 20
190.6702720629
 11
79.3266538751
 21
190.2327720629
  0
LINE
  5
24C
100
AcDbEntity
  8
0
100
AcDbLine
 62
7
  6
CONTINUOUS
 10
80.0713346374
 20
190.3786056744
 11
79.6245261801
 21
191.1077720629
  0
LINE
  5
24D
100
AcDbEntity
  8
0
100
AcDbLine
 62
7
  6
CONTINUOUS
 10
76.7947388661
 20
190.2327720629
 11
76.9436750186
 21
189.7952720629
  0
LINE
  5
24E
100
AcDbEntity
  8
0
100
AcDbLine
 62
7
  6
CONTINUOUS
 10
79.3266538751
 20
190.2327720629
 11
79.4755900276
 21
189.7952720629
  0
LINE
  5
24F
100
AcDbEntity
  8
0
100
AcDbLine
 62
7
  6
CONTINUOUS
 10
77.6883557809
 20
189.6494388686
 11
77.5394196284
 21
190.3786056744
  0
LINE
  5
250
100
AcDbEntity
  8
0
100
AcDbLine
 62
7
  6
CONTINUOUS
 10
73.2202707899
 20
214.3794388686
 11
73.3564409983
 21
213.7127720748
  0
LINE
  5
251
100
AcDbEntity
  8
0
100
AcDbLine
 62
7
  6
CONTINUOUS
 10
77.6883557809
 20
188.9202720629
 11
77.6883557809
 21
189.6494388686
  0
LINE
  5
252
100
AcDbEntity
  8
0
100
AcDbLine
 62
7
  6
CONTINUOUS
 10
77.98622805
 20
213.3127720748
 11
77.98622805
 21
212.5127724563
  0
LINE
  5
253
100
AcDbEntity
  8
0
100
AcDbLine
 62
7
  6
CONTINUOUS
 10
78.5819731128
 20
187.7536052571
 11
78.5819731128
 21
187.0244388686
  0
LINE
  5
254
100
AcDbEntity
  8
0
100
AcDbLine
 62
7
  6
CONTINUOUS
 10
78.8032496107
 20
215.5794388686
 11
78.8032496107
 21
214.3794388686
  0
LINE
  5
255
100
AcDbEntity
  8
0
100
AcDbLine
 62
7
  6
CONTINUOUS
 10
78.8032496107
 20
210.646105281
 11
78.8032496107
 21
206.6461060439
  0
LINE
  5
256
100
AcDbEntity
  8
0
100
AcDbLine
 62
7
  6
CONTINUOUS
 10
79.4234268381
 20
239.2394388686
 11
79.4234268381
 21
235.7394388686
  0
LINE
  5
257
100
AcDbEntity
  8
BEZUGSACHSEN
100
AcDbLine
 62
7
  6
CONTINUOUS
 10
79.4234268381
 20
167.2394388686
 11
79.4234268381
 21
170.7394388686
  0
LINE
  5
258
100
AcDbEntity
  8
0
100
AcDbLine
 62
7
  6
CONTINUOUS
 10
79.4755900276
 20
189.7952720629
 11
79.4755900276
 21
188.9202720629
  0
LINE
  5
259
100
AcDbEntity
  8
0
100
AcDbLine
 62
7
  6
CONTINUOUS
 10
79.6202707899
 20
197.3127716933
 11
79.6202707899
 21
198.1127716933
  0
LINE
  5
25A
100
AcDbEntity
  8
0
100
AcDbLine
 62
7
  6
CONTINUOUS
 10
79.6202707899
 20
201.8461060439
 11
79.6202707899
 21
202.6461060439
  0
LINE
  5
25B
100
AcDbEntity
  8
0
100
AcDbLine
 62
7
  6
CONTINUOUS
 10
79.6202707899
 20
206.6461060439
 11
79.6202707899
 21
211.446105281
  0
LINE
  5
25C
100
AcDbEntity
  8
0
100
AcDbLine
 62
7
  6
CONTINUOUS
 10
79.6202707899
 20
214.3794388686
 11
79.6202707899
 21
215.5794388686
  0
LINE
  5
25D
100
AcDbEntity
  8
0
100
AcDbLine
 62
7
  6
CONTINUOUS
 10
79.6202707899
 20
218.7794388686
 11
79.6202707899
 21
219.5794388686
  0
LINE
  5
25E
100
AcDbEntity
  8
0
100
AcDbLine
 62
7
  6
CONTINUOUS
 10
80.2202707899
 20
189.0661056744
 11
80.2202707899
 21
189.6494388686
  0
LINE
  5
25F
100
AcDbEntity
  8
0
100
AcDbLine
 62
7
  6
CONTINUOUS
 10
80.2202707899
 20
193.1494388686
 11
80.2202707899
 21
194.0244388686
  0
LINE
  5
260
100
AcDbEntity
  8
0
100
AcDbLine
 62
7
  6
CONTINUOUS
 10
79.4841005934
 20
213.7127720748
 11
79.6202707899
 21
214.3794388686
  0
LINE
  5
261
100
AcDbEntity
  8
0
100
AcDbLine
 62
7
  6
CONTINUOUS
 10
77.5394196284
 20
188.1911056744
 11
77.6883557809
 21
188.9202720629
  0
LINE
  5
262
100
AcDbEntity
  8
0
100
AcDbLine
 62
7
  6
CONTINUOUS
 10
73.9649516565
 20
189.7952720629
 11
74.1138878089
 21
190.2327720629
  0
LINE
  5
263
100
AcDbEntity
  8
0
100
AcDbLine
 62
7
  6
CONTINUOUS
 10
78.6670794142
 20
212.646105281
 11
79.2117602003
 21
213.1794388686
  0
LINE
  5
264
100
AcDbEntity
  8
0
100
AcDbLine
 62
7
  6
CONTINUOUS
 10
75.3053771329
 20
187.4619388686
 11
74.8585686755
 21
187.6077724801
  0
LINE
  5
265
100
AcDbEntity
  8
0
100
AcDbLine
 62
7
  6
CONTINUOUS
 10
75.7521855903
 20
191.1077720629
 11
76.1989942563
 21
190.9619388686
  0
LINE
  5
266
100
AcDbEntity
  8
0
100
AcDbLine
 62
7
  6
CONTINUOUS
 10
78.5819731128
 20
190.9619388686
 11
79.0287815702
 21
190.6702720629
  0
LINE
  5
267
100
AcDbEntity
  8
0
100
AcDbLine
 62
7
  6
CONTINUOUS
 10
79.6245261801
 20
191.1077720629
 11
79.0287815702
 21
191.5452722715
  0
LINE
  5
268
100
AcDbEntity
  8
0
100
AcDbLine
 62
7
  6
CONTINUOUS
 10
77.9862280858
 20
194.8994388686
 11
79.0287815702
 21
194.0244388686
  0
LINE
  5
269
100
AcDbEntity
  8
0
100
AcDbLine
 62
7
  6
CONTINUOUS
 10
80.2202707899
 20
194.0244388686
 11
79.1777177227
 21
194.8994388686
  0
LINE
  5
26A
100
AcDbEntity
  8
0
100
AcDbLine
 62
7
  6
CONTINUOUS
 10
73.3564409983
 20
213.7127720748
 11
73.6287814272
 21
213.1794388686
  0
LINE
  5
26B
100
AcDbEntity
  8
0
100
AcDbLine
 62
7
  6
CONTINUOUS
 10
74.173462261
 20
213.8461056624
 11
74.0372920645
 21
214.3794388686
  0
LINE
  5
26C
100
AcDbEntity
  8
0
100
AcDbLine
 62
7
  6
CONTINUOUS
 10
80.2202707899
 20
189.6494388686
 11
80.0713346374
 21
190.3786056744
  0
LINE
  5
26D
100
AcDbEntity
  8
BEZUGSACHSEN
100
AcDbLine
 62
7
  6
CONTINUOUS
 10
83.9802707899
 20
216.2394388686
 11
83.9802707899
 21
190.2394388686
  0
LINE
  5
26E
100
AcDbEntity
  8
0
100
AcDbLine
 62
7
  6
CONTINUOUS
 10
80.0713346374
 20
188.3369388686
 11
80.2202707899
 21
189.0661056744
  0
LINE
  5
26F
100
AcDbEntity
  8
0
100
AcDbLine
 62
7
  6
CONTINUOUS
 10
76.9436750186
 20
188.7744388686
 11
76.7947388661
 21
188.3369388686
  0
LINE
  5
270
100
AcDbEntity
  8
0
100
AcDbLine
 62
7
  6
CONTINUOUS
 10
79.4755900276
 20
188.9202720629
 11
79.3266538751
 21
188.4827720629
  0
LINE
  5
271
100
AcDbEntity
  8
0
100
AcDbLine
 62
7
  6
CONTINUOUS
 10
73.8160154519
 20
191.1077720629
 11
73.3692069554
 21
190.3786056744
  0
LINE
  5
272
100
AcDbEntity
  8
0
100
AcDbLine
 62
7
  6
CONTINUOUS
 10
74.1138878089
 20
190.2327720629
 11
74.4117601139
 21
190.6702720629
  0
LINE
  5
273
100
AcDbEntity
  8
0
100
AcDbLine
 62
7
  6
CONTINUOUS
 10
78.3947390211
 20
213.4461056624
 11
77.98622805
 21
213.3127720748
  0
LINE
  5
274
100
AcDbEntity
  8
0
100
AcDbLine
 62
7
  6
CONTINUOUS
 10
75.1564409805
 20
186.7327724801
 11
75.9011219514
 21
186.7327724801
  0
LINE
  5
275
100
AcDbEntity
  8
0
100
AcDbLine
 62
7
  6
CONTINUOUS
 10
75.7521855903
 20
187.4619388686
 11
75.3053771329
 21
187.4619388686
  0
LINE
  5
276
100
AcDbEntity
  8
0
100
AcDbLine
 62
7
  6
CONTINUOUS
 10
78.2841003907
 20
191.8369388686
 11
77.2415473235
 21
191.9827722715
  0
LINE
  5
277
100
AcDbEntity
  8
0
100
AcDbLine
 62
7
  6
CONTINUOUS
 10
77.2415473235
 20
191.2536056744
 11
78.1351642382
 21
191.1077720629
  0
LINE
  5
278
100
AcDbEntity
  8
0
100
AcDbLine
 62
7
  6
CONTINUOUS
 10
78.1351642382
 20
191.1077720629
 11
78.5819731128
 21
190.9619388686
  0
LINE
  5
279
100
AcDbEntity
  8
0
100
AcDbLine
 62
7
  6
CONTINUOUS
 10
79.0287815702
 20
191.5452722715
 11
78.2841003907
 21
191.8369388686
  0
LINE
  5
27A
100
AcDbEntity
  8
0
100
AcDbLine
 62
7
  6
CONTINUOUS
 10
74.4458027494
 20
213.4461056624
 11
74.173462261
 21
213.8461056624
  0
LINE
  5
27B
100
AcDbEntity
  8
0
100
AcDbLine
 62
7
  6
CONTINUOUS
 10
78.6670794142
 20
216.1127720748
 11
78.8032496107
 21
215.5794388686
  0
LINE
  5
27C
100
AcDbEntity
  8
0
100
AcDbLine
 62
7
  6
CONTINUOUS
 10
79.6202707899
 20
215.5794388686
 11
79.4841005934
 21
216.2461056624
  0
LINE
  5
27D
100
AcDbEntity
  8
BEZUGSACHSEN
100
AcDbLine
 62
7
  6
CONTINUOUS
 10
92.5302707899
 20
147.5594388686
 11
92.5302707899
 21
187.9894388686
  0
LINE
  5
27E
100
AcDbEntity
  8
0
100
AcDbLine
 62
7
  6
CONTINUOUS
 10
92.5302707899
 20
218.4894388686
 11
92.5302707899
 21
239.2394388686
  0
LINE
  5
27F
100
AcDbEntity
  8
BEZUGSACHSEN
100
AcDbLine
 62
7
  6
CONTINUOUS
 10
92.5302707899
 20
239.2394388686
 11
92.5302707899
 21
258.9194388686
  0
LINE
  5
280
100
AcDbEntity
  8
0
100
AcDbLine
 62
7
  6
CONTINUOUS
 10
77.092611171
 20
187.4619388686
 11
77.5394196284
 21
188.1911056744
  0
LINE
  5
281
100
AcDbEntity
  8
0
100
AcDbLine
 62
7
  6
CONTINUOUS
 10
79.6245261801
 20
187.6077724801
 11
80.0713346374
 21
188.3369388686
  0
LINE
  5
282
100
AcDbEntity
  8
0
100
AcDbLine
 62
7
  6
CONTINUOUS
 10
76.7947388661
 20
188.3369388686
 11
76.4968665612
 21
187.8994388686
  0
LINE
  5
283
100
AcDbEntity
  8
0
100
AcDbLine
 62
7
  6
CONTINUOUS
 10
79.3266538751
 20
188.4827720629
 11
79.0287815702
 21
188.0452720629
  0
LINE
  5
284
100
AcDbEntity
  8
0
100
AcDbLine
 62
7
  6
CONTINUOUS
 10
75.3053771329
 20
191.1077720629
 11
75.7521855903
 21
191.1077720629
  0
LINE
  5
285
100
AcDbEntity
  8
0
100
AcDbLine
 62
7
  6
CONTINUOUS
 10
76.9436750186
 20
191.2536056744
 11
77.2415473235
 21
191.2536056744
  0
LINE
  5
286
100
AcDbEntity
  8
0
100
AcDbLine
 62
7
  6
CONTINUOUS
 10
77.2415473235
 20
191.9827722715
 11
76.1989942563
 21
191.9827722715
  0
LINE
  5
287
100
AcDbEntity
  8
0
100
AcDbLine
 62
7
  6
CONTINUOUS
 10
73.2202707899
 20
193.1494388686
 11
80.2202707899
 21
193.1494388686
  0
LINE
  5
288
100
AcDbEntity
  8
0
100
AcDbLine
 62
7
  6
CONTINUOUS
 10
73.6287814272
 20
213.1794388686
 11
74.173462261
 21
212.646105281
  0
LINE
  5
289
100
AcDbEntity
  8
0
100
AcDbLine
 62
7
  6
CONTINUOUS
 10
78.3947390211
 20
216.5127722655
 11
78.6670794142
 21
216.1127720748
  0
LINE
  5
28A
100
AcDbEntity
  8
0
100
AcDbLine
 62
7
  6
CONTINUOUS
 10
79.4841005934
 20
216.2461056624
 11
79.2117602003
 21
216.7794388686
  0
LINE
  5
28B
100
AcDbEntity
  8
0
100
AcDbLine
 62
7
  6
CONTINUOUS
 10
76.4968665612
 20
187.8994388686
 11
76.1989942563
 21
187.6077724801
  0
LINE
  5
28C
100
AcDbEntity
  8
0
100
AcDbLine
 62
7
  6
CONTINUOUS
 10
76.6458027137
 20
187.0244388686
 11
77.092611171
 21
187.4619388686
  0
LINE
  5
28D
100
AcDbEntity
  8
0
100
AcDbLine
 62
7
  6
CONTINUOUS
 10
74.4117601139
 20
191.5452722715
 11
73.8160154519
 21
191.1077720629
  0
LINE
  5
28E
100
AcDbEntity
  8
0
100
AcDbLine
 62
7
  6
CONTINUOUS
 10
74.4117601139
 20
190.6702720629
 11
74.8585686755
 21
190.9619388686
  0
LINE
  5
28F
100
AcDbEntity
  8
0
100
AcDbLine
 62
7
  6
CONTINUOUS
 10
76.1989942563
 20
191.9827722715
 11
75.1564409805
 21
191.8369388686
  0
LINE
  5
290
100
AcDbEntity
  8
0
100
AcDbLine
 62
7
  6
CONTINUOUS
 10
79.0287815702
 20
194.0244388686
 11
73.2202707899
 21
194.0244388686
  0
LINE
  5
291
100
AcDbEntity
  8
0
100
AcDbLine
 62
7
  6
CONTINUOUS
 10
79.1777177227
 20
194.8994388686
 11
77.9862280858
 21
194.8994388686
  0
LINE
  5
292
100
AcDbEntity
  8
0
100
AcDbLine
 62
7
  6
CONTINUOUS
 10
73.2202707899
 20
197.3127716933
 11
79.6202707899
 21
197.3127716933
  0
LINE
  5
293
100
AcDbEntity
  8
0
100
AcDbLine
 62
7
  6
CONTINUOUS
 10
79.6202707899
 20
198.1127716933
 11
77.0330366743
 21
198.1127716933
  0
LINE
  5
294
100
AcDbEntity
  8
0
100
AcDbLine
 62
7
  6
CONTINUOUS
 10
76.2160154951
 20
198.1127716933
 11
73.2202707899
 21
198.1127716933
  0
LINE
  5
295
100
AcDbEntity
  8
0
100
AcDbLine
 62
7
  6
CONTINUOUS
 10
79.2117602003
 20
216.7794388686
 11
78.6670794142
 21
217.3127722655
  0
LINE
  5
296
100
AcDbEntity
  8
0
100
AcDbLine
 62
7
  6
CONTINUOUS
 10
79.0287815702
 20
187.1702724801
 11
79.6245261801
 21
187.6077724801
  0
LINE
  5
297
100
AcDbEntity
  8
0
100
AcDbLine
 62
7
  6
CONTINUOUS
 10
79.0287815702
 20
188.0452720629
 11
78.5819731128
 21
187.7536052571
  0
LINE
  5
298
100
AcDbEntity
  8
0
100
AcDbLine
 62
7
  6
CONTINUOUS
 10
73.2202707899
 20
201.8461060439
 11
76.2160154951
 21
201.8461060439
  0
LINE
  5
299
100
AcDbEntity
  8
0
100
AcDbLine
 62
7
  6
CONTINUOUS
 10
77.0330366743
 20
201.8461060439
 11
79.6202707899
 21
201.8461060439
  0
LINE
  5
29A
100
AcDbEntity
  8
0
100
AcDbLine
 62
7
  6
CONTINUOUS
 10
79.6202707899
 20
202.6461060439
 11
73.2202707899
 21
202.6461060439
  0
LINE
  5
29B
100
AcDbEntity
  8
0
100
AcDbLine
 62
7
  6
CONTINUOUS
 10
75.5351643217
 20
203.7127716933
 11
76.2160154951
 21
203.7127716933
  0
LINE
  5
29C
100
AcDbEntity
  8
0
100
AcDbLine
 62
7
  6
CONTINUOUS
 10
77.98622805
 20
216.7794388686
 11
78.3947390211
 21
216.5127722655
  0
LINE
  5
29D
100
AcDbEntity
  8
0
100
AcDbLine
 62
7
  6
CONTINUOUS
 10
75.1564409805
 20
191.8369388686
 11
74.4117601139
 21
191.5452722715
  0
LINE
  5
29E
100
AcDbEntity
  8
0
100
AcDbLine
 62
7
  6
CONTINUOUS
 10
74.8585686755
 20
190.9619388686
 11
75.3053771329
 21
191.1077720629
  0
LINE
  5
29F
100
AcDbEntity
  8
0
100
AcDbLine
 62
7
  6
CONTINUOUS
 10
76.2160154951
 20
205.5794388686
 11
75.5351643217
 21
205.5794388686
  0
LINE
  5
2A0
100
AcDbEntity
  8
0
100
AcDbLine
 62
7
  6
CONTINUOUS
 10
73.2202707899
 20
206.6461060439
 11
74.0372920645
 21
206.6461060439
  0
LINE
  5
2A1
100
AcDbEntity
  8
0
100
AcDbLine
 62
7
  6
CONTINUOUS
 10
78.8032496107
 20
206.6461060439
 11
79.6202707899
 21
206.6461060439
  0
LINE
  5
2A2
100
AcDbEntity
  8
0
100
AcDbLine
 62
7
  6
CONTINUOUS
 10
76.2160154951
 20
207.1794388686
 11
77.0330366743
 21
207.1794388686
  0
LINE
  5
2A3
100
AcDbEntity
  8
0
100
AcDbLine
 62
7
  6
CONTINUOUS
 10
74.173462261
 20
212.646105281
 11
74.854313339
 21
212.5127724563
  0
LINE
  5
2A4
100
AcDbEntity
  8
0
100
AcDbLine
 62
7
  6
CONTINUOUS
 10
74.854313339
 20
213.3127720748
 11
74.4458027494
 21
213.4461056624
  0
LINE
  5
2A5
100
AcDbEntity
  8
0
100
AcDbLine
 62
7
  6
CONTINUOUS
 10
78.6670794142
 20
217.3127722655
 11
78.122398628
 21
217.5794388686
  0
LINE
  5
2A6
100
AcDbEntity
  8
BEZUGSACHSEN
100
AcDbLine
 62
7
  6
CONTINUOUS
 10
111.4302707899
 20
147.5594388686
 11
111.4302707899
 21
187.9894388686
  0
LINE
  5
2A7
100
AcDbEntity
  8
BEZUGSACHSEN
100
AcDbLine
 62
7
  6
CONTINUOUS
 10
111.4302707899
 20
218.4894388686
 11
111.4302707899
 21
258.9194388686
  0
LINE
  5
2A8
100
AcDbEntity
  8
0
100
AcDbLine
 62
7
  6
CONTINUOUS
 10
75.9011219514
 20
186.7327724801
 11
76.6458027137
 21
187.0244388686
  0
LINE
  5
2A9
100
AcDbEntity
  8
0
100
AcDbLine
 62
7
  6
CONTINUOUS
 10
76.1989942563
 20
187.6077724801
 11
75.7521855903
 21
187.4619388686
  0
LINE
  5
2AA
100
AcDbEntity
  8
0
100
AcDbLine
 62
7
  6
CONTINUOUS
 10
78.5819731128
 20
187.0244388686
 11
79.0287815702
 21
187.1702724801
  0
LINE
  5
2AB
100
AcDbEntity
  8
0
100
AcDbLine
 62
7
  6
CONTINUOUS
 10
74.0372920645
 20
210.646105281
 11
76.2160154951
 21
210.646105281
  0
LINE
  5
2AC
100
AcDbEntity
  8
0
100
AcDbLine
 62
7
  6
CONTINUOUS
 10
77.0330366743
 20
210.646105281
 11
78.8032496107
 21
210.646105281
  0
LINE
  5
2AD
100
AcDbEntity
  8
0
100
AcDbLine
 62
7
  6
CONTINUOUS
 10
79.6202707899
 20
211.446105281
 11
73.2202707899
 21
211.446105281
  0
LINE
  5
2AE
100
AcDbEntity
  8
0
100
AcDbLine
 62
7
  6
CONTINUOUS
 10
78.122398628
 20
217.5794388686
 11
77.4415472639
 21
217.7127722655
  0
LINE
  5
2AF
100
AcDbEntity
  8
0
100
AcDbLine
 62
7
  6
CONTINUOUS
 10
77.4415472639
 20
216.9127722655
 11
77.98622805
 21
216.7794388686
  0
LINE
  5
2B0
100
AcDbEntity
  8
0
100
AcDbLine
 62
7
  6
CONTINUOUS
 10
77.98622805
 20
212.5127724563
 11
78.6670794142
 21
212.646105281
  0
LINE
  5
2B1
100
AcDbEntity
  8
0
100
AcDbLine
 62
7
  6
CONTINUOUS
 10
75.3989941252
 20
216.9127722655
 11
77.4415472639
 21
216.9127722655
  0
LINE
  5
2B2
100
AcDbEntity
  8
0
100
AcDbLine
 62
7
  6
CONTINUOUS
 10
77.4415472639
 20
217.7127722655
 11
75.3989941252
 21
217.7127722655
  0
LINE
  5
2B3
100
AcDbEntity
  8
0
100
AcDbLine
 62
7
  6
CONTINUOUS
 10
73.2202707899
 20
218.7794388686
 11
79.6202707899
 21
218.7794388686
  0
LINE
  5
2B4
100
AcDbEntity
  8
BEZUGSACHSEN
100
AcDbLine
 62
7
  6
CONTINUOUS
 10
119.9802707899
 20
190.2394388686
 11
119.9802707899
 21
216.2394388686
  0
LINE
  5
2B5
100
AcDbEntity
  8
0
100
AcDbLine
 62
7
  6
CONTINUOUS
 10
74.854313339
 20
216.7794388686
 11
75.3989941252
 21
216.9127722655
  0
LINE
  5
2B6
100
AcDbEntity
  8
0
100
AcDbLine
 62
7
  6
CONTINUOUS
 10
75.3989941252
 20
217.7127722655
 11
74.7181431425
 21
217.5794388686
  0
LINE
  5
2B7
100
AcDbEntity
  8
0
100
AcDbLine
 62
7
  6
CONTINUOUS
 10
79.6202707899
 20
219.5794388686
 11
73.2202707899
 21
219.5794388686
  0
LINE
  5
2B8
100
AcDbEntity
  8
BEZUGSACHSEN
100
AcDbLine
 62
7
  6
CONTINUOUS
 10
124.5371147417
 20
239.2394388686
 11
124.5371147417
 21
235.7394388686
  0
LINE
  5
2B9
100
AcDbEntity
  8
BEZUGSACHSEN
100
AcDbLine
 62
7
  6
CONTINUOUS
 10
124.5371147417
 20
167.2394388686
 11
124.5371147417
 21
170.7394388686
  0
LINE
  5
2BA
100
AcDbEntity
  8
0
100
AcDbLine
 62
7
  6
CONTINUOUS
 10
92.5302707899
 20
227.9894388686
 11
111.4302707899
 21
227.9894388686
  0
LINE
  5
2BB
100
AcDbEntity
  8
BEZUGSACHSEN
100
AcDbLine
 62
7
  6
CONTINUOUS
 10
128.9960363688
 20
141.6114111434
 11
128.9960363711
 21
143.1569705314
  0
LINE
  5
2BC
100
AcDbEntity
  8
BEZUGSACHSEN
100
AcDbLine
 62
7
  6
CONTINUOUS
 10
128.9960363711
 20
263.3219072059
 11
128.9960363688
 21
264.8674665939
  0
LINE
  5
2BD
100
AcDbEntity
  8
BEZUGSACHSEN
100
AcDbLine
 62
7
  6
CONTINUOUS
 10
133.0689236433
 20
264.2940063796
 11
133.0689237012
 21
262.7830316374
  0
LINE
  5
2BE
100
AcDbEntity
  8
BEZUGSACHSEN
100
AcDbLine
 62
7
  6
CONTINUOUS
 10
133.0689237012
 20
143.6958460998
 11
133.0689236433
 21
142.1848713576
  0
LINE
  5
2BF
100
AcDbEntity
  8
BEZUGSACHSEN
100
AcDbLine
 62
7
  6
CONTINUOUS
 10
133.9802707899
 20
216.2394388686
 11
133.9802707899
 21
190.2394388686
  0
LINE
  5
2C0
100
AcDbEntity
  8
BEZUGSACHSEN
100
AcDbLine
 62
7
  6
CONTINUOUS
 10
145.9802707899
 20
154.6532143648
 11
145.9802707899
 21
251.8256633725
  0
LINE
  5
2C1
100
AcDbEntity
  8
0
100
AcDbLine
 62
7
  6
CONTINUOUS
 10
111.4302707899
 20
250.4894388686
 11
92.5302707899
 21
250.4894388686
  0
LINE
  5
2C2
100
AcDbEntity
  8
BEZUGSACHSEN
100
AcDbLine
 62
7
  6
CONTINUOUS
 10
137.6080877607
 20
153.7949634857
 11
145.9802707899
 21
162.3987590175
  0
LINE
  5
2C3
100
AcDbEntity
  8
BEZUGSACHSEN
100
AcDbLine
 62
7
  6
CONTINUOUS
 10
137.6080877607
 20
252.6839142515
 11
145.9802707899
 21
244.0801187198
  0
LINE
  5
2C4
100
AcDbEntity
  8
BEZUGSACHSEN
100
AcDbLine
 62
7
  6
CONTINUOUS
 10
145.9802707899
 20
154.6532143648
 11
133.0689236433
 21
142.1848713576
  0
LINE
  5
2C5
100
AcDbEntity
  8
BEZUGSACHSEN
100
AcDbLine
 62
7
  6
CONTINUOUS
 10
74.964505211
 20
264.8674665939
 11
70.8916179365
 21
264.2940063796
  0
LINE
  5
2C6
100
AcDbEntity
  8
BEZUGSACHSEN
100
AcDbLine
 62
7
  6
CONTINUOUS
 10
133.0689236433
 20
264.2940063796
 11
128.9960363688
 21
264.8674665939
  0
LINE
  5
2C7
100
AcDbEntity
  8
BEZUGSACHSEN
100
AcDbLine
 62
7
  6
CONTINUOUS
 10
145.9802707899
 20
251.8256633725
 11
133.0689236433
 21
264.2940063796
  0
LINE
  5
2C8
100
AcDbEntity
  8
BEZUGSACHSEN
100
AcDbLine
 62
7
  6
CONTINUOUS
 10
208.9255816606
 20
244.0801187198
 11
228.1208393518
 21
251.0666211584
  0
LINE
  5
2C9
100
AcDbEntity
  8
BEZUGSACHSEN
100
AcDbLine
 62
7
  6
CONTINUOUS
 10
208.9255816606
 20
162.3987590175
 11
228.1208393518
 21
155.4122565788
  0
LINE
  5
2CA
100
AcDbEntity
  8
BEZUGSACHSEN
100
AcDbLine
 62
7
  6
CONTINUOUS
 10
208.9255816606
 20
152.9233884747
 11
208.9255816606
 21
253.5554892626
  0
LINE
  5
2CB
100
AcDbEntity
  8
FASEN
100
AcDbLine
 62
7
  6
CONTINUOUS
 10
255.9255816606
 20
253.5554892626
 11
255.9255816606
 21
244.0801187198
  0
LINE
  5
2CC
100
AcDbEntity
  8
BEZUGSACHSEN
100
AcDbLine
 62
7
  6
CONTINUOUS
 10
255.9255816606
 20
152.9233884747
 11
255.9255816606
 21
244.0801187198
  0
LINE
  5
2CD
100
AcDbEntity
  8
BEZUGSACHSEN
100
AcDbLine
 62
7
  6
CONTINUOUS
 10
255.9255816606
 20
162.3987590175
 11
236.7303239693
 21
155.4122565788
  0
LINE
  5
2CE
100
AcDbEntity
  8
0
100
AcDbLine
 62
7
  6
CONTINUOUS
 10
255.9255816606
 20
244.0801187198
 11
236.7303239693
 21
251.0666211584
  0
LINE
  5
2CF
100
AcDbEntity
  8
BEZUGSACHSEN
100
AcDbLine
 62
7
  6
CONTINUOUS
 10
57.9802707899
 20
100.1596063608
 11
57.9802707899
 21
72.3548640521
  0
LINE
  5
2D0
100
AcDbEntity
  8
0
100
AcDbLine
 62
7
  6
CONTINUOUS
 10
57.9802707899
 20
53.1596063608
 11
57.9802707899
 21
72.3548640521
  0
LINE
  5
2D1
100
AcDbEntity
  8
BEZUGSACHSEN
100
AcDbLine
 62
7
  6
CONTINUOUS
 10
70.8916178786
 20
68.0904411569
 11
70.8916178786
 21
85.2287715647
  0
LINE
  5
2D2
100
AcDbEntity
  8
BEZUGSACHSEN
100
AcDbLine
 62
7
  6
CONTINUOUS
 10
74.9645052087
 20
85.424908629
 11
74.9645052087
 21
67.8943040925
  0
LINE
  5
2D3
100
AcDbEntity
  8
FASEN
100
AcDbLine
 62
7
  6
CONTINUOUS
 10
57.9802707899
 20
53.1596063608
 11
79.4234268381
 21
53.1596063608
  0
LINE
  5
2D4
100
AcDbEntity
  8
0
100
AcDbLine
 62
7
  6
CONTINUOUS
 10
79.4234268381
 20
53.1596063608
 11
92.5302707899
 21
53.1596063608
  0
LINE
  5
2D5
100
AcDbEntity
  8
BEZUGSACHSEN
100
AcDbLine
 62
7
  6
CONTINUOUS
 10
92.5302707899
 20
53.1596063608
 11
145.9802707899
 21
53.1596063608
  0
LINE
  5
2D6
100
AcDbEntity
  8
0
100
AcDbLine
 62
7
  6
CONTINUOUS
 10
92.5302707899
 20
56.9796063608
 11
92.5302707899
 21
53.1596063608
  0
LINE
  5
2D7
100
AcDbEntity
  8
BEZUGSACHSEN
100
AcDbLine
 62
7
  6
CONTINUOUS
 10
92.5302707899
 20
56.9796063608
 11
92.5302707899
 21
100.1596063608
  0
LINE
  5
2D8
100
AcDbEntity
  8
0
100
AcDbLine
 62
7
  6
CONTINUOUS
 10
92.5302707899
 20
66.6596063608
 11
111.4302707899
 21
66.6596063608
  0
LINE
  5
2D9
100
AcDbEntity
  8
BEZUGSACHSEN
100
AcDbLine
 62
7
  6
CONTINUOUS
 10
111.4302707899
 20
53.1596063608
 11
111.4302707899
 21
100.1596063608
  0
LINE
  5
2DA
100
AcDbEntity
  8
0
100
AcDbLine
 62
7
  6
CONTINUOUS
 10
92.5302707899
 20
86.6596063608
 11
111.4302707899
 21
86.6596063608
  0
LINE
  5
2DB
100
AcDbEntity
  8
BEZUGSACHSEN
100
AcDbLine
 62
7
  6
CONTINUOUS
 10
57.9802707899
 20
100.1596063608
 11
145.9802707899
 21
100.1596063608
  0
LINE
  5
2DC
100
AcDbEntity
  8
BEZUGSACHSEN
100
AcDbLine
 62
7
  6
CONTINUOUS
 10
128.9960363711
 20
67.8943040925
 11
128.9960363711
 21
85.424908629
  0
LINE
  5
2DD
100
AcDbEntity
  8
BEZUGSACHSEN
100
AcDbLine
 62
7
  6
CONTINUOUS
 10
133.0689237012
 20
85.2287715647
 11
133.0689237012
 21
68.0904411569
  0
LINE
  5
2DE
100
AcDbEntity
  8
BEZUGSACHSEN
100
AcDbLine
 62
7
  6
CONTINUOUS
 10
145.9802707899
 20
53.1596063608
 11
145.9802707899
 21
100.1596063608
  0
ARC
  5
2DF
100
AcDbEntity
  8
BEZUGSACHSEN
100
AcDbCircle
 62
7
  6
CONTINUOUS
 10
43.4801831319
 20
-2.5219578536
 40
157.9813934088
100
AcDbArc
 50
79.7199315955
 51
81.6755612753
  0
ARC
  5
2E0
100
AcDbEntity
  8
FASEN
100
AcDbCircle
 62
7
  6
CONTINUOUS
 10
43.4801831319
 20
409.0008355911
 40
157.9813934091
100
AcDbArc
 50
278.3244387247
 51
280.2800684045
  0
ARC
  5
2E1
100
AcDbEntity
  8
BEZUGSACHSEN
100
AcDbCircle
 62
7
  6
CONTINUOUS
 10
160.4803584478
 20
409.0008355907
 40
157.9813934087
100
AcDbArc
 50
259.7199315955
 51
261.6755612753
  0
ARC
  5
2E2
100
AcDbEntity
  8
BEZUGSACHSEN
100
AcDbCircle
 62
7
  6
CONTINUOUS
 10
160.4803584478
 20
-2.5219578533
 40
157.9813934085
100
AcDbArc
 50
98.3244387247
 51
100.2800684045
  0
ARC
  5
2E3
100
AcDbEntity
  8
BEZUGSACHSEN
100
AcDbCircle
 62
7
  6
CONTINUOUS
 10
101.9802707899
 20
315.738955762
 40
57.6
100
AcDbArc
 50
279.4427775268
 51
297.9709419529
  0
ARC
  5
2E4
100
AcDbEntity
  8
BEZUGSACHSEN
100
AcDbCircle
 62
7
  6
CONTINUOUS
 10
101.9802707899
 20
90.7399219752
 40
57.6
100
AcDbArc
 50
62.0290580471
 51
80.5572224732
  0
ARC
  5
2E5
100
AcDbEntity
  8
BEZUGSACHSEN
100
AcDbCircle
 62
7
  6
CONTINUOUS
 10
101.9802707899
 20
90.7399219752
 40
57.6
100
AcDbArc
 50
99.4427775268
 51
117.9709419529
  0
ARC
  5
2E6
100
AcDbEntity
  8
0
100
AcDbCircle
 62
7
  6
CONTINUOUS
 10
101.9802707899
 20
315.738955762
 40
57.6
100
AcDbArc
 50
242.0290580471
 51
260.5572224732
  0
ARC
  5
2E7
100
AcDbEntity
  8
BEZUGSACHSEN
100
AcDbCircle
 62
7
  6
CONTINUOUS
 10
101.9802707899
 20
218.4894388686
 40
9.45
100
AcDbArc
 50
180.0
 51
360.0
  0
ARC
  5
2E8
100
AcDbEntity
  8
BEZUGSACHSEN
100
AcDbCircle
 62
7
  6
CONTINUOUS
 10
101.9802707899
 20
187.9894388686
 40
9.45
100
AcDbArc
 50
0.0
 51
180.0
  0
ARC
  5
2E9
100
AcDbEntity
  8
BEZUGSACHSEN
100
AcDbCircle
 62
7
  6
CONTINUOUS
 10
126.9802707899
 20
190.2394388686
 40
7.0
100
AcDbArc
 50
180.0
 51
360.0
  0
ARC
  5
2EA
100
AcDbEntity
  8
BEZUGSACHSEN
100
AcDbCircle
 62
7
  6
CONTINUOUS
 10
126.9802707899
 20
216.2394388686
 40
7.0
100
AcDbArc
 50
0.0
 51
180.0
  0
ARC
  5
2EB
100
AcDbEntity
  8
BEZUGSACHSEN
100
AcDbCircle
 62
7
  6
CONTINUOUS
 10
76.9802707899
 20
190.2394388686
 40
7.0
100
AcDbArc
 50
180.0
 51
360.0
  0
ARC
  5
2EC
100
AcDbEntity
  8
0
100
AcDbCircle
 62
7
  6
CONTINUOUS
 10
76.9802707899
 20
216.2394388686
 40
7.0
100
AcDbArc
 50
0.0
 51
180.0
  0
ARC
  5
2ED
100
AcDbEntity
  8
BEZUGSACHSEN
100
AcDbCircle
 62
7
  6
CONTINUOUS
 10
232.4255816606
 20
239.2394388686
 40
25.6280277252
100
AcDbArc
 50
69.9999986852
 51
110.0000013148
  0
ARC
  5
2EE
100
AcDbEntity
  8
BEZUGSACHSEN
100
AcDbCircle
 62
7
  6
CONTINUOUS
 10
232.4255816606
 20
167.2394388686
 40
25.6280277252
100
AcDbArc
 50
249.9999986852
 51
290.0000013148
  0
ARC
  5
2EF
100
AcDbEntity
  8
BEZUGSACHSEN
100
AcDbCircle
 62
7
  6
CONTINUOUS
 10
232.4255816606
 20
239.2394388686
 40
25.054567511
100
AcDbArc
 50
70.0000038071
 51
109.9999961929
  0
ARC
  5
2F0
100
AcDbEntity
  8
BEZUGSACHSEN
100
AcDbCircle
 62
7
  6
CONTINUOUS
 10
232.4255816606
 20
167.2394388686
 40
25.054567511
100
AcDbArc
 50
250.0000038071
 51
289.9999961929
  0
ARC
  5
2F1
100
AcDbEntity
  8
BEZUGSACHSEN
100
AcDbCircle
 62
7
  6
CONTINUOUS
 10
232.4255816606
 20
167.2394388686
 40
12.5862245039
100
AcDbArc
 50
250.0
 51
290.0
  0
ARC
  5
2F2
100
AcDbEntity
  8
BEZUGSACHSEN
100
AcDbCircle
 62
7
  6
CONTINUOUS
 10
232.4255816606
 20
239.2394388686
 40
12.5862245039
100
AcDbArc
 50
70.0
 51
110.0
  0
ARC
  5
2F3
100
AcDbEntity
  8
0
100
AcDbCircle
 62
7
  6
CONTINUOUS
 10
101.9802707899
 20
0.1600894674
 40
57.6
100
AcDbArc
 50
99.4427775268
 51
113.0548321599
  0
ARC
  5
2F4
100
AcDbEntity
  8
0
100
AcDbCircle
 62
7
  6
CONTINUOUS
 10
101.9802707899
 20
153.1591232542
 40
57.6
100
AcDbArc
 50
246.9451678401
 51
260.5572224732
  0
ARC
  5
2F5
100
AcDbEntity
  8
BEZUGSACHSEN
100
AcDbCircle
 62
7
  6
CONTINUOUS
 10
101.9802707899
 20
0.1600894674
 40
57.6
100
AcDbArc
 50
66.9451678401
 51
80.5572224732
  0
ARC
  5
2F6
100
AcDbEntity
  8
BEZUGSACHSEN
100
AcDbCircle
 62
7
  6
CONTINUOUS
 10
101.9802707899
 20
153.1591232542
 40
57.6
100
AcDbArc
 50
279.4427775268
 51
293.0548321599
  0
ARC
  5
2F7
100
AcDbEntity
  8
BEZUGSACHSEN
100
AcDbCircle
 62
7
  6
CONTINUOUS
 10
101.9802707899
 20
153.1591232542
 40
57.6
100
AcDbArc
 50
246.9451678401
 51
260.5572224732
  0
SPLINE
  5
2F8
100
AcDbEntity
  8
BEZUGSACHSEN
100
AcDbSpline
 62
7
  6
CONTINUOUS
 70
0
 71
3
 72
14
 73
10
 74
0
 42
0.0000001
 43
0.0000001
 44
0.0000000001
 40
0.0
 40
0.0
 40
0.0
 40
0.0
 40
0.0669718262
 40
0.1473961101
 40
0.2430980369
 40
0.3556317476
 40
0.4863812077
 40
0.6366140916
 40
1.0
 40
1.0
 40
1.0
 40
1.0
 10
133.0688200945
 20
262.7831250652
 30
0.0
 10
133.068562024
 20
262.5336212994
 30
0.0
 10
133.1195721197
 20
261.9843473388
 30
0.0
 10
133.317039648
 20
261.0989437565
 30
0.0
 10
133.6498162353
 20
260.0749589506
 30
0.0
 10
134.1266225065
 20
258.9046537018
 30
0.0
 10
134.7562466646
 20
257.5799864812
 30
0.0
 10
135.8847740584
 20
255.46051314
 30
0.0
 10
136.8810675691
 20
253.8248612728
 30
0.0
 10
137.6089786459
 20
252.6834106585
 30
0.0
  0
SPLINE
  5
2F9
100
AcDbEntity
  8
FASEN
100
AcDbSpline
 62
7
  6
CONTINUOUS
 70
0
 71
3
 72
14
 73
10
 74
0
 42
0.0000001
 43
0.0000001
 44
0.0000000001
 40
0.0
 40
0.0
 40
0.0
 40
0.0
 40
0.2500766412
 40
0.375117991
 40
0.500153035
 40
0.6251737205
 40
0.7501641055
 40
0.875105808
 40
1.0
 40
1.0
 40
1.0
 40
1.0
 10
71.6735328492
 20
253.5554892626
 30
0.0
 10
72.563858332
 20
252.4966462235
 30
0.0
 10
73.8857786912
 20
250.8961401927
 30
0.0
 10
75.5550210357
 20
248.6888678939
 30
0.0
 10
76.731833245
 20
246.9786002786
 30
0.0
 10
77.7920566002
 20
245.192679523
 30
0.0
 10
78.6715009997
 20
243.3086946384
 30
0.0
 10
79.276463428
 20
241.3160320878
 30
0.0
 10
79.4234268381
 20
239.9303474271
 30
0.0
 10
79.4234268381
 20
239.2394388686
 30
0.0
  0
SPLINE
  5
2FA
100
AcDbEntity
  8
BEZUGSACHSEN
100
AcDbSpline
 62
7
  6
CONTINUOUS
 70
0
 71
3
 72
17
 73
13
 74
0
 42
0.0000001
 43
0.0000001
 44
0.0000000001
 40
0.0
 40
0.0
 40
0.0
 40
0.0
 40
0.0625515477
 40
0.1251913895
 40
0.1877770191
 40
0.2503260977
 40
0.3752649951
 40
0.5002120629
 40
0.6251585342
 40
0.7500984738
 40
0.8750617194
 40
1.0
 40
1.0
 40
1.0
 40
1.0
 10
79.4234268381
 20
170.7394388686
 30
0.0
 10
79.4234268381
 20
171.1097295299
 30
0.0
 10
79.5059527975
 20
171.8528092394
 30
0.0
 10
79.8469668293
 20
172.9173447707
 30
0.0
 10
80.3683780401
 20
173.9043818659
 30
0.0
 10
81.2352731061
 20
175.1087076713
 30
0.0
 10
82.5593066401
 20
176.4173640972
 30
0.0
 10
84.3561405238
 20
177.7278461351
 30
0.0
 10
86.2866261451
 20
178.8295460569
 30
0.0
 10
88.3070652578
 20
179.7530377485
 30
0.0
 10
90.3920575548
 20
180.5178876884
 30
0.0
 10
91.8138533927
 20
180.9310288773
 30
0.0
 10
92.5302707899
 20
181.1147750077
 30
0.0
  0
SPLINE
  5
2FB
100
AcDbEntity
  8
0
100
AcDbSpline
 62
7
  6
CONTINUOUS
 70
0
 71
3
 72
17
 73
13
 74
0
 42
0.0000001
 43
0.0000001
 44
0.0000000001
 40
0.0
 40
0.0
 40
0.0
 40
0.0
 40
0.0625515477
 40
0.1251913895
 40
0.1877770191
 40
0.2503260977
 40
0.3752649951
 40
0.5002120629
 40
0.6251585342
 40
0.7500984738
 40
0.8750617194
 40
1.0
 40
1.0
 40
1.0
 40
1.0
 10
79.4234268381
 20
235.7394388686
 30
0.0
 10
79.4234268381
 20
235.3691482074
 30
0.0
 10
79.5059527975
 20
234.6260684979
 30
0.0
 10
79.8469668293
 20
233.5615329665
 30
0.0
 10
80.3683780401
 20
232.5744958713
 30
0.0
 10
81.2352731061
 20
231.370170066
 30
0.0
 10
82.5593066401
 20
230.06151364
 30
0.0
 10
84.3561405238
 20
228.7510316021
 30
0.0
 10
86.2866261451
 20
227.6493316803
 30
0.0
 10
88.3070652578
 20
226.7258399887
 30
0.0
 10
90.3920575548
 20
225.9609900488
 30
0.0
 10
91.8138533927
 20
225.54784886
 30
0.0
 10
92.5302707899
 20
225.3641027295
 30
0.0
  0
SPLINE
  5
2FC
100
AcDbEntity
  8
FASEN
100
AcDbSpline
 62
7
  6
CONTINUOUS
 70
0
 71
3
 72
13
 73
9
 74
0
 42
0.0000001
 43
0.0000001
 44
0.0000000001
 40
0.0
 40
0.0
 40
0.0
 40
0.0
 40
0.0721616087
 40
0.1575125149
 40
0.2571521987
 40
0.3720379465
 40
0.6509051981
 40
1.0
 40
1.0
 40
1.0
 40
1.0
 10
74.9646028741
 20
263.3222283346
 30
0.0
 10
74.9648147668
 20
263.0727512593
 30
0.0
 10
74.9279293572
 20
262.5280868591
 30
0.0
 10
74.7841724319
 20
261.6498932924
 30
0.0
 10
74.5419804167
 20
260.6410432593
 30
0.0
 10
74.046802386
 20
259.0079562876
 30
0.0
 10
73.1196751122
 20
256.6095876763
 30
0.0
 10
72.206511113
 20
254.6387723211
 30
0.0
 10
71.6739387945
 20
253.5557431762
 30
0.0
  0
SPLINE
  5
2FD
100
AcDbEntity
  8
BEZUGSACHSEN
100
AcDbSpline
 62
7
  6
CONTINUOUS
 70
0
 71
3
 72
17
 73
13
 74
0
 42
0.0000001
 43
0.0000001
 44
0.0000000001
 40
0.0
 40
0.0
 40
0.0
 40
0.0
 40
0.0625515477
 40
0.1251913895
 40
0.1877770191
 40
0.2503260977
 40
0.3752649951
 40
0.5002120629
 40
0.6251585342
 40
0.7500984738
 40
0.8750617194
 40
1.0
 40
1.0
 40
1.0
 40
1.0
 10
124.5371147417
 20
235.7394388686
 30
0.0
 10
124.5371147417
 20
235.3691482074
 30
0.0
 10
124.4545887823
 20
234.6260684979
 30
0.0
 10
124.1135747505
 20
233.5615329665
 30
0.0
 10
123.5921635396
 20
232.5744958713
 30
0.0
 10
122.7252684737
 20
231.370170066
 30
0.0
 10
121.4012349397
 20
230.06151364
 30
0.0
 10
119.6044010559
 20
228.7510316021
 30
0.0
 10
117.6739154347
 20
227.6493316803
 30
0.0
 10
115.653476322
 20
226.7258399887
 30
0.0
 10
113.568484025
 20
225.9609900488
 30
0.0
 10
112.1466881871
 20
225.54784886
 30
0.0
 10
111.4302707899
 20
225.3641027295
 30
0.0
  0
SPLINE
  5
2FE
100
AcDbEntity
  8
BEZUGSACHSEN
100
AcDbSpline
 62
7
  6
CONTINUOUS
 70
0
 71
3
 72
13
 73
9
 74
0
 42
0.0000001
 43
0.0000001
 44
0.0000000001
 40
0.0
 40
0.0
 40
0.0
 40
0.0
 40
0.0721616087
 40
0.1575125149
 40
0.2571521987
 40
0.3720379465
 40
0.6509051981
 40
1.0
 40
1.0
 40
1.0
 40
1.0
 10
74.9646028741
 20
143.1566494026
 30
0.0
 10
74.9648147668
 20
143.406126478
 30
0.0
 10
74.9279293572
 20
143.9507908781
 30
0.0
 10
74.7841724319
 20
144.8289844448
 30
0.0
 10
74.5419804167
 20
145.8378344779
 30
0.0
 10
74.046802386
 20
147.4709214496
 30
0.0
 10
73.1196751122
 20
149.8692900609
 30
0.0
 10
72.206511113
 20
151.8401054162
 30
0.0
 10
71.6739387945
 20
152.923134561
 30
0.0
  0
SPLINE
  5
2FF
100
AcDbEntity
  8
BEZUGSACHSEN
100
AcDbSpline
 62
7
  6
CONTINUOUS
 70
0
 71
3
 72
14
 73
10
 74
0
 42
0.0000001
 43
0.0000001
 44
0.0000000001
 40
0.0
 40
0.0
 40
0.0
 40
0.0
 40
0.2500766412
 40
0.375117991
 40
0.500153035
 40
0.6251737205
 40
0.7501641055
 40
0.875105808
 40
1.0
 40
1.0
 40
1.0
 40
1.0
 10
71.6735328492
 20
152.9233884747
 30
0.0
 10
72.563858332
 20
153.9822315138
 30
0.0
 10
73.8857786912
 20
155.5827375445
 30
0.0
 10
75.5550210357
 20
157.7900098433
 30
0.0
 10
76.731833245
 20
159.5002774586
 30
0.0
 10
77.7920566002
 20
161.2861982142
 30
0.0
 10
78.6715009997
 20
163.1701830989
 30
0.0
 10
79.276463428
 20
165.1628456494
 30
0.0
 10
79.4234268381
 20
166.5485303101
 30
0.0
 10
79.4234268381
 20
167.2394388686
 30
0.0
  0
SPLINE
  5
300
100
AcDbEntity
  8
BEZUGSACHSEN
100
AcDbSpline
 62
7
  6
CONTINUOUS
 70
0
 71
3
 72
14
 73
10
 74
0
 42
0.0000001
 43
0.0000001
 44
0.0000000001
 40
0.0
 40
0.0
 40
0.0
 40
0.0
 40
0.2500766412
 40
0.375117991
 40
0.500153035
 40
0.6251737205
 40
0.7501641055
 40
0.875105808
 40
1.0
 40
1.0
 40
1.0
 40
1.0
 10
132.2870087306
 20
253.5554892626
 30
0.0
 10
131.3966832478
 20
252.4966462235
 30
0.0
 10
130.0747628886
 20
250.8961401927
 30
0.0
 10
128.4055205441
 20
248.6888678939
 30
0.0
 10
127.2287083348
 20
246.9786002786
 30
0.0
 10
126.1684849796
 20
245.192679523
 30
0.0
 10
125.2890405801
 20
243.3086946384
 30
0.0
 10
124.6840781518
 20
241.3160320878
 30
0.0
 10
124.5371147417
 20
239.9303474271
 30
0.0
 10
124.5371147417
 20
239.2394388686
 30
0.0
  0
SPLINE
  5
301
100
AcDbEntity
  8
BEZUGSACHSEN
100
AcDbSpline
 62
7
  6
CONTINUOUS
 70
0
 71
3
 72
13
 73
9
 74
0
 42
0.0000001
 43
0.0000001
 44
0.0000000001
 40
0.0
 40
0.0
 40
0.0
 40
0.0
 40
0.0721616087
 40
0.1575125149
 40
0.2571521987
 40
0.3720379465
 40
0.6509051981
 40
1.0
 40
1.0
 40
1.0
 40
1.0
 10
128.9959387056
 20
263.3222283346
 30
0.0
 10
128.995726813
 20
263.0727512593
 30
0.0
 10
129.0326122226
 20
262.5280868591
 30
0.0
 10
129.1763691479
 20
261.6498932924
 30
0.0
 10
129.4185611631
 20
260.6410432593
 30
0.0
 10
129.9137391938
 20
259.0079562876
 30
0.0
 10
130.8408664676
 20
256.6095876763
 30
0.0
 10
131.7540304668
 20
254.6387723211
 30
0.0
 10
132.2866027852
 20
253.5557431762
 30
0.0
  0
SPLINE
  5
302
100
AcDbEntity
  8
BEZUGSACHSEN
100
AcDbSpline
 62
7
  6
CONTINUOUS
 70
0
 71
3
 72
14
 73
10
 74
0
 42
0.0000001
 43
0.0000001
 44
0.0000000001
 40
0.0
 40
0.0
 40
0.0
 40
0.0
 40
0.0669718262
 40
0.1473961101
 40
0.2430980369
 40
0.3556317476
 40
0.4863812077
 40
0.6366140916
 40
1.0
 40
1.0
 40
1.0
 40
1.0
 10
70.8917214852
 20
143.695752672
 30
0.0
 10
70.8919795557
 20
143.9452564378
 30
0.0
 10
70.8409694601
 20
144.4945303984
 30
0.0
 10
70.6435019318
 20
145.3799339808
 30
0.0
 10
70.3107253445
 20
146.4039187867
 30
0.0
 10
69.8339190733
 20
147.5742240354
 30
0.0
 10
69.2042949151
 20
148.898891256
 30
0.0
 10
68.0757675213
 20
151.0183645973
 30
0.0
 10
67.0794740107
 20
152.6540164644
 30
0.0
 10
66.3515629338
 20
153.7954670787
 30
0.0
  0
SPLINE
  5
303
100
AcDbEntity
  8
BEZUGSACHSEN
100
AcDbSpline
 62
7
  6
CONTINUOUS
 70
0
 71
3
 72
14
 73
10
 74
0
 42
0.0000001
 43
0.0000001
 44
0.0000000001
 40
0.0
 40
0.0
 40
0.0
 40
0.0
 40
0.2500766412
 40
0.375117991
 40
0.500153035
 40
0.6251737205
 40
0.7501641055
 40
0.875105808
 40
1.0
 40
1.0
 40
1.0
 40
1.0
 10
132.2870087306
 20
152.9233884747
 30
0.0
 10
131.3966832478
 20
153.9822315138
 30
0.0
 10
130.0747628886
 20
155.5827375445
 30
0.0
 10
128.4055205441
 20
157.7900098433
 30
0.0
 10
127.2287083348
 20
159.5002774586
 30
0.0
 10
126.1684849796
 20
161.2861982142
 30
0.0
 10
125.2890405801
 20
163.1701830989
 30
0.0
 10
124.6840781518
 20
165.1628456494
 30
0.0
 10
124.5371147417
 20
166.5485303101
 30
0.0
 10
124.5371147417
 20
167.2394388686
 30
0.0
  0
SPLINE
  5
304
100
AcDbEntity
  8
BEZUGSACHSEN
100
AcDbSpline
 62
7
  6
CONTINUOUS
 70
0
 71
3
 72
13
 73
9
 74
0
 42
0.0000001
 43
0.0000001
 44
0.0000000001
 40
0.0
 40
0.0
 40
0.0
 40
0.0
 40
0.0721616087
 40
0.1575125149
 40
0.2571521987
 40
0.3720379465
 40
0.6509051981
 40
1.0
 40
1.0
 40
1.0
 40
1.0
 10
128.9959387056
 20
143.1566494026
 30
0.0
 10
128.995726813
 20
143.406126478
 30
0.0
 10
129.0326122226
 20
143.9507908781
 30
0.0
 10
129.1763691479
 20
144.8289844448
 30
0.0
 10
129.4185611631
 20
145.8378344779
 30
0.0
 10
129.9137391938
 20
147.4709214496
 30
0.0
 10
130.8408664676
 20
149.8692900609
 30
0.0
 10
131.7540304668
 20
151.8401054162
 30
0.0
 10
132.2866027852
 20
152.923134561
 30
0.0
  0
SPLINE
  5
305
100
AcDbEntity
  8
BEZUGSACHSEN
100
AcDbSpline
 62
7
  6
CONTINUOUS
 70
0
 71
3
 72
14
 73
10
 74
0
 42
0.0000001
 43
0.0000001
 44
0.0000000001
 40
0.0
 40
0.0
 40
0.0
 40
0.0
 40
0.0669718262
 40
0.1473961101
 40
0.2430980369
 40
0.3556317476
 40
0.4863812077
 40
0.6366140916
 40
1.0
 40
1.0
 40
1.0
 40
1.0
 10
133.0688200945
 20
143.695752672
 30
0.0
 10
133.068562024
 20
143.9452564378
 30
0.0
 10
133.1195721197
 20
144.4945303984
 30
0.0
 10
133.317039648
 20
145.3799339808
 30
0.0
 10
133.6498162353
 20
146.4039187867
 30
0.0
 10
134.1266225065
 20
147.5742240354
 30
0.0
 10
134.7562466646
 20
148.898891256
 30
0.0
 10
135.8847740584
 20
151.0183645973
 30
0.0
 10
136.8810675691
 20
152.6540164644
 30
0.0
 10
137.6089786459
 20
153.7954670787
 30
0.0
  0
SPLINE
  5
306
100
AcDbEntity
  8
BEZUGSACHSEN
100
AcDbSpline
 62
7
  6
CONTINUOUS
 70
0
 71
3
 72
17
 73
13
 74
0
 42
0.0000001
 43
0.0000001
 44
0.0000000001
 40
0.0
 40
0.0
 40
0.0
 40
0.0
 40
0.0625515477
 40
0.1251913895
 40
0.1877770191
 40
0.2503260977
 40
0.3752649951
 40
0.5002120629
 40
0.6251585342
 40
0.7500984738
 40
0.8750617194
 40
1.0
 40
1.0
 40
1.0
 40
1.0
 10
124.5371147417
 20
170.7394388686
 30
0.0
 10
124.5371147417
 20
171.1097295299
 30
0.0
 10
124.4545887823
 20
171.8528092394
 30
0.0
 10
124.1135747505
 20
172.9173447707
 30
0.0
 10
123.5921635396
 20
173.9043818659
 30
0.0
 10
122.7252684737
 20
175.1087076713
 30
0.0
 10
121.4012349397
 20
176.4173640972
 30
0.0
 10
119.6044010559
 20
177.7278461351
 30
0.0
 10
117.6739154347
 20
178.8295460569
 30
0.0
 10
115.653476322
 20
179.7530377485
 30
0.0
 10
113.568484025
 20
180.5178876884
 30
0.0
 10
112.1466881871
 20
180.9310288773
 30
0.0
 10
111.4302707899
 20
181.1147750077
 30
0.0
  0
SPLINE
  5
307
100
AcDbEntity
  8
FASEN
100
AcDbSpline
 62
7
  6
CONTINUOUS
 70
0
 71
3
 72
14
 73
10
 74
0
 42
0.0000001
 43
0.0000001
 44
0.0000000001
 40
0.0
 40
0.0
 40
0.0
 40
0.0
 40
0.0669718262
 40
0.1473961101
 40
0.2430980369
 40
0.3556317476
 40
0.4863812077
 40
0.6366140916
 40
1.0
 40
1.0
 40
1.0
 40
1.0
 10
70.8917214852
 20
262.7831250652
 30
0.0
 10
70.8919795557
 20
262.5336212994
 30
0.0
 10
70.8409694601
 20
261.9843473388
 30
0.0
 10
70.6435019318
 20
261.0989437565
 30
0.0
 10
70.3107253445
 20
260.0749589506
 30
0.0
 10
69.8339190733
 20
258.9046537018
 30
0.0
 10
69.2042949151
 20
257.5799864812
 30
0.0
 10
68.0757675213
 20
255.46051314
 30
0.0
 10
67.0794740107
 20
253.8248612728
 30
0.0
 10
66.3515629338
 20
252.6834106585
 30
0.0
  0
SPLINE
  5
308
100
AcDbEntity
  8
BEZUGSACHSEN
100
AcDbSpline
 62
7
  6
CONTINUOUS
 70
0
 71
3
 72
11
 73
7
 74
0
 42
0.0000001
 43
0.0000001
 44
0.0000000001
 40
0.0
 40
0.0
 40
0.0
 40
0.0
 40
0.2306158242
 40
0.4729547155
 40
0.7287218336
 40
1.0
 40
1.0
 40
1.0
 40
1.0
 10
223.6601635326
 20
263.3222283346
 30
0.0
 10
222.3721940051
 20
262.8549131262
 30
0.0
 10
219.7843383563
 20
261.7417948753
 30
0.0
 10
216.0216344827
 20
259.5815618132
 30
0.0
 10
212.3386166774
 20
256.857554645
 30
0.0
 10
210.0441249646
 20
254.7156358757
 30
0.0
 10
208.9250827846
 20
253.5557431762
 30
0.0
  0
SPLINE
  5
309
100
AcDbEntity
  8
FASEN
100
AcDbSpline
 62
7
  6
CONTINUOUS
 70
0
 71
3
 72
11
 73
7
 74
0
 42
0.0000001
 43
0.0000001
 44
0.0000000001
 40
0.0
 40
0.0
 40
0.0
 40
0.0
 40
0.2306158242
 40
0.4729547155
 40
0.7287218336
 40
1.0
 40
1.0
 40
1.0
 40
1.0
 10
241.1909997886
 20
263.3222283346
 30
0.0
 10
242.4789693161
 20
262.8549131262
 30
0.0
 10
245.0668249649
 20
261.7417948753
 30
0.0
 10
248.8295288385
 20
259.5815618132
 30
0.0
 10
252.5125466438
 20
256.857554645
 30
0.0
 10
254.8070383566
 20
254.7156358757
 30
0.0
 10
255.9260805366
 20
253.5557431762
 30
0.0
  0
SPLINE
  5
30A
100
AcDbEntity
  8
BEZUGSACHSEN
100
AcDbSpline
 62
7
  6
CONTINUOUS
 70
0
 71
3
 72
11
 73
7
 74
0
 42
0.0000001
 43
0.0000001
 44
0.0000000001
 40
0.0
 40
0.0
 40
0.0
 40
0.0
 40
0.2306158242
 40
0.4729547155
 40
0.7287218336
 40
1.0
 40
1.0
 40
1.0
 40
1.0
 10
223.6601635326
 20
143.1566494026
 30
0.0
 10
222.3721940051
 20
143.623964611
 30
0.0
 10
219.7843383563
 20
144.737082862
 30
0.0
 10
216.0216344827
 20
146.897315924
 30
0.0
 10
212.3386166774
 20
149.6213230923
 30
0.0
 10
210.0441249646
 20
151.7632418615
 30
0.0
 10
208.9250827846
 20
152.923134561
 30
0.0
  0
SPLINE
  5
30B
100
AcDbEntity
  8
BEZUGSACHSEN
100
AcDbSpline
 62
7
  6
CONTINUOUS
 70
0
 71
3
 72
11
 73
7
 74
0
 42
0.0000001
 43
0.0000001
 44
0.0000000001
 40
0.0
 40
0.0
 40
0.0
 40
0.0
 40
0.2306158242
 40
0.4729547155
 40
0.7287218336
 40
1.0
 40
1.0
 40
1.0
 40
1.0
 10
241.1909997886
 20
143.1566494026
 30
0.0
 10
242.4789693161
 20
143.623964611
 30
0.0
 10
245.0668249649
 20
144.737082862
 30
0.0
 10
248.8295288385
 20
146.897315924
 30
0.0
 10
252.5125466438
 20
149.6213230923
 30
0.0
 10
254.8070383566
 20
151.7632418615
 30
0.0
 10
255.9260805366
 20
152.923134561
 30
0.0
  0
SPLINE
  5
30C
100
AcDbEntity
  8
BEZUGSACHSEN
100
AcDbSpline
 62
7
  6
CONTINUOUS
 70
0
 71
3
 72
11
 73
7
 74
0
 42
0.0000001
 43
0.0000001
 44
0.0000000001
 40
0.0
 40
0.0
 40
0.0
 40
0.0
 40
0.2254855357
 40
0.4649200614
 40
0.7217113239
 40
1.0
 40
1.0
 40
1.0
 40
1.0
 10
223.8563807554
 20
143.695752672
 30
0.0
 10
222.5721207796
 20
144.1626887468
 30
0.0
 10
219.9789211735
 20
145.2838344035
 30
0.0
 10
216.1907563995
 20
147.4902267129
 30
0.0
 10
212.4364125132
 20
150.3252360618
 30
0.0
 10
210.0863160143
 20
152.5708639789
 30
0.0
 10
208.9267134515
 20
153.7954670787
 30
0.0
  0
SPLINE
  5
30D
100
AcDbEntity
  8
BEZUGSACHSEN
100
AcDbSpline
 62
7
  6
CONTINUOUS
 70
0
 71
3
 72
11
 73
7
 74
0
 42
0.0000001
 43
0.0000001
 44
0.0000000001
 40
0.0
 40
0.0
 40
0.0
 40
0.0
 40
0.2254855357
 40
0.4649200614
 40
0.7217113239
 40
1.0
 40
1.0
 40
1.0
 40
1.0
 10
223.8563807554
 20
262.7831250652
 30
0.0
 10
222.5721207796
 20
262.3161889905
 30
0.0
 10
219.9789211735
 20
261.1950433337
 30
0.0
 10
216.1907563995
 20
258.9886510243
 30
0.0
 10
212.4364125132
 20
256.1536416754
 30
0.0
 10
210.0863160143
 20
253.9080137583
 30
0.0
 10
208.9267134515
 20
252.6834106585
 30
0.0
  0
SPLINE
  5
30E
100
AcDbEntity
  8
BEZUGSACHSEN
100
AcDbSpline
 62
7
  6
CONTINUOUS
 70
0
 71
3
 72
11
 73
7
 74
0
 42
0.0000001
 43
0.0000001
 44
0.0000000001
 40
0.0
 40
0.0
 40
0.0
 40
0.0
 40
0.2254855357
 40
0.4649200614
 40
0.7217113239
 40
1.0
 40
1.0
 40
1.0
 40
1.0
 10
240.9947825658
 20
143.695752672
 30
0.0
 10
242.2790425416
 20
144.1626887468
 30
0.0
 10
244.8722421477
 20
145.2838344035
 30
0.0
 10
248.6604069216
 20
147.4902267129
 30
0.0
 10
252.4147508079
 20
150.3252360618
 30
0.0
 10
254.7648473069
 20
152.5708639789
 30
0.0
 10
255.9244498697
 20
153.7954670787
 30
0.0
  0
SPLINE
  5
30F
100
AcDbEntity
  8
FASEN
100
AcDbSpline
 62
7
  6
CONTINUOUS
 70
0
 71
3
 72
11
 73
7
 74
0
 42
0.0000001
 43
0.0000001
 44
0.0000000001
 40
0.0
 40
0.0
 40
0.0
 40
0.0
 40
0.2254855357
 40
0.4649200614
 40
0.7217113239
 40
1.0
 40
1.0
 40
1.0
 40
1.0
 10
240.9947825658
 20
262.7831250652
 30
0.0
 10
242.2790425416
 20
262.3161889905
 30
0.0
 10
244.8722421477
 20
261.1950433337
 30
0.0
 10
248.6604069216
 20
258.9886510243
 30
0.0
 10
252.4147508079
 20
256.1536416754
 30
0.0
 10
254.7648473069
 20
253.9080137583
 30
0.0
 10
255.9244498697
 20
252.6834106585
 30
0.0
  0
SPLINE
  5
310
100
AcDbEntity
  8
FASEN
100
AcDbSpline
 62
7
  6
CONTINUOUS
 70
0
 71
3
 72
10
 73
6
 74
0
 42
0.0000001
 43
0.0000001
 44
0.0000000001
 40
0.0
 40
0.0
 40
0.0
 40
0.0
 40
0.4969055702
 40
0.7471057227
 40
1.0
 40
1.0
 40
1.0
 40
1.0
 10
74.9646028741
 20
67.8941882328
 30
0.0
 10
74.9653797931
 20
65.3731108073
 30
0.0
 10
74.6107434856
 20
61.561363334
 30
0.0
 10
73.2572188663
 20
56.6612022319
 30
0.0
 10
72.2565949748
 20
54.3022557291
 30
0.0
 10
71.6739387945
 20
53.1591074848
 30
0.0
  0
SPLINE
  5
311
100
AcDbEntity
  8
BEZUGSACHSEN
100
AcDbSpline
 62
7
  6
CONTINUOUS
 70
0
 71
3
 72
11
 73
7
 74
0
 42
0.0000001
 43
0.0000001
 44
0.0000000001
 40
0.0
 40
0.0
 40
0.0
 40
0.0
 40
0.2382631044
 40
0.4812879094
 40
0.7332385455
 40
1.0
 40
1.0
 40
1.0
 40
1.0
 10
133.0688200945
 20
68.0904054556
 30
0.0
 10
133.0683472683
 20
66.8331144074
 30
0.0
 10
133.230273509
 20
64.2895910188
 30
0.0
 10
134.0268922621
 20
60.4888928016
 30
0.0
 10
135.4537598203
 20
56.7135536678
 30
0.0
 10
136.8226643741
 20
54.3283238543
 30
0.0
 10
137.6089786459
 20
53.1607381517
 30
0.0
  0
SPLINE
  5
312
100
AcDbEntity
  8
BEZUGSACHSEN
100
AcDbSpline
 62
7
  6
CONTINUOUS
 70
0
 71
3
 72
11
 73
7
 74
0
 42
0.0000001
 43
0.0000001
 44
0.0000000001
 40
0.0
 40
0.0
 40
0.0
 40
0.0
 40
0.2382631044
 40
0.4812879094
 40
0.7332385455
 40
1.0
 40
1.0
 40
1.0
 40
1.0
 10
133.0688200945
 20
85.228807266
 30
0.0
 10
133.0683472683
 20
86.4860983142
 30
0.0
 10
133.230273509
 20
89.0296217027
 30
0.0
 10
134.0268922621
 20
92.8303199199
 30
0.0
 10
135.4537598203
 20
96.6056590537
 30
0.0
 10
136.8226643741
 20
98.9908888672
 30
0.0
 10
137.6089786459
 20
100.1584745699
 30
0.0
  0
SPLINE
  5
313
100
AcDbEntity
  8
BEZUGSACHSEN
100
AcDbSpline
 62
7
  6
CONTINUOUS
 70
0
 71
3
 72
10
 73
6
 74
0
 42
0.0000001
 43
0.0000001
 44
0.0000000001
 40
0.0
 40
0.0
 40
0.0
 40
0.0
 40
0.4969055702
 40
0.7471057227
 40
1.0
 40
1.0
 40
1.0
 40
1.0
 10
128.9959387056
 20
85.4250244888
 30
0.0
 10
128.9951617866
 20
87.9461019143
 30
0.0
 10
129.3497980941
 20
91.7578493876
 30
0.0
 10
130.7033227135
 20
96.6580104896
 30
0.0
 10
131.703946605
 20
99.0169569925
 30
0.0
 10
132.2866027852
 20
100.1601052368
 30
0.0
  0
SPLINE
  5
314
100
AcDbEntity
  8
BEZUGSACHSEN
100
AcDbSpline
 62
7
  6
CONTINUOUS
 70
0
 71
3
 72
10
 73
6
 74
0
 42
0.0000001
 43
0.0000001
 44
0.0000000001
 40
0.0
 40
0.0
 40
0.0
 40
0.0
 40
0.4969055702
 40
0.7471057227
 40
1.0
 40
1.0
 40
1.0
 40
1.0
 10
128.9959387056
 20
67.8941882328
 30
0.0
 10
128.9951617866
 20
65.3731108073
 30
0.0
 10
129.3497980941
 20
61.561363334
 30
0.0
 10
130.7033227135
 20
56.6612022319
 30
0.0
 10
131.703946605
 20
54.3022557291
 30
0.0
 10
132.2866027852
 20
53.1591074848
 30
0.0
  0
SPLINE
  5
315
100
AcDbEntity
  8
FASEN
100
AcDbSpline
 62
7
  6
CONTINUOUS
 70
0
 71
3
 72
11
 73
7
 74
0
 42
0.0000001
 43
0.0000001
 44
0.0000000001
 40
0.0
 40
0.0
 40
0.0
 40
0.0
 40
0.2382631044
 40
0.4812879094
 40
0.7332385455
 40
1.0
 40
1.0
 40
1.0
 40
1.0
 10
70.8917214852
 20
68.0904054556
 30
0.0
 10
70.8921943115
 20
66.8331144074
 30
0.0
 10
70.7302680708
 20
64.2895910188
 30
0.0
 10
69.9336493176
 20
60.4888928016
 30
0.0
 10
68.5067817595
 20
56.7135536678
 30
0.0
 10
67.1378772057
 20
54.3283238543
 30
0.0
 10
66.3515629338
 20
53.1607381517
 30
0.0
  0
SPLINE
  5
316
100
AcDbEntity
  8
BEZUGSACHSEN
100
AcDbSpline
 62
7
  6
CONTINUOUS
 70
0
 71
3
 72
11
 73
7
 74
0
 42
0.0000001
 43
0.0000001
 44
0.0000000001
 40
0.0
 40
0.0
 40
0.0
 40
0.0
 40
0.2382631044
 40
0.4812879094
 40
0.7332385455
 40
1.0
 40
1.0
 40
1.0
 40
1.0
 10
70.8917214852
 20
85.228807266
 30
0.0
 10
70.8921943115
 20
86.4860983142
 30
0.0
 10
70.7302680708
 20
89.0296217027
 30
0.0
 10
69.9336493176
 20
92.8303199199
 30
0.0
 10
68.5067817595
 20
96.6056590537
 30
0.0
 10
67.1378772057
 20
98.9908888672
 30
0.0
 10
66.3515629338
 20
100.1584745699
 30
0.0
  0
SPLINE
  5
317
100
AcDbEntity
  8
BEZUGSACHSEN
100
AcDbSpline
 62
7
  6
CONTINUOUS
 70
0
 71
3
 72
10
 73
6
 74
0
 42
0.0000001
 43
0.0000001
 44
0.0000000001
 40
0.0
 40
0.0
 40
0.0
 40
0.0
 40
0.4969055702
 40
0.7471057227
 40
1.0
 40
1.0
 40
1.0
 40
1.0
 10
74.9646028741
 20
85.4250244888
 30
0.0
 10
74.9653797931
 20
87.9461019143
 30
0.0
 10
74.6107434856
 20
91.7578493876
 30
0.0
 10
73.2572188663
 20
96.6580104896
 30
0.0
 10
72.2565949748
 20
99.0169569925
 30
0.0
 10
71.6739387945
 20
100.1601052368
 30
0.0
  0
ENDSEC
  0
SECTION
  2
OBJECTS
  0
DICTIONARY
  5
C
100
AcDbDictionary
280
0
281
1
  3
ACAD_GROUP
350
D
  3
ACAD_MLINESTYLE
350
17
  3
ACAD_LAYOUT
350
1A
  3
ACAD_PLOTSETTINGS
350
19
  3
ACAD_PLOTSTYLENAME
350
E
  0
DICTIONARY
  5
D
102
{ACAD_REACTORS
330
C
102
}
100
AcDbDictionary
280
0
281
1
  0
ACDBDICTIONARYWDFLT
  5
E
102
{ACAD_REACTORS
330
C
102
}
100
AcDbDictionary
281
1
  3
Normal
350
F
100
AcDbDictionaryWithDefault
340
F
  0
DICTIONARY
  5
17
102
{ACAD_REACTORS
330
C
102
}
100
AcDbDictionary
280
0
281
1
  3
Standard
350
18
  0
DICTIONARY
  5
19
102
{ACAD_REACTORS
330
C
102
}
100
AcDbDictionary
281
1
  0
DICTIONARY
  5
1A
102
{ACAD_REACTORS
330
C
102
}
100
AcDbDictionary
281
1
  3
Model
350
318
  3
Layout1
350
319
  0
ACDBPLACEHOLDER
  5
F
102
{ACAD_REACTORS
330
E
102
}
  0
MLINESTYLE
  5
18
102
{ACAD_REACTORS
330
17
102
}
100
AcDbMlineStyle
  2
STANDARD
 70
0
  3

 62
256
 51
90.0
 52
90.0
 71
2
 49
0.5
 62
256
  6
BYLAYER
 49
-0.5
 62
256
  6
BYLAYER
  0
LAYOUT
  5
318
102
{ACAD_REACTORS
330
1A
102
}
100
AcDbPlotSettings
  1

  2
none_device
  4
ISO_A3_(420.00_x_297.00_MM)
  6

 40
0.0
 41
0.0
 42
0.0
 43
0.0
 44
420.0
 45
297.0
 46
0.0
 47
0.0
 48
0.0
 49
0.0
140
0.0
141
0.0
142
1.0
143
1.0
 70
1024
 72
1
 73
0
 74
0
  7

 75
0
147
1.0
148
0.0
149
0.0
100
AcDbLayout
  1
Model
 70
0
 71
0
 10
0.0
 20
0.0
 11
420.0
 21
297.0
 12
0.0
 22
0.0
 32
0.0
 14
0.0
 24
0.0
 34
0.0
 15
0.0
 25
0.0
 35
0.0
146
0.0
 13
0.0
 23
0.0
 33
0.0
 16
1.0
 26
0.0
 36
0.0
 17
0.0
 27
1.0
 37
0.0
 76
0
330
20B
345
0
346
0
  0
LAYOUT
  5
319
102
{ACAD_REACTORS
330
1A
102
}
100
AcDbPlotSettings
  1

  2
none_device
  4
ISO_A3_(420.00_x_297.00_MM)
  6

 40
0.0
 41
0.0
 42
0.0
 43
0.0
 44
420.0
 45
297.0
 46
0.0
 47
0.0
 48
0.0
 49
0.0
140
0.0
141
0.0
142
1.0
143
1.0
 70
0
 72
1
 73
0
 74
0
  7

 75
0
147
1.0
148
0.0
149
0.0
100
AcDbLayout
  1
Layout1
 70
0
 71
1
 10
0.0
 20
0.0
 11
420.0
 21
297.0
 12
0.0
 22
0.0
 32
0.0
 14
0.0
 24
0.0
 34
0.0
 15
0.0
 25
0.0
 35
0.0
146
0.0
 13
0.0
 23
0.0
 33
0.0
 16
1.0
 26
0.0
 36
0.0
 17
0.0
 27
1.0
 37
0.0
 76
0
330
20C
345
0
346
0
  0
ENDSEC
  0
EOF
