999
DXF file: ice-h-13_7901455_m34172-p-3.dxf
999
Pro/ENGINEER 2010140 by Parametric Technology Corporation
  0
SECTION
  2
HEADER
  9
$ACADVER
  1
AC1015
  9
$DWGCODEPAGE
  3
ANSI_1252
  9
$EXTMAX
 10
297.0
 20
210.0
 30
0.0
  9
$EXTMIN
 10
0.0
 20
0.0
 30
0.0
  9
$LIMMIN
 10
0.0
 20
0.0
  9
$LIMMAX
 10
297.0
 20
210.0
  9
$VIEWCTR
 10
148.5
 20
105.0
  9
$VIEWSIZE
 40
210.0
  9
$CLAYER
  8
0
  9
$LTSCALE
 40
16.335
  9
$CELTYPE
  6
BYLAYER
  9
$DIMSCALE
 40
1.0
  9
$DIMASZ
 40
3.5
  9
$DIMEXO
 40
1.85625
  9
$DIMDLI
 40
11.286
  9
$DIMEXE
 40
5.346
  9
$DIMCEN
 40
2.673
  9
$DIMLFAC
 40
1.0
  9
$DIMBLK
  1
_FILLED
  9
$DIMTXT
 40
3.5
  9
$DIMTOL
 70
1
  9
$DIMLIM
 70
0
  9
$DIMTFAC
 40
1.0
  9
$DIMTP
 40
0.005
  9
$DIMTM
 40
0.005
  9
$PDMODE
 70
3
  9
$PDSIZE
 40
0.3125
  9
$HANDSEED
  5
317
  9
$TILEMODE
 70
1
  9
$MEASUREMENT
 70
1
  9
$INSUNITS
 70
4
  0
ENDSEC
  0
SECTION
  2
CLASSES
  0
CLASS
  1
ACDBDICTIONARYWDFLT
  2
AcDbDictionaryWithDefault
  3
AutoCAD 2000
 90
0
280
0
281
0
  0
CLASS
  1
ACDBPLACEHOLDER
  2
AcDbPlaceHolder
  3
AutoCAD 2000
 90
0
280
0
281
0
  0
CLASS
  1
LAYOUT
  2
AcDbLayout
  3
AutoCAD 2000
 90
0
280
0
281
0
  0
ENDSEC
  0
SECTION
  2
TABLES
  0
TABLE
  2
VPORT
  5
8
100
AcDbSymbolTable
 70
2
  0
VPORT
  5
1F4
100
AcDbSymbolTableRecord
100
AcDbViewportTableRecord
  2
*ACTIVE
 70
0
 10
0.0
 20
0.0
 11
1.0
 21
1.0
 12
148.5
 22
105.0
 13
0.0
 23
0.0
 14
1.0
 24
1.0
 15
0.0
 25
0.0
 16
0.0
 26
0.0
 36
1.0
 17
0.0
 27
0.0
 37
0.0
 40
210.0
 41
1.4142857143
 42
50.0
 43
0.0
 44
0.0
 50
0.0
 51
0.0
 71
0
 72
100
 73
1
 74
1
 75
0
 76
0
 77
0
 78
0
  0
ENDTAB
  0
TABLE
  2
LTYPE
  5
5
100
AcDbSymbolTable
 70
6
  0
LTYPE
  5
14
100
AcDbSymbolTableRecord
100
AcDbLinetypeTableRecord
  2
BYBLOCK
 70
0
  3

 72
65
 73
0
 40
0.0
  0
LTYPE
  5
15
100
AcDbSymbolTableRecord
100
AcDbLinetypeTableRecord
  2
BYLAYER
 70
0
  3

 72
65
 73
0
 40
0.0
  0
LTYPE
  5
16
100
AcDbSymbolTableRecord
100
AcDbLinetypeTableRecord
  2
CONTINUOUS
 70
64
  3
Solid line
 72
65
 73
0
 40
0.0
  0
LTYPE
  5
1F5
100
AcDbSymbolTableRecord
100
AcDbLinetypeTableRecord
  2
CENTER
 70
64
  3
____ _ ____ _ ____ _ ____ _ ____ _ ____ _ ____
 72
65
 73
4
 40
0.6
 49
0.375
 74
0
 49
-0.075
 74
0
 49
0.075
 74
0
 49
-0.075
 74
0
  0
LTYPE
  5
1F6
100
AcDbSymbolTableRecord
100
AcDbLinetypeTableRecord
  2
HIDDEN
 70
64
  3
- - - - - - - - - - - - - - - - - - - -
 72
65
 73
2
 40
0.2
 49
0.1
 74
0
 49
-0.1
 74
0
  0
LTYPE
  5
1F7
100
AcDbSymbolTableRecord
100
AcDbLinetypeTableRecord
  2
PHANTOM
 70
64
  3
_____ _ _ _____ _ _ _____ _ _ _____
 72
65
 73
6
 40
0.8
 49
0.45
 74
0
 49
-0.05
 74
0
 49
0.1
 74
0
 49
-0.05
 74
0
 49
0.1
 74
0
 49
-0.05
 74
0
  0
LTYPE
  5
1F8
100
AcDbSymbolTableRecord
100
AcDbLinetypeTableRecord
  2
DOT
 70
64
  3
. . . . . . . . . . . . . . . . . . . .
 72
65
 73
2
 40
0.2
 49
0.1
 74
0
 49
-0.1
 74
0
  0
LTYPE
  5
1F9
100
AcDbSymbolTableRecord
100
AcDbLinetypeTableRecord
  2
DASHED
 70
64
  3
- - - - - - - - - - - - - - - - - - - -
 72
65
 73
2
 40
0.2
 49
0.1
 74
0
 49
-0.1
 74
0
  0
ENDTAB
  0
TABLE
  2
LAYER
  5
2
100
AcDbSymbolTable
 70
36
  0
LAYER
  5
10
100
AcDbSymbolTableRecord
100
AcDbLayerTableRecord
  2
0
 70
0
 62
7
  6
CONTINUOUS
370
-3
390
F
  0
LAYER
  5
1FA
100
AcDbSymbolTableRecord
100
AcDbLayerTableRecord
  2
DEFAULT_1
 70
0
 62
7
  6
CENTER
370
-3
390
F
  0
LAYER
  5
1FB
100
AcDbSymbolTableRecord
100
AcDbLayerTableRecord
  2
DEFAULT_2
 70
0
 62
8
  6
HIDDEN
370
-3
390
F
  0
LAYER
  5
1FC
100
AcDbSymbolTableRecord
100
AcDbLayerTableRecord
  2
DEFAULT_3
 70
0
 62
7
  6
PHANTOM
370
-3
390
F
  0
LAYER
  5
1FD
100
AcDbSymbolTableRecord
100
AcDbLayerTableRecord
  2
AUSFORMSCHRAEGEN
 70
0
 62
7
  6
CONTINUOUS
370
-3
390
F
  0
LAYER
  5
1FE
100
AcDbSymbolTableRecord
100
AcDbLayerTableRecord
  2
BEZUGSACHSEN
 70
0
 62
7
  6
CONTINUOUS
370
-3
390
F
  0
LAYER
  5
1FF
100
AcDbSymbolTableRecord
100
AcDbLayerTableRecord
  2
BEZUGSEBENEN
 70
0
 62
7
  6
CONTINUOUS
370
-3
390
F
  0
LAYER
  5
200
100
AcDbSymbolTableRecord
100
AcDbLayerTableRecord
  2
BOHRUNGEN
 70
0
 62
7
  6
CONTINUOUS
370
-3
390
F
  0
LAYER
  5
201
100
AcDbSymbolTableRecord
100
AcDbLayerTableRecord
  2
FASEN
 70
0
 62
7
  6
CONTINUOUS
370
-3
390
F
  0
LAYER
  5
202
100
AcDbSymbolTableRecord
100
AcDbLayerTableRecord
  2
FLAECHEN
 70
0
 62
7
  6
CONTINUOUS
370
-3
390
F
  0
LAYER
  5
203
100
AcDbSymbolTableRecord
100
AcDbLayerTableRecord
  2
HILFEN
 70
0
 62
7
  6
CONTINUOUS
370
-3
390
F
  0
LAYER
  5
204
100
AcDbSymbolTableRecord
100
AcDbLayerTableRecord
  2
KURVEN
 70
0
 62
7
  6
CONTINUOUS
370
-3
390
F
  0
LAYER
  5
205
100
AcDbSymbolTableRecord
100
AcDbLayerTableRecord
  2
PLATZIERUNG
 70
0
 62
7
  6
CONTINUOUS
370
-3
390
F
  0
LAYER
  5
206
100
AcDbSymbolTableRecord
100
AcDbLayerTableRecord
  2
RUNDUNGEN
 70
0
 62
7
  6
CONTINUOUS
370
-3
390
F
  0
LAYER
  5
207
100
AcDbSymbolTableRecord
100
AcDbLayerTableRecord
  2
T_STARTBEZUEGE
 70
0
 62
7
  6
CONTINUOUS
370
-3
390
F
  0
LAYER
  5
208
100
AcDbSymbolTableRecord
100
AcDbLayerTableRecord
  2
XSEC_DATUMS
 70
0
 62
7
  6
CONTINUOUS
370
-3
390
F
  0
ENDTAB
  0
TABLE
  2
STYLE
  5
3
100
AcDbSymbolTable
 70
1
  0
STYLE
  5
11
100
AcDbSymbolTableRecord
100
AcDbTextStyleTableRecord
  2
STANDARD
 70
0
 40
0.0
 41
0.7
 50
0.0
 71
0
 42
0.2
  3
txt
  4

  0
STYLE
  5
209
100
AcDbSymbolTableRecord
100
AcDbTextStyleTableRecord
  2
TEXTSTYLE_1
 70
0
 40
0.0
 41
0.8
 50
0.0
 71
0
 42
0.2
  3
gdt
  4

  0
ENDTAB
  0
TABLE
  2
VIEW
  5
6
100
AcDbSymbolTable
 70
0
  0
ENDTAB
  0
TABLE
  2
UCS
  5
7
100
AcDbSymbolTable
 70
0
  0
ENDTAB
  0
TABLE
  2
APPID
  5
9
100
AcDbSymbolTable
 70
1
  0
APPID
  5
20A
100
AcDbSymbolTableRecord
100
AcDbRegAppTableRecord
  2
ACAD
 70
0
  0
ENDTAB
  0
TABLE
  2
BLOCK_RECORD
  5
1
100
AcDbSymbolTable
 70
0
  0
BLOCK_RECORD
  5
20B
100
AcDbSymbolTableRecord
100
AcDbBlockTableRecord
  2
*Model_Space
  0
BLOCK_RECORD
  5
20C
100
AcDbSymbolTableRecord
100
AcDbBlockTableRecord
  2
*Paper_Space
  0
ENDTAB
  0
TABLE
  2
DIMSTYLE
  5
A
100
AcDbSymbolTable
 70
1
100
AcDbDimStyleTable
 71
0
  0
DIMSTYLE
105
20D
100
AcDbSymbolTableRecord
100
AcDbDimStyleTableRecord
  2
STANDARD
 70
0
  3

  4

 40
1.0
 41
3.5
 42
0.0625
 43
0.38
 44
0.18
 45
0.0
 46
0.0
 47
0.005
 48
0.005
140
3.5
141
0.09
142
0.0
143
25.4
144
1.0
145
0.0
146
1.0
147
0.09
 71
1.0
 72
0.0
 73
0
 74
0
 75
0
 76
0
 77
1
 78
8
170
0
171
2
172
0
173
0
174
0
175
0
176
0
177
0
178
5
270
2
271
3
272
3
273
2
274
2
275
0
280
0
281
0
282
0
283
1
284
8
285
0
286
0
287
3
288
0
340
11
  0
ENDTAB
  0
ENDSEC
  0
SECTION
  2
BLOCKS
  0
BLOCK
  5
20
100
AcDbEntity
  8
0
100
AcDbBlockBegin
  2
*Model_Space
 70
0
 10
0.0
 20
0.0
 30
0.0
  3
*Model_Space
  1

  0
ENDBLK
  5
21
100
AcDbEntity
  8
0
100
AcDbBlockEnd
  0
BLOCK
  5
1C
100
AcDbEntity
  8
0
100
AcDbBlockBegin
  2
*Paper_Space
 70
0
 10
0.0
 20
0.0
 30
0.0
  3
*Paper_Space
  1

  0
ENDBLK
  5
1D
100
AcDbEntity
  8
0
100
AcDbBlockEnd
  0
ENDSEC
  0
SECTION
  2
ENTITIES
  0
MTEXT
  5
20E
100
AcDbEntity
  8
0
100
AcDbMText
 62
5
  6
CONTINUOUS
  7
STANDARD
 71
1
 72
1
 10
92.6265301924
 20
137.2658908364
 30
0.0
 11
0.0
 21
1.0
 31
0.0
 44
0.9
  1
RUD
 40
6.0
 41
16.0
  0
MTEXT
  5
20F
100
AcDbEntity
  8
0
100
AcDbMText
 62
5
  6
CONTINUOUS
  7
STANDARD
 71
2
 72
1
 10
168.2312593514
 20
145.2503781029
 30
0.0
 11
0.0
 21
1.0
 31
0.0
 44
0.9
  1
RUD\PICE-H 13
 40
6.0
 41
34.5714285714
  0
LINE
  5
210
100
AcDbEntity
  8
0
100
AcDbLine
 62
7
  6
CONTINUOUS
 10
0.0
 20
0.0
 11
0.0
 21
210.0
  0
LINE
  5
211
100
AcDbEntity
  8
0
100
AcDbLine
 62
7
  6
CONTINUOUS
 10
0.0
 20
0.0
 11
297.0
 21
0.0
  0
LINE
  5
212
100
AcDbEntity
  8
0
100
AcDbLine
 62
7
  6
CONTINUOUS
 10
0.0
 20
210.0
 11
297.0
 21
210.0
  0
LINE
  5
213
100
AcDbEntity
  8
0
100
AcDbLine
 62
7
  6
CONTINUOUS
 10
297.0
 20
0.0
 11
297.0
 21
210.0
  0
LINE
  5
214
100
AcDbEntity
  8
0
100
AcDbLine
 62
7
  6
CONTINUOUS
 10
39.451181218
 20
184.9180388832
 11
49.8520909723
 21
194.9620806807
  0
LINE
  5
215
100
AcDbEntity
  8
BEZUGSACHSEN
100
AcDbLine
 62
7
  6
CONTINUOUS
 10
49.8520909723
 20
95.9213822669
 11
39.451181218
 21
105.9654240644
  0
LINE
  5
216
100
AcDbEntity
  8
FASEN
100
AcDbLine
 62
7
  6
CONTINUOUS
 10
46.0817811691
 20
185.4388162304
 11
39.451181218
 21
178.6247838529
  0
LINE
  5
217
100
AcDbEntity
  8
BEZUGSACHSEN
100
AcDbLine
 62
7
  6
CONTINUOUS
 10
100.5502714637
 20
95.9213822669
 11
97.0647833924
 21
95.4269006928
  0
LINE
  5
218
100
AcDbEntity
  8
BEZUGSACHSEN
100
AcDbLine
 62
7
  6
CONTINUOUS
 10
53.3375790436
 20
95.4269006928
 11
49.8520909723
 21
95.9213822669
  0
LINE
  5
219
100
AcDbEntity
  8
BEZUGSACHSEN
100
AcDbLine
 62
7
  6
CONTINUOUS
 10
46.0817811691
 20
105.4446467173
 11
39.451181218
 21
112.2586790948
  0
LINE
  5
21A
100
AcDbEntity
  8
0
100
AcDbLine
 62
7
  6
CONTINUOUS
 10
67.451181218
 20
107.1917314738
 11
82.951181218
 21
107.1917314738
  0
LINE
  5
21B
100
AcDbEntity
  8
BEZUGSACHSEN
100
AcDbLine
 62
7
  6
CONTINUOUS
 10
39.451181218
 20
184.9180388832
 11
39.451181218
 21
184.3013170843
  0
LINE
  5
21C
100
AcDbEntity
  8
BEZUGSACHSEN
100
AcDbLine
 62
7
  6
CONTINUOUS
 10
39.451181218
 20
178.6247838529
 11
39.451181218
 21
105.9654240644
  0
LINE
  5
21D
100
AcDbEntity
  8
0
100
AcDbLine
 62
7
  6
CONTINUOUS
 10
39.451181218
 20
178.6247838529
 11
39.451181218
 21
184.3013170843
  0
LINE
  5
21E
100
AcDbEntity
  8
BEZUGSACHSEN
100
AcDbLine
 62
7
  6
CONTINUOUS
 10
49.201181218
 20
134.8792314738
 11
49.201181218
 21
156.0042314738
  0
LINE
  5
21F
100
AcDbEntity
  8
BEZUGSACHSEN
100
AcDbLine
 62
7
  6
CONTINUOUS
 10
49.8520909723
 20
95.9213822669
 11
49.8520909228
 21
97.1438334298
  0
LINE
  5
220
100
AcDbEntity
  8
BEZUGSACHSEN
100
AcDbLine
 62
7
  6
CONTINUOUS
 10
49.8520909228
 20
193.7396295178
 11
49.8520909723
 21
194.9620806807
  0
LINE
  5
221
100
AcDbEntity
  8
0
100
AcDbLine
 62
7
  6
CONTINUOUS
 10
51.9443195124
 20
156.0096482438
 11
51.833681218
 21
155.4679814738
  0
LINE
  5
222
100
AcDbEntity
  8
0
100
AcDbLine
 62
7
  6
CONTINUOUS
 10
52.4975110036
 20
155.4679814738
 11
52.6081492883
 21
155.9013147038
  0
LINE
  5
223
100
AcDbEntity
  8
0
100
AcDbLine
 62
7
  6
CONTINUOUS
 10
52.1655961108
 20
156.4429814738
 11
51.9443195124
 21
156.0096482438
  0
LINE
  5
224
100
AcDbEntity
  8
0
100
AcDbLine
 62
7
  6
CONTINUOUS
 10
52.6081492883
 20
155.9013147038
 11
52.8294259351
 21
156.2263148588
  0
LINE
  5
225
100
AcDbEntity
  8
0
100
AcDbLine
 62
7
  6
CONTINUOUS
 10
52.9227770024
 20
132.7410025332
 11
52.6807556699
 21
132.9779814738
  0
LINE
  5
226
100
AcDbEntity
  8
0
100
AcDbLine
 62
7
  6
CONTINUOUS
 10
52.196713132
 20
132.7410025332
 11
52.4387344221
 21
132.3855337832
  0
LINE
  5
227
100
AcDbEntity
  8
0
100
AcDbLine
 62
7
  6
CONTINUOUS
 10
51.9546918525
 20
133.2149607535
 11
52.196713132
 21
132.7410025332
  0
LINE
  5
228
100
AcDbEntity
  8
0
100
AcDbLine
 62
7
  6
CONTINUOUS
 10
52.6807556699
 20
132.9779814738
 11
52.559745046
 21
133.2149607535
  0
LINE
  5
229
100
AcDbEntity
  8
0
100
AcDbLine
 62
7
  6
CONTINUOUS
 10
51.833681218
 20
133.6889189738
 11
51.9546918525
 21
133.2149607535
  0
LINE
  5
22A
100
AcDbEntity
  8
0
100
AcDbLine
 62
7
  6
CONTINUOUS
 10
52.559745046
 20
133.2149607535
 11
52.4387344221
 21
133.8074084442
  0
LINE
  5
22B
100
AcDbEntity
  8
0
100
AcDbLine
 62
7
  6
CONTINUOUS
 10
51.833681218
 20
158.7179814738
 11
51.833681218
 21
158.0679814738
  0
LINE
  5
22C
100
AcDbEntity
  8
0
100
AcDbLine
 62
7
  6
CONTINUOUS
 10
51.833681218
 20
155.4679814738
 11
51.833681218
 21
154.4929814738
  0
LINE
  5
22D
100
AcDbEntity
  8
0
100
AcDbLine
 62
7
  6
CONTINUOUS
 10
51.833681218
 20
152.1096479339
 11
51.833681218
 21
148.2096485538
  0
LINE
  5
22E
100
AcDbEntity
  8
0
100
AcDbLine
 62
7
  6
CONTINUOUS
 10
51.833681218
 20
144.9596485538
 11
51.833681218
 21
144.3096485538
  0
LINE
  5
22F
100
AcDbEntity
  8
0
100
AcDbLine
 62
7
  6
CONTINUOUS
 10
51.833681218
 20
141.2763143939
 11
51.833681218
 21
140.6263143939
  0
LINE
  5
230
100
AcDbEntity
  8
0
100
AcDbLine
 62
7
  6
CONTINUOUS
 10
51.833681218
 20
137.9545439738
 11
51.833681218
 21
137.2436064738
  0
LINE
  5
231
100
AcDbEntity
  8
0
100
AcDbLine
 62
7
  6
CONTINUOUS
 10
51.833681218
 20
134.6368357535
 11
51.833681218
 21
133.6889189738
  0
LINE
  5
232
100
AcDbEntity
  8
0
100
AcDbLine
 62
7
  6
CONTINUOUS
 10
52.4387344221
 20
133.8074084442
 11
52.4387344221
 21
134.5183459442
  0
LINE
  5
233
100
AcDbEntity
  8
0
100
AcDbLine
 62
7
  6
CONTINUOUS
 10
52.4975110036
 20
148.2096485538
 11
52.4975110036
 21
151.4596479339
  0
LINE
  5
234
100
AcDbEntity
  8
0
100
AcDbLine
 62
7
  6
CONTINUOUS
 10
52.4975110036
 20
154.4929814738
 11
52.4975110036
 21
155.4679814738
  0
LINE
  5
235
100
AcDbEntity
  8
0
100
AcDbLine
 62
7
  6
CONTINUOUS
 10
53.1613407892
 20
152.9763150138
 11
53.1613407892
 21
153.6263147038
  0
LINE
  5
236
100
AcDbEntity
  8
0
100
AcDbLine
 62
7
  6
CONTINUOUS
 10
53.1647982501
 20
135.7032420035
 11
53.1647982501
 21
136.2956898637
  0
LINE
  5
237
100
AcDbEntity
  8
BEZUGSACHSEN
100
AcDbLine
 62
7
  6
CONTINUOUS
 10
53.3375790436
 20
195.4565622549
 11
53.3375790417
 21
194.2042895675
  0
LINE
  5
238
100
AcDbEntity
  8
BEZUGSACHSEN
100
AcDbLine
 62
7
  6
CONTINUOUS
 10
53.3375790417
 20
96.6791733802
 11
53.3375790436
 21
95.4269006928
  0
LINE
  5
239
100
AcDbEntity
  8
0
100
AcDbLine
 62
7
  6
CONTINUOUS
 10
53.7145322126
 20
147.3429814738
 11
53.7145322126
 21
145.8263143939
  0
LINE
  5
23A
100
AcDbEntity
  8
0
100
AcDbLine
 62
7
  6
CONTINUOUS
 10
54.267723791
 20
151.4596479339
 11
54.267723791
 21
148.6429814738
  0
LINE
  5
23B
100
AcDbEntity
  8
0
100
AcDbLine
 62
7
  6
CONTINUOUS
 10
54.267723791
 20
144.3096485538
 11
54.267723791
 21
141.2763143939
  0
LINE
  5
23C
100
AcDbEntity
  8
0
100
AcDbLine
 62
7
  6
CONTINUOUS
 10
54.267723791
 20
145.8263143939
 11
54.267723791
 21
147.3429814738
  0
LINE
  5
23D
100
AcDbEntity
  8
0
100
AcDbLine
 62
7
  6
CONTINUOUS
 10
54.4959152822
 20
134.3998564738
 11
54.4959152822
 21
133.9258982535
  0
LINE
  5
23E
100
AcDbEntity
  8
0
100
AcDbLine
 62
7
  6
CONTINUOUS
 10
54.9315534991
 20
141.2763143939
 11
54.9315534991
 21
144.3096485538
  0
LINE
  5
23F
100
AcDbEntity
  8
0
100
AcDbLine
 62
7
  6
CONTINUOUS
 10
54.9315534991
 20
148.6429814738
 11
54.9315534991
 21
151.4596479339
  0
LINE
  5
240
100
AcDbEntity
  8
0
100
AcDbLine
 62
7
  6
CONTINUOUS
 10
54.9799577777
 20
133.9258982535
 11
54.9799577777
 21
134.3998564738
  0
LINE
  5
241
100
AcDbEntity
  8
0
100
AcDbLine
 62
7
  6
CONTINUOUS
 10
52.4387344221
 20
134.5183459442
 11
52.559745046
 21
135.1107939738
  0
LINE
  5
242
100
AcDbEntity
  8
0
100
AcDbLine
 62
7
  6
CONTINUOUS
 10
56.3698515099
 20
154.4929814738
 11
56.2592132252
 21
154.0596482438
  0
LINE
  5
243
100
AcDbEntity
  8
0
100
AcDbLine
 62
7
  6
CONTINUOUS
 10
51.9546918525
 20
135.1107939738
 11
51.833681218
 21
134.6368357535
  0
LINE
  5
244
100
AcDbEntity
  8
0
100
AcDbLine
 62
7
  6
CONTINUOUS
 10
56.701766364
 20
153.5179814738
 11
56.9230429333
 21
153.9513147038
  0
LINE
  5
245
100
AcDbEntity
  8
0
100
AcDbLine
 62
7
  6
CONTINUOUS
 10
56.2592132252
 20
154.0596482438
 11
56.0379366559
 21
153.7346482438
  0
LINE
  5
246
100
AcDbEntity
  8
0
100
AcDbLine
 62
7
  6
CONTINUOUS
 10
52.6081492883
 20
156.8763148588
 11
52.1655961108
 21
156.4429814738
  0
LINE
  5
247
100
AcDbEntity
  8
0
100
AcDbLine
 62
7
  6
CONTINUOUS
 10
52.8294259351
 20
156.2263148588
 11
53.1613407892
 21
156.4429814738
  0
LINE
  5
248
100
AcDbEntity
  8
0
100
AcDbLine
 62
7
  6
CONTINUOUS
 10
53.0507025045
 20
157.0929814738
 11
52.6081492883
 21
156.8763148588
  0
LINE
  5
249
100
AcDbEntity
  8
0
100
AcDbLine
 62
7
  6
CONTINUOUS
 10
82.951181218
 20
125.1917314738
 11
67.451181218
 21
125.1917314738
  0
LINE
  5
24A
100
AcDbEntity
  8
0
100
AcDbLine
 62
7
  6
CONTINUOUS
 10
53.1647982501
 20
132.6225127238
 11
52.9227770024
 21
132.7410025332
  0
LINE
  5
24B
100
AcDbEntity
  8
0
100
AcDbLine
 62
7
  6
CONTINUOUS
 10
52.4387344221
 20
132.3855337832
 11
52.8017662938
 21
132.1485541645
  0
LINE
  5
24C
100
AcDbEntity
  8
0
100
AcDbLine
 62
7
  6
CONTINUOUS
 10
55.1009684016
 20
132.5040229145
 11
55.4640002732
 21
132.2670439738
  0
LINE
  5
24D
100
AcDbEntity
  8
0
100
AcDbLine
 62
7
  6
CONTINUOUS
 10
55.4640002732
 20
132.9779814738
 11
55.2219790255
 21
133.2149607535
  0
LINE
  5
24E
100
AcDbEntity
  8
0
100
AcDbLine
 62
7
  6
CONTINUOUS
 10
54.73793653
 20
132.9779814738
 11
55.1009684016
 21
132.5040229145
  0
LINE
  5
24F
100
AcDbEntity
  8
0
100
AcDbLine
 62
7
  6
CONTINUOUS
 10
56.553096227
 20
135.3477732535
 11
56.7951174748
 21
134.9923045035
  0
LINE
  5
250
100
AcDbEntity
  8
0
100
AcDbLine
 62
7
  6
CONTINUOUS
 10
57.4001705942
 20
135.1107939738
 11
57.1581493464
 21
135.5847521942
  0
LINE
  5
251
100
AcDbEntity
  8
0
100
AcDbLine
 62
7
  6
CONTINUOUS
 10
55.2219790255
 20
133.2149607535
 11
54.9799577777
 21
133.9258982535
  0
LINE
  5
252
100
AcDbEntity
  8
0
100
AcDbLine
 62
7
  6
CONTINUOUS
 10
51.833681218
 20
154.4929814738
 11
51.9443195124
 21
153.9513147038
  0
LINE
  5
253
100
AcDbEntity
  8
0
100
AcDbLine
 62
7
  6
CONTINUOUS
 10
56.7951174748
 20
134.9923045035
 11
56.9161280987
 21
134.3998564738
  0
LINE
  5
254
100
AcDbEntity
  8
0
100
AcDbLine
 62
7
  6
CONTINUOUS
 10
55.7060214919
 20
153.6263147038
 11
55.7060214919
 21
152.9763150138
  0
LINE
  5
255
100
AcDbEntity
  8
0
100
AcDbLine
 62
7
  6
CONTINUOUS
 10
56.1900643554
 20
136.1772002238
 11
56.1900643554
 21
135.5847521942
  0
LINE
  5
256
100
AcDbEntity
  8
0
100
AcDbLine
 62
7
  6
CONTINUOUS
 10
56.3698515099
 20
155.4679814738
 11
56.3698515099
 21
154.4929814738
  0
LINE
  5
257
100
AcDbEntity
  8
0
100
AcDbLine
 62
7
  6
CONTINUOUS
 10
56.3698515099
 20
151.4596479339
 11
56.3698515099
 21
148.2096485538
  0
LINE
  5
258
100
AcDbEntity
  8
0
100
AcDbLine
 62
7
  6
CONTINUOUS
 10
56.8455489777
 20
174.6917314738
 11
56.8455489777
 21
171.8479814738
  0
LINE
  5
259
100
AcDbEntity
  8
BEZUGSACHSEN
100
AcDbLine
 62
7
  6
CONTINUOUS
 10
56.8455489777
 20
116.1917314738
 11
56.8455489777
 21
119.0354814738
  0
LINE
  5
25A
100
AcDbEntity
  8
0
100
AcDbLine
 62
7
  6
CONTINUOUS
 10
56.9161280987
 20
134.3998564738
 11
56.9161280987
 21
133.9258982535
  0
LINE
  5
25B
100
AcDbEntity
  8
0
100
AcDbLine
 62
7
  6
CONTINUOUS
 10
57.033681218
 20
140.6263143939
 11
57.033681218
 21
141.2763143939
  0
LINE
  5
25C
100
AcDbEntity
  8
0
100
AcDbLine
 62
7
  6
CONTINUOUS
 10
57.033681218
 20
144.3096485538
 11
57.033681218
 21
144.9596485538
  0
LINE
  5
25D
100
AcDbEntity
  8
0
100
AcDbLine
 62
7
  6
CONTINUOUS
 10
57.033681218
 20
148.2096485538
 11
57.033681218
 21
152.1096479339
  0
LINE
  5
25E
100
AcDbEntity
  8
0
100
AcDbLine
 62
7
  6
CONTINUOUS
 10
57.033681218
 20
154.4929814738
 11
57.033681218
 21
155.4679814738
  0
LINE
  5
25F
100
AcDbEntity
  8
0
100
AcDbLine
 62
7
  6
CONTINUOUS
 10
57.033681218
 20
158.0679814738
 11
57.033681218
 21
158.7179814738
  0
LINE
  5
260
100
AcDbEntity
  8
0
100
AcDbLine
 62
7
  6
CONTINUOUS
 10
57.521181218
 20
134.0443877238
 11
57.521181218
 21
134.2813670035
  0
LINE
  5
261
100
AcDbEntity
  8
0
100
AcDbLine
 62
7
  6
CONTINUOUS
 10
57.521181218
 20
137.2436064738
 11
57.521181218
 21
137.9545439738
  0
LINE
  5
262
100
AcDbEntity
  8
0
100
AcDbLine
 62
7
  6
CONTINUOUS
 10
57.4001705942
 20
133.2149607535
 11
57.521181218
 21
134.0443877238
  0
LINE
  5
263
100
AcDbEntity
  8
0
100
AcDbLine
 62
7
  6
CONTINUOUS
 10
54.4959152822
 20
133.9258982535
 11
54.3749046583
 21
133.2149607535
  0
LINE
  5
264
100
AcDbEntity
  8
0
100
AcDbLine
 62
7
  6
CONTINUOUS
 10
56.9230429333
 20
153.9513147038
 11
57.033681218
 21
154.4929814738
  0
LINE
  5
265
100
AcDbEntity
  8
0
100
AcDbLine
 62
7
  6
CONTINUOUS
 10
52.196713132
 20
135.5847521942
 11
51.9546918525
 21
135.1107939738
  0
LINE
  5
266
100
AcDbEntity
  8
0
100
AcDbLine
 62
7
  6
CONTINUOUS
 10
56.2592132252
 20
153.0846479339
 11
56.701766364
 21
153.5179814738
  0
LINE
  5
267
100
AcDbEntity
  8
0
100
AcDbLine
 62
7
  6
CONTINUOUS
 10
55.4640002732
 20
132.2670439738
 11
55.9480427687
 21
132.1485541645
  0
LINE
  5
268
100
AcDbEntity
  8
0
100
AcDbLine
 62
7
  6
CONTINUOUS
 10
52.8017662938
 20
132.1485541645
 11
53.1647982501
 21
132.0300650332
  0
LINE
  5
269
100
AcDbEntity
  8
0
100
AcDbLine
 62
7
  6
CONTINUOUS
 10
55.9480427687
 20
132.7410025332
 11
55.4640002732
 21
132.9779814738
  0
LINE
  5
26A
100
AcDbEntity
  8
0
100
AcDbLine
 62
7
  6
CONTINUOUS
 10
56.1900643554
 20
135.5847521942
 11
56.553096227
 21
135.3477732535
  0
LINE
  5
26B
100
AcDbEntity
  8
0
100
AcDbLine
 62
7
  6
CONTINUOUS
 10
55.7060215209
 20
138.6654814738
 11
56.553096227
 21
137.9545439738
  0
LINE
  5
26C
100
AcDbEntity
  8
0
100
AcDbLine
 62
7
  6
CONTINUOUS
 10
57.521181218
 20
137.9545439738
 11
56.6741068509
 21
138.6654814738
  0
LINE
  5
26D
100
AcDbEntity
  8
0
100
AcDbLine
 62
7
  6
CONTINUOUS
 10
57.1581493464
 20
135.5847521942
 11
56.6741068509
 21
136.058710584
  0
LINE
  5
26E
100
AcDbEntity
  8
0
100
AcDbLine
 62
7
  6
CONTINUOUS
 10
51.9443195124
 20
153.9513147038
 11
52.1655961108
 21
153.5179814738
  0
LINE
  5
26F
100
AcDbEntity
  8
0
100
AcDbLine
 62
7
  6
CONTINUOUS
 10
52.6081492883
 20
154.0596482438
 11
52.4975110036
 21
154.4929814738
  0
LINE
  5
270
100
AcDbEntity
  8
0
100
AcDbLine
 62
7
  6
CONTINUOUS
 10
57.521181218
 20
134.2813670035
 11
57.4001705942
 21
135.1107939738
  0
LINE
  5
271
100
AcDbEntity
  8
BEZUGSACHSEN
100
AcDbLine
 62
7
  6
CONTINUOUS
 10
60.576181218
 20
156.0042314738
 11
60.576181218
 21
134.8792314738
  0
LINE
  5
272
100
AcDbEntity
  8
0
100
AcDbLine
 62
7
  6
CONTINUOUS
 10
56.9161280987
 20
133.9258982535
 11
56.7951174748
 21
133.3334502238
  0
LINE
  5
273
100
AcDbEntity
  8
0
100
AcDbLine
 62
7
  6
CONTINUOUS
 10
54.4959152822
 20
132.3855337832
 11
54.73793653
 21
132.9779814738
  0
LINE
  5
274
100
AcDbEntity
  8
0
100
AcDbLine
 62
7
  6
CONTINUOUS
 10
52.559745046
 20
135.1107939738
 11
52.6807556699
 21
135.3477732535
  0
LINE
  5
275
100
AcDbEntity
  8
0
100
AcDbLine
 62
7
  6
CONTINUOUS
 10
52.4387344221
 20
135.9402211137
 11
52.196713132
 21
135.5847521942
  0
LINE
  5
276
100
AcDbEntity
  8
0
100
AcDbLine
 62
7
  6
CONTINUOUS
 10
56.0379366559
 20
153.7346482438
 11
55.7060214919
 21
153.6263147038
  0
LINE
  5
277
100
AcDbEntity
  8
0
100
AcDbLine
 62
7
  6
CONTINUOUS
 10
53.1647982501
 20
132.0300650332
 11
53.6488407456
 21
132.0300650332
  0
LINE
  5
278
100
AcDbEntity
  8
0
100
AcDbLine
 62
7
  6
CONTINUOUS
 10
55.9480427687
 20
132.1485541645
 11
56.1900643554
 21
132.1485541645
  0
LINE
  5
279
100
AcDbEntity
  8
0
100
AcDbLine
 62
7
  6
CONTINUOUS
 10
53.6488407456
 20
132.6225127238
 11
53.1647982501
 21
132.6225127238
  0
LINE
  5
27A
100
AcDbEntity
  8
0
100
AcDbLine
 62
7
  6
CONTINUOUS
 10
56.1900643554
 20
132.7410025332
 11
55.9480427687
 21
132.7410025332
  0
LINE
  5
27B
100
AcDbEntity
  8
0
100
AcDbLine
 62
7
  6
CONTINUOUS
 10
56.6741068509
 20
136.058710584
 11
56.1900643554
 21
136.1772002238
  0
LINE
  5
27C
100
AcDbEntity
  8
0
100
AcDbLine
 62
7
  6
CONTINUOUS
 10
52.8294259351
 20
153.7346482438
 11
52.6081492883
 21
154.0596482438
  0
LINE
  5
27D
100
AcDbEntity
  8
0
100
AcDbLine
 62
7
  6
CONTINUOUS
 10
56.2592132252
 20
155.9013147038
 11
56.3698515099
 21
155.4679814738
  0
LINE
  5
27E
100
AcDbEntity
  8
0
100
AcDbLine
 62
7
  6
CONTINUOUS
 10
57.033681218
 20
155.4679814738
 11
56.9230429333
 21
156.0096482438
  0
LINE
  5
27F
100
AcDbEntity
  8
BEZUGSACHSEN
100
AcDbLine
 62
7
  6
CONTINUOUS
 10
67.451181218
 20
100.2017314738
 11
67.451181218
 21
132.9792314738
  0
LINE
  5
280
100
AcDbEntity
  8
0
100
AcDbLine
 62
7
  6
CONTINUOUS
 10
67.451181218
 20
157.9042314738
 11
67.451181218
 21
174.6917314738
  0
LINE
  5
281
100
AcDbEntity
  8
BEZUGSACHSEN
100
AcDbLine
 62
7
  6
CONTINUOUS
 10
67.451181218
 20
174.6917314738
 11
67.451181218
 21
190.6817314738
  0
LINE
  5
282
100
AcDbEntity
  8
0
100
AcDbLine
 62
7
  6
CONTINUOUS
 10
57.1581493464
 20
132.7410025332
 11
57.4001705942
 21
133.2149607535
  0
LINE
  5
283
100
AcDbEntity
  8
0
100
AcDbLine
 62
7
  6
CONTINUOUS
 10
54.3749046583
 20
133.2149607535
 11
54.1328834106
 21
132.8594916645
  0
LINE
  5
284
100
AcDbEntity
  8
0
100
AcDbLine
 62
7
  6
CONTINUOUS
 10
56.7951174748
 20
133.3334502238
 11
56.553096227
 21
132.9779814738
  0
LINE
  5
285
100
AcDbEntity
  8
0
100
AcDbLine
 62
7
  6
CONTINUOUS
 10
52.6807556699
 20
135.3477732535
 11
52.9227770024
 21
135.5847521942
  0
LINE
  5
286
100
AcDbEntity
  8
0
100
AcDbLine
 62
7
  6
CONTINUOUS
 10
56.1900643554
 20
132.1485541645
 11
56.6741068509
 21
132.2670439738
  0
LINE
  5
287
100
AcDbEntity
  8
0
100
AcDbLine
 62
7
  6
CONTINUOUS
 10
53.6488407456
 20
132.0300650332
 11
54.1328834106
 21
132.1485541645
  0
LINE
  5
288
100
AcDbEntity
  8
0
100
AcDbLine
 62
7
  6
CONTINUOUS
 10
54.9799577777
 20
134.3998564738
 11
54.4959152822
 21
134.3998564738
  0
LINE
  5
289
100
AcDbEntity
  8
0
100
AcDbLine
 62
7
  6
CONTINUOUS
 10
51.833681218
 20
137.2436064738
 11
57.521181218
 21
137.2436064738
  0
LINE
  5
28A
100
AcDbEntity
  8
0
100
AcDbLine
 62
7
  6
CONTINUOUS
 10
52.1655961108
 20
153.5179814738
 11
52.6081492883
 21
153.0846479339
  0
LINE
  5
28B
100
AcDbEntity
  8
0
100
AcDbLine
 62
7
  6
CONTINUOUS
 10
56.0379366559
 20
156.2263148588
 11
56.2592132252
 21
155.9013147038
  0
LINE
  5
28C
100
AcDbEntity
  8
0
100
AcDbLine
 62
7
  6
CONTINUOUS
 10
56.9230429333
 20
156.0096482438
 11
56.701766364
 21
156.4429814738
  0
LINE
  5
28D
100
AcDbEntity
  8
0
100
AcDbLine
 62
7
  6
CONTINUOUS
 10
56.6741068509
 20
132.2670439738
 11
57.1581493464
 21
132.7410025332
  0
LINE
  5
28E
100
AcDbEntity
  8
0
100
AcDbLine
 62
7
  6
CONTINUOUS
 10
52.8017662938
 20
136.1772002238
 11
52.4387344221
 21
135.9402211137
  0
LINE
  5
28F
100
AcDbEntity
  8
0
100
AcDbLine
 62
7
  6
CONTINUOUS
 10
56.553096227
 20
137.9545439738
 11
51.833681218
 21
137.9545439738
  0
LINE
  5
290
100
AcDbEntity
  8
0
100
AcDbLine
 62
7
  6
CONTINUOUS
 10
56.6741068509
 20
138.6654814738
 11
55.7060215209
 21
138.6654814738
  0
LINE
  5
291
100
AcDbEntity
  8
0
100
AcDbLine
 62
7
  6
CONTINUOUS
 10
51.833681218
 20
140.6263143939
 11
57.033681218
 21
140.6263143939
  0
LINE
  5
292
100
AcDbEntity
  8
0
100
AcDbLine
 62
7
  6
CONTINUOUS
 10
57.033681218
 20
141.2763143939
 11
54.9315534991
 21
141.2763143939
  0
LINE
  5
293
100
AcDbEntity
  8
0
100
AcDbLine
 62
7
  6
CONTINUOUS
 10
54.267723791
 20
141.2763143939
 11
51.833681218
 21
141.2763143939
  0
LINE
  5
294
100
AcDbEntity
  8
0
100
AcDbLine
 62
7
  6
CONTINUOUS
 10
56.701766364
 20
156.4429814738
 11
56.2592132252
 21
156.8763148588
  0
LINE
  5
295
100
AcDbEntity
  8
0
100
AcDbLine
 62
7
  6
CONTINUOUS
 10
54.1328834106
 20
132.1485541645
 11
54.4959152822
 21
132.3855337832
  0
LINE
  5
296
100
AcDbEntity
  8
0
100
AcDbLine
 62
7
  6
CONTINUOUS
 10
56.553096227
 20
132.9779814738
 11
56.1900643554
 21
132.7410025332
  0
LINE
  5
297
100
AcDbEntity
  8
0
100
AcDbLine
 62
7
  6
CONTINUOUS
 10
52.9227770024
 20
135.5847521942
 11
53.1647982501
 21
135.7032420035
  0
LINE
  5
298
100
AcDbEntity
  8
0
100
AcDbLine
 62
7
  6
CONTINUOUS
 10
51.833681218
 20
144.3096485538
 11
54.267723791
 21
144.3096485538
  0
LINE
  5
299
100
AcDbEntity
  8
0
100
AcDbLine
 62
7
  6
CONTINUOUS
 10
54.9315534991
 20
144.3096485538
 11
57.033681218
 21
144.3096485538
  0
LINE
  5
29A
100
AcDbEntity
  8
0
100
AcDbLine
 62
7
  6
CONTINUOUS
 10
57.033681218
 20
144.9596485538
 11
51.833681218
 21
144.9596485538
  0
LINE
  5
29B
100
AcDbEntity
  8
0
100
AcDbLine
 62
7
  6
CONTINUOUS
 10
53.7145322126
 20
145.8263143939
 11
54.267723791
 21
145.8263143939
  0
LINE
  5
29C
100
AcDbEntity
  8
0
100
AcDbLine
 62
7
  6
CONTINUOUS
 10
55.7060214919
 20
156.4429814738
 11
56.0379366559
 21
156.2263148588
  0
LINE
  5
29D
100
AcDbEntity
  8
0
100
AcDbLine
 62
7
  6
CONTINUOUS
 10
54.1328834106
 20
132.8594916645
 11
53.6488407456
 21
132.6225127238
  0
LINE
  5
29E
100
AcDbEntity
  8
0
100
AcDbLine
 62
7
  6
CONTINUOUS
 10
53.1647982501
 20
136.2956898637
 11
52.8017662938
 21
136.1772002238
  0
LINE
  5
29F
100
AcDbEntity
  8
0
100
AcDbLine
 62
7
  6
CONTINUOUS
 10
54.267723791
 20
147.3429814738
 11
53.7145322126
 21
147.3429814738
  0
LINE
  5
2A0
100
AcDbEntity
  8
0
100
AcDbLine
 62
7
  6
CONTINUOUS
 10
51.833681218
 20
148.2096485538
 11
52.4975110036
 21
148.2096485538
  0
LINE
  5
2A1
100
AcDbEntity
  8
0
100
AcDbLine
 62
7
  6
CONTINUOUS
 10
56.3698515099
 20
148.2096485538
 11
57.033681218
 21
148.2096485538
  0
LINE
  5
2A2
100
AcDbEntity
  8
0
100
AcDbLine
 62
7
  6
CONTINUOUS
 10
54.267723791
 20
148.6429814738
 11
54.9315534991
 21
148.6429814738
  0
LINE
  5
2A3
100
AcDbEntity
  8
0
100
AcDbLine
 62
7
  6
CONTINUOUS
 10
52.6081492883
 20
153.0846479339
 11
53.1613407892
 21
152.9763150138
  0
LINE
  5
2A4
100
AcDbEntity
  8
0
100
AcDbLine
 62
7
  6
CONTINUOUS
 10
53.1613407892
 20
153.6263147038
 11
52.8294259351
 21
153.7346482438
  0
LINE
  5
2A5
100
AcDbEntity
  8
0
100
AcDbLine
 62
7
  6
CONTINUOUS
 10
56.2592132252
 20
156.8763148588
 11
55.8166600865
 21
157.0929814738
  0
LINE
  5
2A6
100
AcDbEntity
  8
BEZUGSACHSEN
100
AcDbLine
 62
7
  6
CONTINUOUS
 10
82.951181218
 20
100.2017314738
 11
82.951181218
 21
132.9792314738
  0
LINE
  5
2A7
100
AcDbEntity
  8
BEZUGSACHSEN
100
AcDbLine
 62
7
  6
CONTINUOUS
 10
82.951181218
 20
157.9042314738
 11
82.951181218
 21
190.6817314738
  0
LINE
  5
2A8
100
AcDbEntity
  8
0
100
AcDbLine
 62
7
  6
CONTINUOUS
 10
52.4975110036
 20
151.4596479339
 11
54.267723791
 21
151.4596479339
  0
LINE
  5
2A9
100
AcDbEntity
  8
0
100
AcDbLine
 62
7
  6
CONTINUOUS
 10
54.9315534991
 20
151.4596479339
 11
56.3698515099
 21
151.4596479339
  0
LINE
  5
2AA
100
AcDbEntity
  8
0
100
AcDbLine
 62
7
  6
CONTINUOUS
 10
57.033681218
 20
152.1096479339
 11
51.833681218
 21
152.1096479339
  0
LINE
  5
2AB
100
AcDbEntity
  8
0
100
AcDbLine
 62
7
  6
CONTINUOUS
 10
55.8166600865
 20
157.0929814738
 11
55.2634683531
 21
157.2013148588
  0
LINE
  5
2AC
100
AcDbEntity
  8
0
100
AcDbLine
 62
7
  6
CONTINUOUS
 10
55.2634683531
 20
156.5513148588
 11
55.7060214919
 21
156.4429814738
  0
LINE
  5
2AD
100
AcDbEntity
  8
0
100
AcDbLine
 62
7
  6
CONTINUOUS
 10
55.7060214919
 20
152.9763150138
 11
56.2592132252
 21
153.0846479339
  0
LINE
  5
2AE
100
AcDbEntity
  8
0
100
AcDbLine
 62
7
  6
CONTINUOUS
 10
53.6038939279
 20
156.5513148588
 11
55.2634683531
 21
156.5513148588
  0
LINE
  5
2AF
100
AcDbEntity
  8
0
100
AcDbLine
 62
7
  6
CONTINUOUS
 10
55.2634683531
 20
157.2013148588
 11
53.6038939279
 21
157.2013148588
  0
LINE
  5
2B0
100
AcDbEntity
  8
0
100
AcDbLine
 62
7
  6
CONTINUOUS
 10
51.833681218
 20
158.0679814738
 11
57.033681218
 21
158.0679814738
  0
LINE
  5
2B1
100
AcDbEntity
  8
BEZUGSACHSEN
100
AcDbLine
 62
7
  6
CONTINUOUS
 10
89.826181218
 20
134.8792314738
 11
89.826181218
 21
156.0042314738
  0
LINE
  5
2B2
100
AcDbEntity
  8
0
100
AcDbLine
 62
7
  6
CONTINUOUS
 10
53.1613407892
 20
156.4429814738
 11
53.6038939279
 21
156.5513148588
  0
LINE
  5
2B3
100
AcDbEntity
  8
0
100
AcDbLine
 62
7
  6
CONTINUOUS
 10
53.6038939279
 20
157.2013148588
 11
53.0507025045
 21
157.0929814738
  0
LINE
  5
2B4
100
AcDbEntity
  8
0
100
AcDbLine
 62
7
  6
CONTINUOUS
 10
57.033681218
 20
158.7179814738
 11
51.833681218
 21
158.7179814738
  0
LINE
  5
2B5
100
AcDbEntity
  8
BEZUGSACHSEN
100
AcDbLine
 62
7
  6
CONTINUOUS
 10
93.5568134584
 20
174.6917314738
 11
93.5568134584
 21
171.8479814738
  0
LINE
  5
2B6
100
AcDbEntity
  8
BEZUGSACHSEN
100
AcDbLine
 62
7
  6
CONTINUOUS
 10
93.5568134584
 20
116.1917314738
 11
93.5568134584
 21
119.0354814738
  0
LINE
  5
2B7
100
AcDbEntity
  8
0
100
AcDbLine
 62
7
  6
CONTINUOUS
 10
67.451181218
 20
165.6917314738
 11
82.951181218
 21
165.6917314738
  0
LINE
  5
2B8
100
AcDbEntity
  8
BEZUGSACHSEN
100
AcDbLine
 62
7
  6
CONTINUOUS
 10
97.0647833924
 20
95.4269006928
 11
97.0647833943
 21
96.6791733802
  0
LINE
  5
2B9
100
AcDbEntity
  8
BEZUGSACHSEN
100
AcDbLine
 62
7
  6
CONTINUOUS
 10
97.0647833943
 20
194.2042895675
 11
97.0647833924
 21
195.4565622549
  0
LINE
  5
2BA
100
AcDbEntity
  8
BEZUGSACHSEN
100
AcDbLine
 62
7
  6
CONTINUOUS
 10
100.5502714637
 20
194.9620806807
 11
100.5502715133
 21
193.7396295178
  0
LINE
  5
2BB
100
AcDbEntity
  8
BEZUGSACHSEN
100
AcDbLine
 62
7
  6
CONTINUOUS
 10
100.5502715133
 20
97.1438334298
 11
100.5502714637
 21
95.9213822669
  0
LINE
  5
2BC
100
AcDbEntity
  8
BEZUGSACHSEN
100
AcDbLine
 62
7
  6
CONTINUOUS
 10
101.201181218
 20
156.0042314738
 11
101.201181218
 21
134.8792314738
  0
LINE
  5
2BD
100
AcDbEntity
  8
BEZUGSACHSEN
100
AcDbLine
 62
7
  6
CONTINUOUS
 10
110.951181218
 20
105.9654240644
 11
110.951181218
 21
184.9180388832
  0
LINE
  5
2BE
100
AcDbEntity
  8
0
100
AcDbLine
 62
7
  6
CONTINUOUS
 10
82.951181218
 20
183.6917314738
 11
67.451181218
 21
183.6917314738
  0
LINE
  5
2BF
100
AcDbEntity
  8
BEZUGSACHSEN
100
AcDbLine
 62
7
  6
CONTINUOUS
 10
104.320581267
 20
105.4446467173
 11
110.951181218
 21
112.2586790948
  0
LINE
  5
2C0
100
AcDbEntity
  8
BEZUGSACHSEN
100
AcDbLine
 62
7
  6
CONTINUOUS
 10
104.320581267
 20
185.4388162304
 11
110.951181218
 21
178.6247838529
  0
LINE
  5
2C1
100
AcDbEntity
  8
BEZUGSACHSEN
100
AcDbLine
 62
7
  6
CONTINUOUS
 10
110.951181218
 20
105.9654240644
 11
100.5502714637
 21
95.9213822669
  0
LINE
  5
2C2
100
AcDbEntity
  8
BEZUGSACHSEN
100
AcDbLine
 62
7
  6
CONTINUOUS
 10
53.3375790436
 20
195.4565622549
 11
49.8520909723
 21
194.9620806807
  0
LINE
  5
2C3
100
AcDbEntity
  8
BEZUGSACHSEN
100
AcDbLine
 62
7
  6
CONTINUOUS
 10
100.5502714637
 20
194.9620806807
 11
97.0647833924
 21
195.4565622549
  0
LINE
  5
2C4
100
AcDbEntity
  8
BEZUGSACHSEN
100
AcDbLine
 62
7
  6
CONTINUOUS
 10
110.951181218
 20
184.9180388832
 11
100.5502714637
 21
194.9620806807
  0
LINE
  5
2C5
100
AcDbEntity
  8
BEZUGSACHSEN
100
AcDbLine
 62
7
  6
CONTINUOUS
 10
156.5752536873
 20
178.6247838529
 11
172.1714005615
 21
184.3013170843
  0
LINE
  5
2C6
100
AcDbEntity
  8
BEZUGSACHSEN
100
AcDbLine
 62
7
  6
CONTINUOUS
 10
156.5752536873
 20
112.2586790948
 11
172.1714005615
 21
106.5821458633
  0
LINE
  5
2C7
100
AcDbEntity
  8
BEZUGSACHSEN
100
AcDbLine
 62
7
  6
CONTINUOUS
 10
156.5752536873
 20
104.680720714
 11
156.5752536873
 21
186.2027422337
  0
LINE
  5
2C8
100
AcDbEntity
  8
FASEN
100
AcDbLine
 62
7
  6
CONTINUOUS
 10
194.7627536873
 20
186.2027422337
 11
194.7627536873
 21
178.6247838529
  0
LINE
  5
2C9
100
AcDbEntity
  8
BEZUGSACHSEN
100
AcDbLine
 62
7
  6
CONTINUOUS
 10
194.7627536873
 20
104.680720714
 11
194.7627536873
 21
178.6247838529
  0
LINE
  5
2CA
100
AcDbEntity
  8
BEZUGSACHSEN
100
AcDbLine
 62
7
  6
CONTINUOUS
 10
194.7627536873
 20
112.2586790948
 11
179.1666068132
 21
106.5821458633
  0
LINE
  5
2CB
100
AcDbEntity
  8
0
100
AcDbLine
 62
7
  6
CONTINUOUS
 10
194.7627536873
 20
178.6247838529
 11
179.1666068132
 21
184.3013170843
  0
LINE
  5
2CC
100
AcDbEntity
  8
BEZUGSACHSEN
100
AcDbLine
 62
7
  6
CONTINUOUS
 10
39.451181218
 20
55.1717088113
 11
39.451181218
 21
32.5803556854
  0
LINE
  5
2CD
100
AcDbEntity
  8
0
100
AcDbLine
 62
7
  6
CONTINUOUS
 10
39.451181218
 20
16.9842088113
 11
39.451181218
 21
32.5803556854
  0
LINE
  5
2CE
100
AcDbEntity
  8
BEZUGSACHSEN
100
AcDbLine
 62
7
  6
CONTINUOUS
 10
49.8520909228
 20
29.1450923918
 11
49.8520909228
 21
43.0108252307
  0
LINE
  5
2CF
100
AcDbEntity
  8
BEZUGSACHSEN
100
AcDbLine
 62
7
  6
CONTINUOUS
 10
53.3375790417
 20
43.1799496587
 11
53.3375790417
 21
28.9759679638
  0
LINE
  5
2D0
100
AcDbEntity
  8
FASEN
100
AcDbLine
 62
7
  6
CONTINUOUS
 10
39.451181218
 20
16.9842088113
 11
56.8455489777
 21
16.9842088113
  0
LINE
  5
2D1
100
AcDbEntity
  8
0
100
AcDbLine
 62
7
  6
CONTINUOUS
 10
56.8455489777
 20
16.9842088113
 11
67.451181218
 21
16.9842088113
  0
LINE
  5
2D2
100
AcDbEntity
  8
BEZUGSACHSEN
100
AcDbLine
 62
7
  6
CONTINUOUS
 10
67.451181218
 20
16.9842088113
 11
110.951181218
 21
16.9842088113
  0
LINE
  5
2D3
100
AcDbEntity
  8
0
100
AcDbLine
 62
7
  6
CONTINUOUS
 10
67.451181218
 20
20.0879588113
 11
67.451181218
 21
16.9842088113
  0
LINE
  5
2D4
100
AcDbEntity
  8
BEZUGSACHSEN
100
AcDbLine
 62
7
  6
CONTINUOUS
 10
67.451181218
 20
20.0879588113
 11
67.451181218
 21
55.1717088113
  0
LINE
  5
2D5
100
AcDbEntity
  8
0
100
AcDbLine
 62
7
  6
CONTINUOUS
 10
67.451181218
 20
28.0779588113
 11
82.951181218
 21
28.0779588113
  0
LINE
  5
2D6
100
AcDbEntity
  8
BEZUGSACHSEN
100
AcDbLine
 62
7
  6
CONTINUOUS
 10
82.951181218
 20
16.9842088113
 11
82.951181218
 21
55.1717088113
  0
LINE
  5
2D7
100
AcDbEntity
  8
0
100
AcDbLine
 62
7
  6
CONTINUOUS
 10
67.451181218
 20
44.0779588113
 11
82.951181218
 21
44.0779588113
  0
LINE
  5
2D8
100
AcDbEntity
  8
BEZUGSACHSEN
100
AcDbLine
 62
7
  6
CONTINUOUS
 10
39.451181218
 20
55.1717088113
 11
110.951181218
 21
55.1717088113
  0
LINE
  5
2D9
100
AcDbEntity
  8
BEZUGSACHSEN
100
AcDbLine
 62
7
  6
CONTINUOUS
 10
97.0647833943
 20
28.9759679638
 11
97.0647833943
 21
43.1799496587
  0
LINE
  5
2DA
100
AcDbEntity
  8
BEZUGSACHSEN
100
AcDbLine
 62
7
  6
CONTINUOUS
 10
100.5502715133
 20
43.0108252307
 11
100.5502715133
 21
29.1450923918
  0
LINE
  5
2DB
100
AcDbEntity
  8
BEZUGSACHSEN
100
AcDbLine
 62
7
  6
CONTINUOUS
 10
110.951181218
 20
16.9842088113
 11
110.951181218
 21
55.1717088113
  0
ARC
  5
2DC
100
AcDbEntity
  8
BEZUGSACHSEN
100
AcDbCircle
 62
7
  6
CONTINUOUS
 10
27.5396345255
 20
-19.7461394092
 40
126.5564859385
100
AcDbArc
 50
79.4741307256
 51
81.5751073872
  0
ARC
  5
2DD
100
AcDbEntity
  8
FASEN
100
AcDbCircle
 62
7
  6
CONTINUOUS
 10
27.5396345255
 20
310.6296023567
 40
126.5564859384
100
AcDbArc
 50
278.4248926128
 51
280.5258692744
  0
ARC
  5
2DE
100
AcDbEntity
  8
BEZUGSACHSEN
100
AcDbCircle
 62
7
  6
CONTINUOUS
 10
122.8627279106
 20
310.6296023567
 40
126.5564859384
100
AcDbArc
 50
259.4741307256
 51
261.5751073872
  0
ARC
  5
2DF
100
AcDbEntity
  8
BEZUGSACHSEN
100
AcDbCircle
 62
7
  6
CONTINUOUS
 10
122.8627279106
 20
-19.7461394092
 40
126.5564859385
100
AcDbArc
 50
98.4248926128
 51
100.5258692744
  0
ARC
  5
2E0
100
AcDbEntity
  8
BEZUGSACHSEN
100
AcDbCircle
 62
7
  6
CONTINUOUS
 10
75.201181218
 20
236.8355774674
 40
46.8
100
AcDbArc
 50
279.5319921401
 51
297.8508153
  0
ARC
  5
2E1
100
AcDbEntity
  8
BEZUGSACHSEN
100
AcDbCircle
 62
7
  6
CONTINUOUS
 10
75.201181218
 20
54.0478854802
 40
46.8
100
AcDbArc
 50
62.1491847
 51
80.4680078599
  0
ARC
  5
2E2
100
AcDbEntity
  8
BEZUGSACHSEN
100
AcDbCircle
 62
7
  6
CONTINUOUS
 10
75.201181218
 20
54.0478854802
 40
46.8
100
AcDbArc
 50
99.5319921401
 51
117.8508153
  0
ARC
  5
2E3
100
AcDbEntity
  8
0
100
AcDbCircle
 62
7
  6
CONTINUOUS
 10
75.201181218
 20
236.8355774674
 40
46.8
100
AcDbArc
 50
242.1491847
 51
260.4680078599
  0
ARC
  5
2E4
100
AcDbEntity
  8
BEZUGSACHSEN
100
AcDbCircle
 62
7
  6
CONTINUOUS
 10
75.201181218
 20
157.9042314738
 40
7.75
100
AcDbArc
 50
180.0
 51
360.0
  0
ARC
  5
2E5
100
AcDbEntity
  8
BEZUGSACHSEN
100
AcDbCircle
 62
7
  6
CONTINUOUS
 10
75.201181218
 20
132.9792314738
 40
7.75
100
AcDbArc
 50
0.0
 51
180.0
  0
ARC
  5
2E6
100
AcDbEntity
  8
BEZUGSACHSEN
100
AcDbCircle
 62
7
  6
CONTINUOUS
 10
95.513681218
 20
134.8792314738
 40
5.6875
100
AcDbArc
 50
180.0
 51
360.0
  0
ARC
  5
2E7
100
AcDbEntity
  8
BEZUGSACHSEN
100
AcDbCircle
 62
7
  6
CONTINUOUS
 10
95.513681218
 20
156.0042314738
 40
5.6875
100
AcDbArc
 50
0.0
 51
180.0
  0
ARC
  5
2E8
100
AcDbEntity
  8
BEZUGSACHSEN
100
AcDbCircle
 62
7
  6
CONTINUOUS
 10
54.888681218
 20
134.8792314738
 40
5.6875
100
AcDbArc
 50
180.0
 51
360.0
  0
ARC
  5
2E9
100
AcDbEntity
  8
0
100
AcDbCircle
 62
7
  6
CONTINUOUS
 10
54.888681218
 20
156.0042314738
 40
5.6875
100
AcDbArc
 50
0.0
 51
180.0
  0
ARC
  5
2EA
100
AcDbEntity
  8
BEZUGSACHSEN
100
AcDbCircle
 62
7
  6
CONTINUOUS
 10
175.6690036873
 20
174.6917314738
 40
20.7648307811
100
AcDbArc
 50
69.9999986855
 51
110.0000013145
  0
ARC
  5
2EB
100
AcDbEntity
  8
BEZUGSACHSEN
100
AcDbCircle
 62
7
  6
CONTINUOUS
 10
175.6690036873
 20
116.1917314738
 40
20.7648307811
100
AcDbArc
 50
249.9999986855
 51
290.0000013145
  0
ARC
  5
2EC
100
AcDbEntity
  8
BEZUGSACHSEN
100
AcDbCircle
 62
7
  6
CONTINUOUS
 10
175.6690036873
 20
174.6917314738
 40
20.2703492069
100
AcDbArc
 50
70.000003968
 51
109.999996032
  0
ARC
  5
2ED
100
AcDbEntity
  8
BEZUGSACHSEN
100
AcDbCircle
 62
7
  6
CONTINUOUS
 10
175.6690036873
 20
116.1917314738
 40
20.2703492069
100
AcDbArc
 50
250.000003968
 51
289.999996032
  0
ARC
  5
2EE
100
AcDbEntity
  8
BEZUGSACHSEN
100
AcDbCircle
 62
7
  6
CONTINUOUS
 10
175.6690036873
 20
116.1917314738
 40
10.2263074094
100
AcDbArc
 50
250.0
 51
290.0
  0
ARC
  5
2EF
100
AcDbEntity
  8
BEZUGSACHSEN
100
AcDbCircle
 62
7
  6
CONTINUOUS
 10
175.6690036873
 20
174.6917314738
 40
10.2263074094
100
AcDbArc
 50
70.0
 51
110.0
  0
ARC
  5
2F0
100
AcDbEntity
  8
0
100
AcDbCircle
 62
7
  6
CONTINUOUS
 10
75.201181218
 20
-26.0658871823
 40
46.8
100
AcDbArc
 50
99.5319921401
 51
113.0923539516
  0
ARC
  5
2F1
100
AcDbEntity
  8
0
100
AcDbCircle
 62
7
  6
CONTINUOUS
 10
75.201181218
 20
98.2218048049
 40
46.8
100
AcDbArc
 50
246.9076460484
 51
260.4680078599
  0
ARC
  5
2F2
100
AcDbEntity
  8
BEZUGSACHSEN
100
AcDbCircle
 62
7
  6
CONTINUOUS
 10
75.201181218
 20
-26.0658871823
 40
46.8
100
AcDbArc
 50
66.9076460484
 51
80.4680078599
  0
ARC
  5
2F3
100
AcDbEntity
  8
BEZUGSACHSEN
100
AcDbCircle
 62
7
  6
CONTINUOUS
 10
75.201181218
 20
98.2218048049
 40
46.8
100
AcDbArc
 50
279.5319921401
 51
293.0923539516
  0
ARC
  5
2F4
100
AcDbEntity
  8
BEZUGSACHSEN
100
AcDbCircle
 62
7
  6
CONTINUOUS
 10
75.201181218
 20
98.2218048049
 40
46.8
100
AcDbArc
 50
246.9076460484
 51
260.4680078599
  0
SPLINE
  5
2F5
100
AcDbEntity
  8
FASEN
100
AcDbSpline
 62
7
  6
CONTINUOUS
 70
0
 71
3
 72
14
 73
10
 74
0
 42
0.0000001
 43
0.0000001
 44
0.0000000001
 40
0.0
 40
0.0
 40
0.0
 40
0.0
 40
0.0664401281
 40
0.1464539764
 40
0.2418820637
 40
0.3542850828
 40
0.4850498929
 40
0.6354658793
 40
1.0
 40
1.0
 40
1.0
 40
1.0
 10
49.8521888381
 20
193.7397178792
 30
0.0
 10
49.852433431
 20
193.5358977406
 30
0.0
 10
49.8099578564
 20
193.0864996168
 30
0.0
 10
49.6459452594
 20
192.3615553629
 30
0.0
 10
49.3696187465
 20
191.5217407774
 30
0.0
 10
48.9737313533
 20
190.5606934787
 30
0.0
 10
48.4509555272
 20
189.4717433461
 30
0.0
 10
47.5130819778
 20
187.7263988565
 30
0.0
 10
46.6854952298
 20
186.3791636969
 30
0.0
 10
46.0809614383
 20
185.43835799
 30
0.0
  0
SPLINE
  5
2F6
100
AcDbEntity
  8
BEZUGSACHSEN
100
AcDbSpline
 62
7
  6
CONTINUOUS
 70
0
 71
3
 72
14
 73
10
 74
0
 42
0.0000001
 43
0.0000001
 44
0.0000000001
 40
0.0
 40
0.0
 40
0.0
 40
0.0
 40
0.0664401281
 40
0.1464539764
 40
0.2418820637
 40
0.3542850828
 40
0.4850498929
 40
0.6354658793
 40
1.0
 40
1.0
 40
1.0
 40
1.0
 10
100.550173598
 20
193.7397178792
 30
0.0
 10
100.549929005
 20
193.5358977406
 30
0.0
 10
100.5924045796
 20
193.0864996168
 30
0.0
 10
100.7564171766
 20
192.3615553629
 30
0.0
 10
101.0327436895
 20
191.5217407774
 30
0.0
 10
101.4286310828
 20
190.5606934787
 30
0.0
 10
101.9514069088
 20
189.4717433461
 30
0.0
 10
102.8892804583
 20
187.7263988565
 30
0.0
 10
103.7168672062
 20
186.3791636969
 30
0.0
 10
104.3214009978
 20
185.43835799
 30
0.0
  0
SPLINE
  5
2F7
100
AcDbEntity
  8
FASEN
100
AcDbSpline
 62
7
  6
CONTINUOUS
 70
0
 71
3
 72
14
 73
10
 74
0
 42
0.0000001
 43
0.0000001
 44
0.0000000001
 40
0.0
 40
0.0
 40
0.0
 40
0.0
 40
0.2500743276
 40
0.3751147715
 40
0.5001487596
 40
0.6251684896
 40
0.7501585934
 40
0.875101795
 40
1.0
 40
1.0
 40
1.0
 40
1.0
 10
50.6589038263
 20
186.2027422337
 30
0.0
 10
51.3723226519
 20
185.3517150392
 30
0.0
 10
52.4308025044
 20
184.064706329
 30
0.0
 10
53.7653692019
 20
182.2887935349
 30
0.0
 10
54.7050112847
 20
180.9124525222
 30
0.0
 10
55.5501145981
 20
179.4752929713
 30
0.0
 10
56.2495206642
 20
177.9599189453
 30
0.0
 10
56.7292775896
 20
176.358664592
 30
0.0
 10
56.8455489777
 20
175.2463651797
 30
0.0
 10
56.8455489777
 20
174.6917314738
 30
0.0
  0
SPLINE
  5
2F8
100
AcDbEntity
  8
BEZUGSACHSEN
100
AcDbSpline
 62
7
  6
CONTINUOUS
 70
0
 71
3
 72
18
 73
14
 74
0
 42
0.0000001
 43
0.0000001
 44
0.0000000001
 40
0.0
 40
0.0
 40
0.0
 40
0.0
 40
0.0625421849
 40
0.125171019
 40
0.1877490187
 40
0.2502901633
 40
0.3128316833
 40
0.3753459222
 40
0.5002776606
 40
0.6252080182
 40
0.7501315982
 40
0.8750780872
 40
1.0
 40
1.0
 40
1.0
 40
1.0
 10
56.8455489777
 20
119.0354814738
 30
0.0
 10
56.8455489777
 20
119.3355389104
 30
0.0
 10
56.9120832572
 20
119.9376588851
 30
0.0
 10
57.1873092098
 20
120.8006181345
 30
0.0
 10
57.6083981436
 20
121.6011371707
 30
0.0
 10
58.1339440911
 20
122.3349162907
 30
0.0
 10
58.7384941182
 20
123.0037892088
 30
0.0
 10
59.6205122438
 20
123.8183377922
 30
0.0
 10
60.8336725259
 20
124.706488902
 30
0.0
 10
62.3956676169
 20
125.6024288875
 30
0.0
 10
64.0314354265
 20
126.3543196702
 30
0.0
 10
65.7195965765
 20
126.9778020515
 30
0.0
 10
66.870982429
 20
127.3152010989
 30
0.0
 10
67.451181218
 20
127.4654420869
 30
0.0
  0
SPLINE
  5
2F9
100
AcDbEntity
  8
0
100
AcDbSpline
 62
7
  6
CONTINUOUS
 70
0
 71
3
 72
18
 73
14
 74
0
 42
0.0000001
 43
0.0000001
 44
0.0000000001
 40
0.0
 40
0.0
 40
0.0
 40
0.0
 40
0.0625421849
 40
0.125171019
 40
0.1877490187
 40
0.2502901633
 40
0.3128316833
 40
0.3753459222
 40
0.5002776606
 40
0.6252080182
 40
0.7501315982
 40
0.8750780872
 40
1.0
 40
1.0
 40
1.0
 40
1.0
 10
56.8455489777
 20
171.8479814738
 30
0.0
 10
56.8455489777
 20
171.5479240372
 30
0.0
 10
56.9120832572
 20
170.9458040626
 30
0.0
 10
57.1873092098
 20
170.0828448132
 30
0.0
 10
57.6083981436
 20
169.282325777
 30
0.0
 10
58.1339440911
 20
168.548546657
 30
0.0
 10
58.7384941182
 20
167.8796737389
 30
0.0
 10
59.6205122438
 20
167.0651251554
 30
0.0
 10
60.8336725259
 20
166.1769740456
 30
0.0
 10
62.3956676169
 20
165.2810340601
 30
0.0
 10
64.0314354265
 20
164.5291432774
 30
0.0
 10
65.7195965765
 20
163.9056608962
 30
0.0
 10
66.870982429
 20
163.5682618487
 30
0.0
 10
67.451181218
 20
163.4180208608
 30
0.0
  0
SPLINE
  5
2FA
100
AcDbEntity
  8
FASEN
100
AcDbSpline
 62
7
  6
CONTINUOUS
 70
0
 71
3
 72
14
 73
10
 74
0
 42
0.0000001
 43
0.0000001
 44
0.0000000001
 40
0.0
 40
0.0
 40
0.0
 40
0.0
 40
0.0719771837
 40
0.1572437426
 40
0.2568708282
 40
0.3717880381
 40
0.5028374552
 40
0.6508025145
 40
1.0
 40
1.0
 40
1.0
 40
1.0
 10
53.3376710585
 20
194.2045793709
 30
0.0
 10
53.3378698229
 20
194.0008504564
 30
0.0
 10
53.3077878337
 20
193.5556882727
 30
0.0
 10
53.1907424666
 20
192.8374097084
 30
0.0
 10
52.9935222233
 20
192.0113964392
 30
0.0
 10
52.7114679461
 20
191.0743088032
 30
0.0
 10
52.339914761
 20
190.0226501458
 30
0.0
 10
51.6818236278
 20
188.3704230459
 30
0.0
 10
51.0928458384
 20
187.0911444909
 30
0.0
 10
50.6592263416
 20
186.202948289
 30
0.0
  0
SPLINE
  5
2FB
100
AcDbEntity
  8
BEZUGSACHSEN
100
AcDbSpline
 62
7
  6
CONTINUOUS
 70
0
 71
3
 72
18
 73
14
 74
0
 42
0.0000001
 43
0.0000001
 44
0.0000000001
 40
0.0
 40
0.0
 40
0.0
 40
0.0
 40
0.0625421849
 40
0.125171019
 40
0.1877490187
 40
0.2502901633
 40
0.3128316833
 40
0.3753459222
 40
0.5002776606
 40
0.6252080182
 40
0.7501315982
 40
0.8750780872
 40
1.0
 40
1.0
 40
1.0
 40
1.0
 10
93.5568134584
 20
171.8479814738
 30
0.0
 10
93.5568134584
 20
171.5479240372
 30
0.0
 10
93.4902791789
 20
170.9458040626
 30
0.0
 10
93.2150532262
 20
170.0828448132
 30
0.0
 10
92.7939642924
 20
169.282325777
 30
0.0
 10
92.2684183449
 20
168.548546657
 30
0.0
 10
91.6638683179
 20
167.8796737389
 30
0.0
 10
90.7818501922
 20
167.0651251554
 30
0.0
 10
89.5686899101
 20
166.1769740456
 30
0.0
 10
88.0066948192
 20
165.2810340601
 30
0.0
 10
86.3709270095
 20
164.5291432774
 30
0.0
 10
84.6827658595
 20
163.9056608962
 30
0.0
 10
83.5313800071
 20
163.5682618487
 30
0.0
 10
82.951181218
 20
163.4180208608
 30
0.0
  0
SPLINE
  5
2FC
100
AcDbEntity
  8
BEZUGSACHSEN
100
AcDbSpline
 62
7
  6
CONTINUOUS
 70
0
 71
3
 72
14
 73
10
 74
0
 42
0.0000001
 43
0.0000001
 44
0.0000000001
 40
0.0
 40
0.0
 40
0.0
 40
0.0
 40
0.2500743276
 40
0.3751147715
 40
0.5001487596
 40
0.6251684896
 40
0.7501585934
 40
0.875101795
 40
1.0
 40
1.0
 40
1.0
 40
1.0
 10
99.7434586098
 20
186.2027422337
 30
0.0
 10
99.0300397842
 20
185.3517150392
 30
0.0
 10
97.9715599317
 20
184.064706329
 30
0.0
 10
96.6369932341
 20
182.2887935349
 30
0.0
 10
95.6973511513
 20
180.9124525222
 30
0.0
 10
94.8522478379
 20
179.4752929713
 30
0.0
 10
94.1528417718
 20
177.9599189453
 30
0.0
 10
93.6730848465
 20
176.358664592
 30
0.0
 10
93.5568134584
 20
175.2463651797
 30
0.0
 10
93.5568134584
 20
174.6917314738
 30
0.0
  0
SPLINE
  5
2FD
100
AcDbEntity
  8
BEZUGSACHSEN
100
AcDbSpline
 62
7
  6
CONTINUOUS
 70
0
 71
3
 72
14
 73
10
 74
0
 42
0.0000001
 43
0.0000001
 44
0.0000000001
 40
0.0
 40
0.0
 40
0.0
 40
0.0
 40
0.0719771837
 40
0.1572437426
 40
0.2568708282
 40
0.3717880381
 40
0.5028374552
 40
0.6508025145
 40
1.0
 40
1.0
 40
1.0
 40
1.0
 10
97.0646913775
 20
194.2045793709
 30
0.0
 10
97.0644926132
 20
194.0008504564
 30
0.0
 10
97.0945746023
 20
193.5556882727
 30
0.0
 10
97.2116199694
 20
192.8374097084
 30
0.0
 10
97.4088402127
 20
192.0113964392
 30
0.0
 10
97.6908944899
 20
191.0743088032
 30
0.0
 10
98.062447675
 20
190.0226501458
 30
0.0
 10
98.7205388082
 20
188.3704230459
 30
0.0
 10
99.3095165976
 20
187.0911444909
 30
0.0
 10
99.7431360944
 20
186.202948289
 30
0.0
  0
SPLINE
  5
2FE
100
AcDbEntity
  8
BEZUGSACHSEN
100
AcDbSpline
 62
7
  6
CONTINUOUS
 70
0
 71
3
 72
14
 73
10
 74
0
 42
0.0000001
 43
0.0000001
 44
0.0000000001
 40
0.0
 40
0.0
 40
0.0
 40
0.0
 40
0.0719771837
 40
0.1572437426
 40
0.2568708282
 40
0.3717880381
 40
0.5028374552
 40
0.6508025145
 40
1.0
 40
1.0
 40
1.0
 40
1.0
 10
53.3376710585
 20
96.6788835768
 30
0.0
 10
53.3378698229
 20
96.8826124913
 30
0.0
 10
53.3077878337
 20
97.3277746749
 30
0.0
 10
53.1907424666
 20
98.0460532393
 30
0.0
 10
52.9935222233
 20
98.8720665084
 30
0.0
 10
52.7114679461
 20
99.8091541444
 30
0.0
 10
52.339914761
 20
100.8608128018
 30
0.0
 10
51.6818236278
 20
102.5130399017
 30
0.0
 10
51.0928458384
 20
103.7923184568
 30
0.0
 10
50.6592263416
 20
104.6805146587
 30
0.0
  0
SPLINE
  5
2FF
100
AcDbEntity
  8
BEZUGSACHSEN
100
AcDbSpline
 62
7
  6
CONTINUOUS
 70
0
 71
3
 72
14
 73
10
 74
0
 42
0.0000001
 43
0.0000001
 44
0.0000000001
 40
0.0
 40
0.0
 40
0.0
 40
0.0
 40
0.2500743276
 40
0.3751147715
 40
0.5001487596
 40
0.6251684896
 40
0.7501585934
 40
0.875101795
 40
1.0
 40
1.0
 40
1.0
 40
1.0
 10
50.6589038263
 20
104.680720714
 30
0.0
 10
51.3723226519
 20
105.5317479085
 30
0.0
 10
52.4308025044
 20
106.8187566186
 30
0.0
 10
53.7653692019
 20
108.5946694128
 30
0.0
 10
54.7050112847
 20
109.9710104255
 30
0.0
 10
55.5501145981
 20
111.4081699763
 30
0.0
 10
56.2495206642
 20
112.9235440023
 30
0.0
 10
56.7292775896
 20
114.5247983556
 30
0.0
 10
56.8455489777
 20
115.637097768
 30
0.0
 10
56.8455489777
 20
116.1917314738
 30
0.0
  0
SPLINE
  5
300
100
AcDbEntity
  8
BEZUGSACHSEN
100
AcDbSpline
 62
7
  6
CONTINUOUS
 70
0
 71
3
 72
14
 73
10
 74
0
 42
0.0000001
 43
0.0000001
 44
0.0000000001
 40
0.0
 40
0.0
 40
0.0
 40
0.0
 40
0.0664401281
 40
0.1464539764
 40
0.2418820637
 40
0.3542850828
 40
0.4850498929
 40
0.6354658793
 40
1.0
 40
1.0
 40
1.0
 40
1.0
 10
49.8521888381
 20
97.1437450685
 30
0.0
 10
49.852433431
 20
97.347565207
 30
0.0
 10
49.8099578564
 20
97.7969633309
 30
0.0
 10
49.6459452594
 20
98.5219075847
 30
0.0
 10
49.3696187465
 20
99.3617221702
 30
0.0
 10
48.9737313533
 20
100.322769469
 30
0.0
 10
48.4509555272
 20
101.4117196015
 30
0.0
 10
47.5130819778
 20
103.1570640911
 30
0.0
 10
46.6854952298
 20
104.5042992507
 30
0.0
 10
46.0809614383
 20
105.4451049576
 30
0.0
  0
SPLINE
  5
301
100
AcDbEntity
  8
BEZUGSACHSEN
100
AcDbSpline
 62
7
  6
CONTINUOUS
 70
0
 71
3
 72
14
 73
10
 74
0
 42
0.0000001
 43
0.0000001
 44
0.0000000001
 40
0.0
 40
0.0
 40
0.0
 40
0.0
 40
0.2500743276
 40
0.3751147715
 40
0.5001487596
 40
0.6251684896
 40
0.7501585934
 40
0.875101795
 40
1.0
 40
1.0
 40
1.0
 40
1.0
 10
99.7434586098
 20
104.680720714
 30
0.0
 10
99.0300397842
 20
105.5317479085
 30
0.0
 10
97.9715599317
 20
106.8187566186
 30
0.0
 10
96.6369932341
 20
108.5946694128
 30
0.0
 10
95.6973511513
 20
109.9710104255
 30
0.0
 10
94.8522478379
 20
111.4081699763
 30
0.0
 10
94.1528417718
 20
112.9235440023
 30
0.0
 10
93.6730848465
 20
114.5247983556
 30
0.0
 10
93.5568134584
 20
115.637097768
 30
0.0
 10
93.5568134584
 20
116.1917314738
 30
0.0
  0
SPLINE
  5
302
100
AcDbEntity
  8
BEZUGSACHSEN
100
AcDbSpline
 62
7
  6
CONTINUOUS
 70
0
 71
3
 72
14
 73
10
 74
0
 42
0.0000001
 43
0.0000001
 44
0.0000000001
 40
0.0
 40
0.0
 40
0.0
 40
0.0
 40
0.0719771837
 40
0.1572437426
 40
0.2568708282
 40
0.3717880381
 40
0.5028374552
 40
0.6508025145
 40
1.0
 40
1.0
 40
1.0
 40
1.0
 10
97.0646913775
 20
96.6788835768
 30
0.0
 10
97.0644926132
 20
96.8826124913
 30
0.0
 10
97.0945746023
 20
97.3277746749
 30
0.0
 10
97.2116199694
 20
98.0460532393
 30
0.0
 10
97.4088402127
 20
98.8720665084
 30
0.0
 10
97.6908944899
 20
99.8091541444
 30
0.0
 10
98.062447675
 20
100.8608128018
 30
0.0
 10
98.7205388082
 20
102.5130399017
 30
0.0
 10
99.3095165976
 20
103.7923184568
 30
0.0
 10
99.7431360944
 20
104.6805146587
 30
0.0
  0
SPLINE
  5
303
100
AcDbEntity
  8
BEZUGSACHSEN
100
AcDbSpline
 62
7
  6
CONTINUOUS
 70
0
 71
3
 72
14
 73
10
 74
0
 42
0.0000001
 43
0.0000001
 44
0.0000000001
 40
0.0
 40
0.0
 40
0.0
 40
0.0
 40
0.0664401281
 40
0.1464539764
 40
0.2418820637
 40
0.3542850828
 40
0.4850498929
 40
0.6354658793
 40
1.0
 40
1.0
 40
1.0
 40
1.0
 10
100.550173598
 20
97.1437450685
 30
0.0
 10
100.549929005
 20
97.347565207
 30
0.0
 10
100.5924045796
 20
97.7969633309
 30
0.0
 10
100.7564171766
 20
98.5219075847
 30
0.0
 10
101.0327436895
 20
99.3617221702
 30
0.0
 10
101.4286310828
 20
100.322769469
 30
0.0
 10
101.9514069088
 20
101.4117196015
 30
0.0
 10
102.8892804583
 20
103.1570640911
 30
0.0
 10
103.7168672062
 20
104.5042992507
 30
0.0
 10
104.3214009978
 20
105.4451049576
 30
0.0
  0
SPLINE
  5
304
100
AcDbEntity
  8
BEZUGSACHSEN
100
AcDbSpline
 62
7
  6
CONTINUOUS
 70
0
 71
3
 72
18
 73
14
 74
0
 42
0.0000001
 43
0.0000001
 44
0.0000000001
 40
0.0
 40
0.0
 40
0.0
 40
0.0
 40
0.0625421849
 40
0.125171019
 40
0.1877490187
 40
0.2502901633
 40
0.3128316833
 40
0.3753459222
 40
0.5002776606
 40
0.6252080182
 40
0.7501315982
 40
0.8750780872
 40
1.0
 40
1.0
 40
1.0
 40
1.0
 10
93.5568134584
 20
119.0354814738
 30
0.0
 10
93.5568134584
 20
119.3355389104
 30
0.0
 10
93.4902791789
 20
119.9376588851
 30
0.0
 10
93.2150532262
 20
120.8006181345
 30
0.0
 10
92.7939642924
 20
121.6011371707
 30
0.0
 10
92.2684183449
 20
122.3349162907
 30
0.0
 10
91.6638683179
 20
123.0037892088
 30
0.0
 10
90.7818501922
 20
123.8183377922
 30
0.0
 10
89.5686899101
 20
124.706488902
 30
0.0
 10
88.0066948192
 20
125.6024288875
 30
0.0
 10
86.3709270095
 20
126.3543196702
 30
0.0
 10
84.6827658595
 20
126.9778020515
 30
0.0
 10
83.5313800071
 20
127.3152010989
 30
0.0
 10
82.951181218
 20
127.4654420869
 30
0.0
  0
SPLINE
  5
305
100
AcDbEntity
  8
BEZUGSACHSEN
100
AcDbSpline
 62
7
  6
CONTINUOUS
 70
0
 71
3
 72
11
 73
7
 74
0
 42
0.0000001
 43
0.0000001
 44
0.0000000001
 40
0.0
 40
0.0
 40
0.0
 40
0.0
 40
0.2306938643
 40
0.4730932043
 40
0.7288248738
 40
1.0
 40
1.0
 40
1.0
 40
1.0
 10
168.5669082628
 20
194.2045793709
 30
0.0
 10
167.515930881
 20
193.8233727103
 30
0.0
 10
165.4049905265
 20
192.9134104904
 30
0.0
 10
162.3392482206
 20
191.143945936
 30
0.0
 10
159.3435215779
 20
188.9108760583
 30
0.0
 10
157.4815631907
 20
187.1541962465
 30
0.0
 10
156.5748490511
 20
186.202948289
 30
0.0
  0
SPLINE
  5
306
100
AcDbEntity
  8
FASEN
100
AcDbSpline
 62
7
  6
CONTINUOUS
 70
0
 71
3
 72
11
 73
7
 74
0
 42
0.0000001
 43
0.0000001
 44
0.0000000001
 40
0.0
 40
0.0
 40
0.0
 40
0.0
 40
0.2306938643
 40
0.4730932043
 40
0.7288248738
 40
1.0
 40
1.0
 40
1.0
 40
1.0
 10
182.7710991119
 20
194.2045793709
 30
0.0
 10
183.8220764936
 20
193.8233727103
 30
0.0
 10
185.9330168481
 20
192.9134104904
 30
0.0
 10
188.998759154
 20
191.143945936
 30
0.0
 10
191.9944857967
 20
188.9108760583
 30
0.0
 10
193.856444184
 20
187.1541962465
 30
0.0
 10
194.7631583236
 20
186.202948289
 30
0.0
  0
SPLINE
  5
307
100
AcDbEntity
  8
BEZUGSACHSEN
100
AcDbSpline
 62
7
  6
CONTINUOUS
 70
0
 71
3
 72
11
 73
7
 74
0
 42
0.0000001
 43
0.0000001
 44
0.0000000001
 40
0.0
 40
0.0
 40
0.0
 40
0.0
 40
0.2306938643
 40
0.4730932043
 40
0.7288248738
 40
1.0
 40
1.0
 40
1.0
 40
1.0
 10
168.5669082628
 20
96.6788835768
 30
0.0
 10
167.515930881
 20
97.0600902374
 30
0.0
 10
165.4049905265
 20
97.9700524573
 30
0.0
 10
162.3392482206
 20
99.7395170116
 30
0.0
 10
159.3435215779
 20
101.9725868893
 30
0.0
 10
157.4815631907
 20
103.7292667011
 30
0.0
 10
156.5748490511
 20
104.6805146587
 30
0.0
  0
SPLINE
  5
308
100
AcDbEntity
  8
BEZUGSACHSEN
100
AcDbSpline
 62
7
  6
CONTINUOUS
 70
0
 71
3
 72
11
 73
7
 74
0
 42
0.0000001
 43
0.0000001
 44
0.0000000001
 40
0.0
 40
0.0
 40
0.0
 40
0.0
 40
0.2306938643
 40
0.4730932043
 40
0.7288248738
 40
1.0
 40
1.0
 40
1.0
 40
1.0
 10
182.7710991119
 20
96.6788835768
 30
0.0
 10
183.8220764936
 20
97.0600902374
 30
0.0
 10
185.9330168481
 20
97.9700524573
 30
0.0
 10
188.998759154
 20
99.7395170116
 30
0.0
 10
191.9944857967
 20
101.9725868893
 30
0.0
 10
193.856444184
 20
103.7292667011
 30
0.0
 10
194.7631583236
 20
104.6805146587
 30
0.0
  0
SPLINE
  5
309
100
AcDbEntity
  8
BEZUGSACHSEN
100
AcDbSpline
 62
7
  6
CONTINUOUS
 70
0
 71
3
 72
11
 73
7
 74
0
 42
0.0000001
 43
0.0000001
 44
0.0000000001
 40
0.0
 40
0.0
 40
0.0
 40
0.0
 40
0.2251844546
 40
0.4644479532
 40
0.721240365
 40
1.0
 40
1.0
 40
1.0
 40
1.0
 10
168.7361036956
 20
97.1437450685
 30
0.0
 10
167.6881720964
 20
97.5246911795
 30
0.0
 10
165.5722854875
 20
98.4420977098
 30
0.0
 10
162.4845040064
 20
100.2533240297
 30
0.0
 10
159.427126511
 20
102.5860113142
 30
0.0
 10
157.5180412133
 20
104.435951157
 30
0.0
 10
156.57630918
 20
105.4451049576
 30
0.0
  0
SPLINE
  5
30A
100
AcDbEntity
  8
FASEN
100
AcDbSpline
 62
7
  6
CONTINUOUS
 70
0
 71
3
 72
11
 73
7
 74
0
 42
0.0000001
 43
0.0000001
 44
0.0000000001
 40
0.0
 40
0.0
 40
0.0
 40
0.0
 40
0.2251844546
 40
0.4644479532
 40
0.721240365
 40
1.0
 40
1.0
 40
1.0
 40
1.0
 10
182.601903679
 20
193.7397178792
 30
0.0
 10
183.6498352782
 20
193.3587717681
 30
0.0
 10
185.7657218871
 20
192.4413652378
 30
0.0
 10
188.8535033682
 20
190.630138918
 30
0.0
 10
191.9108808637
 20
188.2974516335
 30
0.0
 10
193.8199661613
 20
186.4475117906
 30
0.0
 10
194.7616981946
 20
185.43835799
 30
0.0
  0
SPLINE
  5
30B
100
AcDbEntity
  8
BEZUGSACHSEN
100
AcDbSpline
 62
7
  6
CONTINUOUS
 70
0
 71
3
 72
11
 73
7
 74
0
 42
0.0000001
 43
0.0000001
 44
0.0000000001
 40
0.0
 40
0.0
 40
0.0
 40
0.0
 40
0.2251844546
 40
0.4644479532
 40
0.721240365
 40
1.0
 40
1.0
 40
1.0
 40
1.0
 10
182.601903679
 20
97.1437450685
 30
0.0
 10
183.6498352782
 20
97.5246911795
 30
0.0
 10
185.7657218871
 20
98.4420977098
 30
0.0
 10
188.8535033682
 20
100.2533240297
 30
0.0
 10
191.9108808637
 20
102.5860113142
 30
0.0
 10
193.8199661613
 20
104.435951157
 30
0.0
 10
194.7616981946
 20
105.4451049576
 30
0.0
  0
SPLINE
  5
30C
100
AcDbEntity
  8
BEZUGSACHSEN
100
AcDbSpline
 62
7
  6
CONTINUOUS
 70
0
 71
3
 72
11
 73
7
 74
0
 42
0.0000001
 43
0.0000001
 44
0.0000000001
 40
0.0
 40
0.0
 40
0.0
 40
0.0
 40
0.2251844546
 40
0.4644479532
 40
0.721240365
 40
1.0
 40
1.0
 40
1.0
 40
1.0
 10
168.7361036956
 20
193.7397178792
 30
0.0
 10
167.6881720964
 20
193.3587717681
 30
0.0
 10
165.5722854875
 20
192.4413652378
 30
0.0
 10
162.4845040064
 20
190.630138918
 30
0.0
 10
159.427126511
 20
188.2974516335
 30
0.0
 10
157.5180412133
 20
186.4475117906
 30
0.0
 10
156.57630918
 20
185.43835799
 30
0.0
  0
SPLINE
  5
30D
100
AcDbEntity
  8
FASEN
100
AcDbSpline
 62
7
  6
CONTINUOUS
 70
0
 71
3
 72
11
 73
7
 74
0
 42
0.0000001
 43
0.0000001
 44
0.0000000001
 40
0.0
 40
0.0
 40
0.0
 40
0.0
 40
0.2488191199
 40
0.4980803006
 40
0.7479404493
 40
1.0
 40
1.0
 40
1.0
 40
1.0
 10
53.3376710585
 20
28.9758633867
 30
0.0
 10
53.3380349043
 20
27.9476948058
 30
0.0
 10
53.2429186178
 20
25.8878767233
 30
0.0
 10
52.7771634755
 20
22.8261767246
 30
0.0
 10
51.9489888488
 20
19.8266444879
 30
0.0
 10
51.1340372682
 20
17.9108420248
 30
0.0
 10
50.6592263416
 20
16.983804175
 30
0.0
  0
SPLINE
  5
30E
100
AcDbEntity
  8
BEZUGSACHSEN
100
AcDbSpline
 62
7
  6
CONTINUOUS
 70
0
 71
3
 72
12
 73
8
 74
0
 42
0.0000001
 43
0.0000001
 44
0.0000000001
 40
0.0
 40
0.0
 40
0.0
 40
0.0
 40
0.2380336004
 40
0.4808288992
 40
0.7326565927
 40
0.8639720212
 40
1.0
 40
1.0
 40
1.0
 40
1.0
 10
100.550173598
 20
29.1450588195
 30
0.0
 10
100.5497262146
 20
28.1195192371
 30
0.0
 10
100.684191664
 20
26.0446277195
 30
0.0
 10
101.34540038
 20
22.9462949568
 30
0.0
 10
102.3208845333
 20
20.4185011644
 30
0.0
 10
103.3695653591
 20
18.4406961092
 30
0.0
 10
103.9890288773
 20
17.4679605626
 30
0.0
 10
104.3214009978
 20
16.9852643039
 30
0.0
  0
SPLINE
  5
30F
100
AcDbEntity
  8
FASEN
100
AcDbSpline
 62
7
  6
CONTINUOUS
 70
0
 71
3
 72
12
 73
8
 74
0
 42
0.0000001
 43
0.0000001
 44
0.0000000001
 40
0.0
 40
0.0
 40
0.0
 40
0.0
 40
0.2380336004
 40
0.4808288992
 40
0.7326565927
 40
0.8639720212
 40
1.0
 40
1.0
 40
1.0
 40
1.0
 10
49.8521888381
 20
29.1450588195
 30
0.0
 10
49.8526362215
 20
28.1195192371
 30
0.0
 10
49.718170772
 20
26.0446277195
 30
0.0
 10
49.0569620561
 20
22.9462949568
 30
0.0
 10
48.0814779027
 20
20.4185011644
 30
0.0
 10
47.032797077
 20
18.4406961092
 30
0.0
 10
46.4133335588
 20
17.4679605626
 30
0.0
 10
46.0809614383
 20
16.9852643039
 30
0.0
  0
SPLINE
  5
310
100
AcDbEntity
  8
BEZUGSACHSEN
100
AcDbSpline
 62
7
  6
CONTINUOUS
 70
0
 71
3
 72
12
 73
8
 74
0
 42
0.0000001
 43
0.0000001
 44
0.0000000001
 40
0.0
 40
0.0
 40
0.0
 40
0.0
 40
0.2380336004
 40
0.4808288992
 40
0.7326565927
 40
0.8639720212
 40
1.0
 40
1.0
 40
1.0
 40
1.0
 10
100.550173598
 20
43.010858803
 30
0.0
 10
100.5497262146
 20
44.0363983855
 30
0.0
 10
100.684191664
 20
46.111289903
 30
0.0
 10
101.34540038
 20
49.2096226657
 30
0.0
 10
102.3208845333
 20
51.7374164581
 30
0.0
 10
103.3695653591
 20
53.7152215133
 30
0.0
 10
103.9890288773
 20
54.6879570599
 30
0.0
 10
104.3214009978
 20
55.1706533186
 30
0.0
  0
SPLINE
  5
311
100
AcDbEntity
  8
BEZUGSACHSEN
100
AcDbSpline
 62
7
  6
CONTINUOUS
 70
0
 71
3
 72
11
 73
7
 74
0
 42
0.0000001
 43
0.0000001
 44
0.0000000001
 40
0.0
 40
0.0
 40
0.0
 40
0.0
 40
0.2488191199
 40
0.4980803006
 40
0.7479404493
 40
1.0
 40
1.0
 40
1.0
 40
1.0
 10
97.0646913775
 20
43.1800542358
 30
0.0
 10
97.0643275317
 20
44.2082228168
 30
0.0
 10
97.1594438182
 20
46.2680408992
 30
0.0
 10
97.6251989606
 20
49.3297408979
 30
0.0
 10
98.4533735873
 20
52.3292731347
 30
0.0
 10
99.2683251679
 20
54.2450755978
 30
0.0
 10
99.7431360944
 20
55.1721134475
 30
0.0
  0
SPLINE
  5
312
100
AcDbEntity
  8
BEZUGSACHSEN
100
AcDbSpline
 62
7
  6
CONTINUOUS
 70
0
 71
3
 72
11
 73
7
 74
0
 42
0.0000001
 43
0.0000001
 44
0.0000000001
 40
0.0
 40
0.0
 40
0.0
 40
0.0
 40
0.2488191199
 40
0.4980803006
 40
0.7479404493
 40
1.0
 40
1.0
 40
1.0
 40
1.0
 10
97.0646913775
 20
28.9758633867
 30
0.0
 10
97.0643275317
 20
27.9476948058
 30
0.0
 10
97.1594438182
 20
25.8878767233
 30
0.0
 10
97.6251989606
 20
22.8261767246
 30
0.0
 10
98.4533735873
 20
19.8266444879
 30
0.0
 10
99.2683251679
 20
17.9108420248
 30
0.0
 10
99.7431360944
 20
16.983804175
 30
0.0
  0
SPLINE
  5
313
100
AcDbEntity
  8
BEZUGSACHSEN
100
AcDbSpline
 62
7
  6
CONTINUOUS
 70
0
 71
3
 72
12
 73
8
 74
0
 42
0.0000001
 43
0.0000001
 44
0.0000000001
 40
0.0
 40
0.0
 40
0.0
 40
0.0
 40
0.2380336004
 40
0.4808288992
 40
0.7326565927
 40
0.8639720212
 40
1.0
 40
1.0
 40
1.0
 40
1.0
 10
49.8521888381
 20
43.010858803
 30
0.0
 10
49.8526362215
 20
44.0363983855
 30
0.0
 10
49.718170772
 20
46.111289903
 30
0.0
 10
49.0569620561
 20
49.2096226657
 30
0.0
 10
48.0814779027
 20
51.7374164581
 30
0.0
 10
47.032797077
 20
53.7152215133
 30
0.0
 10
46.4133335588
 20
54.6879570599
 30
0.0
 10
46.0809614383
 20
55.1706533186
 30
0.0
  0
SPLINE
  5
314
100
AcDbEntity
  8
BEZUGSACHSEN
100
AcDbSpline
 62
7
  6
CONTINUOUS
 70
0
 71
3
 72
11
 73
7
 74
0
 42
0.0000001
 43
0.0000001
 44
0.0000000001
 40
0.0
 40
0.0
 40
0.0
 40
0.0
 40
0.2488191199
 40
0.4980803006
 40
0.7479404493
 40
1.0
 40
1.0
 40
1.0
 40
1.0
 10
53.3376710585
 20
43.1800542358
 30
0.0
 10
53.3380349043
 20
44.2082228168
 30
0.0
 10
53.2429186178
 20
46.2680408992
 30
0.0
 10
52.7771634755
 20
49.3297408979
 30
0.0
 10
51.9489888488
 20
52.3292731347
 30
0.0
 10
51.1340372682
 20
54.2450755978
 30
0.0
 10
50.6592263416
 20
55.1721134475
 30
0.0
  0
ENDSEC
  0
SECTION
  2
OBJECTS
  0
DICTIONARY
  5
C
100
AcDbDictionary
280
0
281
1
  3
ACAD_GROUP
350
D
  3
ACAD_MLINESTYLE
350
17
  3
ACAD_LAYOUT
350
1A
  3
ACAD_PLOTSETTINGS
350
19
  3
ACAD_PLOTSTYLENAME
350
E
  0
DICTIONARY
  5
D
102
{ACAD_REACTORS
330
C
102
}
100
AcDbDictionary
280
0
281
1
  0
ACDBDICTIONARYWDFLT
  5
E
102
{ACAD_REACTORS
330
C
102
}
100
AcDbDictionary
281
1
  3
Normal
350
F
100
AcDbDictionaryWithDefault
340
F
  0
DICTIONARY
  5
17
102
{ACAD_REACTORS
330
C
102
}
100
AcDbDictionary
280
0
281
1
  3
Standard
350
18
  0
DICTIONARY
  5
19
102
{ACAD_REACTORS
330
C
102
}
100
AcDbDictionary
281
1
  0
DICTIONARY
  5
1A
102
{ACAD_REACTORS
330
C
102
}
100
AcDbDictionary
281
1
  3
Model
350
315
  3
Layout1
350
316
  0
ACDBPLACEHOLDER
  5
F
102
{ACAD_REACTORS
330
E
102
}
  0
MLINESTYLE
  5
18
102
{ACAD_REACTORS
330
17
102
}
100
AcDbMlineStyle
  2
STANDARD
 70
0
  3

 62
256
 51
90.0
 52
90.0
 71
2
 49
0.5
 62
256
  6
BYLAYER
 49
-0.5
 62
256
  6
BYLAYER
  0
LAYOUT
  5
315
102
{ACAD_REACTORS
330
1A
102
}
100
AcDbPlotSettings
  1

  2
none_device
  4
ISO_A4_(297.00_x_210.00_MM)
  6

 40
0.0
 41
0.0
 42
0.0
 43
0.0
 44
297.0
 45
210.0
 46
0.0
 47
0.0
 48
0.0
 49
0.0
140
0.0
141
0.0
142
1.0
143
1.0
 70
1024
 72
1
 73
0
 74
0
  7

 75
0
147
1.0
148
0.0
149
0.0
100
AcDbLayout
  1
Model
 70
0
 71
0
 10
0.0
 20
0.0
 11
297.0
 21
210.0
 12
0.0
 22
0.0
 32
0.0
 14
0.0
 24
0.0
 34
0.0
 15
0.0
 25
0.0
 35
0.0
146
0.0
 13
0.0
 23
0.0
 33
0.0
 16
1.0
 26
0.0
 36
0.0
 17
0.0
 27
1.0
 37
0.0
 76
0
330
20B
345
0
346
0
  0
LAYOUT
  5
316
102
{ACAD_REACTORS
330
1A
102
}
100
AcDbPlotSettings
  1

  2
none_device
  4
ISO_A4_(297.00_x_210.00_MM)
  6

 40
0.0
 41
0.0
 42
0.0
 43
0.0
 44
297.0
 45
210.0
 46
0.0
 47
0.0
 48
0.0
 49
0.0
140
0.0
141
0.0
142
1.0
143
1.0
 70
0
 72
1
 73
0
 74
0
  7

 75
0
147
1.0
148
0.0
149
0.0
100
AcDbLayout
  1
Layout1
 70
0
 71
1
 10
0.0
 20
0.0
 11
297.0
 21
210.0
 12
0.0
 22
0.0
 32
0.0
 14
0.0
 24
0.0
 34
0.0
 15
0.0
 25
0.0
 35
0.0
146
0.0
 13
0.0
 23
0.0
 33
0.0
 16
1.0
 26
0.0
 36
0.0
 17
0.0
 27
1.0
 37
0.0
 76
0
330
20C
345
0
346
0
  0
ENDSEC
  0
EOF
