999
DXF file: ICE-H-10_7901454_M34171-P-3.dxf
999
Pro/ENGINEER 2010140 by Parametric Technology Corporation
  0
SECTION
  2
HEADER
  9
$ACADVER
  1
AC1015
  9
$DWGCODEPAGE
  3
ANSI_1252
  9
$EXTMAX
 10
297.0
 20
210.0
 30
0.0
  9
$EXTMIN
 10
0.0
 20
0.0
 30
0.0
  9
$LIMMIN
 10
0.0
 20
0.0
  9
$LIMMAX
 10
297.0
 20
210.0
  9
$VIEWCTR
 10
148.5
 20
105.0
  9
$VIEWSIZE
 40
210.0
  9
$CLAYER
  8
0
  9
$LTSCALE
 40
16.335
  9
$CELTYPE
  6
BYLAYER
  9
$DIMSCALE
 40
1.0
  9
$DIMASZ
 40
3.5
  9
$DIMEXO
 40
1.85625
  9
$DIMDLI
 40
11.286
  9
$DIMEXE
 40
5.346
  9
$DIMCEN
 40
2.673
  9
$DIMLFAC
 40
1.0
  9
$DIMBLK
  1
_FILLED
  9
$DIMTXT
 40
3.5
  9
$DIMTOL
 70
1
  9
$DIMLIM
 70
0
  9
$DIMTFAC
 40
1.0
  9
$DIMTP
 40
0.005
  9
$DIMTM
 40
0.005
  9
$PDMODE
 70
3
  9
$PDSIZE
 40
0.3125
  9
$HANDSEED
  5
30A
  9
$TILEMODE
 70
1
  9
$MEASUREMENT
 70
1
  9
$INSUNITS
 70
4
  0
ENDSEC
  0
SECTION
  2
CLASSES
  0
CLASS
  1
ACDBDICTIONARYWDFLT
  2
AcDbDictionaryWithDefault
  3
AutoCAD 2000
 90
0
280
0
281
0
  0
CLASS
  1
ACDBPLACEHOLDER
  2
AcDbPlaceHolder
  3
AutoCAD 2000
 90
0
280
0
281
0
  0
CLASS
  1
LAYOUT
  2
AcDbLayout
  3
AutoCAD 2000
 90
0
280
0
281
0
  0
ENDSEC
  0
SECTION
  2
TABLES
  0
TABLE
  2
VPORT
  5
8
100
AcDbSymbolTable
 70
2
  0
VPORT
  5
1F4
100
AcDbSymbolTableRecord
100
AcDbViewportTableRecord
  2
*ACTIVE
 70
0
 10
0.0
 20
0.0
 11
1.0
 21
1.0
 12
148.5
 22
105.0
 13
0.0
 23
0.0
 14
1.0
 24
1.0
 15
0.0
 25
0.0
 16
0.0
 26
0.0
 36
1.0
 17
0.0
 27
0.0
 37
0.0
 40
210.0
 41
1.4142857143
 42
50.0
 43
0.0
 44
0.0
 50
0.0
 51
0.0
 71
0
 72
100
 73
1
 74
1
 75
0
 76
0
 77
0
 78
0
  0
ENDTAB
  0
TABLE
  2
LTYPE
  5
5
100
AcDbSymbolTable
 70
6
  0
LTYPE
  5
14
100
AcDbSymbolTableRecord
100
AcDbLinetypeTableRecord
  2
BYBLOCK
 70
0
  3

 72
65
 73
0
 40
0.0
  0
LTYPE
  5
15
100
AcDbSymbolTableRecord
100
AcDbLinetypeTableRecord
  2
BYLAYER
 70
0
  3

 72
65
 73
0
 40
0.0
  0
LTYPE
  5
16
100
AcDbSymbolTableRecord
100
AcDbLinetypeTableRecord
  2
CONTINUOUS
 70
64
  3
Solid line
 72
65
 73
0
 40
0.0
  0
LTYPE
  5
1F5
100
AcDbSymbolTableRecord
100
AcDbLinetypeTableRecord
  2
CENTER
 70
64
  3
____ _ ____ _ ____ _ ____ _ ____ _ ____ _ ____
 72
65
 73
4
 40
0.6
 49
0.375
 74
0
 49
-0.075
 74
0
 49
0.075
 74
0
 49
-0.075
 74
0
  0
LTYPE
  5
1F6
100
AcDbSymbolTableRecord
100
AcDbLinetypeTableRecord
  2
HIDDEN
 70
64
  3
- - - - - - - - - - - - - - - - - - - -
 72
65
 73
2
 40
0.2
 49
0.1
 74
0
 49
-0.1
 74
0
  0
LTYPE
  5
1F7
100
AcDbSymbolTableRecord
100
AcDbLinetypeTableRecord
  2
PHANTOM
 70
64
  3
_____ _ _ _____ _ _ _____ _ _ _____
 72
65
 73
6
 40
0.8
 49
0.45
 74
0
 49
-0.05
 74
0
 49
0.1
 74
0
 49
-0.05
 74
0
 49
0.1
 74
0
 49
-0.05
 74
0
  0
LTYPE
  5
1F8
100
AcDbSymbolTableRecord
100
AcDbLinetypeTableRecord
  2
DOT
 70
64
  3
. . . . . . . . . . . . . . . . . . . .
 72
65
 73
2
 40
0.2
 49
0.1
 74
0
 49
-0.1
 74
0
  0
LTYPE
  5
1F9
100
AcDbSymbolTableRecord
100
AcDbLinetypeTableRecord
  2
DASHED
 70
64
  3
- - - - - - - - - - - - - - - - - - - -
 72
65
 73
2
 40
0.2
 49
0.1
 74
0
 49
-0.1
 74
0
  0
ENDTAB
  0
TABLE
  2
LAYER
  5
2
100
AcDbSymbolTable
 70
36
  0
LAYER
  5
10
100
AcDbSymbolTableRecord
100
AcDbLayerTableRecord
  2
0
 70
0
 62
7
  6
CONTINUOUS
370
-3
390
F
  0
LAYER
  5
1FA
100
AcDbSymbolTableRecord
100
AcDbLayerTableRecord
  2
DEFAULT_1
 70
0
 62
7
  6
CENTER
370
-3
390
F
  0
LAYER
  5
1FB
100
AcDbSymbolTableRecord
100
AcDbLayerTableRecord
  2
DEFAULT_2
 70
0
 62
8
  6
HIDDEN
370
-3
390
F
  0
LAYER
  5
1FC
100
AcDbSymbolTableRecord
100
AcDbLayerTableRecord
  2
DEFAULT_3
 70
0
 62
7
  6
PHANTOM
370
-3
390
F
  0
LAYER
  5
1FD
100
AcDbSymbolTableRecord
100
AcDbLayerTableRecord
  2
AUSFORMSCHRAEGEN
 70
0
 62
7
  6
CONTINUOUS
370
-3
390
F
  0
LAYER
  5
1FE
100
AcDbSymbolTableRecord
100
AcDbLayerTableRecord
  2
BEZUGSACHSEN
 70
0
 62
7
  6
CONTINUOUS
370
-3
390
F
  0
LAYER
  5
1FF
100
AcDbSymbolTableRecord
100
AcDbLayerTableRecord
  2
BEZUGSEBENEN
 70
0
 62
7
  6
CONTINUOUS
370
-3
390
F
  0
LAYER
  5
200
100
AcDbSymbolTableRecord
100
AcDbLayerTableRecord
  2
BOHRUNGEN
 70
0
 62
7
  6
CONTINUOUS
370
-3
390
F
  0
LAYER
  5
201
100
AcDbSymbolTableRecord
100
AcDbLayerTableRecord
  2
FASEN
 70
0
 62
7
  6
CONTINUOUS
370
-3
390
F
  0
LAYER
  5
202
100
AcDbSymbolTableRecord
100
AcDbLayerTableRecord
  2
FLAECHEN
 70
0
 62
7
  6
CONTINUOUS
370
-3
390
F
  0
LAYER
  5
203
100
AcDbSymbolTableRecord
100
AcDbLayerTableRecord
  2
HILFEN
 70
0
 62
7
  6
CONTINUOUS
370
-3
390
F
  0
LAYER
  5
204
100
AcDbSymbolTableRecord
100
AcDbLayerTableRecord
  2
KURVEN
 70
0
 62
7
  6
CONTINUOUS
370
-3
390
F
  0
LAYER
  5
205
100
AcDbSymbolTableRecord
100
AcDbLayerTableRecord
  2
PLATZIERUNG
 70
0
 62
7
  6
CONTINUOUS
370
-3
390
F
  0
LAYER
  5
206
100
AcDbSymbolTableRecord
100
AcDbLayerTableRecord
  2
RUNDUNGEN
 70
0
 62
7
  6
CONTINUOUS
370
-3
390
F
  0
LAYER
  5
207
100
AcDbSymbolTableRecord
100
AcDbLayerTableRecord
  2
T_STARTBEZUEGE
 70
0
 62
7
  6
CONTINUOUS
370
-3
390
F
  0
LAYER
  5
208
100
AcDbSymbolTableRecord
100
AcDbLayerTableRecord
  2
XSEC_DATUMS
 70
0
 62
7
  6
CONTINUOUS
370
-3
390
F
  0
ENDTAB
  0
TABLE
  2
STYLE
  5
3
100
AcDbSymbolTable
 70
1
  0
STYLE
  5
11
100
AcDbSymbolTableRecord
100
AcDbTextStyleTableRecord
  2
STANDARD
 70
0
 40
0.0
 41
0.7
 50
0.0
 71
0
 42
0.2
  3
txt
  4

  0
STYLE
  5
209
100
AcDbSymbolTableRecord
100
AcDbTextStyleTableRecord
  2
TEXTSTYLE_1
 70
0
 40
0.0
 41
0.8
 50
0.0
 71
0
 42
0.2
  3
gdt
  4

  0
ENDTAB
  0
TABLE
  2
VIEW
  5
6
100
AcDbSymbolTable
 70
0
  0
ENDTAB
  0
TABLE
  2
UCS
  5
7
100
AcDbSymbolTable
 70
0
  0
ENDTAB
  0
TABLE
  2
APPID
  5
9
100
AcDbSymbolTable
 70
1
  0
APPID
  5
20A
100
AcDbSymbolTableRecord
100
AcDbRegAppTableRecord
  2
ACAD
 70
0
  0
ENDTAB
  0
TABLE
  2
BLOCK_RECORD
  5
1
100
AcDbSymbolTable
 70
0
  0
BLOCK_RECORD
  5
20B
100
AcDbSymbolTableRecord
100
AcDbBlockTableRecord
  2
*Model_Space
  0
BLOCK_RECORD
  5
20C
100
AcDbSymbolTableRecord
100
AcDbBlockTableRecord
  2
*Paper_Space
  0
ENDTAB
  0
TABLE
  2
DIMSTYLE
  5
A
100
AcDbSymbolTable
 70
1
100
AcDbDimStyleTable
 71
0
  0
DIMSTYLE
105
20D
100
AcDbSymbolTableRecord
100
AcDbDimStyleTableRecord
  2
STANDARD
 70
0
  3

  4

 40
1.0
 41
3.5
 42
0.0625
 43
0.38
 44
0.18
 45
0.0
 46
0.0
 47
0.005
 48
0.005
140
3.5
141
0.09
142
0.0
143
25.4
144
1.0
145
0.0
146
1.0
147
0.09
 71
1.0
 72
0.0
 73
0
 74
0
 75
0
 76
0
 77
1
 78
8
170
0
171
2
172
0
173
0
174
0
175
0
176
0
177
0
178
5
270
2
271
3
272
3
273
2
274
2
275
0
280
0
281
0
282
0
283
1
284
8
285
0
286
0
287
3
288
0
340
11
  0
ENDTAB
  0
ENDSEC
  0
SECTION
  2
BLOCKS
  0
BLOCK
  5
20
100
AcDbEntity
  8
0
100
AcDbBlockBegin
  2
*Model_Space
 70
0
 10
0.0
 20
0.0
 30
0.0
  3
*Model_Space
  1

  0
ENDBLK
  5
21
100
AcDbEntity
  8
0
100
AcDbBlockEnd
  0
BLOCK
  5
1C
100
AcDbEntity
  8
0
100
AcDbBlockBegin
  2
*Paper_Space
 70
0
 10
0.0
 20
0.0
 30
0.0
  3
*Paper_Space
  1

  0
ENDBLK
  5
1D
100
AcDbEntity
  8
0
100
AcDbBlockEnd
  0
ENDSEC
  0
SECTION
  2
ENTITIES
  0
MTEXT
  5
20E
100
AcDbEntity
  8
0
100
AcDbMText
 62
5
  6
CONTINUOUS
  7
STANDARD
 71
1
 72
1
 10
82.3593239371
 20
138.2065754497
 30
0.0
 11
0.0
 21
1.0
 31
0.0
 44
0.9
  1
RUD
 40
5.0
 41
13.3333333333
  0
MTEXT
  5
20F
100
AcDbEntity
  8
0
100
AcDbMText
 62
5
  6
CONTINUOUS
  7
STANDARD
 71
2
 72
1
 10
144.9542528328
 20
145.9384408162
 30
0.0
 11
0.0
 21
1.0
 31
0.0
 44
0.9
  1
RUD\PICE-H 10
 40
5.0
 41
29.1666666667
  0
LINE
  5
210
100
AcDbEntity
  8
0
100
AcDbLine
 62
7
  6
CONTINUOUS
 10
0.0
 20
0.0
 11
0.0
 21
210.0
  0
LINE
  5
211
100
AcDbEntity
  8
0
100
AcDbLine
 62
7
  6
CONTINUOUS
 10
0.0
 20
0.0
 11
297.0
 21
0.0
  0
LINE
  5
212
100
AcDbEntity
  8
0
100
AcDbLine
 62
7
  6
CONTINUOUS
 10
0.0
 20
210.0
 11
297.0
 21
210.0
  0
LINE
  5
213
100
AcDbEntity
  8
0
100
AcDbLine
 62
7
  6
CONTINUOUS
 10
297.0
 20
0.0
 11
297.0
 21
210.0
  0
LINE
  5
214
100
AcDbEntity
  8
0
100
AcDbLine
 62
7
  6
CONTINUOUS
 10
41.7128919927
 20
174.9189838823
 11
49.5977585706
 21
182.5333110275
  0
LINE
  5
215
100
AcDbEntity
  8
BEZUGSACHSEN
100
AcDbLine
 62
7
  6
CONTINUOUS
 10
49.5977585706
 20
106.5718761073
 11
41.7128919927
 21
114.1862032525
  0
LINE
  5
216
100
AcDbEntity
  8
FASEN
100
AcDbLine
 62
7
  6
CONTINUOUS
 10
46.5895407225
 20
175.0895773958
 11
41.7128919927
 21
170.0780184744
  0
LINE
  5
217
100
AcDbEntity
  8
BEZUGSACHSEN
100
AcDbLine
 62
7
  6
CONTINUOUS
 10
88.8280254147
 20
106.5718761073
 11
85.9304387421
 21
106.1561306276
  0
LINE
  5
218
100
AcDbEntity
  8
BEZUGSACHSEN
100
AcDbLine
 62
7
  6
CONTINUOUS
 10
52.4953452433
 20
106.1561306276
 11
49.5977585706
 21
106.5718761073
  0
LINE
  5
219
100
AcDbEntity
  8
BEZUGSACHSEN
100
AcDbLine
 62
7
  6
CONTINUOUS
 10
46.5895407225
 20
114.0156097391
 11
41.7128919927
 21
119.0271686605
  0
LINE
  5
21A
100
AcDbEntity
  8
0
100
AcDbLine
 62
7
  6
CONTINUOUS
 10
63.1128919927
 20
115.0525935674
 11
75.3128919927
 21
115.0525935674
  0
LINE
  5
21B
100
AcDbEntity
  8
BEZUGSACHSEN
100
AcDbLine
 62
7
  6
CONTINUOUS
 10
41.7128919927
 20
174.9189838823
 11
41.7128919927
 21
174.4445824986
  0
LINE
  5
21C
100
AcDbEntity
  8
BEZUGSACHSEN
100
AcDbLine
 62
7
  6
CONTINUOUS
 10
41.7128919927
 20
170.0780184744
 11
41.7128919927
 21
114.1862032525
  0
LINE
  5
21D
100
AcDbEntity
  8
0
100
AcDbLine
 62
7
  6
CONTINUOUS
 10
41.7128919927
 20
170.0780184744
 11
41.7128919927
 21
174.4445824986
  0
LINE
  5
21E
100
AcDbEntity
  8
BEZUGSACHSEN
100
AcDbLine
 62
7
  6
CONTINUOUS
 10
49.2128919927
 20
136.4275935674
 11
49.2128919927
 21
152.6775935674
  0
LINE
  5
21F
100
AcDbEntity
  8
BEZUGSACHSEN
100
AcDbLine
 62
7
  6
CONTINUOUS
 10
49.5977585706
 20
106.5718761073
 11
49.59775853
 21
107.5054772307
  0
LINE
  5
220
100
AcDbEntity
  8
BEZUGSACHSEN
100
AcDbLine
 62
7
  6
CONTINUOUS
 10
49.59775853
 20
181.5997099042
 11
49.5977585706
 21
182.5333110275
  0
LINE
  5
221
100
AcDbEntity
  8
0
100
AcDbLine
 62
7
  6
CONTINUOUS
 10
51.322998373
 20
152.6817603136
 11
51.2378919927
 21
152.2650935674
  0
LINE
  5
222
100
AcDbEntity
  8
0
100
AcDbLine
 62
7
  6
CONTINUOUS
 10
51.7485302893
 20
152.2650935674
 11
51.8336366621
 21
152.5984268213
  0
LINE
  5
223
100
AcDbEntity
  8
0
100
AcDbLine
 62
7
  6
CONTINUOUS
 10
51.493211141
 20
153.0150935674
 11
51.322998373
 21
152.6817603136
  0
LINE
  5
224
100
AcDbEntity
  8
0
100
AcDbLine
 62
7
  6
CONTINUOUS
 10
51.8336366621
 20
152.5984268213
 11
52.0038494674
 21
152.8484269405
  0
LINE
  5
225
100
AcDbEntity
  8
0
100
AcDbLine
 62
7
  6
CONTINUOUS
 10
51.6102324064
 20
134.8739475603
 11
51.8894877249
 21
134.6005100603
  0
LINE
  5
226
100
AcDbEntity
  8
0
100
AcDbLine
 62
7
  6
CONTINUOUS
 10
51.9825728202
 20
135.147385321
 11
51.7964026296
 21
135.420822821
  0
LINE
  5
227
100
AcDbEntity
  8
0
100
AcDbLine
 62
7
  6
CONTINUOUS
 10
51.3309770961
 20
135.3296768138
 11
51.6102324064
 21
134.8739475603
  0
LINE
  5
228
100
AcDbEntity
  8
0
100
AcDbLine
 62
7
  6
CONTINUOUS
 10
51.7964026296
 20
135.420822821
 11
51.7033175343
 21
135.8765518138
  0
LINE
  5
229
100
AcDbEntity
  8
0
100
AcDbLine
 62
7
  6
CONTINUOUS
 10
51.2378919927
 20
135.8765518138
 11
51.3309770961
 21
135.3296768138
  0
LINE
  5
22A
100
AcDbEntity
  8
0
100
AcDbLine
 62
7
  6
CONTINUOUS
 10
51.2378919927
 20
154.7650935674
 11
51.2378919927
 21
154.2650935674
  0
LINE
  5
22B
100
AcDbEntity
  8
0
100
AcDbLine
 62
7
  6
CONTINUOUS
 10
51.2378919927
 20
152.2650935674
 11
51.2378919927
 21
151.5150935674
  0
LINE
  5
22C
100
AcDbEntity
  8
0
100
AcDbLine
 62
7
  6
CONTINUOUS
 10
51.2378919927
 20
149.6817600752
 11
51.2378919927
 21
146.681760552
  0
LINE
  5
22D
100
AcDbEntity
  8
0
100
AcDbLine
 62
7
  6
CONTINUOUS
 10
51.2378919927
 20
144.181760552
 11
51.2378919927
 21
143.681760552
  0
LINE
  5
22E
100
AcDbEntity
  8
0
100
AcDbLine
 62
7
  6
CONTINUOUS
 10
51.2378919927
 20
141.3484265829
 11
51.2378919927
 21
140.8484265829
  0
LINE
  5
22F
100
AcDbEntity
  8
0
100
AcDbLine
 62
7
  6
CONTINUOUS
 10
51.2378919927
 20
138.7932185674
 11
51.2378919927
 21
138.2463435674
  0
LINE
  5
230
100
AcDbEntity
  8
0
100
AcDbLine
 62
7
  6
CONTINUOUS
 10
51.7485302893
 20
146.681760552
 11
51.7485302893
 21
149.1817600752
  0
LINE
  5
231
100
AcDbEntity
  8
0
100
AcDbLine
 62
7
  6
CONTINUOUS
 10
51.7485302893
 20
151.5150935674
 11
51.7485302893
 21
152.2650935674
  0
LINE
  5
232
100
AcDbEntity
  8
0
100
AcDbLine
 62
7
  6
CONTINUOUS
 10
52.2591685859
 20
150.3484270597
 11
52.2591685859
 21
150.8484268213
  0
LINE
  5
233
100
AcDbEntity
  8
BEZUGSACHSEN
100
AcDbLine
 62
7
  6
CONTINUOUS
 10
52.4953452433
 20
182.9490565073
 11
52.4953452418
 21
181.9903823637
  0
LINE
  5
234
100
AcDbEntity
  8
BEZUGSACHSEN
100
AcDbLine
 62
7
  6
CONTINUOUS
 10
52.4953452418
 20
107.1148047711
 11
52.4953452433
 21
106.1561306276
  0
LINE
  5
235
100
AcDbEntity
  8
0
100
AcDbLine
 62
7
  6
CONTINUOUS
 10
52.6847004501
 20
146.0150935674
 11
52.6847004501
 21
144.8484265829
  0
LINE
  5
236
100
AcDbEntity
  8
0
100
AcDbLine
 62
7
  6
CONTINUOUS
 10
53.1102324334
 20
149.1817600752
 11
53.1102324334
 21
147.0150935674
  0
LINE
  5
237
100
AcDbEntity
  8
0
100
AcDbLine
 62
7
  6
CONTINUOUS
 10
53.1102324334
 20
143.681760552
 11
53.1102324334
 21
141.3484265829
  0
LINE
  5
238
100
AcDbEntity
  8
0
100
AcDbLine
 62
7
  6
CONTINUOUS
 10
53.1102324334
 20
144.8484265829
 11
53.1102324334
 21
146.0150935674
  0
LINE
  5
239
100
AcDbEntity
  8
0
100
AcDbLine
 62
7
  6
CONTINUOUS
 10
53.6208706704
 20
141.3484265829
 11
53.6208706704
 21
143.681760552
  0
LINE
  5
23A
100
AcDbEntity
  8
0
100
AcDbLine
 62
7
  6
CONTINUOUS
 10
53.6208706704
 20
147.0150935674
 11
53.6208706704
 21
149.1817600752
  0
LINE
  5
23B
100
AcDbEntity
  8
0
100
AcDbLine
 62
7
  6
CONTINUOUS
 10
51.3309770961
 20
136.4234268138
 11
51.2378919927
 21
135.8765518138
  0
LINE
  5
23C
100
AcDbEntity
  8
0
100
AcDbLine
 62
7
  6
CONTINUOUS
 10
51.7033175343
 20
135.8765518138
 11
51.7964026296
 21
136.3322810674
  0
LINE
  5
23D
100
AcDbEntity
  8
0
100
AcDbLine
 62
7
  6
CONTINUOUS
 10
54.7272537557
 20
151.5150935674
 11
54.6421473828
 21
151.1817603136
  0
LINE
  5
23E
100
AcDbEntity
  8
0
100
AcDbLine
 62
7
  6
CONTINUOUS
 10
54.9825728742
 20
150.7650935674
 11
55.1527856198
 21
151.0984268213
  0
LINE
  5
23F
100
AcDbEntity
  8
0
100
AcDbLine
 62
7
  6
CONTINUOUS
 10
54.6421473828
 20
151.1817603136
 11
54.4719346372
 21
150.9317603136
  0
LINE
  5
240
100
AcDbEntity
  8
0
100
AcDbLine
 62
7
  6
CONTINUOUS
 10
51.8336366621
 20
153.3484269405
 11
51.493211141
 21
153.0150935674
  0
LINE
  5
241
100
AcDbEntity
  8
0
100
AcDbLine
 62
7
  6
CONTINUOUS
 10
52.0038494674
 20
152.8484269405
 11
52.2591685859
 21
153.0150935674
  0
LINE
  5
242
100
AcDbEntity
  8
0
100
AcDbLine
 62
7
  6
CONTINUOUS
 10
52.1740622131
 20
153.5150935674
 11
51.8336366621
 21
153.3484269405
  0
LINE
  5
243
100
AcDbEntity
  8
0
100
AcDbLine
 62
7
  6
CONTINUOUS
 10
75.3128919927
 20
129.0525935674
 11
63.1128919927
 21
129.0525935674
  0
LINE
  5
244
100
AcDbEntity
  8
0
100
AcDbLine
 62
7
  6
CONTINUOUS
 10
51.8894877249
 20
134.6005100603
 11
52.2618281712
 21
134.4182185674
  0
LINE
  5
245
100
AcDbEntity
  8
0
100
AcDbLine
 62
7
  6
CONTINUOUS
 10
52.5410834571
 20
134.7828020746
 11
51.9825728202
 21
135.147385321
  0
LINE
  5
246
100
AcDbEntity
  8
0
100
AcDbLine
 62
7
  6
CONTINUOUS
 10
54.8682112304
 20
136.6057185674
 11
55.054381421
 21
136.3322810674
  0
LINE
  5
247
100
AcDbEntity
  8
0
100
AcDbLine
 62
7
  6
CONTINUOUS
 10
55.5198068974
 20
136.4234268138
 11
55.2405516115
 21
136.8791560674
  0
LINE
  5
248
100
AcDbEntity
  8
0
100
AcDbLine
 62
7
  6
CONTINUOUS
 10
51.2378919927
 20
151.5150935674
 11
51.322998373
 21
151.0984268213
  0
LINE
  5
249
100
AcDbEntity
  8
0
100
AcDbLine
 62
7
  6
CONTINUOUS
 10
55.054381421
 20
136.3322810674
 11
55.1474665162
 21
135.8765518138
  0
LINE
  5
24A
100
AcDbEntity
  8
0
100
AcDbLine
 62
7
  6
CONTINUOUS
 10
54.2166152803
 20
150.8484268213
 11
54.2166152803
 21
150.3484270597
  0
LINE
  5
24B
100
AcDbEntity
  8
0
100
AcDbLine
 62
7
  6
CONTINUOUS
 10
54.7272537557
 20
152.2650935674
 11
54.7272537557
 21
151.5150935674
  0
LINE
  5
24C
100
AcDbEntity
  8
0
100
AcDbLine
 62
7
  6
CONTINUOUS
 10
54.7272537557
 20
149.1817600752
 11
54.7272537557
 21
146.681760552
  0
LINE
  5
24D
100
AcDbEntity
  8
0
100
AcDbLine
 62
7
  6
CONTINUOUS
 10
55.038121266
 20
167.0525935674
 11
55.038121266
 21
164.8650935674
  0
LINE
  5
24E
100
AcDbEntity
  8
BEZUGSACHSEN
100
AcDbLine
 62
7
  6
CONTINUOUS
 10
55.038121266
 20
122.0525935674
 11
55.038121266
 21
124.2400935674
  0
LINE
  5
24F
100
AcDbEntity
  8
0
100
AcDbLine
 62
7
  6
CONTINUOUS
 10
55.2378919927
 20
140.8484265829
 11
55.2378919927
 21
141.3484265829
  0
LINE
  5
250
100
AcDbEntity
  8
0
100
AcDbLine
 62
7
  6
CONTINUOUS
 10
55.2378919927
 20
143.681760552
 11
55.2378919927
 21
144.181760552
  0
LINE
  5
251
100
AcDbEntity
  8
0
100
AcDbLine
 62
7
  6
CONTINUOUS
 10
55.2378919927
 20
146.681760552
 11
55.2378919927
 21
149.6817600752
  0
LINE
  5
252
100
AcDbEntity
  8
0
100
AcDbLine
 62
7
  6
CONTINUOUS
 10
55.2378919927
 20
151.5150935674
 11
55.2378919927
 21
152.2650935674
  0
LINE
  5
253
100
AcDbEntity
  8
0
100
AcDbLine
 62
7
  6
CONTINUOUS
 10
55.2378919927
 20
154.2650935674
 11
55.2378919927
 21
154.7650935674
  0
LINE
  5
254
100
AcDbEntity
  8
0
100
AcDbLine
 62
7
  6
CONTINUOUS
 10
55.6128919927
 20
138.2463435674
 11
55.6128919927
 21
138.7932185674
  0
LINE
  5
255
100
AcDbEntity
  8
0
100
AcDbLine
 62
7
  6
CONTINUOUS
 10
55.1527856198
 20
151.0984268213
 11
55.2378919927
 21
151.5150935674
  0
LINE
  5
256
100
AcDbEntity
  8
0
100
AcDbLine
 62
7
  6
CONTINUOUS
 10
54.6421473828
 20
150.4317600752
 11
54.9825728742
 21
150.7650935674
  0
LINE
  5
257
100
AcDbEntity
  8
0
100
AcDbLine
 62
7
  6
CONTINUOUS
 10
53.0995941592
 20
134.6916560674
 11
52.5410834571
 21
134.7828020746
  0
LINE
  5
258
100
AcDbEntity
  8
0
100
AcDbLine
 62
7
  6
CONTINUOUS
 10
52.5410834571
 20
134.3270725603
 11
53.0065090639
 21
134.2359270746
  0
LINE
  5
259
100
AcDbEntity
  8
0
100
AcDbLine
 62
7
  6
CONTINUOUS
 10
52.2618281712
 20
134.4182185674
 11
52.5410834571
 21
134.3270725603
  0
LINE
  5
25A
100
AcDbEntity
  8
0
100
AcDbLine
 62
7
  6
CONTINUOUS
 10
54.9612963257
 20
137.1525935674
 11
54.5889559445
 21
137.3348851906
  0
LINE
  5
25B
100
AcDbEntity
  8
0
100
AcDbLine
 62
7
  6
CONTINUOUS
 10
54.3097003979
 20
136.9703018138
 11
54.8682112304
 21
136.6057185674
  0
LINE
  5
25C
100
AcDbEntity
  8
0
100
AcDbLine
 62
7
  6
CONTINUOUS
 10
54.2166153026
 20
139.3400935674
 11
54.8682112304
 21
138.7932185674
  0
LINE
  5
25D
100
AcDbEntity
  8
0
100
AcDbLine
 62
7
  6
CONTINUOUS
 10
55.6128919927
 20
138.7932185674
 11
54.9612963257
 21
139.3400935674
  0
LINE
  5
25E
100
AcDbEntity
  8
0
100
AcDbLine
 62
7
  6
CONTINUOUS
 10
55.2405516115
 20
136.8791560674
 11
54.9612963257
 21
137.1525935674
  0
LINE
  5
25F
100
AcDbEntity
  8
0
100
AcDbLine
 62
7
  6
CONTINUOUS
 10
51.322998373
 20
151.0984268213
 11
51.493211141
 21
150.7650935674
  0
LINE
  5
260
100
AcDbEntity
  8
0
100
AcDbLine
 62
7
  6
CONTINUOUS
 10
51.8336366621
 20
151.1817603136
 11
51.7485302893
 21
151.5150935674
  0
LINE
  5
261
100
AcDbEntity
  8
0
100
AcDbLine
 62
7
  6
CONTINUOUS
 10
55.6128919927
 20
135.8765518138
 11
55.5198068974
 21
136.4234268138
  0
LINE
  5
262
100
AcDbEntity
  8
BEZUGSACHSEN
100
AcDbLine
 62
7
  6
CONTINUOUS
 10
57.9628919927
 20
152.6775935674
 11
57.9628919927
 21
136.4275935674
  0
LINE
  5
263
100
AcDbEntity
  8
0
100
AcDbLine
 62
7
  6
CONTINUOUS
 10
55.5198068974
 20
135.3296768138
 11
55.6128919927
 21
135.8765518138
  0
LINE
  5
264
100
AcDbEntity
  8
0
100
AcDbLine
 62
7
  6
CONTINUOUS
 10
55.1474665162
 20
135.8765518138
 11
55.054381421
 21
135.420822821
  0
LINE
  5
265
100
AcDbEntity
  8
0
100
AcDbLine
 62
7
  6
CONTINUOUS
 10
51.6102324064
 20
136.8791560674
 11
51.3309770961
 21
136.4234268138
  0
LINE
  5
266
100
AcDbEntity
  8
0
100
AcDbLine
 62
7
  6
CONTINUOUS
 10
51.7964026296
 20
136.3322810674
 11
51.9825728202
 21
136.6057185674
  0
LINE
  5
267
100
AcDbEntity
  8
0
100
AcDbLine
 62
7
  6
CONTINUOUS
 10
54.4719346372
 20
150.9317603136
 11
54.2166152803
 21
150.8484268213
  0
LINE
  5
268
100
AcDbEntity
  8
0
100
AcDbLine
 62
7
  6
CONTINUOUS
 10
53.0065090639
 20
134.2359270746
 11
53.8442749215
 21
134.2359270746
  0
LINE
  5
269
100
AcDbEntity
  8
0
100
AcDbLine
 62
7
  6
CONTINUOUS
 10
53.7511898262
 20
134.6916560674
 11
53.0995941592
 21
134.6916560674
  0
LINE
  5
26A
100
AcDbEntity
  8
0
100
AcDbLine
 62
7
  6
CONTINUOUS
 10
53.7511898262
 20
137.061447821
 11
54.3097003979
 21
136.9703018138
  0
LINE
  5
26B
100
AcDbEntity
  8
0
100
AcDbLine
 62
7
  6
CONTINUOUS
 10
54.3097003979
 20
137.4260310674
 11
53.8442749215
 21
137.5171769442
  0
LINE
  5
26C
100
AcDbEntity
  8
0
100
AcDbLine
 62
7
  6
CONTINUOUS
 10
54.5889559445
 20
137.3348851906
 11
54.3097003979
 21
137.4260310674
  0
LINE
  5
26D
100
AcDbEntity
  8
0
100
AcDbLine
 62
7
  6
CONTINUOUS
 10
52.0038494674
 20
150.9317603136
 11
51.8336366621
 21
151.1817603136
  0
LINE
  5
26E
100
AcDbEntity
  8
0
100
AcDbLine
 62
7
  6
CONTINUOUS
 10
54.6421473828
 20
152.5984268213
 11
54.7272537557
 21
152.2650935674
  0
LINE
  5
26F
100
AcDbEntity
  8
0
100
AcDbLine
 62
7
  6
CONTINUOUS
 10
55.2378919927
 20
152.2650935674
 11
55.1527856198
 21
152.6817603136
  0
LINE
  5
270
100
AcDbEntity
  8
BEZUGSACHSEN
100
AcDbLine
 62
7
  6
CONTINUOUS
 10
63.1128919927
 20
109.7525935674
 11
63.1128919927
 21
134.8275935674
  0
LINE
  5
271
100
AcDbEntity
  8
0
100
AcDbLine
 62
7
  6
CONTINUOUS
 10
63.1128919927
 20
154.2775935674
 11
63.1128919927
 21
167.0525935674
  0
LINE
  5
272
100
AcDbEntity
  8
BEZUGSACHSEN
100
AcDbLine
 62
7
  6
CONTINUOUS
 10
63.1128919927
 20
167.0525935674
 11
63.1128919927
 21
179.3525935674
  0
LINE
  5
273
100
AcDbEntity
  8
0
100
AcDbLine
 62
7
  6
CONTINUOUS
 10
55.2405516115
 20
134.8739475603
 11
55.5198068974
 21
135.3296768138
  0
LINE
  5
274
100
AcDbEntity
  8
0
100
AcDbLine
 62
7
  6
CONTINUOUS
 10
55.054381421
 20
135.420822821
 11
54.8682112304
 21
135.147385321
  0
LINE
  5
275
100
AcDbEntity
  8
0
100
AcDbLine
 62
7
  6
CONTINUOUS
 10
51.8894877249
 20
137.1525935674
 11
51.6102324064
 21
136.8791560674
  0
LINE
  5
276
100
AcDbEntity
  8
0
100
AcDbLine
 62
7
  6
CONTINUOUS
 10
53.8442749215
 20
134.2359270746
 11
54.3097003979
 21
134.3270725603
  0
LINE
  5
277
100
AcDbEntity
  8
0
100
AcDbLine
 62
7
  6
CONTINUOUS
 10
54.3097003979
 20
134.7828020746
 11
53.7511898262
 21
134.6916560674
  0
LINE
  5
278
100
AcDbEntity
  8
0
100
AcDbLine
 62
7
  6
CONTINUOUS
 10
53.0995941592
 20
137.061447821
 11
53.7511898262
 21
137.061447821
  0
LINE
  5
279
100
AcDbEntity
  8
0
100
AcDbLine
 62
7
  6
CONTINUOUS
 10
53.8442749215
 20
137.5171769442
 11
53.0065090639
 21
137.5171769442
  0
LINE
  5
27A
100
AcDbEntity
  8
0
100
AcDbLine
 62
7
  6
CONTINUOUS
 10
51.2378919927
 20
138.2463435674
 11
55.6128919927
 21
138.2463435674
  0
LINE
  5
27B
100
AcDbEntity
  8
0
100
AcDbLine
 62
7
  6
CONTINUOUS
 10
51.493211141
 20
150.7650935674
 11
51.8336366621
 21
150.4317600752
  0
LINE
  5
27C
100
AcDbEntity
  8
0
100
AcDbLine
 62
7
  6
CONTINUOUS
 10
54.4719346372
 20
152.8484269405
 11
54.6421473828
 21
152.5984268213
  0
LINE
  5
27D
100
AcDbEntity
  8
0
100
AcDbLine
 62
7
  6
CONTINUOUS
 10
55.1527856198
 20
152.6817603136
 11
54.9825728742
 21
153.0150935674
  0
LINE
  5
27E
100
AcDbEntity
  8
0
100
AcDbLine
 62
7
  6
CONTINUOUS
 10
54.9612963257
 20
134.6005100603
 11
55.2405516115
 21
134.8739475603
  0
LINE
  5
27F
100
AcDbEntity
  8
0
100
AcDbLine
 62
7
  6
CONTINUOUS
 10
51.9825728202
 20
136.6057185674
 11
52.5410834571
 21
136.9703018138
  0
LINE
  5
280
100
AcDbEntity
  8
0
100
AcDbLine
 62
7
  6
CONTINUOUS
 10
53.0065090639
 20
137.5171769442
 11
52.5410834571
 21
137.4260310674
  0
LINE
  5
281
100
AcDbEntity
  8
0
100
AcDbLine
 62
7
  6
CONTINUOUS
 10
52.5410834571
 20
136.9703018138
 11
53.0995941592
 21
137.061447821
  0
LINE
  5
282
100
AcDbEntity
  8
0
100
AcDbLine
 62
7
  6
CONTINUOUS
 10
54.8682112304
 20
138.7932185674
 11
51.2378919927
 21
138.7932185674
  0
LINE
  5
283
100
AcDbEntity
  8
0
100
AcDbLine
 62
7
  6
CONTINUOUS
 10
54.9612963257
 20
139.3400935674
 11
54.2166153026
 21
139.3400935674
  0
LINE
  5
284
100
AcDbEntity
  8
0
100
AcDbLine
 62
7
  6
CONTINUOUS
 10
51.2378919927
 20
140.8484265829
 11
55.2378919927
 21
140.8484265829
  0
LINE
  5
285
100
AcDbEntity
  8
0
100
AcDbLine
 62
7
  6
CONTINUOUS
 10
55.2378919927
 20
141.3484265829
 11
53.6208706704
 21
141.3484265829
  0
LINE
  5
286
100
AcDbEntity
  8
0
100
AcDbLine
 62
7
  6
CONTINUOUS
 10
53.1102324334
 20
141.3484265829
 11
51.2378919927
 21
141.3484265829
  0
LINE
  5
287
100
AcDbEntity
  8
0
100
AcDbLine
 62
7
  6
CONTINUOUS
 10
54.9825728742
 20
153.0150935674
 11
54.6421473828
 21
153.3484269405
  0
LINE
  5
288
100
AcDbEntity
  8
0
100
AcDbLine
 62
7
  6
CONTINUOUS
 10
54.8682112304
 20
135.147385321
 11
54.3097003979
 21
134.7828020746
  0
LINE
  5
289
100
AcDbEntity
  8
0
100
AcDbLine
 62
7
  6
CONTINUOUS
 10
52.2618281712
 20
137.3348851906
 11
51.8894877249
 21
137.1525935674
  0
LINE
  5
28A
100
AcDbEntity
  8
0
100
AcDbLine
 62
7
  6
CONTINUOUS
 10
51.2378919927
 20
143.681760552
 11
53.1102324334
 21
143.681760552
  0
LINE
  5
28B
100
AcDbEntity
  8
0
100
AcDbLine
 62
7
  6
CONTINUOUS
 10
53.6208706704
 20
143.681760552
 11
55.2378919927
 21
143.681760552
  0
LINE
  5
28C
100
AcDbEntity
  8
0
100
AcDbLine
 62
7
  6
CONTINUOUS
 10
55.2378919927
 20
144.181760552
 11
51.2378919927
 21
144.181760552
  0
LINE
  5
28D
100
AcDbEntity
  8
0
100
AcDbLine
 62
7
  6
CONTINUOUS
 10
52.6847004501
 20
144.8484265829
 11
53.1102324334
 21
144.8484265829
  0
LINE
  5
28E
100
AcDbEntity
  8
0
100
AcDbLine
 62
7
  6
CONTINUOUS
 10
54.2166152803
 20
153.0150935674
 11
54.4719346372
 21
152.8484269405
  0
LINE
  5
28F
100
AcDbEntity
  8
0
100
AcDbLine
 62
7
  6
CONTINUOUS
 10
54.5889559445
 20
134.4182185674
 11
54.9612963257
 21
134.6005100603
  0
LINE
  5
290
100
AcDbEntity
  8
0
100
AcDbLine
 62
7
  6
CONTINUOUS
 10
52.5410834571
 20
137.4260310674
 11
52.2618281712
 21
137.3348851906
  0
LINE
  5
291
100
AcDbEntity
  8
0
100
AcDbLine
 62
7
  6
CONTINUOUS
 10
53.1102324334
 20
146.0150935674
 11
52.6847004501
 21
146.0150935674
  0
LINE
  5
292
100
AcDbEntity
  8
0
100
AcDbLine
 62
7
  6
CONTINUOUS
 10
51.2378919927
 20
146.681760552
 11
51.7485302893
 21
146.681760552
  0
LINE
  5
293
100
AcDbEntity
  8
0
100
AcDbLine
 62
7
  6
CONTINUOUS
 10
54.7272537557
 20
146.681760552
 11
55.2378919927
 21
146.681760552
  0
LINE
  5
294
100
AcDbEntity
  8
0
100
AcDbLine
 62
7
  6
CONTINUOUS
 10
53.1102324334
 20
147.0150935674
 11
53.6208706704
 21
147.0150935674
  0
LINE
  5
295
100
AcDbEntity
  8
0
100
AcDbLine
 62
7
  6
CONTINUOUS
 10
51.8336366621
 20
150.4317600752
 11
52.2591685859
 21
150.3484270597
  0
LINE
  5
296
100
AcDbEntity
  8
0
100
AcDbLine
 62
7
  6
CONTINUOUS
 10
52.2591685859
 20
150.8484268213
 11
52.0038494674
 21
150.9317603136
  0
LINE
  5
297
100
AcDbEntity
  8
0
100
AcDbLine
 62
7
  6
CONTINUOUS
 10
54.6421473828
 20
153.3484269405
 11
54.3017218915
 21
153.5150935674
  0
LINE
  5
298
100
AcDbEntity
  8
BEZUGSACHSEN
100
AcDbLine
 62
7
  6
CONTINUOUS
 10
75.3128919927
 20
109.7525935674
 11
75.3128919927
 21
134.8275935674
  0
LINE
  5
299
100
AcDbEntity
  8
BEZUGSACHSEN
100
AcDbLine
 62
7
  6
CONTINUOUS
 10
75.3128919927
 20
154.2775935674
 11
75.3128919927
 21
179.3525935674
  0
LINE
  5
29A
100
AcDbEntity
  8
0
100
AcDbLine
 62
7
  6
CONTINUOUS
 10
54.3097003979
 20
134.3270725603
 11
54.5889559445
 21
134.4182185674
  0
LINE
  5
29B
100
AcDbEntity
  8
0
100
AcDbLine
 62
7
  6
CONTINUOUS
 10
51.7485302893
 20
149.1817600752
 11
53.1102324334
 21
149.1817600752
  0
LINE
  5
29C
100
AcDbEntity
  8
0
100
AcDbLine
 62
7
  6
CONTINUOUS
 10
53.6208706704
 20
149.1817600752
 11
54.7272537557
 21
149.1817600752
  0
LINE
  5
29D
100
AcDbEntity
  8
0
100
AcDbLine
 62
7
  6
CONTINUOUS
 10
55.2378919927
 20
149.6817600752
 11
51.2378919927
 21
149.6817600752
  0
LINE
  5
29E
100
AcDbEntity
  8
0
100
AcDbLine
 62
7
  6
CONTINUOUS
 10
54.3017218915
 20
153.5150935674
 11
53.8761897889
 21
153.5984269405
  0
LINE
  5
29F
100
AcDbEntity
  8
0
100
AcDbLine
 62
7
  6
CONTINUOUS
 10
53.8761897889
 20
153.0984269405
 11
54.2166152803
 21
153.0150935674
  0
LINE
  5
2A0
100
AcDbEntity
  8
0
100
AcDbLine
 62
7
  6
CONTINUOUS
 10
54.2166152803
 20
150.3484270597
 11
54.6421473828
 21
150.4317600752
  0
LINE
  5
2A1
100
AcDbEntity
  8
0
100
AcDbLine
 62
7
  6
CONTINUOUS
 10
52.5995940772
 20
153.0984269405
 11
53.8761897889
 21
153.0984269405
  0
LINE
  5
2A2
100
AcDbEntity
  8
0
100
AcDbLine
 62
7
  6
CONTINUOUS
 10
53.8761897889
 20
153.5984269405
 11
52.5995940772
 21
153.5984269405
  0
LINE
  5
2A3
100
AcDbEntity
  8
0
100
AcDbLine
 62
7
  6
CONTINUOUS
 10
51.2378919927
 20
154.2650935674
 11
55.2378919927
 21
154.2650935674
  0
LINE
  5
2A4
100
AcDbEntity
  8
BEZUGSACHSEN
100
AcDbLine
 62
7
  6
CONTINUOUS
 10
80.4628919927
 20
136.4275935674
 11
80.4628919927
 21
152.6775935674
  0
LINE
  5
2A5
100
AcDbEntity
  8
0
100
AcDbLine
 62
7
  6
CONTINUOUS
 10
52.2591685859
 20
153.0150935674
 11
52.5995940772
 21
153.0984269405
  0
LINE
  5
2A6
100
AcDbEntity
  8
0
100
AcDbLine
 62
7
  6
CONTINUOUS
 10
52.5995940772
 20
153.5984269405
 11
52.1740622131
 21
153.5150935674
  0
LINE
  5
2A7
100
AcDbEntity
  8
0
100
AcDbLine
 62
7
  6
CONTINUOUS
 10
55.2378919927
 20
154.7650935674
 11
51.2378919927
 21
154.7650935674
  0
LINE
  5
2A8
100
AcDbEntity
  8
BEZUGSACHSEN
100
AcDbLine
 62
7
  6
CONTINUOUS
 10
83.3876627194
 20
167.0525935674
 11
83.3876627194
 21
164.8650935674
  0
LINE
  5
2A9
100
AcDbEntity
  8
BEZUGSACHSEN
100
AcDbLine
 62
7
  6
CONTINUOUS
 10
83.3876627194
 20
122.0525935674
 11
83.3876627194
 21
124.2400935674
  0
LINE
  5
2AA
100
AcDbEntity
  8
0
100
AcDbLine
 62
7
  6
CONTINUOUS
 10
63.1128919927
 20
160.0525935674
 11
75.3128919927
 21
160.0525935674
  0
LINE
  5
2AB
100
AcDbEntity
  8
BEZUGSACHSEN
100
AcDbLine
 62
7
  6
CONTINUOUS
 10
85.9304387421
 20
106.1561306276
 11
85.9304387435
 21
107.1148047711
  0
LINE
  5
2AC
100
AcDbEntity
  8
BEZUGSACHSEN
100
AcDbLine
 62
7
  6
CONTINUOUS
 10
85.9304387435
 20
181.9903823637
 11
85.9304387421
 21
182.9490565073
  0
LINE
  5
2AD
100
AcDbEntity
  8
BEZUGSACHSEN
100
AcDbLine
 62
7
  6
CONTINUOUS
 10
88.8280254147
 20
182.5333110275
 11
88.8280254554
 21
181.5997099042
  0
LINE
  5
2AE
100
AcDbEntity
  8
BEZUGSACHSEN
100
AcDbLine
 62
7
  6
CONTINUOUS
 10
88.8280254554
 20
107.5054772307
 11
88.8280254147
 21
106.5718761073
  0
LINE
  5
2AF
100
AcDbEntity
  8
BEZUGSACHSEN
100
AcDbLine
 62
7
  6
CONTINUOUS
 10
89.2128919927
 20
152.6775935674
 11
89.2128919927
 21
136.4275935674
  0
LINE
  5
2B0
100
AcDbEntity
  8
BEZUGSACHSEN
100
AcDbLine
 62
7
  6
CONTINUOUS
 10
96.7128919927
 20
114.1862032525
 11
96.7128919927
 21
174.9189838823
  0
LINE
  5
2B1
100
AcDbEntity
  8
0
100
AcDbLine
 62
7
  6
CONTINUOUS
 10
75.3128919927
 20
174.0525935674
 11
63.1128919927
 21
174.0525935674
  0
LINE
  5
2B2
100
AcDbEntity
  8
BEZUGSACHSEN
100
AcDbLine
 62
7
  6
CONTINUOUS
 10
91.8362432629
 20
114.0156097391
 11
96.7128919927
 21
119.0271686605
  0
LINE
  5
2B3
100
AcDbEntity
  8
BEZUGSACHSEN
100
AcDbLine
 62
7
  6
CONTINUOUS
 10
91.8362432629
 20
175.0895773958
 11
96.7128919927
 21
170.0780184744
  0
LINE
  5
2B4
100
AcDbEntity
  8
BEZUGSACHSEN
100
AcDbLine
 62
7
  6
CONTINUOUS
 10
96.7128919927
 20
114.1862032525
 11
88.8280254147
 21
106.5718761073
  0
LINE
  5
2B5
100
AcDbEntity
  8
BEZUGSACHSEN
100
AcDbLine
 62
7
  6
CONTINUOUS
 10
52.4953452433
 20
182.9490565073
 11
49.5977585706
 21
182.5333110275
  0
LINE
  5
2B6
100
AcDbEntity
  8
BEZUGSACHSEN
100
AcDbLine
 62
7
  6
CONTINUOUS
 10
88.8280254147
 20
182.5333110275
 11
85.9304387421
 21
182.9490565073
  0
LINE
  5
2B7
100
AcDbEntity
  8
BEZUGSACHSEN
100
AcDbLine
 62
7
  6
CONTINUOUS
 10
96.7128919927
 20
174.9189838823
 11
88.8280254147
 21
182.5333110275
  0
LINE
  5
2B8
100
AcDbEntity
  8
BEZUGSACHSEN
100
AcDbLine
 62
7
  6
CONTINUOUS
 10
136.4796297362
 20
170.0780184744
 11
148.4766657932
 21
174.4445824986
  0
LINE
  5
2B9
100
AcDbEntity
  8
BEZUGSACHSEN
100
AcDbLine
 62
7
  6
CONTINUOUS
 10
136.4796297362
 20
119.0271686605
 11
148.4766657932
 21
114.6606046363
  0
LINE
  5
2BA
100
AcDbEntity
  8
BEZUGSACHSEN
100
AcDbLine
 62
7
  6
CONTINUOUS
 10
136.4796297362
 20
113.3557691279
 11
136.4796297362
 21
175.749418007
  0
LINE
  5
2BB
100
AcDbEntity
  8
FASEN
100
AcDbLine
 62
7
  6
CONTINUOUS
 10
165.8546297362
 20
175.749418007
 11
165.8546297362
 21
170.0780184744
  0
LINE
  5
2BC
100
AcDbEntity
  8
BEZUGSACHSEN
100
AcDbLine
 62
7
  6
CONTINUOUS
 10
165.8546297362
 20
113.3557691279
 11
165.8546297362
 21
170.0780184744
  0
LINE
  5
2BD
100
AcDbEntity
  8
BEZUGSACHSEN
100
AcDbLine
 62
7
  6
CONTINUOUS
 10
165.8546297362
 20
119.0271686605
 11
153.8575936791
 21
114.6606046363
  0
LINE
  5
2BE
100
AcDbEntity
  8
0
100
AcDbLine
 62
7
  6
CONTINUOUS
 10
165.8546297362
 20
170.0780184744
 11
153.8575936791
 21
174.4445824986
  0
LINE
  5
2BF
100
AcDbEntity
  8
BEZUGSACHSEN
100
AcDbLine
 62
7
  6
CONTINUOUS
 10
41.7128919927
 20
70.2161742916
 11
41.7128919927
 21
52.8382103486
  0
LINE
  5
2C0
100
AcDbEntity
  8
0
100
AcDbLine
 62
7
  6
CONTINUOUS
 10
41.7128919927
 20
40.8411742916
 11
41.7128919927
 21
52.8382103486
  0
LINE
  5
2C1
100
AcDbEntity
  8
BEZUGSACHSEN
100
AcDbLine
 62
7
  6
CONTINUOUS
 10
49.59775853
 20
50.2339581344
 11
49.59775853
 21
60.8233904487
  0
LINE
  5
2C2
100
AcDbEntity
  8
BEZUGSACHSEN
100
AcDbLine
 62
7
  6
CONTINUOUS
 10
52.4953452418
 20
60.9655851672
 11
52.4953452418
 21
50.091763416
  0
LINE
  5
2C3
100
AcDbEntity
  8
FASEN
100
AcDbLine
 62
7
  6
CONTINUOUS
 10
41.7128919927
 20
40.8411742916
 11
55.038121266
 21
40.8411742916
  0
LINE
  5
2C4
100
AcDbEntity
  8
0
100
AcDbLine
 62
7
  6
CONTINUOUS
 10
55.038121266
 20
40.8411742916
 11
63.1128919927
 21
40.8411742916
  0
LINE
  5
2C5
100
AcDbEntity
  8
BEZUGSACHSEN
100
AcDbLine
 62
7
  6
CONTINUOUS
 10
63.1128919927
 20
40.8411742916
 11
96.7128919927
 21
40.8411742916
  0
LINE
  5
2C6
100
AcDbEntity
  8
0
100
AcDbLine
 62
7
  6
CONTINUOUS
 10
63.1128919927
 20
43.2286742916
 11
63.1128919927
 21
40.8411742916
  0
LINE
  5
2C7
100
AcDbEntity
  8
BEZUGSACHSEN
100
AcDbLine
 62
7
  6
CONTINUOUS
 10
63.1128919927
 20
43.2286742916
 11
63.1128919927
 21
70.2161742916
  0
LINE
  5
2C8
100
AcDbEntity
  8
0
100
AcDbLine
 62
7
  6
CONTINUOUS
 10
63.1128919927
 20
49.2786742916
 11
75.3128919927
 21
49.2786742916
  0
LINE
  5
2C9
100
AcDbEntity
  8
BEZUGSACHSEN
100
AcDbLine
 62
7
  6
CONTINUOUS
 10
75.3128919927
 20
40.8411742916
 11
75.3128919927
 21
70.2161742916
  0
LINE
  5
2CA
100
AcDbEntity
  8
0
100
AcDbLine
 62
7
  6
CONTINUOUS
 10
63.1128919927
 20
61.7786742916
 11
75.3128919927
 21
61.7786742916
  0
LINE
  5
2CB
100
AcDbEntity
  8
BEZUGSACHSEN
100
AcDbLine
 62
7
  6
CONTINUOUS
 10
41.7128919927
 20
70.2161742916
 11
96.7128919927
 21
70.2161742916
  0
LINE
  5
2CC
100
AcDbEntity
  8
BEZUGSACHSEN
100
AcDbLine
 62
7
  6
CONTINUOUS
 10
85.9304387435
 20
50.091763416
 11
85.9304387435
 21
60.9655851672
  0
LINE
  5
2CD
100
AcDbEntity
  8
BEZUGSACHSEN
100
AcDbLine
 62
7
  6
CONTINUOUS
 10
88.8280254554
 20
60.8233904487
 11
88.8280254554
 21
50.2339581344
  0
LINE
  5
2CE
100
AcDbEntity
  8
BEZUGSACHSEN
100
AcDbLine
 62
7
  6
CONTINUOUS
 10
96.7128919927
 20
40.8411742916
 11
96.7128919927
 21
70.2161742916
  0
ARC
  5
2CF
100
AcDbEntity
  8
BEZUGSACHSEN
100
AcDbCircle
 62
7
  6
CONTINUOUS
 10
69.2128919927
 20
214.832024228
 40
36.0
100
AcDbArc
 50
279.7555194633
 51
297.6698646326
  0
ARC
  5
2D0
100
AcDbEntity
  8
BEZUGSACHSEN
100
AcDbCircle
 62
7
  6
CONTINUOUS
 10
69.2128919927
 20
74.2731629068
 40
36.0
100
AcDbArc
 50
62.3301353674
 51
80.2444805367
  0
ARC
  5
2D1
100
AcDbEntity
  8
BEZUGSACHSEN
100
AcDbCircle
 62
7
  6
CONTINUOUS
 10
69.2128919927
 20
74.2731629068
 40
36.0
100
AcDbArc
 50
99.7555194633
 51
117.6698646326
  0
ARC
  5
2D2
100
AcDbEntity
  8
0
100
AcDbCircle
 62
7
  6
CONTINUOUS
 10
69.2128919927
 20
214.832024228
 40
36.0
100
AcDbArc
 50
242.3301353674
 51
260.2444805367
  0
ARC
  5
2D3
100
AcDbEntity
  8
BEZUGSACHSEN
100
AcDbCircle
 62
7
  6
CONTINUOUS
 10
69.2128919927
 20
154.2775935674
 40
6.1
100
AcDbArc
 50
180.0
 51
360.0
  0
ARC
  5
2D4
100
AcDbEntity
  8
BEZUGSACHSEN
100
AcDbCircle
 62
7
  6
CONTINUOUS
 10
69.2128919927
 20
134.8275935674
 40
6.1
100
AcDbArc
 50
0.0
 51
180.0
  0
ARC
  5
2D5
100
AcDbEntity
  8
BEZUGSACHSEN
100
AcDbCircle
 62
7
  6
CONTINUOUS
 10
84.8378919927
 20
136.4275935674
 40
4.375
100
AcDbArc
 50
180.0
 51
360.0
  0
ARC
  5
2D6
100
AcDbEntity
  8
BEZUGSACHSEN
100
AcDbCircle
 62
7
  6
CONTINUOUS
 10
84.8378919927
 20
152.6775935674
 40
4.375
100
AcDbArc
 50
0.0
 51
180.0
  0
ARC
  5
2D7
100
AcDbEntity
  8
BEZUGSACHSEN
100
AcDbCircle
 62
7
  6
CONTINUOUS
 10
53.5878919927
 20
136.4275935674
 40
4.375
100
AcDbArc
 50
180.0
 51
360.0
  0
ARC
  5
2D8
100
AcDbEntity
  8
0
100
AcDbCircle
 62
7
  6
CONTINUOUS
 10
53.5878919927
 20
152.6775935674
 40
4.375
100
AcDbArc
 50
0.0
 51
180.0
  0
ARC
  5
2D9
100
AcDbEntity
  8
BEZUGSACHSEN
100
AcDbCircle
 62
7
  6
CONTINUOUS
 10
151.1671297362
 20
167.0525935674
 40
15.8964629399
100
AcDbArc
 50
69.9999986859
 51
110.0000013141
  0
ARC
  5
2DA
100
AcDbEntity
  8
BEZUGSACHSEN
100
AcDbCircle
 62
7
  6
CONTINUOUS
 10
151.1671297362
 20
122.0525935674
 40
15.8964629399
100
AcDbArc
 50
249.9999986859
 51
290.0000013141
  0
ARC
  5
2DB
100
AcDbEntity
  8
BEZUGSACHSEN
100
AcDbCircle
 62
7
  6
CONTINUOUS
 10
151.1671297362
 20
167.0525935674
 40
15.4807174601
100
AcDbArc
 50
70.0000041173
 51
109.9999958827
  0
ARC
  5
2DC
100
AcDbEntity
  8
BEZUGSACHSEN
100
AcDbCircle
 62
7
  6
CONTINUOUS
 10
151.1671297362
 20
122.0525935674
 40
15.4807174601
100
AcDbArc
 50
250.0000041173
 51
289.9999958827
  0
ARC
  5
2DD
100
AcDbEntity
  8
BEZUGSACHSEN
100
AcDbCircle
 62
7
  6
CONTINUOUS
 10
151.1671297362
 20
122.0525935674
 40
7.8663903149
100
AcDbArc
 50
250.0
 51
290.0
  0
ARC
  5
2DE
100
AcDbEntity
  8
BEZUGSACHSEN
100
AcDbCircle
 62
7
  6
CONTINUOUS
 10
151.1671297362
 20
167.0525935674
 40
7.8663903149
100
AcDbArc
 50
70.0
 51
110.0
  0
ARC
  5
2DF
100
AcDbEntity
  8
0
100
AcDbCircle
 62
7
  6
CONTINUOUS
 10
69.2128919927
 20
7.749243631
 40
36.0
100
AcDbArc
 50
99.7555194633
 51
113.1876405749
  0
ARC
  5
2E0
100
AcDbEntity
  8
0
100
AcDbCircle
 62
7
  6
CONTINUOUS
 10
69.2128919927
 20
103.3081049522
 40
36.0
100
AcDbArc
 50
246.8123594251
 51
260.2444805367
  0
ARC
  5
2E1
100
AcDbEntity
  8
BEZUGSACHSEN
100
AcDbCircle
 62
7
  6
CONTINUOUS
 10
69.2128919927
 20
7.749243631
 40
36.0
100
AcDbArc
 50
66.8123594251
 51
80.2444805367
  0
ARC
  5
2E2
100
AcDbEntity
  8
BEZUGSACHSEN
100
AcDbCircle
 62
7
  6
CONTINUOUS
 10
69.2128919927
 20
103.3081049522
 40
36.0
100
AcDbArc
 50
279.7555194633
 51
293.1876405749
  0
ARC
  5
2E3
100
AcDbEntity
  8
BEZUGSACHSEN
100
AcDbCircle
 62
7
  6
CONTINUOUS
 10
69.2128919927
 20
103.3081049522
 40
36.0
100
AcDbArc
 50
246.8123594251
 51
260.2444805367
  0
SPLINE
  5
2E4
100
AcDbEntity
  8
BEZUGSACHSEN
100
AcDbSpline
 62
7
  6
CONTINUOUS
 70
0
 71
3
 72
9
 73
5
 74
0
 42
0.0000001
 43
0.0000001
 44
0.0000000001
 40
0.0
 40
0.0
 40
0.0
 40
0.0
 40
0.5000006138
 40
1.0
 40
1.0
 40
1.0
 40
1.0
 10
87.9980342983
 20
175.749418007
 30
0.0
 10
88.6355874512
 20
175.6274125635
 30
0.0
 10
89.9124637039
 20
175.3924282513
 30
0.0
 10
91.1942302549
 20
175.1853718606
 30
0.0
 10
91.8362432629
 20
175.0895773958
 30
0.0
  0
SPLINE
  5
2E5
100
AcDbEntity
  8
BEZUGSACHSEN
100
AcDbSpline
 62
7
  6
CONTINUOUS
 70
0
 71
3
 72
14
 73
10
 74
0
 42
0.0000001
 43
0.0000001
 44
0.0000000001
 40
0.0
 40
0.0
 40
0.0
 40
0.0
 40
0.0716876712
 40
0.1568208213
 40
0.256428504
 40
0.3713995899
 40
0.5025375397
 40
0.6505899637
 40
1.0
 40
1.0
 40
1.0
 40
1.0
 10
52.4954256956
 20
107.1145517168
 30
0.0
 10
52.4955983666
 20
107.2726263699
 30
0.0
 10
52.4722975297
 20
107.618488802
 30
0.0
 10
52.3819030422
 20
108.1771801226
 30
0.0
 10
52.2296369515
 20
108.8207681318
 30
0.0
 10
52.0119297217
 20
109.551676587
 30
0.0
 10
51.7252054454
 20
110.3724499781
 30
0.0
 10
51.2174435417
 20
111.6624630012
 30
0.0
 10
50.7628476632
 20
112.6617303245
 30
0.0
 10
50.4279784916
 20
113.3556181248
 30
0.0
  0
SPLINE
  5
2E6
100
AcDbEntity
  8
BEZUGSACHSEN
100
AcDbSpline
 62
7
  6
CONTINUOUS
 70
0
 71
3
 72
14
 73
10
 74
0
 42
0.0000001
 43
0.0000001
 44
0.0000000001
 40
0.0
 40
0.0
 40
0.0
 40
0.0
 40
0.2500700569
 40
0.3751088206
 40
0.5001408835
 40
0.625158883
 40
0.7501486091
 40
0.8750946298
 40
1.0
 40
1.0
 40
1.0
 40
1.0
 10
50.4277496871
 20
113.3557691279
 30
0.0
 10
50.9630363519
 20
113.9984133578
 30
0.0
 10
51.7561838192
 20
114.9711038802
 30
0.0
 10
52.7534603689
 20
116.3145288076
 30
0.0
 10
53.4539521267
 20
117.3560339604
 30
0.0
 10
54.0819962128
 20
118.4433906808
 30
0.0
 10
54.5996094473
 20
119.5888809924
 30
0.0
 10
54.9528657559
 20
120.7971472476
 30
0.0
 10
55.038121266
 20
121.6348396341
 30
0.0
 10
55.038121266
 20
122.0525935674
 30
0.0
  0
SPLINE
  5
2E7
100
AcDbEntity
  8
BEZUGSACHSEN
100
AcDbSpline
 62
7
  6
CONTINUOUS
 70
0
 71
3
 72
14
 73
10
 74
0
 42
0.0000001
 43
0.0000001
 44
0.0000000001
 40
0.0
 40
0.0
 40
0.0
 40
0.0
 40
0.0655715949
 40
0.1449067375
 40
0.2398759584
 40
0.3520558125
 40
0.4828434012
 40
0.6335757581
 40
1.0
 40
1.0
 40
1.0
 40
1.0
 10
49.5978445661
 20
107.5053995425
 30
0.0
 10
49.5980609344
 20
107.6636425093
 30
0.0
 10
49.5640213856
 20
108.0134250042
 30
0.0
 10
49.4331838671
 20
108.5783439633
 30
0.0
 10
49.21284778
 20
109.234567833
 30
0.0
 10
48.897208255
 20
109.9871219572
 30
0.0
 10
48.4803594069
 20
110.8413661063
 30
0.0
 10
47.7313741982
 20
112.2144353659
 30
0.0
 10
47.0710360554
 20
113.2747573339
 30
0.0
 10
46.5888294829
 20
114.0159998302
 30
0.0
  0
SPLINE
  5
2E8
100
AcDbEntity
  8
BEZUGSACHSEN
100
AcDbSpline
 62
7
  6
CONTINUOUS
 70
0
 71
3
 72
9
 73
5
 74
0
 42
0.0000001
 43
0.0000001
 44
0.0000000001
 40
0.0
 40
0.0
 40
0.0
 40
0.0
 40
0.5000006138
 40
1.0
 40
1.0
 40
1.0
 40
1.0
 10
87.9980342983
 20
113.3557691279
 30
0.0
 10
88.6355874512
 20
113.4777745714
 30
0.0
 10
89.9124637039
 20
113.7127588836
 30
0.0
 10
91.1942302549
 20
113.9198152743
 30
0.0
 10
91.8362432629
 20
114.0156097391
 30
0.0
  0
SPLINE
  5
2E9
100
AcDbEntity
  8
BEZUGSACHSEN
100
AcDbSpline
 62
7
  6
CONTINUOUS
 70
0
 71
3
 72
18
 73
14
 74
0
 42
0.0000001
 43
0.0000001
 44
0.0000000001
 40
0.0
 40
0.0
 40
0.0
 40
0.0
 40
0.0625415069
 40
0.1251693211
 40
0.1877459755
 40
0.2502869856
 40
0.3128283498
 40
0.3753431809
 40
0.5002754713
 40
0.6252064844
 40
0.750130709
 40
0.8750775273
 40
1.0
 40
1.0
 40
1.0
 40
1.0
 10
83.3876627194
 20
124.2400935674
 30
0.0
 10
83.3876627194
 20
124.4693839023
 30
0.0
 10
83.3374175728
 20
124.9294737169
 30
0.0
 10
83.1292513109
 20
125.5895171996
 30
0.0
 10
82.8102688944
 20
126.2026607294
 30
0.0
 10
82.4115169036
 20
126.765401001
 30
0.0
 10
81.9522714507
 20
127.2789795674
 30
0.0
 10
81.2816055501
 20
127.9050303856
 30
0.0
 10
80.3581992833
 20
128.5886874092
 30
0.0
 10
79.1682389443
 20
129.2796854163
 30
0.0
 10
77.9213502983
 20
129.8609652839
 30
0.0
 10
76.6339557103
 20
130.3444874618
 30
0.0
 10
75.7555880502
 20
130.6073033709
 30
0.0
 10
75.3128919927
 20
130.7246786544
 30
0.0
  0
SPLINE
  5
2EA
100
AcDbEntity
  8
FASEN
100
AcDbSpline
 62
7
  6
CONTINUOUS
 70
0
 71
3
 72
14
 73
10
 74
0
 42
0.0000001
 43
0.0000001
 44
0.0000000001
 40
0.0
 40
0.0
 40
0.0
 40
0.0
 40
0.0655715949
 40
0.1449067375
 40
0.2398759584
 40
0.3520558125
 40
0.4828434012
 40
0.6335757581
 40
1.0
 40
1.0
 40
1.0
 40
1.0
 10
49.5978445661
 20
181.5997875923
 30
0.0
 10
49.5980609344
 20
181.4415446256
 30
0.0
 10
49.5640213856
 20
181.0917621306
 30
0.0
 10
49.4331838671
 20
180.5268431715
 30
0.0
 10
49.21284778
 20
179.8706193018
 30
0.0
 10
48.897208255
 20
179.1180651777
 30
0.0
 10
48.4803594069
 20
178.2638210286
 30
0.0
 10
47.7313741982
 20
176.890751769
 30
0.0
 10
47.0710360554
 20
175.8304298009
 30
0.0
 10
46.5888294829
 20
175.0891873047
 30
0.0
  0
SPLINE
  5
2EB
100
AcDbEntity
  8
BEZUGSACHSEN
100
AcDbSpline
 62
7
  6
CONTINUOUS
 70
0
 71
3
 72
14
 73
10
 74
0
 42
0.0000001
 43
0.0000001
 44
0.0000000001
 40
0.0
 40
0.0
 40
0.0
 40
0.0
 40
0.2500700569
 40
0.3751088206
 40
0.5001408835
 40
0.625158883
 40
0.7501486091
 40
0.8750946298
 40
1.0
 40
1.0
 40
1.0
 40
1.0
 10
87.9980342983
 20
175.749418007
 30
0.0
 10
87.4627476334
 20
175.1067737771
 30
0.0
 10
86.6696001662
 20
174.1340832546
 30
0.0
 10
85.6723236165
 20
172.7906583272
 30
0.0
 10
84.9718318586
 20
171.7491531744
 30
0.0
 10
84.3437877726
 20
170.661796454
 30
0.0
 10
83.826174538
 20
169.5163061424
 30
0.0
 10
83.4729182295
 20
168.3080398873
 30
0.0
 10
83.3876627194
 20
167.4703475008
 30
0.0
 10
83.3876627194
 20
167.0525935674
 30
0.0
  0
SPLINE
  5
2EC
100
AcDbEntity
  8
BEZUGSACHSEN
100
AcDbSpline
 62
7
  6
CONTINUOUS
 70
0
 71
3
 72
14
 73
10
 74
0
 42
0.0000001
 43
0.0000001
 44
0.0000000001
 40
0.0
 40
0.0
 40
0.0
 40
0.0
 40
0.0655715949
 40
0.1449067375
 40
0.2398759584
 40
0.3520558125
 40
0.4828434012
 40
0.6335757581
 40
1.0
 40
1.0
 40
1.0
 40
1.0
 10
88.8279394193
 20
181.5997875923
 30
0.0
 10
88.8277230509
 20
181.4415446256
 30
0.0
 10
88.8617625998
 20
181.0917621306
 30
0.0
 10
88.9926001183
 20
180.5268431715
 30
0.0
 10
89.2129362053
 20
179.8706193018
 30
0.0
 10
89.5285757304
 20
179.1180651777
 30
0.0
 10
89.9454245785
 20
178.2638210286
 30
0.0
 10
90.6944097871
 20
176.890751769
 30
0.0
 10
91.3547479299
 20
175.8304298009
 30
0.0
 10
91.8369545025
 20
175.0891873047
 30
0.0
  0
SPLINE
  5
2ED
100
AcDbEntity
  8
BEZUGSACHSEN
100
AcDbSpline
 62
7
  6
CONTINUOUS
 70
0
 71
3
 72
14
 73
10
 74
0
 42
0.0000001
 43
0.0000001
 44
0.0000000001
 40
0.0
 40
0.0
 40
0.0
 40
0.0
 40
0.0716876712
 40
0.1568208213
 40
0.256428504
 40
0.3713995899
 40
0.5025375397
 40
0.6505899637
 40
1.0
 40
1.0
 40
1.0
 40
1.0
 10
85.9303582898
 20
181.9906354181
 30
0.0
 10
85.9301856188
 20
181.832560765
 30
0.0
 10
85.9534864557
 20
181.4866983329
 30
0.0
 10
86.0438809432
 20
180.9280070123
 30
0.0
 10
86.1961470339
 20
180.284419003
 30
0.0
 10
86.4138542636
 20
179.5535105479
 30
0.0
 10
86.7005785399
 20
178.7327371567
 30
0.0
 10
87.2083404436
 20
177.4427241337
 30
0.0
 10
87.6629363221
 20
176.4434568103
 30
0.0
 10
87.9978054937
 20
175.7495690101
 30
0.0
  0
SPLINE
  5
2EE
100
AcDbEntity
  8
FASEN
100
AcDbSpline
 62
7
  6
CONTINUOUS
 70
0
 71
3
 72
14
 73
10
 74
0
 42
0.0000001
 43
0.0000001
 44
0.0000000001
 40
0.0
 40
0.0
 40
0.0
 40
0.0
 40
0.2500700569
 40
0.3751088206
 40
0.5001408835
 40
0.625158883
 40
0.7501486091
 40
0.8750946298
 40
1.0
 40
1.0
 40
1.0
 40
1.0
 10
50.4277496871
 20
175.749418007
 30
0.0
 10
50.9630363519
 20
175.1067737771
 30
0.0
 10
51.7561838192
 20
174.1340832546
 30
0.0
 10
52.7534603689
 20
172.7906583272
 30
0.0
 10
53.4539521267
 20
171.7491531744
 30
0.0
 10
54.0819962128
 20
170.661796454
 30
0.0
 10
54.5996094473
 20
169.5163061424
 30
0.0
 10
54.9528657559
 20
168.3080398873
 30
0.0
 10
55.038121266
 20
167.4703475008
 30
0.0
 10
55.038121266
 20
167.0525935674
 30
0.0
  0
SPLINE
  5
2EF
100
AcDbEntity
  8
BEZUGSACHSEN
100
AcDbSpline
 62
7
  6
CONTINUOUS
 70
0
 71
3
 72
18
 73
14
 74
0
 42
0.0000001
 43
0.0000001
 44
0.0000000001
 40
0.0
 40
0.0
 40
0.0
 40
0.0
 40
0.0625415069
 40
0.1251693211
 40
0.1877459755
 40
0.2502869856
 40
0.3128283498
 40
0.3753431809
 40
0.5002754713
 40
0.6252064844
 40
0.750130709
 40
0.8750775273
 40
1.0
 40
1.0
 40
1.0
 40
1.0
 10
55.038121266
 20
124.2400935674
 30
0.0
 10
55.038121266
 20
124.4693839023
 30
0.0
 10
55.0883664125
 20
124.9294737169
 30
0.0
 10
55.2965326745
 20
125.5895171996
 30
0.0
 10
55.615515091
 20
126.2026607294
 30
0.0
 10
56.0142670817
 20
126.765401001
 30
0.0
 10
56.4735125346
 20
127.2789795674
 30
0.0
 10
57.1441784352
 20
127.9050303856
 30
0.0
 10
58.0675847021
 20
128.5886874092
 30
0.0
 10
59.2575450411
 20
129.2796854163
 30
0.0
 10
60.504433687
 20
129.8609652839
 30
0.0
 10
61.7918282751
 20
130.3444874618
 30
0.0
 10
62.6701959352
 20
130.6073033709
 30
0.0
 10
63.1128919927
 20
130.7246786544
 30
0.0
  0
SPLINE
  5
2F0
100
AcDbEntity
  8
BEZUGSACHSEN
100
AcDbSpline
 62
7
  6
CONTINUOUS
 70
0
 71
3
 72
9
 73
5
 74
0
 42
0.0000001
 43
0.0000001
 44
0.0000000001
 40
0.0
 40
0.0
 40
0.0
 40
0.0
 40
0.5000006138
 40
1.0
 40
1.0
 40
1.0
 40
1.0
 10
50.4277496871
 20
113.3557691279
 30
0.0
 10
49.7901965342
 20
113.4777745714
 30
0.0
 10
48.5133202814
 20
113.7127588836
 30
0.0
 10
47.2315537305
 20
113.9198152743
 30
0.0
 10
46.5895407225
 20
114.0156097391
 30
0.0
  0
SPLINE
  5
2F1
100
AcDbEntity
  8
FASEN
100
AcDbSpline
 62
7
  6
CONTINUOUS
 70
0
 71
3
 72
9
 73
5
 74
0
 42
0.0000001
 43
0.0000001
 44
0.0000000001
 40
0.0
 40
0.0
 40
0.0
 40
0.0
 40
0.5000006138
 40
1.0
 40
1.0
 40
1.0
 40
1.0
 10
50.4277496871
 20
175.749418007
 30
0.0
 10
49.7901965342
 20
175.6274125635
 30
0.0
 10
48.5133202814
 20
175.3924282513
 30
0.0
 10
47.2315537305
 20
175.1853718606
 30
0.0
 10
46.5895407225
 20
175.0895773958
 30
0.0
  0
SPLINE
  5
2F2
100
AcDbEntity
  8
0
100
AcDbSpline
 62
7
  6
CONTINUOUS
 70
0
 71
3
 72
18
 73
14
 74
0
 42
0.0000001
 43
0.0000001
 44
0.0000000001
 40
0.0
 40
0.0
 40
0.0
 40
0.0
 40
0.0625415069
 40
0.1251693211
 40
0.1877459755
 40
0.2502869856
 40
0.3128283498
 40
0.3753431809
 40
0.5002754713
 40
0.6252064844
 40
0.750130709
 40
0.8750775273
 40
1.0
 40
1.0
 40
1.0
 40
1.0
 10
55.038121266
 20
164.8650935674
 30
0.0
 10
55.038121266
 20
164.6358032326
 30
0.0
 10
55.0883664125
 20
164.175713418
 30
0.0
 10
55.2965326745
 20
163.5156699353
 30
0.0
 10
55.615515091
 20
162.9025264055
 30
0.0
 10
56.0142670817
 20
162.3397861339
 30
0.0
 10
56.4735125346
 20
161.8262075675
 30
0.0
 10
57.1441784352
 20
161.2001567493
 30
0.0
 10
58.0675847021
 20
160.5164997257
 30
0.0
 10
59.2575450411
 20
159.8255017186
 30
0.0
 10
60.504433687
 20
159.244221851
 30
0.0
 10
61.7918282751
 20
158.7606996731
 30
0.0
 10
62.6701959352
 20
158.4978837639
 30
0.0
 10
63.1128919927
 20
158.3805084805
 30
0.0
  0
SPLINE
  5
2F3
100
AcDbEntity
  8
FASEN
100
AcDbSpline
 62
7
  6
CONTINUOUS
 70
0
 71
3
 72
14
 73
10
 74
0
 42
0.0000001
 43
0.0000001
 44
0.0000000001
 40
0.0
 40
0.0
 40
0.0
 40
0.0
 40
0.0716876712
 40
0.1568208213
 40
0.256428504
 40
0.3713995899
 40
0.5025375397
 40
0.6505899637
 40
1.0
 40
1.0
 40
1.0
 40
1.0
 10
52.4954256956
 20
181.9906354181
 30
0.0
 10
52.4955983666
 20
181.832560765
 30
0.0
 10
52.4722975297
 20
181.4866983329
 30
0.0
 10
52.3819030422
 20
180.9280070123
 30
0.0
 10
52.2296369515
 20
180.284419003
 30
0.0
 10
52.0119297217
 20
179.5535105479
 30
0.0
 10
51.7252054454
 20
178.7327371567
 30
0.0
 10
51.2174435417
 20
177.4427241337
 30
0.0
 10
50.7628476632
 20
176.4434568103
 30
0.0
 10
50.4279784916
 20
175.7495690101
 30
0.0
  0
SPLINE
  5
2F4
100
AcDbEntity
  8
BEZUGSACHSEN
100
AcDbSpline
 62
7
  6
CONTINUOUS
 70
0
 71
3
 72
14
 73
10
 74
0
 42
0.0000001
 43
0.0000001
 44
0.0000000001
 40
0.0
 40
0.0
 40
0.0
 40
0.0
 40
0.2500700569
 40
0.3751088206
 40
0.5001408835
 40
0.625158883
 40
0.7501486091
 40
0.8750946298
 40
1.0
 40
1.0
 40
1.0
 40
1.0
 10
87.9980342983
 20
113.3557691279
 30
0.0
 10
87.4627476334
 20
113.9984133578
 30
0.0
 10
86.6696001662
 20
114.9711038802
 30
0.0
 10
85.6723236165
 20
116.3145288076
 30
0.0
 10
84.9718318586
 20
117.3560339604
 30
0.0
 10
84.3437877726
 20
118.4433906808
 30
0.0
 10
83.826174538
 20
119.5888809924
 30
0.0
 10
83.4729182295
 20
120.7971472476
 30
0.0
 10
83.3876627194
 20
121.6348396341
 30
0.0
 10
83.3876627194
 20
122.0525935674
 30
0.0
  0
SPLINE
  5
2F5
100
AcDbEntity
  8
BEZUGSACHSEN
100
AcDbSpline
 62
7
  6
CONTINUOUS
 70
0
 71
3
 72
14
 73
10
 74
0
 42
0.0000001
 43
0.0000001
 44
0.0000000001
 40
0.0
 40
0.0
 40
0.0
 40
0.0
 40
0.0716876712
 40
0.1568208213
 40
0.256428504
 40
0.3713995899
 40
0.5025375397
 40
0.6505899637
 40
1.0
 40
1.0
 40
1.0
 40
1.0
 10
85.9303582898
 20
107.1145517168
 30
0.0
 10
85.9301856188
 20
107.2726263699
 30
0.0
 10
85.9534864557
 20
107.618488802
 30
0.0
 10
86.0438809432
 20
108.1771801226
 30
0.0
 10
86.1961470339
 20
108.8207681318
 30
0.0
 10
86.4138542636
 20
109.551676587
 30
0.0
 10
86.7005785399
 20
110.3724499781
 30
0.0
 10
87.2083404436
 20
111.6624630012
 30
0.0
 10
87.6629363221
 20
112.6617303245
 30
0.0
 10
87.9978054937
 20
113.3556181248
 30
0.0
  0
SPLINE
  5
2F6
100
AcDbEntity
  8
BEZUGSACHSEN
100
AcDbSpline
 62
7
  6
CONTINUOUS
 70
0
 71
3
 72
14
 73
10
 74
0
 42
0.0000001
 43
0.0000001
 44
0.0000000001
 40
0.0
 40
0.0
 40
0.0
 40
0.0
 40
0.0655715949
 40
0.1449067375
 40
0.2398759584
 40
0.3520558125
 40
0.4828434012
 40
0.6335757581
 40
1.0
 40
1.0
 40
1.0
 40
1.0
 10
88.8279394193
 20
107.5053995425
 30
0.0
 10
88.8277230509
 20
107.6636425093
 30
0.0
 10
88.8617625998
 20
108.0134250042
 30
0.0
 10
88.9926001183
 20
108.5783439633
 30
0.0
 10
89.2129362053
 20
109.234567833
 30
0.0
 10
89.5285757304
 20
109.9871219572
 30
0.0
 10
89.9454245785
 20
110.8413661063
 30
0.0
 10
90.6944097871
 20
112.2144353659
 30
0.0
 10
91.3547479299
 20
113.2747573339
 30
0.0
 10
91.8369545025
 20
114.0159998302
 30
0.0
  0
SPLINE
  5
2F7
100
AcDbEntity
  8
BEZUGSACHSEN
100
AcDbSpline
 62
7
  6
CONTINUOUS
 70
0
 71
3
 72
18
 73
14
 74
0
 42
0.0000001
 43
0.0000001
 44
0.0000000001
 40
0.0
 40
0.0
 40
0.0
 40
0.0
 40
0.0625415069
 40
0.1251693211
 40
0.1877459755
 40
0.2502869856
 40
0.3128283498
 40
0.3753431809
 40
0.5002754713
 40
0.6252064844
 40
0.750130709
 40
0.8750775273
 40
1.0
 40
1.0
 40
1.0
 40
1.0
 10
83.3876627194
 20
164.8650935674
 30
0.0
 10
83.3876627194
 20
164.6358032326
 30
0.0
 10
83.3374175728
 20
164.175713418
 30
0.0
 10
83.1292513109
 20
163.5156699353
 30
0.0
 10
82.8102688944
 20
162.9025264055
 30
0.0
 10
82.4115169036
 20
162.3397861339
 30
0.0
 10
81.9522714507
 20
161.8262075675
 30
0.0
 10
81.2816055501
 20
161.2001567493
 30
0.0
 10
80.3581992833
 20
160.5164997257
 30
0.0
 10
79.1682389443
 20
159.8255017186
 30
0.0
 10
77.9213502983
 20
159.244221851
 30
0.0
 10
76.6339557103
 20
158.7606996731
 30
0.0
 10
75.7555880502
 20
158.4978837639
 30
0.0
 10
75.3128919927
 20
158.3805084805
 30
0.0
  0
SPLINE
  5
2F8
100
AcDbEntity
  8
BEZUGSACHSEN
100
AcDbSpline
 62
7
  6
CONTINUOUS
 70
0
 71
3
 72
11
 73
7
 74
0
 42
0.0000001
 43
0.0000001
 44
0.0000000001
 40
0.0
 40
0.0
 40
0.0
 40
0.0
 40
0.2308289901
 40
0.4733127554
 40
0.7289819725
 40
1.0
 40
1.0
 40
1.0
 40
1.0
 10
145.7301275308
 20
181.9906354181
 30
0.0
 10
144.9157949773
 20
181.6953844395
 30
0.0
 10
143.2811669789
 20
180.9882122748
 30
0.0
 10
140.911727081
 20
179.6086072035
 30
0.0
 10
138.6030048208
 20
177.8651740094
 30
0.0
 10
137.1736453071
 20
176.4927075017
 30
0.0
 10
136.4793330027
 20
175.7495690101
 30
0.0
  0
SPLINE
  5
2F9
100
AcDbEntity
  8
FASEN
100
AcDbSpline
 62
7
  6
CONTINUOUS
 70
0
 71
3
 72
11
 73
7
 74
0
 42
0.0000001
 43
0.0000001
 44
0.0000000001
 40
0.0
 40
0.0
 40
0.0
 40
0.0
 40
0.2308289901
 40
0.4733127554
 40
0.7289819725
 40
1.0
 40
1.0
 40
1.0
 40
1.0
 10
156.6041319415
 20
181.9906354181
 30
0.0
 10
157.4184644951
 20
181.6953844395
 30
0.0
 10
159.0530924935
 20
180.9882122748
 30
0.0
 10
161.4225323913
 20
179.6086072035
 30
0.0
 10
163.7312546515
 20
177.8651740094
 30
0.0
 10
165.1606141652
 20
176.4927075017
 30
0.0
 10
165.8549264696
 20
175.7495690101
 30
0.0
  0
SPLINE
  5
2FA
100
AcDbEntity
  8
BEZUGSACHSEN
100
AcDbSpline
 62
7
  6
CONTINUOUS
 70
0
 71
3
 72
11
 73
7
 74
0
 42
0.0000001
 43
0.0000001
 44
0.0000000001
 40
0.0
 40
0.0
 40
0.0
 40
0.0
 40
0.2308289901
 40
0.4733127554
 40
0.7289819725
 40
1.0
 40
1.0
 40
1.0
 40
1.0
 10
145.7301275308
 20
107.1145517168
 30
0.0
 10
144.9157949773
 20
107.4098026953
 30
0.0
 10
143.2811669789
 20
108.11697486
 30
0.0
 10
140.911727081
 20
109.4965799314
 30
0.0
 10
138.6030048208
 20
111.2400131255
 30
0.0
 10
137.1736453071
 20
112.6124796331
 30
0.0
 10
136.4793330027
 20
113.3556181248
 30
0.0
  0
SPLINE
  5
2FB
100
AcDbEntity
  8
BEZUGSACHSEN
100
AcDbSpline
 62
7
  6
CONTINUOUS
 70
0
 71
3
 72
11
 73
7
 74
0
 42
0.0000001
 43
0.0000001
 44
0.0000000001
 40
0.0
 40
0.0
 40
0.0
 40
0.0
 40
0.2308289901
 40
0.4733127554
 40
0.7289819725
 40
1.0
 40
1.0
 40
1.0
 40
1.0
 10
156.6041319415
 20
107.1145517168
 30
0.0
 10
157.4184644951
 20
107.4098026953
 30
0.0
 10
159.0530924935
 20
108.11697486
 30
0.0
 10
161.4225323913
 20
109.4965799314
 30
0.0
 10
163.7312546515
 20
111.2400131255
 30
0.0
 10
165.1606141652
 20
112.6124796331
 30
0.0
 10
165.8549264696
 20
113.3556181248
 30
0.0
  0
SPLINE
  5
2FC
100
AcDbEntity
  8
BEZUGSACHSEN
100
AcDbSpline
 62
7
  6
CONTINUOUS
 70
0
 71
3
 72
11
 73
7
 74
0
 42
0.0000001
 43
0.0000001
 44
0.0000000001
 40
0.0
 40
0.0
 40
0.0
 40
0.0
 40
0.2246797468
 40
0.4636347512
 40
0.720433672
 40
1.0
 40
1.0
 40
1.0
 40
1.0
 10
145.8723842016
 20
107.5053995425
 30
0.0
 10
145.0604197847
 20
107.800515741
 30
0.0
 10
143.4211779988
 20
108.5146666084
 30
0.0
 10
141.0330510098
 20
109.9321838627
 30
0.0
 10
138.6723134463
 20
111.7649986673
 30
0.0
 10
137.2043734005
 20
113.2212120318
 30
0.0
 10
136.4805661441
 20
114.0159998302
 30
0.0
  0
SPLINE
  5
2FD
100
AcDbEntity
  8
FASEN
100
AcDbSpline
 62
7
  6
CONTINUOUS
 70
0
 71
3
 72
11
 73
7
 74
0
 42
0.0000001
 43
0.0000001
 44
0.0000000001
 40
0.0
 40
0.0
 40
0.0
 40
0.0
 40
0.2246797468
 40
0.4636347512
 40
0.720433672
 40
1.0
 40
1.0
 40
1.0
 40
1.0
 10
156.4618752707
 20
181.5997875923
 30
0.0
 10
157.2738396877
 20
181.3046713939
 30
0.0
 10
158.9130814735
 20
180.5905205265
 30
0.0
 10
161.3012084626
 20
179.1730032722
 30
0.0
 10
163.661946026
 20
177.3401884675
 30
0.0
 10
165.1298860718
 20
175.8839751031
 30
0.0
 10
165.8536933282
 20
175.0891873047
 30
0.0
  0
SPLINE
  5
2FE
100
AcDbEntity
  8
BEZUGSACHSEN
100
AcDbSpline
 62
7
  6
CONTINUOUS
 70
0
 71
3
 72
11
 73
7
 74
0
 42
0.0000001
 43
0.0000001
 44
0.0000000001
 40
0.0
 40
0.0
 40
0.0
 40
0.0
 40
0.2246797468
 40
0.4636347512
 40
0.720433672
 40
1.0
 40
1.0
 40
1.0
 40
1.0
 10
145.8723842016
 20
181.5997875923
 30
0.0
 10
145.0604197847
 20
181.3046713939
 30
0.0
 10
143.4211779988
 20
180.5905205265
 30
0.0
 10
141.0330510098
 20
179.1730032722
 30
0.0
 10
138.6723134463
 20
177.3401884675
 30
0.0
 10
137.2043734005
 20
175.8839751031
 30
0.0
 10
136.4805661441
 20
175.0891873047
 30
0.0
  0
SPLINE
  5
2FF
100
AcDbEntity
  8
BEZUGSACHSEN
100
AcDbSpline
 62
7
  6
CONTINUOUS
 70
0
 71
3
 72
11
 73
7
 74
0
 42
0.0000001
 43
0.0000001
 44
0.0000000001
 40
0.0
 40
0.0
 40
0.0
 40
0.0
 40
0.2246797468
 40
0.4636347512
 40
0.720433672
 40
1.0
 40
1.0
 40
1.0
 40
1.0
 10
156.4618752707
 20
107.5053995425
 30
0.0
 10
157.2738396877
 20
107.800515741
 30
0.0
 10
158.9130814735
 20
108.5146666084
 30
0.0
 10
161.3012084626
 20
109.9321838627
 30
0.0
 10
163.661946026
 20
111.7649986673
 30
0.0
 10
165.1298860718
 20
113.2212120318
 30
0.0
 10
165.8536933282
 20
114.0159998302
 30
0.0
  0
SPLINE
  5
300
100
AcDbEntity
  8
FASEN
100
AcDbSpline
 62
7
  6
CONTINUOUS
 70
0
 71
3
 72
12
 73
8
 74
0
 42
0.0000001
 43
0.0000001
 44
0.0000000001
 40
0.0
 40
0.0
 40
0.0
 40
0.0
 40
0.2377197915
 40
0.4801829582
 40
0.7318930137
 40
0.8634418273
 40
1.0
 40
1.0
 40
1.0
 40
1.0
 10
49.5978445661
 20
50.233928757
 30
0.0
 10
49.5982392156
 20
49.4398085777
 30
0.0
 10
49.4911354881
 20
47.8330034596
 30
0.0
 10
48.9637094029
 20
45.4358962109
 30
0.0
 10
48.1853837592
 20
43.4846722486
 30
0.0
 10
47.3484647773
 20
41.9614461068
 30
0.0
 10
46.8539919562
 20
41.2133132804
 30
0.0
 10
46.5888294829
 20
40.8421106995
 30
0.0
  0
SPLINE
  5
301
100
AcDbEntity
  8
FASEN
100
AcDbSpline
 62
7
  6
CONTINUOUS
 70
0
 71
3
 72
11
 73
7
 74
0
 42
0.0000001
 43
0.0000001
 44
0.0000000001
 40
0.0
 40
0.0
 40
0.0
 40
0.0
 40
0.2497427863
 40
0.4994523955
 40
0.7490268415
 40
1.0
 40
1.0
 40
1.0
 40
1.0
 10
52.4954256956
 20
50.0916720862
 30
0.0
 10
52.495741025
 20
49.2954799803
 30
0.0
 10
52.4224649377
 20
47.7019207868
 30
0.0
 10
52.0633197598
 20
45.3362239023
 30
0.0
 10
51.4248889073
 20
43.0248811383
 30
0.0
 10
50.795173987
 20
41.551757948
 30
0.0
 10
50.4279784916
 20
40.8408775581
 30
0.0
  0
SPLINE
  5
302
100
AcDbEntity
  8
BEZUGSACHSEN
100
AcDbSpline
 62
7
  6
CONTINUOUS
 70
0
 71
3
 72
12
 73
8
 74
0
 42
0.0000001
 43
0.0000001
 44
0.0000000001
 40
0.0
 40
0.0
 40
0.0
 40
0.0
 40
0.2377197915
 40
0.4801829582
 40
0.7318930137
 40
0.8634418273
 40
1.0
 40
1.0
 40
1.0
 40
1.0
 10
88.8279394193
 20
60.8234198261
 30
0.0
 10
88.8275447698
 20
61.6175400054
 30
0.0
 10
88.9346484973
 20
63.2243451235
 30
0.0
 10
89.4620745825
 20
65.6214523722
 30
0.0
 10
90.2404002262
 20
67.5726763345
 30
0.0
 10
91.077319208
 20
69.0959024763
 30
0.0
 10
91.5717920292
 20
69.8440353027
 30
0.0
 10
91.8369545025
 20
70.2152378836
 30
0.0
  0
SPLINE
  5
303
100
AcDbEntity
  8
BEZUGSACHSEN
100
AcDbSpline
 62
7
  6
CONTINUOUS
 70
0
 71
3
 72
11
 73
7
 74
0
 42
0.0000001
 43
0.0000001
 44
0.0000000001
 40
0.0
 40
0.0
 40
0.0
 40
0.0
 40
0.2497427863
 40
0.4994523955
 40
0.7490268415
 40
1.0
 40
1.0
 40
1.0
 40
1.0
 10
85.9303582898
 20
60.9656764969
 30
0.0
 10
85.9300429604
 20
61.7618686028
 30
0.0
 10
86.0033190477
 20
63.3554277963
 30
0.0
 10
86.3624642256
 20
65.7211246808
 30
0.0
 10
87.0008950781
 20
68.0324674448
 30
0.0
 10
87.6306099983
 20
69.5055906351
 30
0.0
 10
87.9978054937
 20
70.216471025
 30
0.0
  0
SPLINE
  5
304
100
AcDbEntity
  8
BEZUGSACHSEN
100
AcDbSpline
 62
7
  6
CONTINUOUS
 70
0
 71
3
 72
11
 73
7
 74
0
 42
0.0000001
 43
0.0000001
 44
0.0000000001
 40
0.0
 40
0.0
 40
0.0
 40
0.0
 40
0.2497427863
 40
0.4994523955
 40
0.7490268415
 40
1.0
 40
1.0
 40
1.0
 40
1.0
 10
52.4954256956
 20
60.9656764969
 30
0.0
 10
52.495741025
 20
61.7618686028
 30
0.0
 10
52.4224649377
 20
63.3554277963
 30
0.0
 10
52.0633197598
 20
65.7211246808
 30
0.0
 10
51.4248889073
 20
68.0324674448
 30
0.0
 10
50.795173987
 20
69.5055906351
 30
0.0
 10
50.4279784916
 20
70.216471025
 30
0.0
  0
SPLINE
  5
305
100
AcDbEntity
  8
BEZUGSACHSEN
100
AcDbSpline
 62
7
  6
CONTINUOUS
 70
0
 71
3
 72
11
 73
7
 74
0
 42
0.0000001
 43
0.0000001
 44
0.0000000001
 40
0.0
 40
0.0
 40
0.0
 40
0.0
 40
0.2497427863
 40
0.4994523955
 40
0.7490268415
 40
1.0
 40
1.0
 40
1.0
 40
1.0
 10
85.9303582898
 20
50.0916720862
 30
0.0
 10
85.9300429604
 20
49.2954799803
 30
0.0
 10
86.0033190477
 20
47.7019207868
 30
0.0
 10
86.3624642256
 20
45.3362239023
 30
0.0
 10
87.0008950781
 20
43.0248811383
 30
0.0
 10
87.6306099983
 20
41.551757948
 30
0.0
 10
87.9978054937
 20
40.8408775581
 30
0.0
  0
SPLINE
  5
306
100
AcDbEntity
  8
BEZUGSACHSEN
100
AcDbSpline
 62
7
  6
CONTINUOUS
 70
0
 71
3
 72
12
 73
8
 74
0
 42
0.0000001
 43
0.0000001
 44
0.0000000001
 40
0.0
 40
0.0
 40
0.0
 40
0.0
 40
0.2377197915
 40
0.4801829582
 40
0.7318930137
 40
0.8634418273
 40
1.0
 40
1.0
 40
1.0
 40
1.0
 10
88.8279394193
 20
50.233928757
 30
0.0
 10
88.8275447698
 20
49.4398085777
 30
0.0
 10
88.9346484973
 20
47.8330034596
 30
0.0
 10
89.4620745825
 20
45.4358962109
 30
0.0
 10
90.2404002262
 20
43.4846722486
 30
0.0
 10
91.077319208
 20
41.9614461068
 30
0.0
 10
91.5717920292
 20
41.2133132804
 30
0.0
 10
91.8369545025
 20
40.8421106995
 30
0.0
  0
SPLINE
  5
307
100
AcDbEntity
  8
BEZUGSACHSEN
100
AcDbSpline
 62
7
  6
CONTINUOUS
 70
0
 71
3
 72
12
 73
8
 74
0
 42
0.0000001
 43
0.0000001
 44
0.0000000001
 40
0.0
 40
0.0
 40
0.0
 40
0.0
 40
0.2377197915
 40
0.4801829582
 40
0.7318930137
 40
0.8634418273
 40
1.0
 40
1.0
 40
1.0
 40
1.0
 10
49.5978445661
 20
60.8234198261
 30
0.0
 10
49.5982392156
 20
61.6175400054
 30
0.0
 10
49.4911354881
 20
63.2243451235
 30
0.0
 10
48.9637094029
 20
65.6214523722
 30
0.0
 10
48.1853837592
 20
67.5726763345
 30
0.0
 10
47.3484647773
 20
69.0959024763
 30
0.0
 10
46.8539919562
 20
69.8440353027
 30
0.0
 10
46.5888294829
 20
70.2152378836
 30
0.0
  0
ENDSEC
  0
SECTION
  2
OBJECTS
  0
DICTIONARY
  5
C
100
AcDbDictionary
280
0
281
1
  3
ACAD_GROUP
350
D
  3
ACAD_MLINESTYLE
350
17
  3
ACAD_LAYOUT
350
1A
  3
ACAD_PLOTSETTINGS
350
19
  3
ACAD_PLOTSTYLENAME
350
E
  0
DICTIONARY
  5
D
102
{ACAD_REACTORS
330
C
102
}
100
AcDbDictionary
280
0
281
1
  0
ACDBDICTIONARYWDFLT
  5
E
102
{ACAD_REACTORS
330
C
102
}
100
AcDbDictionary
281
1
  3
Normal
350
F
100
AcDbDictionaryWithDefault
340
F
  0
DICTIONARY
  5
17
102
{ACAD_REACTORS
330
C
102
}
100
AcDbDictionary
280
0
281
1
  3
Standard
350
18
  0
DICTIONARY
  5
19
102
{ACAD_REACTORS
330
C
102
}
100
AcDbDictionary
281
1
  0
DICTIONARY
  5
1A
102
{ACAD_REACTORS
330
C
102
}
100
AcDbDictionary
281
1
  3
Model
350
308
  3
Layout1
350
309
  0
ACDBPLACEHOLDER
  5
F
102
{ACAD_REACTORS
330
E
102
}
  0
MLINESTYLE
  5
18
102
{ACAD_REACTORS
330
17
102
}
100
AcDbMlineStyle
  2
STANDARD
 70
0
  3

 62
256
 51
90.0
 52
90.0
 71
2
 49
0.5
 62
256
  6
BYLAYER
 49
-0.5
 62
256
  6
BYLAYER
  0
LAYOUT
  5
308
102
{ACAD_REACTORS
330
1A
102
}
100
AcDbPlotSettings
  1

  2
none_device
  4
ISO_A4_(297.00_x_210.00_MM)
  6

 40
0.0
 41
0.0
 42
0.0
 43
0.0
 44
297.0
 45
210.0
 46
0.0
 47
0.0
 48
0.0
 49
0.0
140
0.0
141
0.0
142
1.0
143
1.0
 70
1024
 72
1
 73
0
 74
0
  7

 75
0
147
1.0
148
0.0
149
0.0
100
AcDbLayout
  1
Model
 70
0
 71
0
 10
0.0
 20
0.0
 11
297.0
 21
210.0
 12
0.0
 22
0.0
 32
0.0
 14
0.0
 24
0.0
 34
0.0
 15
0.0
 25
0.0
 35
0.0
146
0.0
 13
0.0
 23
0.0
 33
0.0
 16
1.0
 26
0.0
 36
0.0
 17
0.0
 27
1.0
 37
0.0
 76
0
330
20B
345
0
346
0
  0
LAYOUT
  5
309
102
{ACAD_REACTORS
330
1A
102
}
100
AcDbPlotSettings
  1

  2
none_device
  4
ISO_A4_(297.00_x_210.00_MM)
  6

 40
0.0
 41
0.0
 42
0.0
 43
0.0
 44
297.0
 45
210.0
 46
0.0
 47
0.0
 48
0.0
 49
0.0
140
0.0
141
0.0
142
1.0
143
1.0
 70
0
 72
1
 73
0
 74
0
  7

 75
0
147
1.0
148
0.0
149
0.0
100
AcDbLayout
  1
Layout1
 70
0
 71
1
 10
0.0
 20
0.0
 11
297.0
 21
210.0
 12
0.0
 22
0.0
 32
0.0
 14
0.0
 24
0.0
 34
0.0
 15
0.0
 25
0.0
 35
0.0
146
0.0
 13
0.0
 23
0.0
 33
0.0
 16
1.0
 26
0.0
 36
0.0
 17
0.0
 27
1.0
 37
0.0
 76
0
330
20C
345
0
346
0
  0
ENDSEC
  0
EOF
