ISO-10303-21;
HEADER;
FILE_DESCRIPTION((''),'2;1');
FILE_NAME('001-M31938-P-05_ASM','2019-06-05T',('anja.joas'),(''),
'PRO/ENGINEER BY PARAMETRIC TECHNOLOGY CORPORATION, 2011490',
'PRO/ENGINEER BY PARAMETRIC TECHNOLOGY CORPORATION, 2011490','');
FILE_SCHEMA(('CONFIG_CONTROL_DESIGN'));
ENDSEC;
DATA;
#2=CARTESIAN_POINT('',(0.E0,0.E0,0.E0));
#3=DIRECTION('',(1.E0,0.E0,0.E0));
#4=DIRECTION('',(0.E0,-1.E0,0.E0));
#5=AXIS2_PLACEMENT_3D('',#2,#3,#4);
#7=CARTESIAN_POINT('',(0.E0,-7.02E0,1.02E1));
#8=DIRECTION('',(0.E0,0.E0,-1.E0));
#9=DIRECTION('',(0.E0,1.E0,0.E0));
#10=AXIS2_PLACEMENT_3D('',#7,#8,#9);
#12=DIRECTION('',(0.E0,0.E0,-1.E0));
#13=VECTOR('',#12,1.02E1);
#14=CARTESIAN_POINT('',(0.E0,-3.9E0,1.02E1));
#15=LINE('',#14,#13);
#16=CARTESIAN_POINT('',(0.E0,-7.02E0,0.E0));
#17=DIRECTION('',(0.E0,0.E0,-1.E0));
#18=DIRECTION('',(0.E0,1.E0,0.E0));
#19=AXIS2_PLACEMENT_3D('',#16,#17,#18);
#21=CARTESIAN_POINT('',(0.E0,7.02E0,1.02E1));
#22=DIRECTION('',(0.E0,0.E0,1.E0));
#23=DIRECTION('',(0.E0,-1.E0,0.E0));
#24=AXIS2_PLACEMENT_3D('',#21,#22,#23);
#26=CARTESIAN_POINT('',(0.E0,0.E0,1.02E1));
#27=DIRECTION('',(1.E0,0.E0,0.E0));
#28=DIRECTION('',(0.E0,1.E0,0.E0));
#29=AXIS2_PLACEMENT_3D('',#26,#27,#28);
#31=CARTESIAN_POINT('',(0.E0,7.02E0,0.E0));
#32=DIRECTION('',(0.E0,0.E0,1.E0));
#33=DIRECTION('',(0.E0,-1.E0,0.E0));
#34=AXIS2_PLACEMENT_3D('',#31,#32,#33);
#36=DIRECTION('',(0.E0,0.E0,1.E0));
#37=VECTOR('',#36,1.02E1);
#38=CARTESIAN_POINT('',(0.E0,3.9E0,0.E0));
#39=LINE('',#38,#37);
#40=CARTESIAN_POINT('',(0.E0,7.02E0,0.E0));
#41=DIRECTION('',(0.E0,0.E0,1.E0));
#42=DIRECTION('',(0.E0,1.E0,0.E0));
#43=AXIS2_PLACEMENT_3D('',#40,#41,#42);
#45=DIRECTION('',(0.E0,0.E0,1.E0));
#46=VECTOR('',#45,1.02E1);
#47=CARTESIAN_POINT('',(0.E0,1.014E1,0.E0));
#48=LINE('',#47,#46);
#49=CARTESIAN_POINT('',(0.E0,0.E0,0.E0));
#50=DIRECTION('',(1.E0,0.E0,0.E0));
#51=DIRECTION('',(0.E0,-1.E0,0.E0));
#52=AXIS2_PLACEMENT_3D('',#49,#50,#51);
#54=CARTESIAN_POINT('',(0.E0,-7.02E0,1.02E1));
#55=DIRECTION('',(0.E0,0.E0,-1.E0));
#56=DIRECTION('',(0.E0,-1.E0,0.E0));
#57=AXIS2_PLACEMENT_3D('',#54,#55,#56);
#59=DIRECTION('',(0.E0,0.E0,-1.E0));
#60=VECTOR('',#59,1.02E1);
#61=CARTESIAN_POINT('',(0.E0,-1.014E1,1.02E1));
#62=LINE('',#61,#60);
#63=CARTESIAN_POINT('',(0.E0,-7.02E0,0.E0));
#64=DIRECTION('',(0.E0,0.E0,-1.E0));
#65=DIRECTION('',(0.E0,-1.E0,0.E0));
#66=AXIS2_PLACEMENT_3D('',#63,#64,#65);
#68=CARTESIAN_POINT('',(0.E0,7.02E0,1.02E1));
#69=DIRECTION('',(0.E0,0.E0,1.E0));
#70=DIRECTION('',(0.E0,1.E0,0.E0));
#71=AXIS2_PLACEMENT_3D('',#68,#69,#70);
#73=CARTESIAN_POINT('',(0.E0,0.E0,1.02E1));
#74=DIRECTION('',(1.E0,0.E0,0.E0));
#75=DIRECTION('',(0.E0,1.E0,0.E0));
#76=AXIS2_PLACEMENT_3D('',#73,#74,#75);
#78=CARTESIAN_POINT('',(0.E0,-3.9E0,0.E0));
#79=CARTESIAN_POINT('',(0.E0,-1.014E1,0.E0));
#80=VERTEX_POINT('',#78);
#81=VERTEX_POINT('',#79);
#82=CARTESIAN_POINT('',(0.E0,3.9E0,0.E0));
#83=CARTESIAN_POINT('',(0.E0,1.014E1,0.E0));
#84=VERTEX_POINT('',#82);
#85=VERTEX_POINT('',#83);
#86=CARTESIAN_POINT('',(0.E0,3.9E0,1.02E1));
#87=CARTESIAN_POINT('',(0.E0,1.014E1,1.02E1));
#88=VERTEX_POINT('',#86);
#89=VERTEX_POINT('',#87);
#90=CARTESIAN_POINT('',(0.E0,-3.9E0,1.02E1));
#91=CARTESIAN_POINT('',(0.E0,-1.014E1,1.02E1));
#92=VERTEX_POINT('',#90);
#93=VERTEX_POINT('',#91);
#94=CARTESIAN_POINT('',(0.E0,0.E0,0.E0));
#95=DIRECTION('',(1.E0,0.E0,0.E0));
#96=DIRECTION('',(0.E0,1.E0,0.E0));
#97=AXIS2_PLACEMENT_3D('',#94,#95,#96);
#98=TOROIDAL_SURFACE('',#97,7.02E0,3.12E0);
#100=ORIENTED_EDGE('',*,*,#99,.F.);
#102=ORIENTED_EDGE('',*,*,#101,.T.);
#104=ORIENTED_EDGE('',*,*,#103,.T.);
#106=ORIENTED_EDGE('',*,*,#105,.F.);
#107=EDGE_LOOP('',(#100,#102,#104,#106));
#108=FACE_OUTER_BOUND('',#107,.F.);
#109=ADVANCED_FACE('',(#108),#98,.T.);
#110=CARTESIAN_POINT('',(0.E0,-7.02E0,1.02E1));
#111=DIRECTION('',(0.E0,0.E0,-1.E0));
#112=DIRECTION('',(0.E0,1.E0,0.E0));
#113=AXIS2_PLACEMENT_3D('',#110,#111,#112);
#114=CYLINDRICAL_SURFACE('',#113,3.12E0);
#116=ORIENTED_EDGE('',*,*,#115,.F.);
#118=ORIENTED_EDGE('',*,*,#117,.T.);
#119=ORIENTED_EDGE('',*,*,#99,.T.);
#121=ORIENTED_EDGE('',*,*,#120,.F.);
#122=EDGE_LOOP('',(#116,#118,#119,#121));
#123=FACE_OUTER_BOUND('',#122,.F.);
#124=ADVANCED_FACE('',(#123),#114,.T.);
#125=CARTESIAN_POINT('',(0.E0,0.E0,1.02E1));
#126=DIRECTION('',(1.E0,0.E0,0.E0));
#127=DIRECTION('',(0.E0,-1.E0,0.E0));
#128=AXIS2_PLACEMENT_3D('',#125,#126,#127);
#129=TOROIDAL_SURFACE('',#128,7.02E0,3.12E0);
#131=ORIENTED_EDGE('',*,*,#130,.F.);
#133=ORIENTED_EDGE('',*,*,#132,.T.);
#134=ORIENTED_EDGE('',*,*,#115,.T.);
#136=ORIENTED_EDGE('',*,*,#135,.F.);
#137=EDGE_LOOP('',(#131,#133,#134,#136));
#138=FACE_OUTER_BOUND('',#137,.F.);
#139=ADVANCED_FACE('',(#138),#129,.T.);
#140=CARTESIAN_POINT('',(0.E0,7.02E0,0.E0));
#141=DIRECTION('',(0.E0,0.E0,1.E0));
#142=DIRECTION('',(0.E0,-1.E0,0.E0));
#143=AXIS2_PLACEMENT_3D('',#140,#141,#142);
#144=CYLINDRICAL_SURFACE('',#143,3.12E0);
#145=ORIENTED_EDGE('',*,*,#103,.F.);
#147=ORIENTED_EDGE('',*,*,#146,.T.);
#148=ORIENTED_EDGE('',*,*,#130,.T.);
#150=ORIENTED_EDGE('',*,*,#149,.F.);
#151=EDGE_LOOP('',(#145,#147,#148,#150));
#152=FACE_OUTER_BOUND('',#151,.F.);
#153=ADVANCED_FACE('',(#152),#144,.T.);
#154=CARTESIAN_POINT('',(0.E0,7.02E0,0.E0));
#155=DIRECTION('',(0.E0,0.E0,1.E0));
#156=DIRECTION('',(0.E0,-1.E0,0.E0));
#157=AXIS2_PLACEMENT_3D('',#154,#155,#156);
#158=CYLINDRICAL_SURFACE('',#157,3.12E0);
#160=ORIENTED_EDGE('',*,*,#159,.F.);
#161=ORIENTED_EDGE('',*,*,#149,.T.);
#163=ORIENTED_EDGE('',*,*,#162,.T.);
#164=ORIENTED_EDGE('',*,*,#146,.F.);
#165=EDGE_LOOP('',(#160,#161,#163,#164));
#166=FACE_OUTER_BOUND('',#165,.F.);
#167=ADVANCED_FACE('',(#166),#158,.T.);
#168=CARTESIAN_POINT('',(0.E0,0.E0,0.E0));
#169=DIRECTION('',(1.E0,0.E0,0.E0));
#170=DIRECTION('',(0.E0,1.E0,0.E0));
#171=AXIS2_PLACEMENT_3D('',#168,#169,#170);
#172=TOROIDAL_SURFACE('',#171,7.02E0,3.12E0);
#174=ORIENTED_EDGE('',*,*,#173,.F.);
#175=ORIENTED_EDGE('',*,*,#105,.T.);
#176=ORIENTED_EDGE('',*,*,#159,.T.);
#177=ORIENTED_EDGE('',*,*,#101,.F.);
#178=EDGE_LOOP('',(#174,#175,#176,#177));
#179=FACE_OUTER_BOUND('',#178,.F.);
#180=ADVANCED_FACE('',(#179),#172,.T.);
#181=CARTESIAN_POINT('',(0.E0,-7.02E0,1.02E1));
#182=DIRECTION('',(0.E0,0.E0,-1.E0));
#183=DIRECTION('',(0.E0,1.E0,0.E0));
#184=AXIS2_PLACEMENT_3D('',#181,#182,#183);
#185=CYLINDRICAL_SURFACE('',#184,3.12E0);
#187=ORIENTED_EDGE('',*,*,#186,.F.);
#188=ORIENTED_EDGE('',*,*,#120,.T.);
#189=ORIENTED_EDGE('',*,*,#173,.T.);
#190=ORIENTED_EDGE('',*,*,#117,.F.);
#191=EDGE_LOOP('',(#187,#188,#189,#190));
#192=FACE_OUTER_BOUND('',#191,.F.);
#193=ADVANCED_FACE('',(#192),#185,.T.);
#194=CARTESIAN_POINT('',(0.E0,0.E0,1.02E1));
#195=DIRECTION('',(1.E0,0.E0,0.E0));
#196=DIRECTION('',(0.E0,-1.E0,0.E0));
#197=AXIS2_PLACEMENT_3D('',#194,#195,#196);
#198=TOROIDAL_SURFACE('',#197,7.02E0,3.12E0);
#199=ORIENTED_EDGE('',*,*,#162,.F.);
#200=ORIENTED_EDGE('',*,*,#135,.T.);
#201=ORIENTED_EDGE('',*,*,#186,.T.);
#202=ORIENTED_EDGE('',*,*,#132,.F.);
#203=EDGE_LOOP('',(#199,#200,#201,#202));
#204=FACE_OUTER_BOUND('',#203,.F.);
#205=ADVANCED_FACE('',(#204),#198,.T.);
#206=CLOSED_SHELL('',(#109,#124,#139,#153,#167,#180,#193,#205));
#207=MANIFOLD_SOLID_BREP('',#206);
#209=DIMENSIONAL_EXPONENTS(0.E0,0.E0,0.E0,0.E0,0.E0,0.E0,0.E0);
#211=PLANE_ANGLE_MEASURE_WITH_UNIT(PLANE_ANGLE_MEASURE(1.745329251994E-2),#210);
#212=(CONVERSION_BASED_UNIT('DEGREE',#211)NAMED_UNIT(#209)PLANE_ANGLE_UNIT());
#214=UNCERTAINTY_MEASURE_WITH_UNIT(LENGTH_MEASURE(7.6923E-3),#208,'closure',
'Maximum model space distance between geometric entities at asserted connectivities');
#215=(GEOMETRIC_REPRESENTATION_CONTEXT(3)GLOBAL_UNCERTAINTY_ASSIGNED_CONTEXT((
#214))GLOBAL_UNIT_ASSIGNED_CONTEXT((#208,#212,#213))REPRESENTATION_CONTEXT
('ID1','3'));
#216=CARTESIAN_POINT('',(0.E0,0.E0,0.E0));
#217=DIRECTION('',(0.E0,0.E0,1.E0));
#218=DIRECTION('',(1.E0,0.E0,0.E0));
#221=APPLICATION_CONTEXT(
'CONFIGURATION CONTROLLED 3D DESIGNS OF MECHANICAL PARTS AND ASSEMBLIES');
#222=APPLICATION_PROTOCOL_DEFINITION('international standard',
'config_control_design',1994,#221);
#223=DESIGN_CONTEXT('',#221,'design');
#224=MECHANICAL_CONTEXT('',#221,'mechanical');
#225=PRODUCT('001-M31938-P-05','001-M31938-P-05','NOT SPECIFIED',(#224));
#226=PRODUCT_DEFINITION_FORMATION_WITH_SPECIFIED_SOURCE('1','LAST_VERSION',#225,
.MADE.);
#235=CARTESIAN_POINT('',(0.E0,0.E0,0.E0));
#236=DIRECTION('',(0.E0,1.E0,0.E0));
#237=DIRECTION('',(1.E0,0.E0,0.E0));
#238=AXIS2_PLACEMENT_3D('',#235,#236,#237);
#239=ITEM_DEFINED_TRANSFORMATION('','',#219,#238);
#240=(REPRESENTATION_RELATIONSHIP('','',#220,#232)REPRESENTATION_RELATIONSHIP_WITH_TRANSFORMATION(#239)SHAPE_REPRESENTATION_RELATIONSHIP());
#241=CONTEXT_DEPENDENT_SHAPE_REPRESENTATION(#240,#234);
#244=CARTESIAN_POINT('',(0.E0,-3.6E1,0.E0));
#245=DIRECTION('',(0.E0,1.E0,0.E0));
#246=DIRECTION('',(1.E0,0.E0,0.E0));
#247=AXIS2_PLACEMENT_3D('',#244,#245,#246);
#248=ITEM_DEFINED_TRANSFORMATION('','',#219,#247);
#249=(REPRESENTATION_RELATIONSHIP('','',#220,#232)REPRESENTATION_RELATIONSHIP_WITH_TRANSFORMATION(#248)SHAPE_REPRESENTATION_RELATIONSHIP());
#250=CONTEXT_DEPENDENT_SHAPE_REPRESENTATION(#249,#243);
#253=CARTESIAN_POINT('',(0.E0,-7.2E1,0.E0));
#254=DIRECTION('',(0.E0,1.E0,0.E0));
#255=DIRECTION('',(1.E0,0.E0,0.E0));
#256=AXIS2_PLACEMENT_3D('',#253,#254,#255);
#257=ITEM_DEFINED_TRANSFORMATION('','',#219,#256);
#258=(REPRESENTATION_RELATIONSHIP('','',#220,#232)REPRESENTATION_RELATIONSHIP_WITH_TRANSFORMATION(#257)SHAPE_REPRESENTATION_RELATIONSHIP());
#259=CONTEXT_DEPENDENT_SHAPE_REPRESENTATION(#258,#252);
#262=CARTESIAN_POINT('',(0.E0,-1.8E1,0.E0));
#263=DIRECTION('',(0.E0,1.E0,0.E0));
#264=DIRECTION('',(0.E0,0.E0,-1.E0));
#265=AXIS2_PLACEMENT_3D('',#262,#263,#264);
#266=ITEM_DEFINED_TRANSFORMATION('','',#219,#265);
#267=(REPRESENTATION_RELATIONSHIP('','',#220,#232)REPRESENTATION_RELATIONSHIP_WITH_TRANSFORMATION(#266)SHAPE_REPRESENTATION_RELATIONSHIP());
#268=CONTEXT_DEPENDENT_SHAPE_REPRESENTATION(#267,#261);
#271=CARTESIAN_POINT('',(0.E0,-5.4E1,0.E0));
#272=DIRECTION('',(0.E0,1.E0,0.E0));
#273=DIRECTION('',(0.E0,0.E0,-1.E0));
#274=AXIS2_PLACEMENT_3D('',#271,#272,#273);
#275=ITEM_DEFINED_TRANSFORMATION('','',#219,#274);
#276=(REPRESENTATION_RELATIONSHIP('','',#220,#232)REPRESENTATION_RELATIONSHIP_WITH_TRANSFORMATION(#275)SHAPE_REPRESENTATION_RELATIONSHIP());
#277=CONTEXT_DEPENDENT_SHAPE_REPRESENTATION(#276,#270);
#279=DIMENSIONAL_EXPONENTS(0.E0,0.E0,0.E0,0.E0,0.E0,0.E0,0.E0);
#281=PLANE_ANGLE_MEASURE_WITH_UNIT(PLANE_ANGLE_MEASURE(1.745329251994E-2),#280);
#282=(CONVERSION_BASED_UNIT('DEGREE',#281)NAMED_UNIT(#279)PLANE_ANGLE_UNIT());
#284=UNCERTAINTY_MEASURE_WITH_UNIT(LENGTH_MEASURE(1.E-2),#278,'closure',
'Maximum model space distance between geometric entities at asserted connectivities');
#285=(GEOMETRIC_REPRESENTATION_CONTEXT(3)GLOBAL_UNCERTAINTY_ASSIGNED_CONTEXT((
#284))GLOBAL_UNIT_ASSIGNED_CONTEXT((#278,#282,#283))REPRESENTATION_CONTEXT
('ID2','3'));
#286=CARTESIAN_POINT('',(0.E0,0.E0,0.E0));
#287=DIRECTION('',(0.E0,0.E0,1.E0));
#288=DIRECTION('',(1.E0,0.E0,0.E0));
#290=MECHANICAL_CONTEXT('',#221,'mechanical');
#291=PRODUCT('001-M31938-P-05_ASM','001-M31938-P-05_ASM','NOT SPECIFIED',
(#290));
#292=PRODUCT_DEFINITION_FORMATION_WITH_SPECIFIED_SOURCE('1','LAST_VERSION',#291,
.MADE.);
#294=PRODUCT_CATEGORY('part','');
#295=PRODUCT_RELATED_PRODUCT_CATEGORY('assembly','',(#291));
#296=PRODUCT_CATEGORY_RELATIONSHIP('','',#294,#295);
#297=PRODUCT_CATEGORY('part','');
#298=PRODUCT_RELATED_PRODUCT_CATEGORY('detail','',(#225));
#299=PRODUCT_CATEGORY_RELATIONSHIP('','',#297,#298);
#300=SECURITY_CLASSIFICATION_LEVEL('unclassified');
#301=SECURITY_CLASSIFICATION('','',#300);
#302=CC_DESIGN_SECURITY_CLASSIFICATION(#301,(#226,#292,#233,#242,#251,#260,
#269));
#303=APPROVAL_STATUS('approved');
#304=APPROVAL(#303,'');
#305=CC_DESIGN_APPROVAL(#304,(#301,#226,#292,#227,#293));
#306=CALENDAR_DATE(119,5,6);
#307=COORDINATED_UNIVERSAL_TIME_OFFSET(2,0,.AHEAD.);
#308=LOCAL_TIME(11,53,7.E0,#307);
#309=DATE_AND_TIME(#306,#308);
#310=APPROVAL_DATE_TIME(#309,#304);
#311=DATE_TIME_ROLE('creation_date');
#312=CC_DESIGN_DATE_AND_TIME_ASSIGNMENT(#309,#311,(#227,#293));
#313=DATE_TIME_ROLE('classification_date');
#314=CC_DESIGN_DATE_AND_TIME_ASSIGNMENT(#309,#313,(#301));
#315=PERSON('UNSPECIFIED','UNSPECIFIED',$,$,$,$);
#316=ORGANIZATION('UNSPECIFIED','UNSPECIFIED','UNSPECIFIED');
#317=PERSON_AND_ORGANIZATION(#315,#316);
#318=APPROVAL_ROLE('approver');
#319=APPROVAL_PERSON_ORGANIZATION(#317,#304,#318);
#320=PERSON_AND_ORGANIZATION_ROLE('creator');
#321=CC_DESIGN_PERSON_AND_ORGANIZATION_ASSIGNMENT(#317,#320,(#226,#292,#227,
#293));
#322=PERSON_AND_ORGANIZATION_ROLE('design_supplier');
#323=CC_DESIGN_PERSON_AND_ORGANIZATION_ASSIGNMENT(#317,#322,(#226,#292));
#324=PERSON_AND_ORGANIZATION_ROLE('classification_officer');
#325=CC_DESIGN_PERSON_AND_ORGANIZATION_ASSIGNMENT(#317,#324,(#301));
#326=PERSON_AND_ORGANIZATION_ROLE('design_owner');
#327=CC_DESIGN_PERSON_AND_ORGANIZATION_ASSIGNMENT(#317,#326,(#291,#225));
#6=CIRCLE('',#5,3.9E0);
#11=CIRCLE('',#10,3.12E0);
#20=CIRCLE('',#19,3.12E0);
#25=CIRCLE('',#24,3.12E0);
#30=CIRCLE('',#29,3.9E0);
#35=CIRCLE('',#34,3.12E0);
#44=CIRCLE('',#43,3.12E0);
#53=CIRCLE('',#52,1.014E1);
#58=CIRCLE('',#57,3.12E0);
#67=CIRCLE('',#66,3.12E0);
#72=CIRCLE('',#71,3.12E0);
#77=CIRCLE('',#76,1.014E1);
#99=EDGE_CURVE('',#80,#81,#20,.T.);
#101=EDGE_CURVE('',#80,#84,#6,.T.);
#103=EDGE_CURVE('',#84,#85,#35,.T.);
#105=EDGE_CURVE('',#81,#85,#53,.T.);
#115=EDGE_CURVE('',#92,#93,#11,.T.);
#117=EDGE_CURVE('',#92,#80,#15,.T.);
#120=EDGE_CURVE('',#93,#81,#62,.T.);
#130=EDGE_CURVE('',#88,#89,#25,.T.);
#132=EDGE_CURVE('',#88,#92,#30,.T.);
#135=EDGE_CURVE('',#89,#93,#77,.T.);
#146=EDGE_CURVE('',#84,#88,#39,.T.);
#149=EDGE_CURVE('',#85,#89,#48,.T.);
#159=EDGE_CURVE('',#85,#84,#44,.T.);
#162=EDGE_CURVE('',#89,#88,#72,.T.);
#173=EDGE_CURVE('',#81,#80,#67,.T.);
#186=EDGE_CURVE('',#93,#92,#58,.T.);
#208=(LENGTH_UNIT()NAMED_UNIT(*)SI_UNIT(.MILLI.,.METRE.));
#210=(NAMED_UNIT(*)PLANE_ANGLE_UNIT()SI_UNIT($,.RADIAN.));
#213=(NAMED_UNIT(*)SI_UNIT($,.STERADIAN.)SOLID_ANGLE_UNIT());
#219=AXIS2_PLACEMENT_3D('',#216,#217,#218);
#220=ADVANCED_BREP_SHAPE_REPRESENTATION('',(#219,#207),#215);
#227=PRODUCT_DEFINITION('design','',#226,#223);
#228=PRODUCT_DEFINITION_SHAPE('','SHAPE FOR 001-M31938-P-05.',#227);
#229=SHAPE_DEFINITION_REPRESENTATION(#228,#220);
#230=SHAPE_DEFINITION_REPRESENTATION(#231,#232);
#231=PRODUCT_DEFINITION_SHAPE('','SHAPE FOR 001-M31938-P-05_ASM.',#293);
#232=SHAPE_REPRESENTATION('',(#238,#247,#256,#265,#274,#289),#285);
#233=NEXT_ASSEMBLY_USAGE_OCCURRENCE('15','Next assembly relationship',
'001-M31938-P-05',#293,#227,$);
#234=PRODUCT_DEFINITION_SHAPE('Placement #15',
'Placement of 001-M31938-P-05 with respect to 001-M31938-P-05_ASM',#233);
#242=NEXT_ASSEMBLY_USAGE_OCCURRENCE('16','Next assembly relationship',
'001-M31938-P-05',#293,#227,$);
#243=PRODUCT_DEFINITION_SHAPE('Placement #16',
'Placement of 001-M31938-P-05 with respect to 001-M31938-P-05_ASM',#242);
#251=NEXT_ASSEMBLY_USAGE_OCCURRENCE('17','Next assembly relationship',
'001-M31938-P-05',#293,#227,$);
#252=PRODUCT_DEFINITION_SHAPE('Placement #17',
'Placement of 001-M31938-P-05 with respect to 001-M31938-P-05_ASM',#251);
#260=NEXT_ASSEMBLY_USAGE_OCCURRENCE('18','Next assembly relationship',
'001-M31938-P-05',#293,#227,$);
#261=PRODUCT_DEFINITION_SHAPE('Placement #18',
'Placement of 001-M31938-P-05 with respect to 001-M31938-P-05_ASM',#260);
#269=NEXT_ASSEMBLY_USAGE_OCCURRENCE('19','Next assembly relationship',
'001-M31938-P-05',#293,#227,$);
#270=PRODUCT_DEFINITION_SHAPE('Placement #19',
'Placement of 001-M31938-P-05 with respect to 001-M31938-P-05_ASM',#269);
#278=(LENGTH_UNIT()NAMED_UNIT(*)SI_UNIT(.MILLI.,.METRE.));
#280=(NAMED_UNIT(*)PLANE_ANGLE_UNIT()SI_UNIT($,.RADIAN.));
#283=(NAMED_UNIT(*)SI_UNIT($,.STERADIAN.)SOLID_ANGLE_UNIT());
#289=AXIS2_PLACEMENT_3D('',#286,#287,#288);
#293=PRODUCT_DEFINITION('design','',#292,#223);
ENDSEC;
END-ISO-10303-21;
