999
DXF file: C:\Aktuell-Internet\CAD-Daten\2rs-m45.dxf
999
Pro/ENGINEER 2001400 by Parametric Technology Corporation
0
SECTION
2
HEADER
9
$ACADVER
1
AC1014
9
$EXTMAX
10
420.0000000000
20
297.0000000000
9
$EXTMIN
10
0.0000000000
20
0.0000000000
9
$LIMMIN
10
0.0000000000
20
0.0000000000
9
$LIMMAX
10
420.0000000000
20
297.0000000000
9
$VIEWCTR
10
210.0000000000
20
148.5000000000
9
$VIEWSIZE
40
297.0000000000
9
$CLAYER
8
0
9
$LTSCALE
40
23.1000000000
9
$CELTYPE
6
BYLAYER
9
$DIMSCALE
40
1
9
$DIMASZ
40
3.5000000000
9
$DIMEXO
40
2.6250000000
9
$DIMDLI
40
15.9600000000
9
$DIMEXE
40
7.5600000000
9
$DIMCEN
40
3.7800000000
9
$DIMLFAC
40
1.0000000000
9
$DIMTXT
40
3.5000000000
9
$DIMTOL
70
1
9
$DIMTFAC
40
0.6000000000
9
$DIMTP
40
0.0050000000
9
$DIMTM
40
0.0050000000
9
$HANDSEED
5
45B
0
ENDSEC
0
SECTION
2
CLASSES
0
ENDSEC
0
SECTION
2
TABLES
0
TABLE
2
VPORT
5
8
100
AcDbSymbolTable
70
2
0
VPORT
5
1F4
100
AcDbSymbolTableRecord
100
AcDbViewportTableRecord
2
*ACTIVE
70
0
10
0.0
20
0.0
11
1.0
21
1.0
12
210.0000000000
22
148.5000000000
13
0.0
23
0.0
14
1.0
24
1.0
15
0.0
25
0.0
16
0.0
26
0.0
36
1.0
17
0.0
27
0.0
37
0.0
40
297.0000000000
41
1.4141414141
42
50.0
43
0.0
44
0.0
50
0.0
51
0.0
71
0
72
100
73
1
74
1
75
0
76
0
77
0
78
0
0
ENDTAB
0
TABLE
2
LTYPE
5
5
100
AcDbSymbolTable
70
6
0
LTYPE
5
14
100
AcDbSymbolTableRecord
100
AcDbLinetypeTableRecord
2
BYBLOCK
70
0
3

72
65
73
0
40
0.0
0
LTYPE
5
15
100
AcDbSymbolTableRecord
100
AcDbLinetypeTableRecord
2
BYLAYER
70
0
3

72
65
73
0
40
0.0
0
LTYPE
5
16
100
AcDbSymbolTableRecord
100
AcDbLinetypeTableRecord
2
CONTINUOUS
70
64
3
Solid line
72
65
73
0
40
0
0
LTYPE
5
1F5
100
AcDbSymbolTableRecord
100
AcDbLinetypeTableRecord
2
CENTER
70
64
3
____ _ ____ _ ____ _ ____ _ ____ _ ____ _ ____
72
65
73
4
40
0.6
49
0.375
74
0
49
-0.075
74
0
49
0.075
74
0
49
-0.075
74
0
0
LTYPE
5
1F6
100
AcDbSymbolTableRecord
100
AcDbLinetypeTableRecord
2
HIDDEN
70
64
3
- - - - - - - - - - - - - - - - - - - -
72
65
73
2
40
0.2
49
0.1
74
0
49
-0.1
74
0
0
LTYPE
5
1F7
100
AcDbSymbolTableRecord
100
AcDbLinetypeTableRecord
2
PHANTOM
70
64
3
_____ _ _ _____ _ _ _____ _ _ _____
72
65
73
6
40
0.8
49
0.45
74
0
49
-0.05
74
0
49
0.1
74
0
49
-0.05
74
0
49
0.1
74
0
49
-0.05
74
0
0
LTYPE
5
1F8
100
AcDbSymbolTableRecord
100
AcDbLinetypeTableRecord
2
DOT
70
64
3
. . . . . . . . . . . . . . . . . . . .
72
65
73
2
40
0.2
49
0.1
74
0
49
-0.1
74
0
0
LTYPE
5
1F9
100
AcDbSymbolTableRecord
100
AcDbLinetypeTableRecord
2
DASHED
70
64
3
- - - - - - - - - - - - - - - - - - - -
72
65
73
2
40
0.2
49
0.1
74
0
49
-0.1
74
0
0
ENDTAB
0
TABLE
2
LAYER
5
2
100
AcDbSymbolTable
70
36
0
LAYER
5
10
100
AcDbSymbolTableRecord
100
AcDbLayerTableRecord
2
0
70
0
62
7
6
CONTINUOUS
0
LAYER
5
1FA
100
AcDbSymbolTableRecord
100
AcDbLayerTableRecord
2
DEFAULT_1
70
0
62
7
6
CENTER
0
LAYER
5
1FB
100
AcDbSymbolTableRecord
100
AcDbLayerTableRecord
2
DEFAULT_2
70
0
62
8
6
HIDDEN
0
LAYER
5
1FC
100
AcDbSymbolTableRecord
100
AcDbLayerTableRecord
2
DEFAULT_3
70
0
62
7
6
PHANTOM
0
ENDTAB
0
TABLE
2
STYLE
5
3
100
AcDbSymbolTable
70
1
0
STYLE
5
11
100
AcDbSymbolTableRecord
100
AcDbTextStyleTableRecord
2
STANDARD
70
0
40
0.0
41
1.0
50
0.0
71
0
42
0.0
3
txt
4

0
STYLE
5
1FD
100
AcDbSymbolTableRecord
100
AcDbTextStyleTableRecord
2
TEXTSTYLE_0
70
0
40
0.0
41
0.80
50
0.0
71
0
42
0.2
3
txt
4

0
ENDTAB
0
TABLE
2
VIEW
5
6
100
AcDbSymbolTable
70
0
0
ENDTAB
0
TABLE
2
UCS
5
7
100
AcDbSymbolTable
70
0
0
ENDTAB
0
TABLE
2
APPID
5
9
100
AcDbSymbolTable
70
1
0
APPID
5
1FE
100
AcDbSymbolTableRecord
100
AcDbRegAppTableRecord
2
ACAD
70
0
0
ENDTAB
0
TABLE
2
DIMSTYLE
5
A
100
AcDbSymbolTable
70
1
0
DIMSTYLE
105
1FF
100
AcDbSymbolTableRecord
100
AcDbDimStyleTableRecord
2
STANDARD
70
0
3

4

5

6

7

40
1.0
41
0.18
42
0.0625
43
0.38
44
0.18
45
0.0
46
0.0
47
0.0050000000
48
0.0050000000
140
3.5000000000
141
0.09
142
0.0
143
25.4
144
1.0000000000
145
0.0
146
0.6000000000
147
0.09
71
1
72
0
73
1
74
1
75
0
76
0
77
0
78
0
170
0
171
2
172
0
173
0
174
0
175
0
176
0
177
0
178
0
270
2
271
3
272
4
273
2
274
2
340
11
275
0
280
0
281
0
282
0
283
1
284
0
285
0
286
0
287
3
288
0
0
ENDTAB
0
TABLE
2
BLOCK_RECORD
5
1
100
AcDbSymbolTable
70
0
0
BLOCK_RECORD
5
1B
100
AcDbSymbolTableRecord
100
AcDbBlockTableRecord
2
*MODEL_SPACE
0
BLOCK_RECORD
5
1C
100
AcDbSymbolTableRecord
100
AcDbBlockTableRecord
2
*PAPER_SPACE
0
ENDTAB
0
ENDSEC
0
SECTION
2
BLOCKS
0
BLOCK
5
1E
100
AcDbEntity
8
0
100
AcDbBlockBegin
2
*MODEL_SPACE
70
0
10
0.0
20
0.0
30
0.0
3
*MODEL_SPACE
1

0
ENDBLK
5
1F
100
AcDbEntity
8
0
100
AcDbBlockEnd
0
BLOCK
5
20
100
AcDbEntity
8
0
100
AcDbBlockBegin
2
*PAPER_SPACE
70
0
10
0.0
20
0.0
30
0.0
3
*PAPER_SPACE
1

0
ENDBLK
5
21
100
AcDbEntity
8
0
100
AcDbBlockEnd
0
ENDSEC
0
SECTION
2
ENTITIES
0
TEXT
5
200
100
AcDbEntity
8
0
100
AcDbText
62
2
6
CONTINUOUS
10
81.5584691977
20
67.0868950276
7
TEXTSTYLE_0
40
8.0000000000
1
RUD
72
5
11
101.3679930072
21
67.0868950276
100
AcDbText
0
TEXT
5
201
100
AcDbEntity
8
0
100
AcDbText
62
2
6
CONTINUOUS
10
80.6157396231
20
49.6463978971
7
TEXTSTYLE_0
40
8.0000000000
1
RS M45
72
5
11
118.3300253374
21
49.6463978971
100
AcDbText
0
TEXT
5
202
100
AcDbEntity
8
0
100
AcDbText
62
2
6
CONTINUOUS
10
312.6286985838
20
236.4061668091
7
TEXTSTYLE_0
40
8.0000000000
1
RUD
50
90.0000000000
72
5
11
312.6286985838
21
256.2156906186
100
AcDbText
0
TEXT
5
203
100
AcDbEntity
8
0
100
AcDbText
62
2
6
CONTINUOUS
10
336.1186459436
20
234.7283134262
7
TEXTSTYLE_0
40
8.0000000000
1
RS M45
50
90.0000000000
72
5
11
336.1186459436
21
272.4425991405
100
AcDbText
0
LINE
5
204
100
AcDbEntity
8
0
100
AcDbLine
62
7
6
CONTINUOUS
10
0.0000000000
20
0.0000000000
11
0.0000000000
21
297.0000000000
0
LINE
5
205
100
AcDbEntity
8
0
100
AcDbLine
62
7
6
CONTINUOUS
10
0.0000000000
20
0.0000000000
11
420.0000000000
21
0.0000000000
0
LINE
5
206
100
AcDbEntity
8
0
100
AcDbLine
62
7
6
CONTINUOUS
10
0.0000000000
20
297.0000000000
11
420.0000000000
21
297.0000000000
0
LINE
5
207
100
AcDbEntity
8
0
100
AcDbLine
62
7
6
CONTINUOUS
10
420.0000000000
20
0.0000000000
11
420.0000000000
21
297.0000000000
0
LINE
5
208
100
AcDbEntity
8
0
100
AcDbLine
62
7
6
CONTINUOUS
10
154.3948089245
20
138.3964348098
11
117.3948089245
21
138.3964348098
0
LINE
5
209
100
AcDbEntity
8
0
100
AcDbLine
62
7
6
CONTINUOUS
10
76.9615603403
20
355.7416443955
11
132.0679746008
21
378.5674685560
0
LINE
5
20A
100
AcDbEntity
8
0
100
AcDbLine
62
7
6
CONTINUOUS
10
158.3948089245
20
142.3964348098
11
113.3948089245
21
142.3964348098
0
LINE
5
20B
100
AcDbEntity
8
0
100
AcDbLine
62
7
6
CONTINUOUS
10
103.2709613472
20
359.3366888477
11
98.0748089245
21
356.3366888477
0
LINE
5
20C
100
AcDbEntity
8
0
100
AcDbLine
62
7
6
CONTINUOUS
10
98.6067237547
20
355.4153853364
11
102.9368507736
21
357.9153853364
0
LINE
5
20D
100
AcDbEntity
8
0
100
AcDbLine
62
7
6
CONTINUOUS
10
107.0467310227
20
359.7968639320
11
106.3250434616
21
359.3801974242
0
LINE
5
20E
100
AcDbEntity
8
0
100
AcDbLine
62
7
6
CONTINUOUS
10
109.4855080141
20
359.2394443055
11
107.8977950491
21
358.3227777978
0
LINE
5
20F
100
AcDbEntity
8
0
100
AcDbLine
62
7
6
CONTINUOUS
10
107.1761074879
20
357.9061112901
11
106.0214068119
21
357.2394445440
0
LINE
5
210
100
AcDbEntity
8
0
100
AcDbLine
62
7
6
CONTINUOUS
10
106.4469386760
20
356.5024017350
11
107.6016393521
21
357.1690684811
0
LINE
5
211
100
AcDbEntity
8
0
100
AcDbLine
62
7
6
CONTINUOUS
10
108.3233269133
20
357.5857349888
11
109.9110398782
21
358.5024014966
0
LINE
5
212
100
AcDbEntity
8
0
100
AcDbLine
62
7
6
CONTINUOUS
10
129.6414754322
20
363.9338815042
11
129.1414754322
21
363.7211155721
0
LINE
5
213
100
AcDbEntity
8
0
100
AcDbLine
62
7
6
CONTINUOUS
10
113.3948089245
20
142.3964348098
11
117.3948089245
21
138.3964348098
0
LINE
5
214
100
AcDbEntity
8
0
100
AcDbLine
62
7
6
CONTINUOUS
10
48.7237751783
20
295.2232691335
11
71.5495993388
21
350.3296833940
0
LINE
5
215
100
AcDbEntity
8
0
100
AcDbLine
62
7
6
CONTINUOUS
10
129.8081424168
20
362.8700518438
11
130.4748089245
21
363.2955837079
0
LINE
5
216
100
AcDbEntity
8
0
100
AcDbLine
62
7
6
CONTINUOUS
10
104.5181845631
20
348.5097681233
11
105.3842100701
21
349.0097681829
0
LINE
5
217
100
AcDbEntity
8
0
100
AcDbLine
62
7
6
CONTINUOUS
10
111.6286799870
20
352.8606955282
11
112.6010883661
21
353.1764348098
0
LINE
5
218
100
AcDbEntity
8
0
100
AcDbLine
62
7
6
CONTINUOUS
10
136.6414759091
20
359.4657964834
11
135.9748089245
21
359.2530305513
0
LINE
5
219
100
AcDbEntity
8
0
100
AcDbLine
62
7
6
CONTINUOUS
10
144.6414749554
20
359.4657964834
11
143.9748089245
21
359.2530305513
0
LINE
5
21A
100
AcDbEntity
8
0
100
AcDbLine
62
7
6
CONTINUOUS
10
136.8081419399
20
358.1892007605
11
137.4748089245
21
358.6147326806
0
LINE
5
21B
100
AcDbEntity
8
0
100
AcDbLine
62
7
6
CONTINUOUS
10
144.8081428936
20
358.1892007605
11
145.4748089245
21
358.6147326806
0
LINE
5
21C
100
AcDbEntity
8
0
100
AcDbLine
62
7
6
CONTINUOUS
10
129.9748089245
20
364.3594133684
11
129.6414754322
21
363.9338815042
0
LINE
5
21D
100
AcDbEntity
8
0
100
AcDbLine
62
7
6
CONTINUOUS
10
137.1414759091
20
359.8913284966
11
136.6414759091
21
359.4657964834
0
LINE
5
21E
100
AcDbEntity
8
0
100
AcDbLine
62
7
6
CONTINUOUS
10
145.1414749554
20
359.8913284966
11
144.6414749554
21
359.4657964834
0
LINE
5
21F
100
AcDbEntity
8
0
100
AcDbLine
62
7
6
CONTINUOUS
10
158.3948089245
20
190.3964348098
11
113.3948089245
21
190.3964348098
0
LINE
5
220
100
AcDbEntity
8
0
100
AcDbLine
62
7
6
CONTINUOUS
10
72.1619740155
20
230.9847829760
11
48.7237751783
21
287.5696004862
0
LINE
5
221
100
AcDbEntity
8
0
100
AcDbLine
62
7
6
CONTINUOUS
10
137.4748089245
20
358.6147326806
11
138.1414759091
21
359.4657964834
0
LINE
5
222
100
AcDbEntity
8
0
100
AcDbLine
62
7
6
CONTINUOUS
10
85.8948089245
20
205.3964348098
11
85.8948089245
21
216.6363519019
0
LINE
5
223
100
AcDbEntity
8
0
100
AcDbLine
62
7
6
CONTINUOUS
10
130.4748089245
20
363.2955837079
11
130.9748089245
21
364.1466474363
0
LINE
5
224
100
AcDbEntity
8
0
100
AcDbLine
62
7
6
CONTINUOUS
10
145.4748089245
20
358.6147326806
11
146.1414749554
21
359.4657964834
0
LINE
5
225
100
AcDbEntity
8
0
100
AcDbLine
62
7
6
CONTINUOUS
10
85.8948089245
20
205.3964348098
11
185.8948089245
21
205.3964348098
0
LINE
5
226
100
AcDbEntity
8
0
100
AcDbLine
62
7
6
CONTINUOUS
10
174.4268307338
20
210.3964348098
11
139.8948089245
21
210.3964348098
0
LINE
5
227
100
AcDbEntity
8
0
100
AcDbLine
62
7
6
CONTINUOUS
10
131.8948089245
20
210.3964348098
11
97.3627871152
21
210.3964348098
0
LINE
5
228
100
AcDbEntity
8
0
100
AcDbLine
62
7
6
CONTINUOUS
10
97.3627871592
20
210.3964348098
11
97.3627871592
21
225.3964348098
0
LINE
5
229
100
AcDbEntity
8
0
100
AcDbLine
62
7
6
CONTINUOUS
10
137.4748089245
20
360.5296262928
11
137.1414759091
21
359.8913284966
0
LINE
5
22A
100
AcDbEntity
8
0
100
AcDbLine
62
7
6
CONTINUOUS
10
145.4748089245
20
360.5296262928
11
145.1414749554
21
359.8913284966
0
LINE
5
22B
100
AcDbEntity
8
0
100
AcDbLine
62
7
6
CONTINUOUS
10
143.4339821489
20
214.4464348098
11
144.2857640387
21
214.4464348098
0
LINE
5
22C
100
AcDbEntity
8
0
100
AcDbLine
62
7
6
CONTINUOUS
10
146.6420045635
20
214.4464348098
11
147.5972712479
21
214.4464348098
0
LINE
5
22D
100
AcDbEntity
8
0
100
AcDbLine
62
7
6
CONTINUOUS
10
149.8739322877
20
214.4464348098
11
150.7018088680
21
214.4464348098
0
LINE
5
22E
100
AcDbEntity
8
0
100
AcDbLine
62
7
6
CONTINUOUS
10
157.8183407655
20
214.4464348098
11
158.6701226553
21
214.4464348098
0
LINE
5
22F
100
AcDbEntity
8
0
100
AcDbLine
62
7
6
CONTINUOUS
10
159.8880331043
20
214.4464348098
11
160.9467845833
21
214.4464348098
0
LINE
5
230
100
AcDbEntity
8
0
100
AcDbLine
62
7
6
CONTINUOUS
10
162.1646938481
20
214.4464348098
11
163.0164757379
21
214.4464348098
0
LINE
5
231
100
AcDbEntity
8
0
100
AcDbLine
62
7
6
CONTINUOUS
10
166.0971089366
20
214.4464348098
11
166.9488908264
21
214.4464348098
0
LINE
5
232
100
AcDbEntity
8
0
100
AcDbLine
62
7
6
CONTINUOUS
10
170.3638825342
20
214.4464348098
11
170.9847901174
21
214.4464348098
0
LINE
5
233
100
AcDbEntity
8
0
100
AcDbLine
62
7
6
CONTINUOUS
10
149.1256351925
20
214.5953709753
11
149.3565094991
21
214.5953709753
0
LINE
5
234
100
AcDbEntity
8
0
100
AcDbLine
62
7
6
CONTINUOUS
10
169.6155860310
20
214.5953709753
11
169.8464603377
21
214.5953709753
0
LINE
5
235
100
AcDbEntity
8
0
100
AcDbLine
62
7
6
CONTINUOUS
10
148.6082118117
20
215.0421794718
11
148.8390861183
21
215.0421794718
0
LINE
5
236
100
AcDbEntity
8
0
100
AcDbLine
62
7
6
CONTINUOUS
10
169.0981614660
20
215.0421794718
11
169.3290357726
21
215.0421794718
0
LINE
5
237
100
AcDbEntity
8
0
100
AcDbLine
62
7
6
CONTINUOUS
10
170.9847901174
20
215.1911156764
11
170.3638825342
21
215.1911156764
0
LINE
5
238
100
AcDbEntity
8
0
100
AcDbLine
62
7
6
CONTINUOUS
10
150.7018088680
20
215.3400518289
11
149.8739322877
21
215.3400518289
0
LINE
5
239
100
AcDbEntity
8
0
100
AcDbLine
62
7
6
CONTINUOUS
10
171.1678549891
20
215.3400518289
11
171.3987292957
21
215.3400518289
0
LINE
5
23A
100
AcDbEntity
8
0
100
AcDbLine
62
7
6
CONTINUOUS
10
150.8848731476
20
215.4889879813
11
151.1157474542
21
215.4889879813
0
LINE
5
23B
100
AcDbEntity
8
0
100
AcDbLine
62
7
6
CONTINUOUS
10
168.7877076744
20
215.6379241338
11
169.0185819810
21
215.6379241338
0
LINE
5
23C
100
AcDbEntity
8
0
100
AcDbLine
62
7
6
CONTINUOUS
10
171.4783087807
20
215.6379241338
11
171.7091830873
21
215.6379241338
0
LINE
5
23D
100
AcDbEntity
8
0
100
AcDbLine
62
7
6
CONTINUOUS
10
148.2977583162
20
215.7868603906
11
148.5286326228
21
215.7868603906
0
LINE
5
23E
100
AcDbEntity
8
0
100
AcDbLine
62
7
6
CONTINUOUS
10
151.1953269392
20
215.7868603906
11
151.4262012458
21
215.7868603906
0
LINE
5
23F
100
AcDbEntity
8
0
100
AcDbLine
62
7
6
CONTINUOUS
10
171.6852771856
20
216.0847326955
11
171.9161514922
21
216.0847326955
0
LINE
5
240
100
AcDbEntity
8
0
100
AcDbLine
62
7
6
CONTINUOUS
10
151.4022959362
20
216.2336688479
11
151.6331702428
21
216.2336688479
0
LINE
5
241
100
AcDbEntity
8
0
100
AcDbLine
62
7
6
CONTINUOUS
10
168.5807392695
20
216.2336688479
11
169.4325211593
21
216.2336688479
0
LINE
5
242
100
AcDbEntity
8
0
100
AcDbLine
62
7
6
CONTINUOUS
10
148.1942735216
20
216.3826050004
11
149.0460557075
21
216.3826050004
0
LINE
5
243
100
AcDbEntity
8
0
100
AcDbLine
62
7
6
CONTINUOUS
10
163.6134786037
20
216.5315411529
11
166.3279832432
21
216.5315411529
0
LINE
5
244
100
AcDbEntity
8
0
100
AcDbLine
62
7
6
CONTINUOUS
10
166.9488908264
20
216.5315411529
11
167.9837375880
21
216.5315411529
0
LINE
5
245
100
AcDbEntity
8
0
100
AcDbLine
62
7
6
CONTINUOUS
10
171.7887625723
20
216.5315411529
11
172.0196368789
21
216.5315411529
0
LINE
5
246
100
AcDbEntity
8
0
100
AcDbLine
62
7
6
CONTINUOUS
10
151.4022959362
20
216.6804773053
11
151.6331702428
21
216.6804773053
0
LINE
5
247
100
AcDbEntity
8
0
100
AcDbLine
62
7
6
CONTINUOUS
10
171.7887625723
20
216.8294134578
11
172.0196368789
21
216.8294134578
0
LINE
5
248
100
AcDbEntity
8
0
100
AcDbLine
62
7
6
CONTINUOUS
10
151.1953269392
20
217.1272859713
11
151.4262012458
21
217.1272859713
0
LINE
5
249
100
AcDbEntity
8
0
100
AcDbLine
62
7
6
CONTINUOUS
10
171.6852771856
20
217.2762221238
11
171.9161514922
21
217.2762221238
0
LINE
5
24A
100
AcDbEntity
8
0
100
AcDbLine
62
7
6
CONTINUOUS
10
167.9837375880
20
217.4251582762
11
166.9488908264
21
217.4251582762
0
LINE
5
24B
100
AcDbEntity
8
0
100
AcDbLine
62
7
6
CONTINUOUS
10
166.3279832432
20
217.4251582762
11
164.5687458803
21
217.4251582762
0
LINE
5
24C
100
AcDbEntity
8
0
100
AcDbLine
62
7
6
CONTINUOUS
10
150.8848731476
20
217.4251582762
11
151.1157474542
21
217.4251582762
0
LINE
5
24D
100
AcDbEntity
8
0
100
AcDbLine
62
7
6
CONTINUOUS
10
163.6134786037
20
217.4251582762
11
163.8443529103
21
217.4251582762
0
LINE
5
24E
100
AcDbEntity
8
0
100
AcDbLine
62
7
6
CONTINUOUS
10
144.2857640387
20
217.5740944287
11
146.0450021418
21
217.5740944287
0
LINE
5
24F
100
AcDbEntity
8
0
100
AcDbLine
62
7
6
CONTINUOUS
10
149.8500269782
20
217.5740944287
11
150.7018088680
21
217.5740944287
0
LINE
5
250
100
AcDbEntity
8
0
100
AcDbLine
62
7
6
CONTINUOUS
10
168.5807392695
20
217.5740944287
11
169.5360065460
21
217.5740944287
0
LINE
5
251
100
AcDbEntity
8
0
100
AcDbLine
62
7
6
CONTINUOUS
10
149.4360889841
20
217.7230305811
11
149.6669632907
21
217.7230305811
0
LINE
5
252
100
AcDbEntity
8
0
100
AcDbLine
62
7
6
CONTINUOUS
10
171.4783087807
20
217.7230305811
11
171.7091830873
21
217.7230305811
0
LINE
5
253
100
AcDbEntity
8
0
100
AcDbLine
62
7
6
CONTINUOUS
10
149.0221503979
20
218.0209028861
11
149.2530247045
21
218.0209028861
0
LINE
5
254
100
AcDbEntity
8
0
100
AcDbLine
62
7
6
CONTINUOUS
10
171.1678549891
20
218.0209028861
11
171.3987292957
21
218.0209028861
0
LINE
5
255
100
AcDbEntity
8
0
100
AcDbLine
62
7
6
CONTINUOUS
10
170.3638825342
20
218.1698390385
11
170.9847901174
21
218.1698390385
0
LINE
5
256
100
AcDbEntity
8
0
100
AcDbLine
62
7
6
CONTINUOUS
10
150.7018088680
20
218.4677113434
11
150.0809012848
21
218.4677113434
0
LINE
5
257
100
AcDbEntity
8
0
100
AcDbLine
62
7
6
CONTINUOUS
10
146.2519712869
20
218.4677113434
11
144.2857640387
21
218.4677113434
0
LINE
5
258
100
AcDbEntity
8
0
100
AcDbLine
62
7
6
CONTINUOUS
10
146.3315507719
20
218.6166474959
11
146.5624250785
21
218.6166474959
0
LINE
5
259
100
AcDbEntity
8
0
100
AcDbLine
62
7
6
CONTINUOUS
10
148.6082118117
20
218.6166474959
11
148.8390861183
21
218.6166474959
0
LINE
5
25A
100
AcDbEntity
8
0
100
AcDbLine
62
7
6
CONTINUOUS
10
169.6155860310
20
218.7655836483
11
169.8464603377
21
218.7655836483
0
LINE
5
25B
100
AcDbEntity
8
0
100
AcDbLine
62
7
6
CONTINUOUS
10
170.9847901174
20
218.9145198008
11
170.3638825342
21
218.9145198008
0
LINE
5
25C
100
AcDbEntity
8
0
100
AcDbLine
62
7
6
CONTINUOUS
10
146.5385200650
20
218.9145198008
11
146.7693943716
21
218.9145198008
0
LINE
5
25D
100
AcDbEntity
8
0
100
AcDbLine
62
7
6
CONTINUOUS
10
148.5047276093
20
219.2123921057
11
148.7356019159
21
219.2123921057
0
LINE
5
25E
100
AcDbEntity
8
0
100
AcDbLine
62
7
6
CONTINUOUS
10
146.6420045635
20
219.3613282582
11
146.8728788701
21
219.3613282582
0
LINE
5
25F
100
AcDbEntity
8
0
100
AcDbLine
62
7
6
CONTINUOUS
10
146.6420045635
20
219.8081371328
11
146.8728788701
21
219.8081371328
0
LINE
5
260
100
AcDbEntity
8
0
100
AcDbLine
62
7
6
CONTINUOUS
10
148.5047276093
20
219.8081371328
11
148.7356019159
21
219.8081371328
0
LINE
5
261
100
AcDbEntity
8
0
100
AcDbLine
62
7
6
CONTINUOUS
10
151.0918421446
20
219.8081371328
11
151.9436240344
21
219.8081371328
0
LINE
5
262
100
AcDbEntity
8
0
100
AcDbLine
62
7
6
CONTINUOUS
10
150.9883579422
20
220.1060094377
11
151.2192322488
21
220.1060094377
0
LINE
5
263
100
AcDbEntity
8
0
100
AcDbLine
62
7
6
CONTINUOUS
10
146.5385200650
20
220.2549455902
11
146.7693943716
21
220.2549455902
0
LINE
5
264
100
AcDbEntity
8
0
100
AcDbLine
62
7
6
CONTINUOUS
10
148.6082118117
20
220.4038817426
11
148.8390861183
21
220.4038817426
0
LINE
5
265
100
AcDbEntity
8
0
100
AcDbLine
62
7
6
CONTINUOUS
10
150.7813883530
20
220.4038817426
11
151.0122626596
21
220.4038817426
0
LINE
5
266
100
AcDbEntity
8
0
100
AcDbLine
62
7
6
CONTINUOUS
10
149.1256351925
20
214.5953709753
11
149.6430579811
21
214.4464348098
0
LINE
5
267
100
AcDbEntity
8
0
100
AcDbLine
62
7
6
CONTINUOUS
10
149.3565094991
20
214.5953709753
11
149.8739322877
21
214.4464348098
0
LINE
5
268
100
AcDbEntity
8
0
100
AcDbLine
62
7
6
CONTINUOUS
10
130.1414754322
20
364.9977111646
11
129.9748089245
21
364.3594133684
0
LINE
5
269
100
AcDbEntity
8
0
100
AcDbLine
62
7
6
CONTINUOUS
10
130.9748089245
20
364.1466474363
11
131.1414754322
21
364.7849452325
0
LINE
5
26A
100
AcDbEntity
8
0
100
AcDbLine
62
7
6
CONTINUOUS
10
138.1414759091
20
359.4657964834
11
138.4748089245
21
360.3168603608
0
LINE
5
26B
100
AcDbEntity
8
0
100
AcDbLine
62
7
6
CONTINUOUS
10
146.3315507719
20
220.5528178951
11
146.5624250785
21
220.5528178951
0
LINE
5
26C
100
AcDbEntity
8
0
100
AcDbLine
62
7
6
CONTINUOUS
10
150.0809012848
20
220.5528178951
11
150.7018088680
21
220.5528178951
0
LINE
5
26D
100
AcDbEntity
8
0
100
AcDbLine
62
7
6
CONTINUOUS
10
144.2857640387
20
220.7017540475
11
146.2519712869
21
220.7017540475
0
LINE
5
26E
100
AcDbEntity
8
0
100
AcDbLine
62
7
6
CONTINUOUS
10
169.3290357726
20
220.7017540475
11
172.3300906706
21
220.7017540475
0
LINE
5
26F
100
AcDbEntity
8
0
100
AcDbLine
62
7
6
CONTINUOUS
10
149.0221503979
20
220.9996263524
11
149.2530247045
21
220.9996263524
0
LINE
5
270
100
AcDbEntity
8
0
100
AcDbLine
62
7
6
CONTINUOUS
10
149.4360889841
20
221.2974986574
11
149.6669632907
21
221.2974986574
0
LINE
5
271
100
AcDbEntity
8
0
100
AcDbLine
62
7
6
CONTINUOUS
10
143.4339821489
20
221.4464348098
11
146.1484867884
21
221.4464348098
0
LINE
5
272
100
AcDbEntity
8
0
100
AcDbLine
62
7
6
CONTINUOUS
10
149.8500269782
20
221.4464348098
11
150.5983246656
21
221.4464348098
0
LINE
5
273
100
AcDbEntity
8
0
100
AcDbLine
62
7
6
CONTINUOUS
10
157.8183407655
20
221.4464348098
11
158.9805764469
21
221.4464348098
0
LINE
5
274
100
AcDbEntity
8
0
100
AcDbLine
62
7
6
CONTINUOUS
10
161.8542400564
20
221.4464348098
11
163.0164757379
21
221.4464348098
0
LINE
5
275
100
AcDbEntity
8
0
100
AcDbLine
62
7
6
CONTINUOUS
10
166.0971089366
20
221.4464348098
11
166.9488908264
21
221.4464348098
0
LINE
5
276
100
AcDbEntity
8
0
100
AcDbLine
62
7
6
CONTINUOUS
10
168.5807392695
20
221.4464348098
11
172.3300906706
21
221.4464348098
0
LINE
5
277
100
AcDbEntity
8
0
100
AcDbLine
62
7
6
CONTINUOUS
10
97.3627871152
20
225.3964348098
11
131.8948089245
21
225.3964348098
0
LINE
5
278
100
AcDbEntity
8
0
100
AcDbLine
62
7
6
CONTINUOUS
10
139.8948089245
20
225.3964348098
11
174.4268307338
21
225.3964348098
0
LINE
5
279
100
AcDbEntity
8
0
100
AcDbLine
62
7
6
CONTINUOUS
10
195.9821772807
20
228.6363519019
11
194.6259680624
21
228.6363519019
0
LINE
5
27A
100
AcDbEntity
8
0
100
AcDbLine
62
7
6
CONTINUOUS
10
77.1636497866
20
228.6363519019
11
75.8074405683
21
228.6363519019
0
LINE
5
27B
100
AcDbEntity
8
0
100
AcDbLine
62
7
6
CONTINUOUS
10
151.2192322488
20
218.3187751910
11
150.7018088680
21
218.4677113434
0
LINE
5
27C
100
AcDbEntity
8
0
100
AcDbLine
62
7
6
CONTINUOUS
10
169.6155860310
20
214.5953709753
11
170.1330082275
21
214.4464348098
0
LINE
5
27D
100
AcDbEntity
8
0
100
AcDbLine
62
7
6
CONTINUOUS
10
169.8464603377
20
214.5953709753
11
170.3638825342
21
214.4464348098
0
LINE
5
27E
100
AcDbEntity
8
0
100
AcDbLine
62
7
6
CONTINUOUS
10
146.6659098731
20
221.2974986574
11
146.1484867884
21
221.4464348098
0
LINE
5
27F
100
AcDbEntity
8
0
100
AcDbLine
62
7
6
CONTINUOUS
10
151.1157474542
20
221.2974986574
11
150.5983246656
21
221.4464348098
0
LINE
5
280
100
AcDbEntity
8
0
100
AcDbLine
62
7
6
CONTINUOUS
10
171.5022123139
20
218.7655836483
11
170.9847901174
21
218.9145198008
0
LINE
5
281
100
AcDbEntity
8
0
100
AcDbLine
62
7
6
CONTINUOUS
10
149.8739322877
20
215.3400518289
11
149.4599937015
21
215.4889879813
0
LINE
5
282
100
AcDbEntity
8
0
100
AcDbLine
62
7
6
CONTINUOUS
10
149.4360889841
20
217.7230305811
11
149.8500269782
21
217.5740944287
0
LINE
5
283
100
AcDbEntity
8
0
100
AcDbLine
62
7
6
CONTINUOUS
10
149.6669632907
20
217.7230305811
11
150.0809012848
21
217.5740944287
0
LINE
5
284
100
AcDbEntity
8
0
100
AcDbLine
62
7
6
CONTINUOUS
10
150.4709345614
20
217.5740944287
11
150.8848731476
21
217.4251582762
0
LINE
5
285
100
AcDbEntity
8
0
100
AcDbLine
62
7
6
CONTINUOUS
10
150.7018088680
20
217.5740944287
11
151.1157474542
21
217.4251582762
0
LINE
5
286
100
AcDbEntity
8
0
100
AcDbLine
62
7
6
CONTINUOUS
10
170.3638825342
20
215.1911156764
11
169.9499433558
21
215.3400518289
0
LINE
5
287
100
AcDbEntity
8
0
100
AcDbLine
62
7
6
CONTINUOUS
10
150.0809012848
20
218.4677113434
11
149.7704474932
21
218.6166474959
0
LINE
5
288
100
AcDbEntity
8
0
100
AcDbLine
62
7
6
CONTINUOUS
10
146.0210969803
20
220.7017540475
11
146.3315507719
21
220.5528178951
0
LINE
5
289
100
AcDbEntity
8
0
100
AcDbLine
62
7
6
CONTINUOUS
10
146.2519712869
20
220.7017540475
11
146.5624250785
21
220.5528178951
0
LINE
5
28A
100
AcDbEntity
8
0
100
AcDbLine
62
7
6
CONTINUOUS
10
155.7805953621
20
193.0106483722
11
158.3948089245
21
190.3964348098
0
LINE
5
28B
100
AcDbEntity
8
0
100
AcDbLine
62
7
6
CONTINUOUS
10
113.3948089245
20
190.3964348098
11
113.3948089245
21
142.3964348098
0
LINE
5
28C
100
AcDbEntity
8
0
100
AcDbLine
62
7
6
CONTINUOUS
10
116.5948089245
20
205.3964348098
11
116.5948089245
21
194.4248619346
0
LINE
5
28D
100
AcDbEntity
8
0
100
AcDbLine
62
7
6
CONTINUOUS
10
146.1414749554
20
359.4657964834
11
146.4748089245
21
360.3168603608
0
LINE
5
28E
100
AcDbEntity
8
0
100
AcDbLine
62
7
6
CONTINUOUS
10
170.7539158108
20
218.1698390385
11
171.1678549891
21
218.0209028861
0
LINE
5
28F
100
AcDbEntity
8
0
100
AcDbLine
62
7
6
CONTINUOUS
10
170.9847901174
20
218.1698390385
11
171.3987292957
21
218.0209028861
0
LINE
5
290
100
AcDbEntity
8
0
100
AcDbLine
62
7
6
CONTINUOUS
10
150.4709345614
20
220.5528178951
11
150.7813883530
21
220.4038817426
0
LINE
5
291
100
AcDbEntity
8
0
100
AcDbLine
62
7
6
CONTINUOUS
10
150.7018088680
20
220.5528178951
11
151.0122626596
21
220.4038817426
0
LINE
5
292
100
AcDbEntity
8
0
100
AcDbLine
62
7
6
CONTINUOUS
10
149.0221503979
20
218.0209028861
11
149.4360889841
21
217.7230305811
0
LINE
5
293
100
AcDbEntity
8
0
100
AcDbLine
62
7
6
CONTINUOUS
10
149.2530247045
20
218.0209028861
11
149.6669632907
21
217.7230305811
0
LINE
5
294
100
AcDbEntity
8
0
100
AcDbLine
62
7
6
CONTINUOUS
10
151.6331702428
20
218.0209028861
11
151.2192322488
21
218.3187751910
0
LINE
5
295
100
AcDbEntity
8
0
100
AcDbLine
62
7
6
CONTINUOUS
10
148.6082118117
20
215.0421794718
11
149.1256351925
21
214.5953709753
0
LINE
5
296
100
AcDbEntity
8
0
100
AcDbLine
62
7
6
CONTINUOUS
10
148.8390861183
20
215.0421794718
11
149.3565094991
21
214.5953709753
0
LINE
5
297
100
AcDbEntity
8
0
100
AcDbLine
62
7
6
CONTINUOUS
10
150.8848731476
20
217.4251582762
11
151.1953269392
21
217.1272859713
0
LINE
5
298
100
AcDbEntity
8
0
100
AcDbLine
62
7
6
CONTINUOUS
10
149.7704474932
20
218.6166474959
11
149.4599937015
21
218.9145198008
0
LINE
5
299
100
AcDbEntity
8
0
100
AcDbLine
62
7
6
CONTINUOUS
10
151.1157474542
20
217.4251582762
11
151.4262012458
21
217.1272859713
0
LINE
5
29A
100
AcDbEntity
8
0
100
AcDbLine
62
7
6
CONTINUOUS
10
124.9748089245
20
367.9764348098
11
124.9748089245
21
357.9764348098
0
LINE
5
29B
100
AcDbEntity
8
0
100
AcDbLine
62
7
6
CONTINUOUS
10
125.9748089245
20
357.9764348098
11
125.9748089245
21
362.4445199796
0
LINE
5
29C
100
AcDbEntity
8
0
100
AcDbLine
62
7
6
CONTINUOUS
10
125.9748089245
20
363.7211155721
11
125.9748089245
21
366.9126051494
0
LINE
5
29D
100
AcDbEntity
8
0
100
AcDbLine
62
7
6
CONTINUOUS
10
138.4748089245
20
360.3168603608
11
138.6414759091
21
361.3806900212
0
LINE
5
29E
100
AcDbEntity
8
0
100
AcDbLine
62
7
6
CONTINUOUS
10
137.6414759091
20
361.3806900212
11
137.4748089245
21
360.5296262928
0
LINE
5
29F
100
AcDbEntity
8
0
100
AcDbLine
62
7
6
CONTINUOUS
10
145.6414749554
20
361.3806900212
11
145.4748089245
21
360.5296262928
0
LINE
5
2A0
100
AcDbEntity
8
0
100
AcDbLine
62
7
6
CONTINUOUS
10
169.0981614660
20
215.0421794718
11
169.6155860310
21
214.5953709753
0
LINE
5
2A1
100
AcDbEntity
8
0
100
AcDbLine
62
7
6
CONTINUOUS
10
169.3290357726
20
215.0421794718
11
169.8464603377
21
214.5953709753
0
LINE
5
2A2
100
AcDbEntity
8
0
100
AcDbLine
62
7
6
CONTINUOUS
10
147.0798481632
20
220.8506902000
11
146.6659098731
21
221.2974986574
0
LINE
5
2A3
100
AcDbEntity
8
0
100
AcDbLine
62
7
6
CONTINUOUS
10
151.5296860404
20
220.8506902000
11
151.1157474542
21
221.2974986574
0
LINE
5
2A4
100
AcDbEntity
8
0
100
AcDbLine
62
7
6
CONTINUOUS
10
149.4599937015
20
215.4889879813
11
149.1495399099
21
215.9357965430
0
LINE
5
2A5
100
AcDbEntity
8
0
100
AcDbLine
62
7
6
CONTINUOUS
10
146.3315507719
20
220.5528178951
11
146.5385200650
21
220.2549455902
0
LINE
5
2A6
100
AcDbEntity
8
0
100
AcDbLine
62
7
6
CONTINUOUS
10
146.5624250785
20
220.5528178951
11
146.7693943716
21
220.2549455902
0
LINE
5
2A7
100
AcDbEntity
8
0
100
AcDbLine
62
7
6
CONTINUOUS
10
148.6082118117
20
218.6166474959
11
149.0221503979
21
218.0209028861
0
LINE
5
2A8
100
AcDbEntity
8
0
100
AcDbLine
62
7
6
CONTINUOUS
10
148.8390861183
20
218.6166474959
11
149.2530247045
21
218.0209028861
0
LINE
5
2A9
100
AcDbEntity
8
0
100
AcDbLine
62
7
6
CONTINUOUS
10
152.0471088290
20
217.4251582762
11
151.6331702428
21
218.0209028861
0
LINE
5
2AA
100
AcDbEntity
8
0
100
AcDbLine
62
7
6
CONTINUOUS
10
150.7813883530
20
220.4038817426
11
150.9883579422
21
220.1060094377
0
LINE
5
2AB
100
AcDbEntity
8
0
100
AcDbLine
62
7
6
CONTINUOUS
10
151.0122626596
20
220.4038817426
11
151.2192322488
21
220.1060094377
0
LINE
5
2AC
100
AcDbEntity
8
0
100
AcDbLine
62
7
6
CONTINUOUS
10
102.9368507736
20
357.9153853364
11
104.5181845631
21
348.5097681233
0
LINE
5
2AD
100
AcDbEntity
8
0
100
AcDbLine
62
7
6
CONTINUOUS
10
105.3842100701
20
349.0097681829
11
103.8028761774
21
358.4153853364
0
LINE
5
2AE
100
AcDbEntity
8
0
100
AcDbLine
62
7
6
CONTINUOUS
10
130.1414754322
20
365.6360095569
11
130.1414754322
21
364.9977111646
0
LINE
5
2AF
100
AcDbEntity
8
0
100
AcDbLine
62
7
6
CONTINUOUS
10
131.1414754322
20
364.7849452325
11
131.1414754322
21
365.6360095569
0
LINE
5
2B0
100
AcDbEntity
8
0
100
AcDbLine
62
7
6
CONTINUOUS
10
131.8948089245
20
210.3964348098
11
131.8948089245
21
225.3964348098
0
LINE
5
2B1
100
AcDbEntity
8
0
100
AcDbLine
62
7
6
CONTINUOUS
10
132.6414754322
20
367.9764348098
11
132.6414754322
21
361.3806900212
0
LINE
5
2B2
100
AcDbEntity
8
0
100
AcDbLine
62
7
6
CONTINUOUS
10
133.6414759091
20
361.3806900212
11
133.6414759091
21
367.9764348098
0
LINE
5
2B3
100
AcDbEntity
8
DEFAULT_1
100
AcDbLine
62
2
6
CENTER
10
135.8948089245
20
291.3964348098
11
135.8948089245
21
128.3964348098
0
LINE
5
2B4
100
AcDbEntity
8
DEFAULT_1
100
AcDbLine
62
2
6
CENTER
10
135.8948089245
20
291.3964348098
11
135.8948089245
21
339.3964348098
0
LINE
5
2B5
100
AcDbEntity
8
0
100
AcDbLine
62
7
6
CONTINUOUS
10
146.4748089245
20
360.3168603608
11
146.6414749554
21
361.3806900212
0
LINE
5
2B6
100
AcDbEntity
8
0
100
AcDbLine
62
7
6
CONTINUOUS
10
172.0196368789
20
218.3187751910
11
171.5022123139
21
218.7655836483
0
LINE
5
2B7
100
AcDbEntity
8
0
100
AcDbLine
62
7
6
CONTINUOUS
10
169.9499433558
20
215.3400518289
11
169.6394895642
21
215.6379241338
0
LINE
5
2B8
100
AcDbEntity
8
0
100
AcDbLine
62
7
6
CONTINUOUS
10
171.1678549891
20
218.0209028861
11
171.4783087807
21
217.7230305811
0
LINE
5
2B9
100
AcDbEntity
8
0
100
AcDbLine
62
7
6
CONTINUOUS
10
171.3987292957
20
218.0209028861
11
171.7091830873
21
217.7230305811
0
LINE
5
2BA
100
AcDbEntity
8
0
100
AcDbLine
62
7
6
CONTINUOUS
10
147.3903019548
20
220.2549455902
11
147.0798481632
21
220.8506902000
0
LINE
5
2BB
100
AcDbEntity
8
0
100
AcDbLine
62
7
6
CONTINUOUS
10
151.8401398320
20
220.2549455902
11
151.5296860404
21
220.8506902000
0
LINE
5
2BC
100
AcDbEntity
8
0
100
AcDbLine
62
7
6
CONTINUOUS
10
151.1953269392
20
217.1272859713
11
151.4022959362
21
216.6804773053
0
LINE
5
2BD
100
AcDbEntity
8
0
100
AcDbLine
62
7
6
CONTINUOUS
10
151.4262012458
20
217.1272859713
11
151.6331702428
21
216.6804773053
0
LINE
5
2BE
100
AcDbEntity
8
0
100
AcDbLine
62
7
6
CONTINUOUS
10
148.2977583162
20
215.7868603906
11
148.6082118117
21
215.0421794718
0
LINE
5
2BF
100
AcDbEntity
8
0
100
AcDbLine
62
7
6
CONTINUOUS
10
148.5286326228
20
215.7868603906
11
148.8390861183
21
215.0421794718
0
LINE
5
2C0
100
AcDbEntity
8
0
100
AcDbLine
62
7
6
CONTINUOUS
10
147.5972712479
20
214.4464348098
11
146.6659098731
21
217.8719667336
0
LINE
5
2C1
100
AcDbEntity
8
0
100
AcDbLine
62
7
6
CONTINUOUS
10
145.8141278352
20
217.5740944287
11
146.6420045635
21
214.4464348098
0
LINE
5
2C2
100
AcDbEntity
8
0
100
AcDbLine
62
7
6
CONTINUOUS
10
146.0450021418
20
217.5740944287
11
146.8728788701
21
214.4464348098
0
LINE
5
2C3
100
AcDbEntity
8
0
100
AcDbLine
62
7
6
CONTINUOUS
10
137.6414759091
20
367.9764348098
11
137.6414759091
21
361.3806900212
0
LINE
5
2C4
100
AcDbEntity
8
0
100
AcDbLine
62
7
6
CONTINUOUS
10
138.6414759091
20
361.3806900212
11
138.6414759091
21
367.9764348098
0
LINE
5
2C5
100
AcDbEntity
8
0
100
AcDbLine
62
7
6
CONTINUOUS
10
139.8948089245
20
210.3964348098
11
139.8948089245
21
225.3964348098
0
LINE
5
2C6
100
AcDbEntity
8
0
100
AcDbLine
62
7
6
CONTINUOUS
10
139.9748089245
20
367.9764348098
11
139.9748089245
21
357.9764348098
0
LINE
5
2C7
100
AcDbEntity
8
0
100
AcDbLine
62
7
6
CONTINUOUS
10
140.9748089245
20
359.2530305513
11
140.9748089245
21
366.6998392173
0
LINE
5
2C8
100
AcDbEntity
8
0
100
AcDbLine
62
7
6
CONTINUOUS
10
143.4339821489
20
221.4464348098
11
143.4339821489
21
214.4464348098
0
LINE
5
2C9
100
AcDbEntity
8
0
100
AcDbLine
62
7
6
CONTINUOUS
10
143.6648564555
20
221.4464348098
11
143.6648564555
21
214.4464348098
0
LINE
5
2CA
100
AcDbEntity
8
0
100
AcDbLine
62
7
6
CONTINUOUS
10
144.2857640387
20
214.4464348098
11
144.2857640387
21
217.5740944287
0
LINE
5
2CB
100
AcDbEntity
8
0
100
AcDbLine
62
7
6
CONTINUOUS
10
144.2857640387
20
218.4677113434
11
144.2857640387
21
220.7017540475
0
LINE
5
2CC
100
AcDbEntity
8
0
100
AcDbLine
62
7
6
CONTINUOUS
10
145.6414749554
20
364.5721793004
11
145.6414749554
21
361.3806900212
0
LINE
5
2CD
100
AcDbEntity
8
0
100
AcDbLine
62
7
6
CONTINUOUS
10
146.6414749554
20
361.3806900212
11
146.6414749554
21
364.5721793004
0
LINE
5
2CE
100
AcDbEntity
8
0
100
AcDbLine
62
7
6
CONTINUOUS
10
146.6420045635
20
219.8081371328
11
146.6420045635
21
219.3613282582
0
LINE
5
2CF
100
AcDbEntity
8
0
100
AcDbLine
62
7
6
CONTINUOUS
10
146.8728788701
20
219.8081371328
11
146.8728788701
21
219.3613282582
0
LINE
5
2D0
100
AcDbEntity
8
0
100
AcDbLine
62
7
6
CONTINUOUS
10
168.7877076744
20
215.6379241338
11
169.0981614660
21
215.0421794718
0
LINE
5
2D1
100
AcDbEntity
8
0
100
AcDbLine
62
7
6
CONTINUOUS
10
169.0185819810
20
215.6379241338
11
169.3290357726
21
215.0421794718
0
LINE
5
2D2
100
AcDbEntity
8
0
100
AcDbLine
62
7
6
CONTINUOUS
10
150.9883579422
20
220.1060094377
11
151.0918421446
21
219.8081371328
0
LINE
5
2D3
100
AcDbEntity
8
0
100
AcDbLine
62
7
6
CONTINUOUS
10
152.2540778261
20
216.8294134578
11
152.0471088290
21
217.4251582762
0
LINE
5
2D4
100
AcDbEntity
8
0
100
AcDbLine
62
7
6
CONTINUOUS
10
151.2192322488
20
220.1060094377
11
151.3227164512
21
219.8081371328
0
LINE
5
2D5
100
AcDbEntity
8
0
100
AcDbLine
62
7
6
CONTINUOUS
10
146.5385200650
20
220.2549455902
11
146.6420045635
21
219.8081371328
0
LINE
5
2D6
100
AcDbEntity
8
0
100
AcDbLine
62
7
6
CONTINUOUS
10
146.7693943716
20
220.2549455902
11
146.8728788701
21
219.8081371328
0
LINE
5
2D7
100
AcDbEntity
8
0
100
AcDbLine
62
7
6
CONTINUOUS
10
147.4937864534
20
219.8081371328
11
147.3903019548
21
220.2549455902
0
LINE
5
2D8
100
AcDbEntity
8
0
100
AcDbLine
62
7
6
CONTINUOUS
10
149.1495399099
20
215.9357965430
11
149.0460557075
21
216.3826050004
0
LINE
5
2D9
100
AcDbEntity
8
0
100
AcDbLine
62
7
6
CONTINUOUS
10
149.4599937015
20
218.9145198008
11
149.3565094991
21
219.3613282582
0
LINE
5
2DA
100
AcDbEntity
8
0
100
AcDbLine
62
7
6
CONTINUOUS
10
151.9436240344
20
219.8081371328
11
151.8401398320
21
220.2549455902
0
LINE
5
2DB
100
AcDbEntity
8
0
100
AcDbLine
62
7
6
CONTINUOUS
10
148.1942735216
20
216.3826050004
11
148.2977583162
21
215.7868603906
0
LINE
5
2DC
100
AcDbEntity
8
0
100
AcDbLine
62
7
6
CONTINUOUS
10
148.4251478282
20
216.3826050004
11
148.5286326228
21
215.7868603906
0
LINE
5
2DD
100
AcDbEntity
8
0
100
AcDbLine
62
7
6
CONTINUOUS
10
148.5047276093
20
219.2123921057
11
148.6082118117
21
218.6166474959
0
LINE
5
2DE
100
AcDbEntity
8
0
100
AcDbLine
62
7
6
CONTINUOUS
10
148.7356019159
20
219.2123921057
11
148.8390861183
21
218.6166474959
0
LINE
5
2DF
100
AcDbEntity
8
0
100
AcDbLine
62
7
6
CONTINUOUS
10
147.4937864534
20
219.2123921057
11
147.4937864534
21
219.8081371328
0
LINE
5
2E0
100
AcDbEntity
8
0
100
AcDbLine
62
7
6
CONTINUOUS
10
148.5047276093
20
219.8081371328
11
148.5047276093
21
219.2123921057
0
LINE
5
2E1
100
AcDbEntity
8
0
100
AcDbLine
62
7
6
CONTINUOUS
10
148.7356019159
20
219.8081371328
11
148.7356019159
21
219.2123921057
0
LINE
5
2E2
100
AcDbEntity
8
0
100
AcDbLine
62
7
6
CONTINUOUS
10
149.3565094991
20
219.3613282582
11
149.3565094991
21
219.6592005631
0
LINE
5
2E3
100
AcDbEntity
8
0
100
AcDbLine
62
7
6
CONTINUOUS
10
151.4022959362
20
216.6804773053
11
151.4022959362
21
216.2336688479
0
LINE
5
2E4
100
AcDbEntity
8
0
100
AcDbLine
62
7
6
CONTINUOUS
10
151.6331702428
20
216.6804773053
11
151.6331702428
21
216.2336688479
0
LINE
5
2E5
100
AcDbEntity
8
0
100
AcDbLine
62
7
6
CONTINUOUS
10
152.2540778261
20
216.0847326955
11
152.2540778261
21
216.8294134578
0
LINE
5
2E6
100
AcDbEntity
8
0
100
AcDbLine
62
7
6
CONTINUOUS
10
155.1948089245
20
205.3964348098
11
155.1948089245
21
194.4248619346
0
LINE
5
2E7
100
AcDbEntity
8
0
100
AcDbLine
62
7
6
CONTINUOUS
10
148.6082118117
20
220.4038817426
11
148.5047276093
21
219.8081371328
0
LINE
5
2E8
100
AcDbEntity
8
0
100
AcDbLine
62
7
6
CONTINUOUS
10
148.8390861183
20
220.4038817426
11
148.7356019159
21
219.8081371328
0
LINE
5
2E9
100
AcDbEntity
8
0
100
AcDbLine
62
7
6
CONTINUOUS
10
146.6420045635
20
219.3613282582
11
146.5385200650
21
218.9145198008
0
LINE
5
2EA
100
AcDbEntity
8
0
100
AcDbLine
62
7
6
CONTINUOUS
10
146.8728788701
20
219.3613282582
11
146.7693943716
21
218.9145198008
0
LINE
5
2EB
100
AcDbEntity
8
0
100
AcDbLine
62
7
6
CONTINUOUS
10
147.3903019548
20
218.7655836483
11
147.4937864534
21
219.2123921057
0
LINE
5
2EC
100
AcDbEntity
8
0
100
AcDbLine
62
7
6
CONTINUOUS
10
98.0748089245
20
356.3366888477
11
98.6067237547
21
355.4153853364
0
LINE
5
2ED
100
AcDbEntity
8
0
100
AcDbLine
62
7
6
CONTINUOUS
10
172.3300906706
20
217.7230305811
11
172.0196368789
21
218.3187751910
0
LINE
5
2EE
100
AcDbEntity
8
0
100
AcDbLine
62
7
6
CONTINUOUS
10
171.4783087807
20
217.7230305811
11
171.6852771856
21
217.2762221238
0
LINE
5
2EF
100
AcDbEntity
8
0
100
AcDbLine
62
7
6
CONTINUOUS
10
171.7091830873
20
217.7230305811
11
171.9161514922
21
217.2762221238
0
LINE
5
2F0
100
AcDbEntity
8
0
100
AcDbLine
62
7
6
CONTINUOUS
10
168.5807392695
20
216.2336688479
11
168.7877076744
21
215.6379241338
0
LINE
5
2F1
100
AcDbEntity
8
0
100
AcDbLine
62
7
6
CONTINUOUS
10
168.8116135761
20
216.2336688479
11
169.0185819810
21
215.6379241338
0
LINE
5
2F2
100
AcDbEntity
8
0
100
AcDbLine
62
7
6
CONTINUOUS
10
169.6394895642
20
215.6379241338
11
169.4325211593
21
216.2336688479
0
LINE
5
2F3
100
AcDbEntity
8
0
100
AcDbLine
62
7
6
CONTINUOUS
10
158.6701226553
20
219.0789132742
11
159.8880331043
21
214.4464348098
0
LINE
5
2F4
100
AcDbEntity
8
0
100
AcDbLine
62
7
6
CONTINUOUS
10
158.6701226553
20
219.9570732852
11
160.1189074109
21
214.4464348098
0
LINE
5
2F5
100
AcDbEntity
8
0
100
AcDbLine
62
7
6
CONTINUOUS
10
160.5328454050
20
215.1911156764
11
158.9805764469
21
221.4464348098
0
LINE
5
2F6
100
AcDbEntity
8
0
100
AcDbLine
62
7
6
CONTINUOUS
10
133.8081419399
20
360.5296262928
11
133.6414759091
21
361.3806900212
0
LINE
5
2F7
100
AcDbEntity
8
0
100
AcDbLine
62
7
6
CONTINUOUS
10
132.6414754322
20
361.3806900212
11
132.8081424168
21
360.3168603608
0
LINE
5
2F8
100
AcDbEntity
8
0
100
AcDbLine
62
7
6
CONTINUOUS
10
157.8183407655
20
221.4464348098
11
157.8183407655
21
214.4464348098
0
LINE
5
2F9
100
AcDbEntity
8
0
100
AcDbLine
62
7
6
CONTINUOUS
10
158.0492150721
20
221.4464348098
11
158.0492150721
21
214.4464348098
0
LINE
5
2FA
100
AcDbEntity
8
0
100
AcDbLine
62
7
6
CONTINUOUS
10
158.3948089245
20
190.3964348098
11
158.3948089245
21
142.3964348098
0
LINE
5
2FB
100
AcDbEntity
8
0
100
AcDbLine
62
7
6
CONTINUOUS
10
158.6701226553
20
214.4464348098
11
158.6701226553
21
219.9570732852
0
LINE
5
2FC
100
AcDbEntity
8
0
100
AcDbLine
62
7
6
CONTINUOUS
10
162.1646938481
20
219.0789125563
11
162.1646938481
21
214.4464348098
0
LINE
5
2FD
100
AcDbEntity
8
0
100
AcDbLine
62
7
6
CONTINUOUS
10
162.3955681547
20
219.9570732852
11
162.3955681547
21
214.4464348098
0
LINE
5
2FE
100
AcDbEntity
8
0
100
AcDbLine
62
7
6
CONTINUOUS
10
163.0164757379
20
214.4464348098
11
163.0164757379
21
221.4464348098
0
LINE
5
2FF
100
AcDbEntity
8
0
100
AcDbLine
62
7
6
CONTINUOUS
10
163.6134786037
20
217.4251582762
11
163.6134786037
21
216.5315411529
0
LINE
5
300
100
AcDbEntity
8
0
100
AcDbLine
62
7
6
CONTINUOUS
10
163.8443529103
20
217.4251582762
11
163.8443529103
21
216.5315411529
0
LINE
5
301
100
AcDbEntity
8
0
100
AcDbLine
62
7
6
CONTINUOUS
10
166.0971089366
20
219.8835771792
11
166.0971089366
21
217.4251582762
0
LINE
5
302
100
AcDbEntity
8
0
100
AcDbLine
62
7
6
CONTINUOUS
10
166.0971089366
20
216.5315411529
11
166.0971089366
21
214.4464348098
0
LINE
5
303
100
AcDbEntity
8
0
100
AcDbLine
62
7
6
CONTINUOUS
10
166.3279832432
20
220.2549455902
11
166.3279832432
21
217.4251582762
0
LINE
5
304
100
AcDbEntity
8
0
100
AcDbLine
62
7
6
CONTINUOUS
10
166.3279832432
20
216.5315411529
11
166.3279832432
21
214.4464348098
0
LINE
5
305
100
AcDbEntity
8
0
100
AcDbLine
62
7
6
CONTINUOUS
10
166.9488908264
20
214.4464348098
11
166.9488908264
21
216.5315411529
0
LINE
5
306
100
AcDbEntity
8
0
100
AcDbLine
62
7
6
CONTINUOUS
10
166.9488908264
20
217.4251582762
11
166.9488908264
21
221.4464348098
0
LINE
5
307
100
AcDbEntity
8
0
100
AcDbLine
62
7
6
CONTINUOUS
10
149.3565094991
20
219.6592005631
11
149.4599937015
21
220.1060094377
0
LINE
5
308
100
AcDbEntity
8
0
100
AcDbLine
62
7
6
CONTINUOUS
10
152.0471088290
20
215.4889879813
11
152.2540778261
21
216.0847326955
0
LINE
5
309
100
AcDbEntity
8
0
100
AcDbLine
62
7
6
CONTINUOUS
10
147.0798481632
20
218.1698390385
11
147.3903019548
21
218.7655836483
0
LINE
5
30A
100
AcDbEntity
8
0
100
AcDbLine
62
7
6
CONTINUOUS
10
103.8028761774
20
358.4153853364
11
103.2709613472
21
359.3366888477
0
LINE
5
30B
100
AcDbEntity
8
0
100
AcDbLine
62
7
6
CONTINUOUS
10
106.0214068119
20
357.2394445440
11
106.4469386760
21
356.5024017350
0
LINE
5
30C
100
AcDbEntity
8
0
100
AcDbLine
62
7
6
CONTINUOUS
10
106.3250434616
20
359.3801974242
11
107.1761074879
21
357.9061112901
0
LINE
5
30D
100
AcDbEntity
8
0
100
AcDbLine
62
7
6
CONTINUOUS
10
107.6016393521
20
357.1690684811
11
109.7292988964
21
353.4838540491
0
LINE
5
30E
100
AcDbEntity
8
0
100
AcDbLine
62
7
6
CONTINUOUS
10
110.2382204510
20
354.2690420904
11
108.3233269133
21
357.5857349888
0
LINE
5
30F
100
AcDbEntity
8
0
100
AcDbLine
62
7
6
CONTINUOUS
10
107.8977950491
20
358.3227777978
11
107.0467310227
21
359.7968639320
0
LINE
5
310
100
AcDbEntity
8
0
100
AcDbLine
62
7
6
CONTINUOUS
10
112.6010883661
20
353.1764348098
11
112.1755564647
21
353.9134776833
0
LINE
5
311
100
AcDbEntity
8
0
100
AcDbLine
62
7
6
CONTINUOUS
10
109.9110398782
20
358.5024014966
11
109.4855080141
21
359.2394443055
0
LINE
5
312
100
AcDbEntity
8
0
100
AcDbLine
62
7
6
CONTINUOUS
10
131.3081424168
20
357.9764348098
11
129.8081424168
21
362.8700518438
0
LINE
5
313
100
AcDbEntity
8
0
100
AcDbLine
62
7
6
CONTINUOUS
10
128.8081421784
20
362.4445199796
11
130.1414754322
21
357.9764348098
0
LINE
5
314
100
AcDbEntity
8
0
100
AcDbLine
62
7
6
CONTINUOUS
10
172.5370590754
20
216.9783496102
11
172.3300906706
21
217.7230305811
0
LINE
5
315
100
AcDbEntity
8
0
100
AcDbLine
62
7
6
CONTINUOUS
10
129.9748089245
20
366.2743073532
11
130.1414754322
21
365.6360095569
0
LINE
5
316
100
AcDbEntity
8
0
100
AcDbLine
62
7
6
CONTINUOUS
10
131.1414754322
20
365.6360095569
11
130.9748089245
21
366.2743073532
0
LINE
5
317
100
AcDbEntity
8
0
100
AcDbLine
62
7
6
CONTINUOUS
10
171.6852771856
20
217.2762221238
11
171.7887625723
21
216.8294134578
0
LINE
5
318
100
AcDbEntity
8
0
100
AcDbLine
62
7
6
CONTINUOUS
10
171.9161514922
20
217.2762221238
11
172.0196368789
21
216.8294134578
0
LINE
5
319
100
AcDbEntity
8
0
100
AcDbLine
62
7
6
CONTINUOUS
10
145.4748089245
20
365.4232430288
11
145.6414749554
21
364.5721793004
0
LINE
5
31A
100
AcDbEntity
8
0
100
AcDbLine
62
7
6
CONTINUOUS
10
146.6414749554
20
364.5721793004
11
146.4748089245
21
365.6360095569
0
LINE
5
31B
100
AcDbEntity
8
0
100
AcDbLine
62
7
6
CONTINUOUS
10
167.9837375880
20
216.5315411529
11
167.9837375880
21
217.4251582762
0
LINE
5
31C
100
AcDbEntity
8
0
100
AcDbLine
62
7
6
CONTINUOUS
10
168.5807392695
20
221.4464348098
11
168.5807392695
21
217.5740944287
0
LINE
5
31D
100
AcDbEntity
8
0
100
AcDbLine
62
7
6
CONTINUOUS
10
168.8116135761
20
221.4464348098
11
168.8116135761
21
217.5740944287
0
LINE
5
31E
100
AcDbEntity
8
0
100
AcDbLine
62
7
6
CONTINUOUS
10
169.3290357726
20
218.3187751910
11
169.3290357726
21
220.7017540475
0
LINE
5
31F
100
AcDbEntity
8
0
100
AcDbLine
62
7
6
CONTINUOUS
10
171.7887625723
20
216.8294134578
11
171.7887625723
21
216.5315411529
0
LINE
5
320
100
AcDbEntity
8
0
100
AcDbLine
62
7
6
CONTINUOUS
10
172.0196368789
20
216.8294134578
11
172.0196368789
21
216.5315411529
0
LINE
5
321
100
AcDbEntity
8
0
100
AcDbLine
62
7
6
CONTINUOUS
10
172.3300906706
20
220.7017540475
11
172.3300906706
21
221.4464348098
0
LINE
5
322
100
AcDbEntity
8
0
100
AcDbLine
62
7
6
CONTINUOUS
10
172.5370590754
20
216.3826050004
11
172.5370590754
21
216.9783496102
0
LINE
5
323
100
AcDbEntity
8
0
100
AcDbLine
62
7
6
CONTINUOUS
10
174.4268306898
20
210.3964348098
11
174.4268306898
21
225.3964348098
0
LINE
5
324
100
AcDbEntity
8
0
100
AcDbLine
62
7
6
CONTINUOUS
10
161.8542400564
20
221.4464348098
11
160.4174082517
21
215.6563032524
0
LINE
5
325
100
AcDbEntity
8
0
100
AcDbLine
62
7
6
CONTINUOUS
10
162.0851143631
20
221.4464348098
11
160.5328454050
21
215.1911156764
0
LINE
5
326
100
AcDbEntity
8
0
100
AcDbLine
62
7
6
CONTINUOUS
10
160.9467845833
20
214.4464348098
11
162.3955681547
21
219.9570732852
0
LINE
5
327
100
AcDbEntity
8
0
100
AcDbLine
62
7
6
CONTINUOUS
10
151.4022959362
20
216.2336688479
11
151.1953269392
21
215.7868603906
0
LINE
5
328
100
AcDbEntity
8
0
100
AcDbLine
62
7
6
CONTINUOUS
10
151.6331702428
20
216.2336688479
11
151.4262012458
21
215.7868603906
0
LINE
5
329
100
AcDbEntity
8
0
100
AcDbLine
62
7
6
CONTINUOUS
10
146.5385200650
20
218.9145198008
11
146.3315507719
21
218.6166474959
0
LINE
5
32A
100
AcDbEntity
8
0
100
AcDbLine
62
7
6
CONTINUOUS
10
146.7693943716
20
218.9145198008
11
146.5624250785
21
218.6166474959
0
LINE
5
32B
100
AcDbEntity
8
0
100
AcDbLine
62
7
6
CONTINUOUS
10
149.0221503979
20
220.9996263524
11
148.6082118117
21
220.4038817426
0
LINE
5
32C
100
AcDbEntity
8
0
100
AcDbLine
62
7
6
CONTINUOUS
10
149.2530247045
20
220.9996263524
11
148.8390861183
21
220.4038817426
0
LINE
5
32D
100
AcDbEntity
8
0
100
AcDbLine
62
7
6
CONTINUOUS
10
151.6331702428
20
214.8932433194
11
152.0471088290
21
215.4889879813
0
LINE
5
32E
100
AcDbEntity
8
0
100
AcDbLine
62
7
6
CONTINUOUS
10
116.0090224869
20
193.0106483722
11
113.3948089245
21
190.3964348098
0
LINE
5
32F
100
AcDbEntity
8
0
100
AcDbLine
62
7
6
CONTINUOUS
10
149.4599937015
20
220.1060094377
11
149.7704474932
21
220.4038817426
0
LINE
5
330
100
AcDbEntity
8
0
100
AcDbLine
62
7
6
CONTINUOUS
10
149.4360889841
20
221.2974986574
11
149.0221503979
21
220.9996263524
0
LINE
5
331
100
AcDbEntity
8
0
100
AcDbLine
62
7
6
CONTINUOUS
10
149.6669632907
20
221.2974986574
11
149.2530247045
21
220.9996263524
0
LINE
5
332
100
AcDbEntity
8
0
100
AcDbLine
62
7
6
CONTINUOUS
10
146.6659098731
20
217.8719667336
11
147.0798481632
21
218.1698390385
0
LINE
5
333
100
AcDbEntity
8
0
100
AcDbLine
62
7
6
CONTINUOUS
10
149.7704474932
20
220.4038817426
11
150.0809012848
21
220.5528178951
0
LINE
5
334
100
AcDbEntity
8
0
100
AcDbLine
62
7
6
CONTINUOUS
10
146.3315507719
20
218.6166474959
11
146.0210969803
21
218.4677113434
0
LINE
5
335
100
AcDbEntity
8
0
100
AcDbLine
62
7
6
CONTINUOUS
10
146.5624250785
20
218.6166474959
11
146.2519712869
21
218.4677113434
0
LINE
5
336
100
AcDbEntity
8
0
100
AcDbLine
62
7
6
CONTINUOUS
10
149.8500269782
20
221.4464348098
11
149.4360889841
21
221.2974986574
0
LINE
5
337
100
AcDbEntity
8
0
100
AcDbLine
62
7
6
CONTINUOUS
10
150.0809012848
20
221.4464348098
11
149.6669632907
21
221.2974986574
0
LINE
5
338
100
AcDbEntity
8
DEFAULT_1
100
AcDbLine
62
2
6
CENTER
10
135.8948089245
20
291.3964348098
11
87.8948089245
21
291.3964348098
0
LINE
5
339
100
AcDbEntity
8
DEFAULT_1
100
AcDbLine
62
2
6
CENTER
10
135.8948089245
20
291.3964348098
11
183.8948089245
21
291.3964348098
0
LINE
5
33A
100
AcDbEntity
8
0
100
AcDbLine
62
7
6
CONTINUOUS
10
132.8081424168
20
360.3168603608
11
133.1414759091
21
359.4657964834
0
LINE
5
33B
100
AcDbEntity
8
0
100
AcDbLine
62
7
6
CONTINUOUS
10
185.8948089245
20
205.3964348098
11
185.8948089245
21
216.6363519019
0
LINE
5
33C
100
AcDbEntity
8
0
100
AcDbLine
62
7
6
CONTINUOUS
10
171.7887625723
20
216.5315411529
11
171.6852771856
21
216.0847326955
0
LINE
5
33D
100
AcDbEntity
8
0
100
AcDbLine
62
7
6
CONTINUOUS
10
172.0196368789
20
216.5315411529
11
171.9161514922
21
216.0847326955
0
LINE
5
33E
100
AcDbEntity
8
0
100
AcDbLine
62
7
6
CONTINUOUS
10
172.3300906706
20
215.6379241338
11
172.5370590754
21
216.3826050004
0
LINE
5
33F
100
AcDbEntity
8
0
100
AcDbLine
62
7
6
CONTINUOUS
10
171.6852771856
20
216.0847326955
11
171.4783087807
21
215.6379241338
0
LINE
5
340
100
AcDbEntity
8
0
100
AcDbLine
62
7
6
CONTINUOUS
10
171.9161514922
20
216.0847326955
11
171.7091830873
21
215.6379241338
0
LINE
5
341
100
AcDbEntity
8
0
100
AcDbLine
62
7
6
CONTINUOUS
10
166.0971089366
20
221.4464348098
11
163.6134786037
21
217.4251582762
0
LINE
5
342
100
AcDbEntity
8
0
100
AcDbLine
62
7
6
CONTINUOUS
10
166.3279832432
20
221.4464348098
11
163.8443529103
21
217.4251582762
0
LINE
5
343
100
AcDbEntity
8
0
100
AcDbLine
62
7
6
CONTINUOUS
10
164.5687458803
20
217.4251582762
11
166.3279832432
21
220.2549455902
0
LINE
5
344
100
AcDbEntity
8
0
100
AcDbLine
62
7
6
CONTINUOUS
10
151.1953269392
20
215.7868603906
11
150.8848731476
21
215.4889879813
0
LINE
5
345
100
AcDbEntity
8
0
100
AcDbLine
62
7
6
CONTINUOUS
10
151.4262012458
20
215.7868603906
11
151.1157474542
21
215.4889879813
0
LINE
5
346
100
AcDbEntity
8
0
100
AcDbLine
62
7
6
CONTINUOUS
10
151.2192322488
20
214.5953709753
11
151.6331702428
21
214.8932433194
0
LINE
5
347
100
AcDbEntity
8
0
100
AcDbLine
62
7
6
CONTINUOUS
10
150.8848731476
20
215.4889879813
11
150.4709345614
21
215.3400518289
0
LINE
5
348
100
AcDbEntity
8
0
100
AcDbLine
62
7
6
CONTINUOUS
10
151.1157474542
20
215.4889879813
11
150.7018088680
21
215.3400518289
0
LINE
5
349
100
AcDbEntity
8
0
100
AcDbLine
62
7
6
CONTINUOUS
10
169.9499433558
20
218.0209028861
11
170.3638825342
21
218.1698390385
0
LINE
5
34A
100
AcDbEntity
8
0
100
AcDbLine
62
7
6
CONTINUOUS
10
150.7018088680
20
214.4464348098
11
151.2192322488
21
214.5953709753
0
LINE
5
34B
100
AcDbEntity
8
0
100
AcDbLine
62
7
6
CONTINUOUS
10
170.1330082275
20
218.9145198008
11
169.6155860310
21
218.7655836483
0
LINE
5
34C
100
AcDbEntity
8
0
100
AcDbLine
62
7
6
CONTINUOUS
10
170.3638825342
20
218.9145198008
11
169.8464603377
21
218.7655836483
0
LINE
5
34D
100
AcDbEntity
8
0
100
AcDbLine
62
7
6
CONTINUOUS
10
110.7017072662
20
353.7995933469
11
110.2382204510
21
354.2690420904
0
LINE
5
34E
100
AcDbEntity
8
0
100
AcDbLine
62
7
6
CONTINUOUS
10
130.9748089245
20
366.2743073532
11
130.4748089245
21
367.1253710815
0
LINE
5
34F
100
AcDbEntity
8
0
100
AcDbLine
62
7
6
CONTINUOUS
10
134.1414759091
20
359.8913284966
11
133.8081419399
21
360.5296262928
0
LINE
5
350
100
AcDbEntity
8
0
100
AcDbLine
62
7
6
CONTINUOUS
10
146.4748089245
20
365.6360095569
11
146.1414749554
21
366.4870732852
0
LINE
5
351
100
AcDbEntity
8
0
100
AcDbLine
62
7
6
CONTINUOUS
10
172.0196368789
20
215.0421794718
11
172.3300906706
21
215.6379241338
0
LINE
5
352
100
AcDbEntity
8
0
100
AcDbLine
62
7
6
CONTINUOUS
10
169.5360065460
20
217.5740944287
11
169.9499433558
21
218.0209028861
0
LINE
5
353
100
AcDbEntity
8
0
100
AcDbLine
62
7
6
CONTINUOUS
10
171.4783087807
20
215.6379241338
11
171.1678549891
21
215.3400518289
0
LINE
5
354
100
AcDbEntity
8
0
100
AcDbLine
62
7
6
CONTINUOUS
10
171.7091830873
20
215.6379241338
11
171.3987292957
21
215.3400518289
0
LINE
5
355
100
AcDbEntity
8
0
100
AcDbLine
62
7
6
CONTINUOUS
10
169.6155860310
20
218.7655836483
11
169.3290357726
21
218.5181406633
0
LINE
5
356
100
AcDbEntity
8
0
100
AcDbLine
62
7
6
CONTINUOUS
10
169.8464603377
20
218.7655836483
11
169.3290357726
21
218.3187751910
0
LINE
5
357
100
AcDbEntity
8
0
100
AcDbLine
62
7
6
CONTINUOUS
10
171.5022123139
20
214.5953709753
11
172.0196368789
21
215.0421794718
0
LINE
5
358
100
AcDbEntity
8
0
100
AcDbLine
62
7
6
CONTINUOUS
10
171.1678549891
20
215.3400518289
11
170.7539158108
21
215.1911156764
0
LINE
5
359
100
AcDbEntity
8
0
100
AcDbLine
62
7
6
CONTINUOUS
10
171.3987292957
20
215.3400518289
11
170.9847901174
21
215.1911156764
0
LINE
5
35A
100
AcDbEntity
8
0
100
AcDbLine
62
7
6
CONTINUOUS
10
170.9847901174
20
214.4464348098
11
171.5022123139
21
214.5953709753
0
LINE
5
35B
100
AcDbEntity
8
0
100
AcDbLine
62
7
6
CONTINUOUS
10
109.7292988964
20
353.4838540491
11
110.4435056571
21
352.9134776833
0
LINE
5
35C
100
AcDbEntity
8
0
100
AcDbLine
62
7
6
CONTINUOUS
10
133.1414759091
20
359.4657964834
11
133.8081419399
21
358.6147326806
0
LINE
5
35D
100
AcDbEntity
8
0
100
AcDbLine
62
7
6
CONTINUOUS
10
145.1414749554
20
366.0615414211
11
145.4748089245
21
365.4232430288
0
LINE
5
35E
100
AcDbEntity
8
0
100
AcDbLine
62
7
6
CONTINUOUS
10
199.6276438335
20
230.9847829760
11
223.0658426707
21
287.5696004862
0
LINE
5
35F
100
AcDbEntity
8
0
100
AcDbLine
62
7
6
CONTINUOUS
10
129.6414754322
20
366.6998392173
11
129.9748089245
21
366.2743073532
0
LINE
5
360
100
AcDbEntity
8
0
100
AcDbLine
62
7
6
CONTINUOUS
10
134.6414759091
20
359.4657964834
11
134.1414759091
21
359.8913284966
0
LINE
5
361
100
AcDbEntity
8
0
100
AcDbLine
62
7
6
CONTINUOUS
10
130.4748089245
20
367.1253710815
11
129.8081424168
21
367.7636688777
0
LINE
5
362
100
AcDbEntity
8
0
100
AcDbLine
62
7
6
CONTINUOUS
10
146.1414749554
20
366.4870732852
11
145.4748089245
21
367.3381370136
0
LINE
5
363
100
AcDbEntity
8
0
100
AcDbLine
62
7
6
CONTINUOUS
10
110.4435056571
20
352.9134776833
11
111.0892843097
21
352.7949562466
0
LINE
5
364
100
AcDbEntity
8
0
100
AcDbLine
62
7
6
CONTINUOUS
10
111.3474859002
20
353.6810719424
11
110.7017072662
21
353.7995933469
0
LINE
5
365
100
AcDbEntity
8
0
100
AcDbLine
62
7
6
CONTINUOUS
10
133.8081419399
20
358.6147326806
11
134.4748089245
21
358.1892007605
0
LINE
5
366
100
AcDbEntity
8
0
100
AcDbLine
62
7
6
CONTINUOUS
10
144.6414749554
20
366.4870732852
11
145.1414749554
21
366.0615414211
0
LINE
5
367
100
AcDbEntity
8
0
100
AcDbLine
62
7
6
CONTINUOUS
10
158.3948089245
20
142.3964348098
11
154.3948089245
21
138.3964348098
0
LINE
5
368
100
AcDbEntity
8
0
100
AcDbLine
62
7
6
CONTINUOUS
10
112.1755564647
20
353.9134776833
11
111.3474859002
21
353.6810719424
0
LINE
5
369
100
AcDbEntity
8
0
100
AcDbLine
62
7
6
CONTINUOUS
10
143.9748089245
20
357.9764348098
11
144.8081428936
21
358.1892007605
0
LINE
5
36A
100
AcDbEntity
8
0
100
AcDbLine
62
7
6
CONTINUOUS
10
135.9748089245
20
357.9764348098
11
136.8081419399
21
358.1892007605
0
LINE
5
36B
100
AcDbEntity
8
0
100
AcDbLine
62
7
6
CONTINUOUS
10
111.0892843097
20
352.7949562466
11
111.6286799870
21
352.8606955282
0
LINE
5
36C
100
AcDbEntity
8
0
100
AcDbLine
62
7
6
CONTINUOUS
10
124.9748089245
20
357.9764348098
11
125.9748089245
21
357.9764348098
0
LINE
5
36D
100
AcDbEntity
8
0
100
AcDbLine
62
7
6
CONTINUOUS
10
130.1414754322
20
357.9764348098
11
131.3081424168
21
357.9764348098
0
LINE
5
36E
100
AcDbEntity
8
0
100
AcDbLine
62
7
6
CONTINUOUS
10
135.3081419399
20
357.9764348098
11
135.9748089245
21
357.9764348098
0
LINE
5
36F
100
AcDbEntity
8
0
100
AcDbLine
62
7
6
CONTINUOUS
10
139.9748089245
20
357.9764348098
11
143.9748089245
21
357.9764348098
0
LINE
5
370
100
AcDbEntity
8
0
100
AcDbLine
62
7
6
CONTINUOUS
10
143.9748089245
20
359.2530305513
11
140.9748089245
21
359.2530305513
0
LINE
5
371
100
AcDbEntity
8
0
100
AcDbLine
62
7
6
CONTINUOUS
10
135.9748089245
20
359.2530305513
11
135.3081419399
21
359.2530305513
0
LINE
5
372
100
AcDbEntity
8
0
100
AcDbLine
62
7
6
CONTINUOUS
10
134.4748089245
20
358.1892007605
11
135.3081419399
21
357.9764348098
0
LINE
5
373
100
AcDbEntity
8
0
100
AcDbLine
62
7
6
CONTINUOUS
10
135.3081419399
20
359.2530305513
11
134.6414759091
21
359.4657964834
0
LINE
5
374
100
AcDbEntity
8
0
100
AcDbLine
62
7
6
CONTINUOUS
10
129.1414754322
20
366.9126051494
11
129.6414754322
21
366.6998392173
0
LINE
5
375
100
AcDbEntity
8
0
100
AcDbLine
62
7
6
CONTINUOUS
10
145.4748089245
20
367.3381370136
11
144.8081428936
21
367.7636688777
0
LINE
5
376
100
AcDbEntity
8
0
100
AcDbLine
62
7
6
CONTINUOUS
10
200.2400185102
20
350.3296833940
11
223.0658426707
21
295.2232691335
0
LINE
5
377
100
AcDbEntity
8
0
100
AcDbLine
62
7
6
CONTINUOUS
10
125.9748089245
20
362.4445199796
11
128.8081421784
21
362.4445199796
0
LINE
5
378
100
AcDbEntity
8
0
100
AcDbLine
62
7
6
CONTINUOUS
10
129.1414754322
20
363.7211155721
11
125.9748089245
21
363.7211155721
0
LINE
5
379
100
AcDbEntity
8
0
100
AcDbLine
62
7
6
CONTINUOUS
10
140.9748089245
20
366.6998392173
11
143.9748089245
21
366.6998392173
0
LINE
5
37A
100
AcDbEntity
8
0
100
AcDbLine
62
7
6
CONTINUOUS
10
125.9748089245
20
366.9126051494
11
129.1414754322
21
366.9126051494
0
LINE
5
37B
100
AcDbEntity
8
0
100
AcDbLine
62
7
6
CONTINUOUS
10
143.9748089245
20
367.9764348098
11
139.9748089245
21
367.9764348098
0
LINE
5
37C
100
AcDbEntity
8
0
100
AcDbLine
62
7
6
CONTINUOUS
10
138.6414759091
20
367.9764348098
11
137.6414759091
21
367.9764348098
0
LINE
5
37D
100
AcDbEntity
8
0
100
AcDbLine
62
7
6
CONTINUOUS
10
133.6414759091
20
367.9764348098
11
132.6414754322
21
367.9764348098
0
LINE
5
37E
100
AcDbEntity
8
0
100
AcDbLine
62
7
6
CONTINUOUS
10
128.9748089245
20
367.9764348098
11
124.9748089245
21
367.9764348098
0
LINE
5
37F
100
AcDbEntity
8
0
100
AcDbLine
62
7
6
CONTINUOUS
10
129.8081424168
20
367.7636688777
11
128.9748089245
21
367.9764348098
0
LINE
5
380
100
AcDbEntity
8
0
100
AcDbLine
62
7
6
CONTINUOUS
10
144.8081428936
20
367.7636688777
11
143.9748089245
21
367.9764348098
0
LINE
5
381
100
AcDbEntity
8
0
100
AcDbLine
62
7
6
CONTINUOUS
10
143.9748089245
20
366.6998392173
11
144.6414749554
21
366.4870732852
0
LINE
5
382
100
AcDbEntity
8
0
100
AcDbLine
62
7
6
CONTINUOUS
10
139.7216432481
20
378.5674685560
11
194.8280575087
21
355.7416443955
0
LINE
5
383
100
AcDbEntity
8
0
100
AcDbLine
62
7
6
CONTINUOUS
10
301.5254381597
20
138.3964348098
11
338.5254381597
21
138.3964348098
0
LINE
5
384
100
AcDbEntity
8
0
100
AcDbLine
62
7
6
CONTINUOUS
10
297.5254381597
20
142.3964348098
11
342.5254381597
21
142.3964348098
0
LINE
5
385
100
AcDbEntity
8
0
100
AcDbLine
62
7
6
CONTINUOUS
10
297.5254381597
20
142.3964348098
11
301.5254381597
21
138.3964348098
0
LINE
5
386
100
AcDbEntity
8
0
100
AcDbLine
62
7
6
CONTINUOUS
10
297.5254381597
20
190.3964348098
11
342.5254381597
21
190.3964348098
0
LINE
5
387
100
AcDbEntity
8
0
100
AcDbLine
62
7
6
CONTINUOUS
10
270.0263120902
20
205.3964348098
11
370.0245642292
21
205.3964348098
0
LINE
5
388
100
AcDbEntity
8
0
100
AcDbLine
62
7
6
CONTINUOUS
10
270.0254381597
20
205.3964348098
11
270.0254381597
21
228.5195514039
0
LINE
5
389
100
AcDbEntity
8
0
100
AcDbLine
62
7
6
CONTINUOUS
10
369.8651813373
20
210.3964348098
11
351.8889485944
21
210.3964348098
0
LINE
5
38A
100
AcDbEntity
8
0
100
AcDbLine
62
7
6
CONTINUOUS
10
351.8889485944
20
225.3964348098
11
369.8651813373
21
225.3964348098
0
LINE
5
38B
100
AcDbEntity
8
0
100
AcDbLine
62
7
6
CONTINUOUS
10
339.8912617349
20
228.6363519019
11
335.3064120824
21
228.6363519019
0
LINE
5
38C
100
AcDbEntity
8
0
100
AcDbLine
62
7
6
CONTINUOUS
10
304.7444642370
20
228.6363519019
11
300.1596145845
21
228.6363519019
0
LINE
5
38D
100
AcDbEntity
8
0
100
AcDbLine
62
7
6
CONTINUOUS
10
339.9112245974
20
193.0106483722
11
342.5254381597
21
190.3964348098
0
LINE
5
38E
100
AcDbEntity
8
0
100
AcDbLine
62
7
6
CONTINUOUS
10
297.5254381597
20
190.3964348098
11
297.5254381597
21
142.3964348098
0
LINE
5
38F
100
AcDbEntity
8
0
100
AcDbLine
62
7
6
CONTINUOUS
10
300.7254381597
20
205.3964348098
11
300.7254381597
21
194.4248619346
0
LINE
5
390
100
AcDbEntity
8
0
100
AcDbLine
62
7
6
CONTINUOUS
10
300.8706034473
20
375.4606004394
11
295.9751796457
21
227.1133556522
0
LINE
5
391
100
AcDbEntity
8
0
100
AcDbLine
62
7
6
CONTINUOUS
10
278.4610935093
20
238.3964348098
11
294.1001450523
21
240.8734172357
0
LINE
5
392
100
AcDbEntity
8
0
100
AcDbLine
62
7
6
CONTINUOUS
10
361.5897828101
20
238.3964348098
11
345.9507299280
21
240.8734174478
0
LINE
5
393
100
AcDbEntity
8
DEFAULT_1
100
AcDbLine
62
2
6
CENTER
10
320.0254381597
20
384.6706970647
11
320.0254381597
21
147.0886653022
0
LINE
5
394
100
AcDbEntity
8
0
100
AcDbLine
62
7
6
CONTINUOUS
10
344.0756966117
20
227.1133575351
11
339.1802728722
21
375.4606004395
0
LINE
5
395
100
AcDbEntity
8
0
100
AcDbLine
62
7
6
CONTINUOUS
10
339.3254381597
20
205.3964348098
11
339.3254381597
21
194.4248619346
0
LINE
5
396
100
AcDbEntity
8
0
100
AcDbLine
62
7
6
CONTINUOUS
10
340.2254381597
20
367.9764348098
11
340.2254381597
21
348.5097681233
0
LINE
5
397
100
AcDbEntity
8
0
100
AcDbLine
62
7
6
CONTINUOUS
10
342.5254381597
20
190.3964348098
11
342.5254381597
21
142.3964348098
0
LINE
5
398
100
AcDbEntity
8
0
100
AcDbLine
62
7
6
CONTINUOUS
10
351.8889486173
20
210.3964348098
11
351.8889486173
21
225.3964348098
0
LINE
5
399
100
AcDbEntity
8
0
100
AcDbLine
62
7
6
CONTINUOUS
10
300.1396517221
20
193.0106483722
11
297.5254381597
21
190.3964348098
0
LINE
5
39A
100
AcDbEntity
8
0
100
AcDbLine
62
7
6
CONTINUOUS
10
369.8651813372
20
210.3964348098
11
369.8651813372
21
225.3964348098
0
LINE
5
39B
100
AcDbEntity
8
0
100
AcDbLine
62
7
6
CONTINUOUS
10
370.0254381597
20
205.3964348098
11
370.0254381597
21
228.5195514039
0
LINE
5
39C
100
AcDbEntity
8
0
100
AcDbLine
62
7
6
CONTINUOUS
10
340.2254381597
20
348.5097681233
11
340.0696439298
21
348.5097681233
0
LINE
5
39D
100
AcDbEntity
8
0
100
AcDbLine
62
7
6
CONTINUOUS
10
340.2254381597
20
355.4153853364
11
339.8417602039
21
355.4153853364
0
LINE
5
39E
100
AcDbEntity
8
0
100
AcDbLine
62
7
6
CONTINUOUS
10
342.5254381597
20
142.3964348098
11
338.5254381597
21
138.3964348098
0
LINE
5
39F
100
AcDbEntity
8
0
100
AcDbLine
62
7
6
CONTINUOUS
10
340.2254381597
20
356.3366888477
11
339.8113574072
21
356.3366888477
0
LINE
5
3A0
100
AcDbEntity
8
0
100
AcDbLine
62
7
6
CONTINUOUS
10
340.2254381597
20
359.3366888477
11
339.7123581205
21
359.3366888477
0
LINE
5
3A1
100
AcDbEntity
8
0
100
AcDbLine
62
7
6
CONTINUOUS
10
340.2254381597
20
359.3801974242
11
339.7109223479
21
359.3801974242
0
LINE
5
3A2
100
AcDbEntity
8
0
100
AcDbLine
62
7
6
CONTINUOUS
10
340.2254381597
20
359.7968639320
11
339.6971724522
21
359.7968639320
0
LINE
5
3A3
100
AcDbEntity
8
0
100
AcDbLine
62
7
6
CONTINUOUS
10
340.2254381597
20
367.9764348098
11
339.4272485583
21
367.9764348098
0
LINE
5
3A4
100
AcDbEntity
8
0
100
AcDbLine
62
7
6
CONTINUOUS
10
335.1824490712
20
379.3286732309
11
304.8684272483
21
379.3286732309
0
LINE
5
3A5
100
AcDbEntity
8
0
100
AcDbLine
62
7
6
CONTINUOUS
10
47.9625705034
20
43.6324272353
11
47.9625705034
21
79.4859373804
0
LINE
5
3A6
100
AcDbEntity
8
0
100
AcDbLine
62
7
6
CONTINUOUS
10
92.8965122079
20
36.0416103334
11
92.8977312724
21
36.0395562647
0
LINE
5
3A7
100
AcDbEntity
8
0
100
AcDbLine
62
7
6
CONTINUOUS
10
98.0748089245
20
41.3591823078
11
98.0748089245
21
41.7732630604
0
LINE
5
3A8
100
AcDbEntity
8
0
100
AcDbLine
62
7
6
CONTINUOUS
10
103.2709613472
20
41.3591823078
11
103.2709613472
21
41.8722623470
0
LINE
5
3A9
100
AcDbEntity
8
0
100
AcDbLine
62
7
6
CONTINUOUS
10
103.8028761774
20
41.3591823078
11
103.8028761774
21
41.8418595502
0
LINE
5
3AA
100
AcDbEntity
8
0
100
AcDbLine
62
7
6
CONTINUOUS
10
105.3842100701
20
41.3591823078
11
105.3842100701
21
41.5314764208
0
LINE
5
3AB
100
AcDbEntity
8
0
100
AcDbLine
62
7
6
CONTINUOUS
10
106.0214068119
20
41.3591823078
11
106.0214068119
21
41.8030537837
0
LINE
5
3AC
100
AcDbEntity
8
0
100
AcDbLine
62
7
6
CONTINUOUS
10
106.3250434616
20
41.3591823078
11
106.3250434616
21
41.8736981197
0
LINE
5
3AD
100
AcDbEntity
8
0
100
AcDbLine
62
7
6
CONTINUOUS
10
107.0467310227
20
41.3591823078
11
107.0467310227
21
41.8874480154
0
LINE
5
3AE
100
AcDbEntity
8
0
100
AcDbLine
62
7
6
CONTINUOUS
10
107.8977950491
20
41.3591823078
11
107.8977950491
21
41.8388035235
0
LINE
5
3AF
100
AcDbEntity
8
0
100
AcDbLine
62
7
6
CONTINUOUS
10
109.4855080141
20
41.3591823078
11
109.4855080141
21
41.8690533002
0
LINE
5
3B0
100
AcDbEntity
8
0
100
AcDbLine
62
7
6
CONTINUOUS
10
219.6879919012
20
39.5692907434
11
196.2998446414
21
37.7059927539
0
LINE
5
3B1
100
AcDbEntity
8
0
100
AcDbLine
62
7
6
CONTINUOUS
10
195.9821772807
20
37.6933587326
11
196.3063818156
21
37.7065198855
0
LINE
5
3B2
100
AcDbEntity
8
0
100
AcDbLine
62
7
6
CONTINUOUS
10
75.4988480766
20
37.7052819571
11
75.8074405683
21
37.6933596701
0
LINE
5
3B3
100
AcDbEntity
8
0
100
AcDbLine
62
7
6
CONTINUOUS
10
75.4897732076
20
37.7059927539
11
52.1016259488
21
39.5692907433
0
LINE
5
3B4
100
AcDbEntity
8
0
100
AcDbLine
62
7
6
CONTINUOUS
10
109.9110398782
20
41.3591823078
11
109.9110398782
21
41.8447310628
0
LINE
5
3B5
100
AcDbEntity
8
0
100
AcDbLine
62
7
6
CONTINUOUS
10
110.2382204510
20
41.3591823078
11
110.2382204510
21
41.7050312091
0
LINE
5
3B6
100
AcDbEntity
8
0
100
AcDbLine
62
7
6
CONTINUOUS
10
110.7017072662
20
41.3591823078
11
110.7017072662
21
41.6895395122
0
LINE
5
3B7
100
AcDbEntity
8
0
100
AcDbLine
62
7
6
CONTINUOUS
10
111.3474859002
20
41.3591823078
11
111.3474859002
21
41.6856283340
0
LINE
5
3B8
100
AcDbEntity
8
0
100
AcDbLine
62
7
6
CONTINUOUS
10
112.1755564647
20
41.3591823078
11
112.1755564647
21
41.6932976682
0
LINE
5
3B9
100
AcDbEntity
8
0
100
AcDbLine
62
7
6
CONTINUOUS
10
112.6010883661
20
41.3591823078
11
112.6010883661
21
41.6689754286
0
LINE
5
3BA
100
AcDbEntity
8
0
100
AcDbLine
62
7
6
CONTINUOUS
10
137.6414759091
20
41.9397138997
11
137.4748089245
21
41.9116289990
0
LINE
5
3BB
100
AcDbEntity
8
0
100
AcDbLine
62
7
6
CONTINUOUS
10
137.4748089245
20
41.9116289990
11
137.1414759091
21
41.8905653235
0
LINE
5
3BC
100
AcDbEntity
8
0
100
AcDbLine
62
7
6
CONTINUOUS
10
181.3577227418
20
37.5000601982
11
181.3582776368
21
37.5000807141
0
LINE
5
3BD
100
AcDbEntity
8
0
100
AcDbLine
62
7
6
CONTINUOUS
10
137.1414759091
20
41.8905653235
11
136.6414759091
21
41.8765228683
0
LINE
5
3BE
100
AcDbEntity
8
0
100
AcDbLine
62
7
6
CONTINUOUS
10
136.6414759091
20
41.8765228683
11
135.9748089245
21
41.8695016431
0
LINE
5
3BF
100
AcDbEntity
8
0
100
AcDbLine
62
7
6
CONTINUOUS
10
112.1755564647
20
41.6932976682
11
111.3474859002
21
41.6856283340
0
LINE
5
3C0
100
AcDbEntity
8
0
100
AcDbLine
62
7
6
CONTINUOUS
10
195.9821772807
20
37.6933587326
11
194.6259680623
21
37.6933587326
0
LINE
5
3C1
100
AcDbEntity
8
0
100
AcDbLine
62
7
6
CONTINUOUS
10
77.1636497866
20
37.6933587326
11
75.8074405683
21
37.6933587326
0
LINE
5
3C2
100
AcDbEntity
8
0
100
AcDbLine
62
7
6
CONTINUOUS
10
146.6414749554
20
41.3591823078
11
139.9748089245
21
41.3591823078
0
LINE
5
3C3
100
AcDbEntity
8
0
100
AcDbLine
62
7
6
CONTINUOUS
10
138.6414759091
20
41.3591823078
11
132.6414754322
21
41.3591823078
0
LINE
5
3C4
100
AcDbEntity
8
0
100
AcDbLine
62
7
6
CONTINUOUS
10
131.3081424168
20
41.3591823078
11
124.9748089245
21
41.3591823078
0
LINE
5
3C5
100
AcDbEntity
8
0
100
AcDbLine
62
7
6
CONTINUOUS
10
112.6010883661
20
41.3591823078
11
106.0214068119
21
41.3591823078
0
LINE
5
3C6
100
AcDbEntity
8
0
100
AcDbLine
62
7
6
CONTINUOUS
10
105.3842100701
20
41.3591823078
11
98.0748089245
21
41.3591823078
0
LINE
5
3C7
100
AcDbEntity
8
0
100
AcDbLine
62
7
6
CONTINUOUS
10
135.9748089245
20
41.8695016431
11
135.3081419399
21
41.8695016431
0
LINE
5
3C8
100
AcDbEntity
8
0
100
AcDbLine
62
7
6
CONTINUOUS
10
143.9748089245
20
42.1573719093
11
139.9748089245
21
42.1573719093
0
LINE
5
3C9
100
AcDbEntity
8
0
100
AcDbLine
62
7
6
CONTINUOUS
10
138.6414759091
20
42.1573719093
11
137.6414759091
21
42.1573719093
0
LINE
5
3CA
100
AcDbEntity
8
0
100
AcDbLine
62
7
6
CONTINUOUS
10
133.6414759091
20
42.1573719093
11
132.6414754322
21
42.1573719093
0
LINE
5
3CB
100
AcDbEntity
8
0
100
AcDbLine
62
7
6
CONTINUOUS
10
128.9748089245
20
42.1573719093
11
124.9748089245
21
42.1573719093
0
LINE
5
3CC
100
AcDbEntity
8
0
100
AcDbLine
62
7
6
CONTINUOUS
10
111.3474859002
20
41.6856283340
11
110.7017072662
21
41.6895395122
0
LINE
5
3CD
100
AcDbEntity
8
0
100
AcDbLine
62
7
6
CONTINUOUS
10
129.8081424168
20
42.1503506841
11
128.9748089245
21
42.1573719093
0
LINE
5
3CE
100
AcDbEntity
8
0
100
AcDbLine
62
7
6
CONTINUOUS
10
144.8081428936
20
42.1503506841
11
143.9748089245
21
42.1573719093
0
LINE
5
3CF
100
AcDbEntity
8
0
100
AcDbLine
62
7
6
CONTINUOUS
10
135.3081419399
20
41.8695016431
11
134.6414759091
21
41.8765228683
0
LINE
5
3D0
100
AcDbEntity
8
0
100
AcDbLine
62
7
6
CONTINUOUS
10
134.6414759091
20
41.8765228683
11
134.1414759091
21
41.8905653235
0
LINE
5
3D1
100
AcDbEntity
8
0
100
AcDbLine
62
7
6
CONTINUOUS
10
130.4748089245
20
42.1292870086
11
129.8081424168
21
42.1503506841
0
LINE
5
3D2
100
AcDbEntity
8
0
100
AcDbLine
62
7
6
CONTINUOUS
10
110.7017072662
20
41.6895395122
11
110.2382204510
21
41.7050312091
0
LINE
5
3D3
100
AcDbEntity
8
0
100
AcDbLine
62
7
6
CONTINUOUS
10
90.4313306680
20
37.5000819969
11
90.4318999357
21
37.5000609453
0
LINE
5
3D4
100
AcDbEntity
8
0
100
AcDbLine
62
7
6
CONTINUOUS
10
130.9748089245
20
42.1012021080
11
130.4748089245
21
42.1292870086
0
LINE
5
3D5
100
AcDbEntity
8
0
100
AcDbLine
62
7
6
CONTINUOUS
10
103.8028761774
20
41.8418595502
11
103.2709613472
21
41.8722623470
0
LINE
5
3D6
100
AcDbEntity
8
0
100
AcDbLine
62
7
6
CONTINUOUS
10
110.2382204510
20
41.7050312091
11
109.9041464208
21
41.7241259669
0
LINE
5
3D7
100
AcDbEntity
8
0
100
AcDbLine
62
7
6
CONTINUOUS
10
107.8977950491
20
41.8388035235
11
107.0467310227
21
41.8874480154
0
LINE
5
3D8
100
AcDbEntity
8
0
100
AcDbLine
62
7
6
CONTINUOUS
10
112.6010883661
20
41.6689754286
11
112.1755564647
21
41.6932976682
0
LINE
5
3D9
100
AcDbEntity
8
0
100
AcDbLine
62
7
6
CONTINUOUS
10
109.9110398782
20
41.8447310628
11
109.4855080141
21
41.8690533002
0
LINE
5
3DA
100
AcDbEntity
8
0
100
AcDbLine
62
7
6
CONTINUOUS
10
134.1414759091
20
41.8905653235
11
133.8081419399
21
41.9116289990
0
LINE
5
3DB
100
AcDbEntity
8
0
100
AcDbLine
62
7
6
CONTINUOUS
10
131.3081424168
20
41.8273742872
11
131.1414754322
21
41.8453174546
0
LINE
5
3DC
100
AcDbEntity
8
0
100
AcDbLine
62
7
6
CONTINUOUS
10
131.1414754322
20
42.0801384325
11
130.9748089245
21
42.1012021080
0
LINE
5
3DD
100
AcDbEntity
8
0
100
AcDbLine
62
7
6
CONTINUOUS
10
133.8081419399
20
41.9116289990
11
133.6414759091
21
41.9397138997
0
LINE
5
3DE
100
AcDbEntity
8
0
100
AcDbLine
62
7
6
CONTINUOUS
10
105.3842100701
20
41.5314764208
11
103.8028761774
21
41.8418595502
0
LINE
5
3DF
100
AcDbEntity
8
0
100
AcDbLine
62
7
6
CONTINUOUS
10
109.4855080141
20
41.8690533002
11
107.8977950491
21
41.8388035235
0
LINE
5
3E0
100
AcDbEntity
8
0
100
AcDbLine
62
7
6
CONTINUOUS
10
106.3262787403
20
41.8088623322
11
106.0214068119
21
41.8030537837
0
LINE
5
3E1
100
AcDbEntity
8
0
100
AcDbLine
62
7
6
CONTINUOUS
10
107.0467310227
20
41.8874480154
11
106.3250434616
21
41.8736981197
0
LINE
5
3E2
100
AcDbEntity
8
0
100
AcDbLine
62
7
6
CONTINUOUS
10
103.2709613472
20
41.8722623470
11
98.0748089245
21
41.7732630604
0
LINE
5
3E3
100
AcDbEntity
8
0
100
AcDbLine
62
7
6
CONTINUOUS
10
145.4748089245
20
42.1363082338
11
144.8081428936
21
42.1503506841
0
LINE
5
3E4
100
AcDbEntity
8
0
100
AcDbLine
62
7
6
CONTINUOUS
10
146.1414749554
20
42.1082233331
11
145.4748089245
21
42.1363082338
0
LINE
5
3E5
100
AcDbEntity
8
0
100
AcDbLine
62
7
6
CONTINUOUS
10
146.4748089245
20
42.0801384325
11
146.1414749554
21
42.1082233331
0
LINE
5
3E6
100
AcDbEntity
8
0
100
AcDbLine
62
7
6
CONTINUOUS
10
146.6414749554
20
42.0450322870
11
146.4748089245
21
42.0801384325
0
LINE
5
3E7
100
AcDbEntity
8
0
100
AcDbLine
62
7
6
CONTINUOUS
10
124.9748089245
20
41.3591823078
11
124.9748089245
21
42.1573719093
0
LINE
5
3E8
100
AcDbEntity
8
0
100
AcDbLine
62
7
6
CONTINUOUS
10
128.9748089245
20
41.3591823078
11
128.9748089245
21
42.1573719093
0
LINE
5
3E9
100
AcDbEntity
8
0
100
AcDbLine
62
7
6
CONTINUOUS
10
129.8081424168
20
41.3591823078
11
129.8081424168
21
42.1503506841
0
LINE
5
3EA
100
AcDbEntity
8
0
100
AcDbLine
62
7
6
CONTINUOUS
10
130.4748089245
20
41.3591823078
11
130.4748089245
21
42.1292870086
0
LINE
5
3EB
100
AcDbEntity
8
0
100
AcDbLine
62
7
6
CONTINUOUS
10
130.9748089245
20
41.3591823078
11
130.9748089245
21
42.1012021080
0
LINE
5
3EC
100
AcDbEntity
8
0
100
AcDbLine
62
7
6
CONTINUOUS
10
131.1414754322
20
41.3591823078
11
131.1414754322
21
42.0801384325
0
LINE
5
3ED
100
AcDbEntity
8
0
100
AcDbLine
62
7
6
CONTINUOUS
10
131.3081424168
20
41.3591823078
11
131.3081424168
21
41.8273742872
0
LINE
5
3EE
100
AcDbEntity
8
0
100
AcDbLine
62
7
6
CONTINUOUS
10
132.6414754322
20
41.3591823078
11
132.6414754322
21
42.1573719093
0
LINE
5
3EF
100
AcDbEntity
8
0
100
AcDbLine
62
7
6
CONTINUOUS
10
133.6414759091
20
41.3591823078
11
133.6414759091
21
42.1573719093
0
LINE
5
3F0
100
AcDbEntity
8
0
100
AcDbLine
62
7
6
CONTINUOUS
10
133.8081419399
20
41.3591823078
11
133.8081419399
21
41.9116289990
0
LINE
5
3F1
100
AcDbEntity
8
0
100
AcDbLine
62
7
6
CONTINUOUS
10
134.1414759091
20
41.3591823078
11
134.1414759091
21
41.8905653235
0
LINE
5
3F2
100
AcDbEntity
8
0
100
AcDbLine
62
7
6
CONTINUOUS
10
134.6414759091
20
41.3591823078
11
134.6414759091
21
41.8765228683
0
LINE
5
3F3
100
AcDbEntity
8
0
100
AcDbLine
62
7
6
CONTINUOUS
10
135.3081419399
20
41.3591823078
11
135.3081419399
21
41.8695016431
0
LINE
5
3F4
100
AcDbEntity
8
DEFAULT_1
100
AcDbLine
62
2
6
CENTER
10
135.8948089245
20
61.5591823078
11
135.8948089245
21
8.5591823078
0
LINE
5
3F5
100
AcDbEntity
8
DEFAULT_1
100
AcDbLine
62
2
6
CENTER
10
135.8948089245
20
61.5591823078
11
135.8948089245
21
114.5591823078
0
LINE
5
3F6
100
AcDbEntity
8
0
100
AcDbLine
62
7
6
CONTINUOUS
10
135.9748089245
20
41.3591823078
11
135.9748089245
21
41.8695016431
0
LINE
5
3F7
100
AcDbEntity
8
0
100
AcDbLine
62
7
6
CONTINUOUS
10
136.6414759091
20
41.3591823078
11
136.6414759091
21
41.8765228683
0
LINE
5
3F8
100
AcDbEntity
8
DEFAULT_1
100
AcDbLine
62
2
6
CENTER
10
135.8948089245
20
61.5591823078
11
82.8948089245
21
61.5591823078
0
LINE
5
3F9
100
AcDbEntity
8
DEFAULT_1
100
AcDbLine
62
2
6
CENTER
10
135.8948089245
20
61.5591823078
11
188.8948089245
21
61.5591823078
0
LINE
5
3FA
100
AcDbEntity
8
0
100
AcDbLine
62
7
6
CONTINUOUS
10
137.1414759091
20
41.3591823078
11
137.1414759091
21
41.8905653235
0
LINE
5
3FB
100
AcDbEntity
8
0
100
AcDbLine
62
7
6
CONTINUOUS
10
137.4748089245
20
41.3591823078
11
137.4748089245
21
41.9116289990
0
LINE
5
3FC
100
AcDbEntity
8
0
100
AcDbLine
62
7
6
CONTINUOUS
10
137.6414759091
20
41.3591823078
11
137.6414759091
21
42.1573719093
0
LINE
5
3FD
100
AcDbEntity
8
0
100
AcDbLine
62
7
6
CONTINUOUS
10
138.6414759091
20
41.3591823078
11
138.6414759091
21
42.1573719093
0
LINE
5
3FE
100
AcDbEntity
8
0
100
AcDbLine
62
7
6
CONTINUOUS
10
139.9748089245
20
41.3591823078
11
139.9748089245
21
42.1573719093
0
LINE
5
3FF
100
AcDbEntity
8
0
100
AcDbLine
62
7
6
CONTINUOUS
10
143.9748089245
20
41.3591823078
11
143.9748089245
21
42.1573719093
0
LINE
5
400
100
AcDbEntity
8
0
100
AcDbLine
62
7
6
CONTINUOUS
10
144.8081428936
20
41.3591823078
11
144.8081428936
21
42.1503506841
0
LINE
5
401
100
AcDbEntity
8
0
100
AcDbLine
62
7
6
CONTINUOUS
10
145.4748089245
20
41.3591823078
11
145.4748089245
21
42.1363082338
0
LINE
5
402
100
AcDbEntity
8
0
100
AcDbLine
62
7
6
CONTINUOUS
10
146.1414749554
20
41.3591823078
11
146.1414749554
21
42.1082233331
0
LINE
5
403
100
AcDbEntity
8
0
100
AcDbLine
62
7
6
CONTINUOUS
10
146.4748089245
20
41.3591823078
11
146.4748089245
21
42.0801384325
0
LINE
5
404
100
AcDbEntity
8
0
100
AcDbLine
62
7
6
CONTINUOUS
10
146.6414749554
20
41.3591823078
11
146.6414749554
21
42.0450322870
0
LINE
5
405
100
AcDbEntity
8
0
100
AcDbLine
62
7
6
CONTINUOUS
10
75.8074405683
20
85.4250058830
11
75.4832360334
21
85.4118447301
0
LINE
5
406
100
AcDbEntity
8
0
100
AcDbLine
62
7
6
CONTINUOUS
10
90.4318951072
20
85.6183044174
11
90.4313402122
21
85.6182839015
0
LINE
5
407
100
AcDbEntity
8
0
100
AcDbLine
62
7
6
CONTINUOUS
10
75.8074405683
20
85.4250058830
11
77.1636497866
21
85.4250058830
0
LINE
5
408
100
AcDbEntity
8
0
100
AcDbLine
62
7
6
CONTINUOUS
10
194.6259680624
20
85.4250058830
11
195.9821772807
21
85.4250058830
0
LINE
5
409
100
AcDbEntity
8
0
100
AcDbLine
62
7
6
CONTINUOUS
10
181.3582871810
20
85.6182826187
11
181.3577179133
21
85.6183036703
0
LINE
5
40A
100
AcDbEntity
8
0
100
AcDbLine
62
7
6
CONTINUOUS
10
196.2907697724
20
85.4130826585
11
195.9821772807
21
85.4250049455
0
LINE
5
40B
100
AcDbEntity
8
0
100
AcDbLine
62
7
6
CONTINUOUS
10
52.1016259478
20
83.5490738723
11
75.4897732076
21
85.4123718617
0
LINE
5
40C
100
AcDbEntity
8
0
100
AcDbLine
62
7
6
CONTINUOUS
10
196.2998446414
20
85.4123718617
11
219.6879919011
21
83.5490738723
0
LINE
5
40D
100
AcDbEntity
8
0
100
AcDbLine
62
7
6
CONTINUOUS
10
223.8270473455
20
43.6324277560
11
223.8270473455
21
79.4859368595
0
ARC
5
40E
100
AcDbEntity
8
0
100
AcDbCircle
62
7
6
CONTINUOUS
10
157.1948089245
20
194.4248619346
40
2.0000000000
100
AcDbArc
50
180.0000000000
51
225.0000000000
0
ARC
5
40F
100
AcDbEntity
8
0
100
AcDbCircle
62
7
6
CONTINUOUS
10
114.5948089245
20
194.4248619346
40
2.0000000000
100
AcDbArc
50
315.0000000000
51
360.0000000000
0
ARC
5
410
100
AcDbEntity
8
0
100
AcDbCircle
62
7
6
CONTINUOUS
10
75.8574921487
20
232.5155166977
40
4.0000000000
100
AcDbArc
50
202.5000000000
51
262.9539116534
0
ARC
5
411
100
AcDbEntity
8
0
100
AcDbCircle
62
7
6
CONTINUOUS
10
195.9321257003
20
232.5155166977
40
4.0000000000
100
AcDbArc
50
277.0460883466
51
337.5000000000
0
ARC
5
412
100
AcDbEntity
8
0
100
AcDbCircle
62
7
6
CONTINUOUS
10
73.8948089245
20
216.6363519019
40
12.0000000000
100
AcDbArc
50
0.0000000000
51
82.9544863897
0
ARC
5
413
100
AcDbEntity
8
0
100
AcDbCircle
62
7
6
CONTINUOUS
10
197.8948089245
20
216.6363519019
40
12.0000000000
100
AcDbArc
50
97.0455136103
51
180.0000000000
0
CIRCLE
5
414
100
AcDbEntity
8
0
100
AcDbCircle
62
7
6
CONTINUOUS
10
135.8948089245
20
291.3964348098
40
45.0000000000
0
ARC
5
415
100
AcDbEntity
8
0
100
AcDbCircle
62
7
6
CONTINUOUS
10
57.9625705034
20
291.3964348098
40
10.0000000000
100
AcDbArc
50
157.5000000000
51
202.5000000000
0
ARC
5
416
100
AcDbEntity
8
0
100
AcDbCircle
62
7
6
CONTINUOUS
10
80.7883946639
20
346.5028490704
40
10.0000000000
100
AcDbArc
50
112.5000000000
51
157.5000000000
0
ARC
5
417
100
AcDbEntity
8
0
100
AcDbCircle
62
7
6
CONTINUOUS
10
135.8948089245
20
369.3286732309
40
10.0000000000
100
AcDbArc
50
67.5000000000
51
112.5000000000
0
ARC
5
418
100
AcDbEntity
8
0
100
AcDbCircle
62
7
6
CONTINUOUS
10
191.0012231851
20
346.5028490704
40
10.0000000000
100
AcDbArc
50
22.5000000000
51
67.5000000000
0
ARC
5
419
100
AcDbEntity
8
0
100
AcDbCircle
62
7
6
CONTINUOUS
10
213.8270473455
20
291.3964348098
40
10.0000000000
100
AcDbArc
50
337.5000000000
51
22.5000000000
0
ARC
5
41A
100
AcDbEntity
8
0
100
AcDbCircle
62
7
6
CONTINUOUS
10
195.9821772807
20
232.6363519019
40
4.0000000000
100
AcDbArc
50
270.0000000000
51
337.5000000000
0
ARC
5
41B
100
AcDbEntity
8
0
100
AcDbCircle
62
7
6
CONTINUOUS
10
75.8074405683
20
232.6363519019
40
4.0000000000
100
AcDbArc
50
202.5000000000
51
270.0000000000
0
ARC
5
41C
100
AcDbEntity
8
0
100
AcDbCircle
62
7
6
CONTINUOUS
10
298.7254381597
20
194.4248619346
40
2.0000000000
100
AcDbArc
50
315.0000000000
51
360.0000000000
0
ARC
5
41D
100
AcDbEntity
8
0
100
AcDbCircle
62
7
6
CONTINUOUS
10
341.3254381597
20
194.4248619346
40
2.0000000000
100
AcDbArc
50
180.0000000000
51
225.0000000000
0
ARC
5
41E
100
AcDbEntity
8
0
100
AcDbCircle
62
7
6
CONTINUOUS
10
293.6314264390
20
243.8365358136
40
2.9999980136
100
AcDbArc
50
279.0000000228
51
336.8289516064
0
ARC
5
41F
100
AcDbEntity
8
0
100
AcDbCircle
62
7
6
CONTINUOUS
10
346.4194498814
20
243.8365358135
40
2.9999980136
100
AcDbArc
50
203.1710467687
51
260.9999999765
0
ARC
5
420
100
AcDbEntity
8
0
100
AcDbCircle
62
7
6
CONTINUOUS
10
304.8684272559
20
375.3286732048
40
4.0000000000
100
AcDbArc
50
90.0000000180
51
178.1099387840
0
ARC
5
421
100
AcDbEntity
8
0
100
AcDbCircle
62
7
6
CONTINUOUS
10
335.1824490636
20
375.3286732048
40
4.0000000000
100
AcDbArc
50
1.8900612160
51
89.9999999820
0
ARC
5
422
100
AcDbEntity
8
0
100
AcDbCircle
62
7
6
CONTINUOUS
10
280.0254381597
20
228.5195514039
40
10.0000000000
100
AcDbArc
50
99.0000000000
51
180.0000000000
0
ARC
5
423
100
AcDbEntity
8
0
100
AcDbCircle
62
7
6
CONTINUOUS
10
360.0254381597
20
228.5195514039
40
10.0000000000
100
AcDbArc
50
0.0000000000
51
81.0000000000
0
ARC
5
424
100
AcDbEntity
8
0
100
AcDbCircle
62
7
6
CONTINUOUS
10
300.1596145811
20
232.6363517965
40
3.9999999736
100
AcDbArc
50
178.1099372720
51
270.0000000499
0
ARC
5
425
100
AcDbEntity
8
0
100
AcDbCircle
62
7
6
CONTINUOUS
10
339.8912617349
20
232.6363519019
40
4.0000000000
100
AcDbArc
50
270.0000000000
51
1.8900612160
0
ARC
5
426
100
AcDbEntity
8
0
100
AcDbCircle
62
7
6
CONTINUOUS
10
135.8948089245
20
61.5591823078
40
50.0000000000
100
AcDbArc
50
30.6330276603
51
149.3669723397
0
ARC
5
427
100
AcDbEntity
8
0
100
AcDbCircle
62
7
6
CONTINUOUS
10
135.8948089245
20
61.5591823078
40
50.0000000000
100
AcDbArc
50
210.6330276603
51
329.3669723397
0
SPLINE
5
428
100
AcDbEntity
8
0
100
AcDbSpline
62
7
6
CONTINUOUS
70
0
71
3
72
8
73
4
74
2
42
0.0000001000
43
0.0000001000
44
0.0000000001
40
0.0000000000
40
0.0000000000
40
0.0000000000
40
0.0000000000
40
1.0000000000
40
1.0000000000
40
1.0000000000
40
1.0000000000
10
296.5072772440
20
243.2367484635
30
0.0000000000
10
296.5049581079
20
243.1656207701
30
0.0000000000
10
296.4986442977
20
243.0944337842
30
0.0000000000
10
296.4880883836
20
243.0239035434
30
0.0000000000
11
296.5072772440
21
243.2367484635
31
0.0000000000
11
296.4880883836
21
243.0239035434
31
0.0000000000
0
SPLINE
5
429
100
AcDbEntity
8
0
100
AcDbSpline
62
7
6
CONTINUOUS
70
0
71
3
72
9
73
5
74
3
42
0.0000001000
43
0.0000001000
44
0.0000000001
40
0.0000000000
40
0.0000000000
40
0.0000000000
40
0.0000000000
40
0.5097377846
40
1.0000000000
40
1.0000000000
40
1.0000000000
40
1.0000000000
10
296.4880883836
20
243.0239035434
30
0.0000000000
10
296.4784713039
20
242.9596462041
30
0.0000000000
10
296.4526969523
20
242.8346560192
30
0.0000000000
10
296.4126511439
20
242.7138477327
30
0.0000000000
10
296.3894214810
20
242.6561068942
30
0.0000000000
11
296.4880883836
21
243.0239035434
31
0.0000000000
11
296.4484867923
21
242.8333083578
31
0.0000000000
11
296.3894214810
21
242.6561068942
31
0.0000000000
0
SPLINE
5
42A
100
AcDbEntity
8
0
100
AcDbSpline
62
7
6
CONTINUOUS
70
0
71
3
72
8
73
4
74
2
42
0.0000001000
43
0.0000001000
44
0.0000000001
40
0.0000000000
40
0.0000000000
40
0.0000000000
40
0.0000000000
40
1.0000000000
40
1.0000000000
40
1.0000000000
40
1.0000000000
10
343.6657192634
20
242.6456222212
30
0.0000000000
10
343.6646861717
20
242.6481347863
30
0.0000000000
10
343.6636599529
20
242.6506502403
30
0.0000000000
10
343.6626405932
20
242.6531685432
30
0.0000000000
11
343.6657192634
21
242.6456222212
31
0.0000000000
11
343.6626405932
21
242.6531685432
31
0.0000000000
0
SPLINE
5
42B
100
AcDbEntity
8
0
100
AcDbSpline
62
7
6
CONTINUOUS
70
0
71
3
72
9
73
5
74
3
42
0.0000001000
43
0.0000001000
44
0.0000000001
40
0.0000000000
40
0.0000000000
40
0.0000000000
40
0.0000000000
40
0.4061436044
40
1.0000000000
40
1.0000000000
40
1.0000000000
40
1.0000000000
10
343.6626405932
20
242.6531685432
30
0.0000000000
10
343.6622442943
20
242.6541475898
30
0.0000000000
10
343.6612710864
20
242.6565592420
30
0.0000000000
10
343.6603041584
20
242.6589734904
30
0.0000000000
10
343.6597321542
20
242.6604081154
30
0.0000000000
11
343.6626405932
21
242.6531685432
31
0.0000000000
11
343.6614548058
21
242.6561069723
31
0.0000000000
11
343.6597321542
21
242.6604081154
31
0.0000000000
0
SPLINE
5
42C
100
AcDbEntity
8
0
100
AcDbSpline
62
7
6
CONTINUOUS
70
0
71
3
72
8
73
4
74
2
42
0.0000001000
43
0.0000001000
44
0.0000000001
40
0.0000000000
40
0.0000000000
40
0.0000000000
40
0.0000000000
40
1.0000000000
40
1.0000000000
40
1.0000000000
40
1.0000000000
10
343.6196477577
20
242.7737304817
30
0.0000000000
10
343.6135932043
20
242.7932114879
30
0.0000000000
10
343.6079121242
20
242.8128173171
30
0.0000000000
10
343.6025986777
20
242.8325310719
30
0.0000000000
11
343.6196477577
21
242.7737304817
31
0.0000000000
11
343.6025986777
21
242.8325310719
31
0.0000000000
0
SPLINE
5
42D
100
AcDbEntity
8
0
100
AcDbSpline
62
7
6
CONTINUOUS
70
0
71
3
72
8
73
4
74
2
42
0.0000001000
43
0.0000001000
44
0.0000000001
40
0.0000000000
40
0.0000000000
40
0.0000000000
40
0.0000000000
40
1.0000000000
40
1.0000000000
40
1.0000000000
40
1.0000000000
10
343.6025986777
20
242.8325310719
30
0.0000000000
10
343.5967011965
20
242.8544116910
30
0.0000000000
10
343.5912566086
20
242.8764252652
30
0.0000000000
10
343.5862569296
20
242.8985486902
30
0.0000000000
11
343.6025986777
21
242.8325310719
31
0.0000000000
11
343.5862569296
21
242.8985486902
31
0.0000000000
0
SPLINE
5
42E
100
AcDbEntity
8
0
100
AcDbSpline
62
7
6
CONTINUOUS
70
0
71
3
72
9
73
5
74
3
42
0.0000001000
43
0.0000001000
44
0.0000000001
40
0.0000000000
40
0.0000000000
40
0.0000000000
40
0.0000000000
40
0.3183589866
40
1.0000000000
40
1.0000000000
40
1.0000000000
40
1.0000000000
10
343.6614548058
20
242.6561069723
30
0.0000000000
10
343.6383933834
20
242.7134160320
30
0.0000000000
10
343.5770972436
20
242.8980353961
30
0.0000000000
10
343.5491731722
20
243.0924590611
30
0.0000000000
10
343.5440261581
20
243.2249039187
30
0.0000000000
11
343.6614548058
21
242.6561069723
31
0.0000000000
11
343.6027473702
21
242.8319601892
31
0.0000000000
11
343.5440261581
21
243.2249039187
31
0.0000000000
0
SPLINE
5
42F
100
AcDbEntity
8
0
100
AcDbSpline
62
7
6
CONTINUOUS
70
0
71
3
72
8
73
4
74
2
42
0.0000001000
43
0.0000001000
44
0.0000000001
40
0.0000000000
40
0.0000000000
40
0.0000000000
40
0.0000000000
40
1.0000000000
40
1.0000000000
40
1.0000000000
40
1.0000000000
10
181.3575573664
20
85.6184307814
30
0.0000000000
10
181.2443913241
20
85.6225789486
30
0.0000000000
10
181.1314031495
20
85.6330948826
30
0.0000000000
10
181.0194470317
20
85.6499982297
30
0.0000000000
11
181.3575573664
21
85.6184307814
31
0.0000000000
11
181.0194470317
21
85.6499982297
31
0.0000000000
0
SPLINE
5
430
100
AcDbEntity
8
0
100
AcDbSpline
62
7
6
CONTINUOUS
70
0
71
3
72
10
73
6
74
4
42
0.0000001000
43
0.0000001000
44
0.0000000001
40
0.0000000000
40
0.0000000000
40
0.0000000000
40
0.0000000000
40
0.3403507481
40
0.6806846200
40
1.0000000000
40
1.0000000000
40
1.0000000000
40
1.0000000000
10
181.0194470317
20
85.6499982297
30
0.0000000000
10
180.7277080742
20
85.6940455312
30
0.0000000000
10
180.1582603661
20
85.8688815487
30
0.0000000000
10
179.4319681559
20
86.3570810281
30
0.0000000000
10
179.0628683749
20
86.8021580194
30
0.0000000000
10
178.9176098272
20
87.0365587345
30
0.0000000000
11
181.0194470317
21
85.6499982297
31
0.0000000000
11
180.1770151212
21
85.9082563004
31
0.0000000000
11
179.4459825369
21
86.4000927812
31
0.0000000000
11
178.9176098272
21
87.0365587345
31
0.0000000000
0
SPLINE
5
431
100
AcDbEntity
8
0
100
AcDbSpline
62
7
6
CONTINUOUS
70
0
71
3
72
8
73
4
74
2
42
0.0000001000
43
0.0000001000
44
0.0000000001
40
0.0000000000
40
0.0000000000
40
0.0000000000
40
0.0000000000
40
1.0000000000
40
1.0000000000
40
1.0000000000
40
1.0000000000
10
92.9001980261
20
87.0829913571
30
0.0000000000
10
92.8909470596
20
87.0674337782
30
0.0000000000
10
92.8815497713
20
87.0519551755
30
0.0000000000
10
92.8720083253
20
87.0365583482
30
0.0000000000
11
92.9001980261
21
87.0829913571
31
0.0000000000
11
92.8720083253
21
87.0365583482
31
0.0000000000
0
SPLINE
5
432
100
AcDbEntity
8
0
100
AcDbSpline
62
7
6
CONTINUOUS
70
0
71
3
72
10
73
6
74
4
42
0.0000001000
43
0.0000001000
44
0.0000000001
40
0.0000000000
40
0.0000000000
40
0.0000000000
40
0.0000000000
40
0.3193360363
40
0.6596597635
40
1.0000000000
40
1.0000000000
40
1.0000000000
40
1.0000000000
10
92.8720083253
20
87.0365583482
30
0.0000000000
10
92.7267392783
20
86.8021407939
30
0.0000000000
10
92.3576253260
20
86.3570563774
30
0.0000000000
10
91.6313190324
20
85.8688657584
30
0.0000000000
10
91.0618823235
20
85.6940399209
30
0.0000000000
10
90.7701496798
20
85.6499958173
30
0.0000000000
11
92.8720083253
21
87.0365583482
31
0.0000000000
11
92.3435908158
21
86.4000520776
31
0.0000000000
11
91.6125653865
21
85.9082388895
31
0.0000000000
11
90.7701496798
21
85.6499958173
31
0.0000000000
0
SPLINE
5
433
100
AcDbEntity
8
0
100
AcDbSpline
62
7
6
CONTINUOUS
70
0
71
3
72
8
73
4
74
2
42
0.0000001000
43
0.0000001000
44
0.0000000001
40
0.0000000000
40
0.0000000000
40
0.0000000000
40
0.0000000000
40
1.0000000000
40
1.0000000000
40
1.0000000000
40
1.0000000000
10
90.7701496798
20
85.6499958173
30
0.0000000000
10
90.6581998369
20
85.6330942789
30
0.0000000000
10
90.5452181054
20
85.6225794286
30
0.0000000000
10
90.4320585279
20
85.6184316202
30
0.0000000000
11
90.7701496798
21
85.6499958173
31
0.0000000000
11
90.4320585279
21
85.6184316202
31
0.0000000000
0
SPLINE
5
434
100
AcDbEntity
8
0
100
AcDbSpline
62
7
6
CONTINUOUS
70
0
71
3
72
8
73
4
74
2
42
0.0000001000
43
0.0000001000
44
0.0000000001
40
0.0000000000
40
0.0000000000
40
0.0000000000
40
0.0000000000
40
1.0000000000
40
1.0000000000
40
1.0000000000
40
1.0000000000
10
90.4320604825
20
37.4999338342
30
0.0000000000
10
90.5452265249
20
37.4957856670
30
0.0000000000
10
90.6582146995
20
37.4852697331
30
0.0000000000
10
90.7701708172
20
37.4683663859
30
0.0000000000
11
90.4320604825
21
37.4999338342
31
0.0000000000
11
90.7701708172
21
37.4683663859
31
0.0000000000
0
SPLINE
5
435
100
AcDbEntity
8
0
100
AcDbSpline
62
7
6
CONTINUOUS
70
0
71
3
72
10
73
6
74
4
42
0.0000001000
43
0.0000001000
44
0.0000000001
40
0.0000000000
40
0.0000000000
40
0.0000000000
40
0.0000000000
40
0.3403507481
40
0.6806846200
40
1.0000000000
40
1.0000000000
40
1.0000000000
40
1.0000000000
10
90.7701708172
20
37.4683663859
30
0.0000000000
10
91.0619097748
20
37.4243190844
30
0.0000000000
10
91.6313574829
20
37.2494830670
30
0.0000000000
10
92.3576496931
20
36.7612835876
30
0.0000000000
10
92.7267494741
20
36.3162065962
30
0.0000000000
10
92.8720080218
20
36.0818058812
30
0.0000000000
11
90.7701708172
21
37.4683663859
31
0.0000000000
11
91.6126027278
21
37.2101083152
31
0.0000000000
11
92.3436353121
21
36.7182718344
31
0.0000000000
11
92.8720080218
21
36.0818058812
31
0.0000000000
0
SPLINE
5
436
100
AcDbEntity
8
0
100
AcDbSpline
62
7
6
CONTINUOUS
70
0
71
3
72
8
73
4
74
2
42
0.0000001000
43
0.0000001000
44
0.0000000001
40
0.0000000000
40
0.0000000000
40
0.0000000000
40
0.0000000000
40
1.0000000000
40
1.0000000000
40
1.0000000000
40
1.0000000000
10
178.8894198229
20
36.0353732585
30
0.0000000000
10
178.8986707894
20
36.0509308374
30
0.0000000000
10
178.9080680777
20
36.0664094401
30
0.0000000000
10
178.9176095237
20
36.0818062674
30
0.0000000000
11
178.8894198229
21
36.0353732585
31
0.0000000000
11
178.9176095237
21
36.0818062674
31
0.0000000000
0
SPLINE
5
437
100
AcDbEntity
8
0
100
AcDbSpline
62
7
6
CONTINUOUS
70
0
71
3
72
10
73
6
74
4
42
0.0000001000
43
0.0000001000
44
0.0000000001
40
0.0000000000
40
0.0000000000
40
0.0000000000
40
0.0000000000
40
0.3193360363
40
0.6596597635
40
1.0000000000
40
1.0000000000
40
1.0000000000
40
1.0000000000
10
178.9176095237
20
36.0818062674
30
0.0000000000
10
179.0628785707
20
36.3162238217
30
0.0000000000
10
179.4319925230
20
36.7613082382
30
0.0000000000
10
180.1582988165
20
37.2494988572
30
0.0000000000
10
180.7277355255
20
37.4243246948
30
0.0000000000
10
181.0194681692
20
37.4683687983
30
0.0000000000
11
178.9176095237
21
36.0818062674
31
0.0000000000
11
179.4460270332
21
36.7183125381
31
0.0000000000
11
180.1770524625
21
37.2101257261
31
0.0000000000
11
181.0194681692
21
37.4683687983
31
0.0000000000
0
SPLINE
5
438
100
AcDbEntity
8
0
100
AcDbSpline
62
7
6
CONTINUOUS
70
0
71
3
72
8
73
4
74
2
42
0.0000001000
43
0.0000001000
44
0.0000000001
40
0.0000000000
40
0.0000000000
40
0.0000000000
40
0.0000000000
40
1.0000000000
40
1.0000000000
40
1.0000000000
40
1.0000000000
10
181.0194681692
20
37.4683687983
30
0.0000000000
10
181.1314180121
20
37.4852703367
30
0.0000000000
10
181.2443997436
20
37.4957851870
30
0.0000000000
10
181.3575593211
20
37.4999329954
30
0.0000000000
11
181.0194681692
21
37.4683687983
31
0.0000000000
11
181.3575593211
21
37.4999329954
31
0.0000000000
0
SPLINE
5
439
100
AcDbEntity
8
0
100
AcDbSpline
62
7
6
CONTINUOUS
70
0
71
3
72
17
73
13
74
11
42
0.0000001000
43
0.0000001000
44
0.0000000001
40
0.0000000000
40
0.0000000000
40
0.0000000000
40
0.0000000000
40
0.1080523371
40
0.2442361247
40
0.3725994071
40
0.4927186601
40
0.6043924836
40
0.7075883541
40
0.8023846611
40
0.8885476848
40
0.9653411567
40
1.0000000000
40
1.0000000000
40
1.0000000000
40
1.0000000000
10
77.1636497866
20
37.6933591127
30
0.0000000000
10
77.6155519512
20
37.6933595408
30
0.0000000000
10
78.6370095447
20
37.6920688725
30
0.0000000000
10
80.1953031922
20
37.6856620601
30
0.0000000000
10
81.8040344309
20
37.6739491765
30
0.0000000000
10
83.3102194101
20
37.6582468668
30
0.0000000000
10
84.7111001314
20
37.6391876671
30
0.0000000000
10
86.0060188680
20
37.6173233132
30
0.0000000000
10
87.1941847661
20
37.5931768415
30
0.0000000000
10
88.2718632918
20
37.5673275534
30
0.0000000000
10
89.0980228027
20
37.5442332679
30
0.0000000000
10
89.5639135703
20
37.5296732200
30
0.0000000000
10
89.7087891790
20
37.5249766648
30
0.0000000000
11
77.1636497866
21
37.6933591127
31
0.0000000000
11
78.5193551441
21
37.6916481764
31
0.0000000000
11
80.2280050118
21
37.6845983789
31
0.0000000000
11
81.8385044476
21
37.6728262181
31
0.0000000000
11
83.3455285393
21
37.6570509836
31
0.0000000000
11
84.7465417187
21
37.6379095134
31
0.0000000000
11
86.0411287590
21
37.6159573281
31
0.0000000000
11
87.2302669166
21
37.5916828919
31
0.0000000000
11
88.3110192254
21
37.5656326508
31
0.0000000000
11
89.2741481402
21
37.5385803703
31
0.0000000000
11
89.7087891790
21
37.5249766648
31
0.0000000000
0
SPLINE
5
43A
100
AcDbEntity
8
0
100
AcDbSpline
62
7
6
CONTINUOUS
70
0
71
3
72
9
73
5
74
3
42
0.0000001000
43
0.0000001000
44
0.0000000001
40
0.0000000000
40
0.0000000000
40
0.0000000000
40
0.0000000000
40
0.6982535848
40
1.0000000000
40
1.0000000000
40
1.0000000000
40
1.0000000000
10
89.7087891790
20
37.5249766648
30
0.0000000000
10
89.8439252869
20
37.5205958432
30
0.0000000000
10
90.0374539780
20
37.5141116017
30
0.0000000000
10
90.2309751223
20
37.5072924483
30
0.0000000000
10
90.2893682008
20
37.5052024252
30
0.0000000000
11
89.7087891790
21
37.5249766648
31
0.0000000000
11
90.1141858121
21
37.5113772645
31
0.0000000000
11
90.2893682008
21
37.5052024252
31
0.0000000000
0
SPLINE
5
43B
100
AcDbEntity
8
0
100
AcDbSpline
62
7
6
CONTINUOUS
70
0
71
3
72
8
73
4
74
2
42
0.0000001000
43
0.0000001000
44
0.0000000001
40
0.0000000000
40
0.0000000000
40
0.0000000000
40
0.0000000000
40
1.0000000000
40
1.0000000000
40
1.0000000000
40
1.0000000000
10
90.2893682008
20
37.5052024252
30
0.0000000000
10
90.2983951257
20
37.5048793308
30
0.0000000000
10
90.3074220211
20
37.5045554628
30
0.0000000000
10
90.3164488850
20
37.5042308143
30
0.0000000000
11
90.2893682008
21
37.5052024252
31
0.0000000000
11
90.3164488850
21
37.5042308143
31
0.0000000000
0
SPLINE
5
43C
100
AcDbEntity
8
0
100
AcDbSpline
62
7
6
CONTINUOUS
70
0
71
3
72
8
73
4
74
2
42
0.0000001000
43
0.0000001000
44
0.0000000001
40
0.0000000000
40
0.0000000000
40
0.0000000000
40
0.0000000000
40
1.0000000000
40
1.0000000000
40
1.0000000000
40
1.0000000000
10
90.3164488850
20
37.5042308143
30
0.0000000000
10
90.3546828653
20
37.5028557407
30
0.0000000000
10
90.3929162809
20
37.5014666659
30
0.0000000000
10
90.4311489783
20
37.5000630638
30
0.0000000000
11
90.3164488850
21
37.5042308143
31
0.0000000000
11
90.4311489783
21
37.5000630638
31
0.0000000000
0
SPLINE
5
43D
100
AcDbEntity
8
0
100
AcDbSpline
62
7
6
CONTINUOUS
70
0
71
3
72
8
73
4
74
2
42
0.0000001000
43
0.0000001000
44
0.0000000001
40
0.0000000000
40
0.0000000000
40
0.0000000000
40
0.0000000000
40
1.0000000000
40
1.0000000000
40
1.0000000000
40
1.0000000000
10
90.4311644907
20
85.6183004743
30
0.0000000000
10
90.3929284365
20
85.6168977126
30
0.0000000000
10
90.3546916660
20
85.6155093939
30
0.0000000000
10
90.3164536913
20
85.6141347775
30
0.0000000000
11
90.4311644907
21
85.6183004743
31
0.0000000000
11
90.3164536913
21
85.6141347775
31
0.0000000000
0
SPLINE
5
43E
100
AcDbEntity
8
0
100
AcDbSpline
62
7
6
CONTINUOUS
70
0
71
3
72
8
73
4
74
2
42
0.0000001000
43
0.0000001000
44
0.0000000001
40
0.0000000000
40
0.0000000000
40
0.0000000000
40
0.0000000000
40
1.0000000000
40
1.0000000000
40
1.0000000000
40
1.0000000000
10
90.3164536913
20
85.6141347775
30
0.0000000000
10
90.3074404442
20
85.6138107605
30
0.0000000000
10
90.2984271316
20
85.6134875055
30
0.0000000000
10
90.2894137551
20
85.6131650076
30
0.0000000000
11
90.3164536913
21
85.6141347775
31
0.0000000000
11
90.2894137551
21
85.6131650076
31
0.0000000000
0
SPLINE
5
43F
100
AcDbEntity
8
0
100
AcDbSpline
62
7
6
CONTINUOUS
70
0
71
3
72
8
73
4
74
2
42
0.0000001000
43
0.0000001000
44
0.0000000001
40
0.0000000000
40
0.0000000000
40
0.0000000000
40
0.0000000000
40
1.0000000000
40
1.0000000000
40
1.0000000000
40
1.0000000000
10
90.2894137551
20
85.6131650076
30
0.0000000000
10
90.1615191592
20
85.6085889489
30
0.0000000000
10
90.0336117218
20
85.6041653231
30
0.0000000000
10
89.9056965603
20
85.5998798761
30
0.0000000000
11
90.2894137551
21
85.6131650076
31
0.0000000000
11
89.9056965603
21
85.5998798761
31
0.0000000000
0
SPLINE
5
440
100
AcDbEntity
8
0
100
AcDbSpline
62
7
6
CONTINUOUS
70
0
71
3
72
17
73
13
74
11
42
0.0000001000
43
0.0000001000
44
0.0000000001
40
0.0000000000
40
0.0000000000
40
0.0000000000
40
0.0000000000
40
0.0348591869
40
0.1117649346
40
0.1986840814
40
0.2954101600
40
0.4014676417
40
0.5161336728
40
0.6384329016
40
0.7671480991
40
0.9008306081
40
1.0000000000
40
1.0000000000
40
1.0000000000
40
1.0000000000
10
89.9056965603
20
85.5998798761
30
0.0000000000
10
89.7576986436
20
85.5949216115
30
0.0000000000
10
89.2831570779
20
85.5796175651
30
0.0000000000
10
88.4395223038
20
85.5553883906
30
0.0000000000
10
87.3330482319
20
85.5282337575
30
0.0000000000
10
86.1026768998
20
85.5027816900
30
0.0000000000
10
84.7543701658
20
85.4797698777
30
0.0000000000
10
83.2973705355
20
85.4599047735
30
0.0000000000
10
81.7440701724
20
85.4438488122
30
0.0000000000
10
80.1099477745
20
85.4322138584
30
0.0000000000
10
78.5740498329
20
85.4261705544
30
0.0000000000
10
77.5849133699
20
85.4250051854
30
0.0000000000
10
77.1636497867
20
85.4250055223
30
0.0000000000
11
89.9056965603
21
85.5998798761
31
0.0000000000
11
89.4616797166
21
85.5855379246
31
0.0000000000
11
88.4820201422
21
85.5572495400
31
0.0000000000
11
87.3746809144
21
85.5299290404
31
0.0000000000
11
86.1422938325
21
85.5043104647
31
0.0000000000
11
84.7909220791
21
85.4811367981
31
0.0000000000
11
83.3297834622
21
85.4611239015
31
0.0000000000
11
81.7713161846
21
85.4449446276
31
0.0000000000
11
80.1310433153
21
85.4332183835
31
0.0000000000
11
78.4274396137
21
85.4264923757
31
0.0000000000
11
77.1636497867
21
85.4250055223
31
0.0000000000
0
SPLINE
5
441
100
AcDbEntity
8
0
100
AcDbSpline
62
7
6
CONTINUOUS
70
0
71
3
72
17
73
13
74
11
42
0.0000001000
43
0.0000001000
44
0.0000000001
40
0.0000000000
40
0.0000000000
40
0.0000000000
40
0.0000000000
40
0.1080523371
40
0.2442361247
40
0.3725994071
40
0.4927186601
40
0.6043924836
40
0.7075883541
40
0.8023846611
40
0.8885476848
40
0.9653411567
40
1.0000000000
40
1.0000000000
40
1.0000000000
40
1.0000000000
10
194.6259680624
20
85.4250055029
30
0.0000000000
10
194.1740658978
20
85.4250050748
30
0.0000000000
10
193.1526083043
20
85.4262957431
30
0.0000000000
10
191.5943146568
20
85.4327025555
30
0.0000000000
10
189.9855834181
20
85.4444154391
30
0.0000000000
10
188.4793984389
20
85.4601177488
30
0.0000000000
10
187.0785177176
20
85.4791769486
30
0.0000000000
10
185.7835989810
20
85.5010413024
30
0.0000000000
10
184.5954330829
20
85.5251877741
30
0.0000000000
10
183.5177545572
20
85.5510370622
30
0.0000000000
10
182.6915950463
20
85.5741313477
30
0.0000000000
10
182.2257042787
20
85.5886913957
30
0.0000000000
10
182.0808286700
20
85.5933879509
30
0.0000000000
11
194.6259680624
21
85.4250055029
31
0.0000000000
11
193.2702627049
21
85.4267164392
31
0.0000000000
11
191.5616128372
21
85.4337662367
31
0.0000000000
11
189.9511134014
21
85.4455383975
31
0.0000000000
11
188.4440893096
21
85.4613136320
31
0.0000000000
11
187.0430761303
21
85.4804551022
31
0.0000000000
11
185.7484890900
21
85.5024072875
31
0.0000000000
11
184.5593509324
21
85.5266817237
31
0.0000000000
11
183.4785986236
21
85.5527319648
31
0.0000000000
11
182.5154697088
21
85.5797842454
31
0.0000000000
11
182.0808286700
21
85.5933879509
31
0.0000000000
0
SPLINE
5
442
100
AcDbEntity
8
0
100
AcDbSpline
62
7
6
CONTINUOUS
70
0
71
3
72
9
73
5
74
3
42
0.0000001000
43
0.0000001000
44
0.0000000001
40
0.0000000000
40
0.0000000000
40
0.0000000000
40
0.0000000000
40
0.6982535848
40
1.0000000000
40
1.0000000000
40
1.0000000000
40
1.0000000000
10
182.0808286700
20
85.5933879509
30
0.0000000000
10
181.9456925621
20
85.5977687724
30
0.0000000000
10
181.7521638710
20
85.6042530139
30
0.0000000000
10
181.5586427267
20
85.6110721673
30
0.0000000000
10
181.5002496482
20
85.6131621904
30
0.0000000000
11
182.0808286700
21
85.5933879509
31
0.0000000000
11
181.6754320369
21
85.6069873512
31
0.0000000000
11
181.5002496482
21
85.6131621904
31
0.0000000000
0
SPLINE
5
443
100
AcDbEntity
8
0
100
AcDbSpline
62
7
6
CONTINUOUS
70
0
71
3
72
8
73
4
74
2
42
0.0000001000
43
0.0000001000
44
0.0000000001
40
0.0000000000
40
0.0000000000
40
0.0000000000
40
0.0000000000
40
1.0000000000
40
1.0000000000
40
1.0000000000
40
1.0000000000
10
181.5002496482
20
85.6131621904
30
0.0000000000
10
181.4912227233
20
85.6134852849
30
0.0000000000
10
181.4821958279
20
85.6138091528
30
0.0000000000
10
181.4731689640
20
85.6141338013
30
0.0000000000
11
181.5002496482
21
85.6131621904
31
0.0000000000
11
181.4731689640
21
85.6141338013
31
0.0000000000
0
SPLINE
5
444
100
AcDbEntity
8
0
100
AcDbSpline
62
7
6
CONTINUOUS
70
0
71
3
72
8
73
4
74
2
42
0.0000001000
43
0.0000001000
44
0.0000000001
40
0.0000000000
40
0.0000000000
40
0.0000000000
40
0.0000000000
40
1.0000000000
40
1.0000000000
40
1.0000000000
40
1.0000000000
10
181.4731689640
20
85.6141338013
30
0.0000000000
10
181.4349349837
20
85.6155088749
30
0.0000000000
10
181.3967015681
20
85.6168979497
30
0.0000000000
10
181.3584688707
20
85.6183015519
30
0.0000000000
11
181.4731689640
21
85.6141338013
31
0.0000000000
11
181.3584688707
21
85.6183015519
31
0.0000000000
0
SPLINE
5
445
100
AcDbEntity
8
0
100
AcDbSpline
62
7
6
CONTINUOUS
70
0
71
3
72
8
73
4
74
2
42
0.0000001000
43
0.0000001000
44
0.0000000001
40
0.0000000000
40
0.0000000000
40
0.0000000000
40
0.0000000000
40
1.0000000000
40
1.0000000000
40
1.0000000000
40
1.0000000000
10
181.3584533583
20
37.5000641413
30
0.0000000000
10
181.3966894125
20
37.5014669031
30
0.0000000000
10
181.4349261830
20
37.5028552217
30
0.0000000000
10
181.4731641576
20
37.5042298381
30
0.0000000000
11
181.3584533583
21
37.5000641413
31
0.0000000000
11
181.4731641576
21
37.5042298381
31
0.0000000000
0
SPLINE
5
446
100
AcDbEntity
8
0
100
AcDbSpline
62
7
6
CONTINUOUS
70
0
71
3
72
8
73
4
74
2
42
0.0000001000
43
0.0000001000
44
0.0000000001
40
0.0000000000
40
0.0000000000
40
0.0000000000
40
0.0000000000
40
1.0000000000
40
1.0000000000
40
1.0000000000
40
1.0000000000
10
181.4731641576
20
37.5042298381
30
0.0000000000
10
181.4821774048
20
37.5045538552
30
0.0000000000
10
181.4911907174
20
37.5048771102
30
0.0000000000
10
181.5002040939
20
37.5051996081
30
0.0000000000
11
181.4731641576
21
37.5042298381
31
0.0000000000
11
181.5002040939
21
37.5051996081
31
0.0000000000
0
SPLINE
5
447
100
AcDbEntity
8
0
100
AcDbSpline
62
7
6
CONTINUOUS
70
0
71
3
72
8
73
4
74
2
42
0.0000001000
43
0.0000001000
44
0.0000000001
40
0.0000000000
40
0.0000000000
40
0.0000000000
40
0.0000000000
40
1.0000000000
40
1.0000000000
40
1.0000000000
40
1.0000000000
10
181.5002040939
20
37.5051996081
30
0.0000000000
10
181.6280986898
20
37.5097756668
30
0.0000000000
10
181.7560061272
20
37.5141992925
30
0.0000000000
10
181.8839212887
20
37.5184847395
30
0.0000000000
11
181.5002040939
21
37.5051996081
31
0.0000000000
11
181.8839212887
21
37.5184847395
31
0.0000000000
0
SPLINE
5
448
100
AcDbEntity
8
0
100
AcDbSpline
62
7
6
CONTINUOUS
70
0
71
3
72
17
73
13
74
11
42
0.0000001000
43
0.0000001000
44
0.0000000001
40
0.0000000000
40
0.0000000000
40
0.0000000000
40
0.0000000000
40
0.0348591869
40
0.1117649346
40
0.1986840814
40
0.2954101600
40
0.4014676417
40
0.5161336728
40
0.6384329016
40
0.7671480991
40
0.9008306081
40
1.0000000000
40
1.0000000000
40
1.0000000000
40
1.0000000000
10
181.8839212887
20
37.5184847395
30
0.0000000000
10
182.0319192054
20
37.5234430041
30
0.0000000000
10
182.5064607711
20
37.5387470505
30
0.0000000000
10
183.3500955452
20
37.5629762251
30
0.0000000000
10
184.4565696170
20
37.5901308581
30
0.0000000000
10
185.6869409492
20
37.6155829257
30
0.0000000000
10
187.0352476832
20
37.6385947379
30
0.0000000000
10
188.4922473135
20
37.6584598422
30
0.0000000000
10
190.0455476766
20
37.6745158034
30
0.0000000000
10
191.6796700745
20
37.6861507572
30
0.0000000000
10
193.2155680161
20
37.6921940612
30
0.0000000000
10
194.2047044791
20
37.6933594302
30
0.0000000000
10
194.6259680623
20
37.6933590933
30
0.0000000000
11
181.8839212887
21
37.5184847395
31
0.0000000000
11
182.3279381324
21
37.5328266910
31
0.0000000000
11
183.3075977068
21
37.5611150756
31
0.0000000000
11
184.4149369346
21
37.5884355752
31
0.0000000000
11
185.6473240164
21
37.6140541510
31
0.0000000000
11
186.9986957699
21
37.6372278175
31
0.0000000000
11
188.4598343868
21
37.6572407141
31
0.0000000000
11
190.0183016644
21
37.6734199880
31
0.0000000000
11
191.6585745337
21
37.6851462321
31
0.0000000000
11
193.3621782353
21
37.6918722399
31
0.0000000000
11
194.6259680623
21
37.6933590933
31
0.0000000000
0
SPLINE
5
449
100
AcDbEntity
8
0
100
AcDbSpline
62
7
6
CONTINUOUS
70
0
71
3
72
18
73
14
74
12
42
0.0000001000
43
0.0000001000
44
0.0000000001
40
0.0000000000
40
0.0000000000
40
0.0000000000
40
0.0000000000
40
0.0746522106
40
0.2085291671
40
0.3333110431
40
0.4527309121
40
0.5658651504
40
0.6716294336
40
0.7687479933
40
0.8516240196
40
0.9140289240
40
0.9672672510
40
1.0000000000
40
1.0000000000
40
1.0000000000
40
1.0000000000
10
223.8269589930
20
79.4859251563
30
0.0000000000
10
223.8269520776
20
79.6463410076
30
0.0000000000
10
223.8001623668
20
80.0947429556
30
0.0000000000
10
223.6375968420
20
80.7954320741
30
0.0000000000
10
223.2935450529
20
81.5348812691
30
0.0000000000
10
222.8387266191
20
82.1565744160
30
0.0000000000
10
222.3068286830
20
82.6548785148
30
0.0000000000
10
221.7369832655
20
83.0264727454
30
0.0000000000
10
221.1749741677
20
83.2753826805
30
0.0000000000
10
220.6741565639
20
83.4179409846
30
0.0000000000
10
220.2548594920
20
83.4918099548
30
0.0000000000
10
219.9389002315
20
83.5277596562
30
0.0000000000
10
219.7553841844
20
83.5437253172
30
0.0000000000
10
219.6854708614
20
83.5492821751
30
0.0000000000
11
223.8269589930
21
79.4859251563
31
0.0000000000
11
223.7981697370
21
79.9661060289
31
0.0000000000
11
223.6039008010
21
80.8044074231
31
0.0000000000
11
223.2655329949
21
81.5315954909
31
0.0000000000
11
222.8123672325
21
82.1511419127
31
0.0000000000
11
222.2817331162
21
82.6483665106
31
0.0000000000
11
221.7123777401
21
83.0198325849
31
0.0000000000
11
221.1417564657
21
83.2729623180
31
0.0000000000
11
220.6296849169
21
83.4197678748
31
0.0000000000
11
220.2349150447
21
83.4908493238
31
0.0000000000
11
219.8950640048
21
83.5308626227
31
0.0000000000
11
219.6854708614
21
83.5492821751
31
0.0000000000
0
SPLINE
5
44A
100
AcDbEntity
8
0
100
AcDbSpline
62
7
6
CONTINUOUS
70
0
71
3
72
18
73
14
74
12
42
0.0000001000
43
0.0000001000
44
0.0000000001
40
0.0000000000
40
0.0000000000
40
0.0000000000
40
0.0000000000
40
0.0386378346
40
0.0948741218
40
0.1622547372
40
0.2479017628
40
0.3455885257
40
0.4510059079
40
0.5639036458
40
0.6834969371
40
0.8089066100
40
0.9396524398
40
1.0000000000
40
1.0000000000
40
1.0000000000
40
1.0000000000
10
52.1044104810
20
83.5493060531
30
0.0000000000
10
52.0218742502
20
83.5427518702
30
0.0000000000
10
51.8193488802
20
83.5248744521
30
0.0000000000
10
51.4740074615
20
83.4835015594
30
0.0000000000
10
51.0330206440
20
83.3991387903
30
0.0000000000
10
50.5183923001
20
83.2396343425
30
0.0000000000
10
49.9573186210
20
82.9729980515
30
0.0000000000
10
49.3977647918
20
82.5860293969
30
0.0000000000
10
48.8800139416
20
82.0741994443
30
0.0000000000
10
48.4413102109
20
81.4394253285
30
0.0000000000
10
48.1196851358
20
80.6952608376
30
0.0000000000
10
47.9824552869
20
80.0262285273
30
0.0000000000
10
47.9626232408
20
79.6155651144
30
0.0000000000
10
47.9626259157
20
79.4859318706
30
0.0000000000
11
52.1044104810
21
83.5493060531
31
0.0000000000
11
51.8570147323
21
83.5271433242
31
0.0000000000
11
51.4982658977
21
83.4825529822
31
0.0000000000
11
51.0731360506
21
83.3995881307
31
0.0000000000
11
50.5474886017
21
83.2358023030
31
0.0000000000
11
49.9804389389
21
82.9659865715
31
0.0000000000
11
49.4231511219
21
82.5804216214
31
0.0000000000
11
48.9070737507
21
82.0701472714
31
0.0000000000
11
48.4700282773
21
81.4376642352
31
0.0000000000
11
48.1501859674
21
80.6976420214
31
0.0000000000
11
47.9814344835
21
79.8742705593
31
0.0000000000
11
47.9626259157
21
79.4859318706
31
0.0000000000
0
SPLINE
5
44B
100
AcDbEntity
8
0
100
AcDbSpline
62
7
6
CONTINUOUS
70
0
71
3
72
18
73
14
74
12
42
0.0000001000
43
0.0000001000
44
0.0000000001
40
0.0000000000
40
0.0000000000
40
0.0000000000
40
0.0000000000
40
0.0746308515
40
0.2084920685
40
0.3332631889
40
0.4526779669
40
0.5658103680
40
0.6715729109
40
0.7686911825
40
0.8515740374
40
0.9139904979
40
0.9672485029
40
1.0000000000
40
1.0000000000
40
1.0000000000
40
1.0000000000
10
47.9626588094
20
43.6324344026
30
0.0000000000
10
47.9626657793
20
43.4720643399
30
0.0000000000
10
47.9894432916
20
43.0237420980
30
0.0000000000
10
48.1519529573
20
42.3231462792
30
0.0000000000
10
48.4959264622
20
41.5837356714
30
0.0000000000
10
48.9506734728
20
40.9620367059
30
0.0000000000
10
49.4825164581
20
40.4636999872
30
0.0000000000
10
50.0523235723
20
40.0920607808
30
0.0000000000
10
50.6143213678
20
39.8430976681
30
0.0000000000
10
51.1151663726
20
39.7004899550
30
0.0000000000
10
51.5345404409
20
39.6265823673
30
0.0000000000
10
51.8506060824
20
39.5906149236
30
0.0000000000
10
52.0342043751
20
39.5746418496
30
0.0000000000
10
52.1041578384
20
39.5690818707
30
0.0000000000
11
47.9626588094
21
43.6324344026
31
0.0000000000
11
47.9914318706
21
43.1523900442
31
0.0000000000
11
48.1856394789
21
42.3141771302
31
0.0000000000
11
48.5239298038
21
41.5870281023
31
0.0000000000
11
48.9770277438
21
40.9674713710
31
0.0000000000
11
49.5076120990
21
40.4702095467
31
0.0000000000
11
50.0769268800
21
40.0987000959
31
0.0000000000
11
50.6475254644
21
39.8455217670
31
0.0000000000
11
51.1596286315
21
39.6986647005
31
0.0000000000
11
51.5544681999
21
39.6275482008
31
0.0000000000
11
51.8944444277
21
39.5875126441
31
0.0000000000
11
52.1041578384
21
39.5690818707
31
0.0000000000
0
SPLINE
5
44C
100
AcDbEntity
8
0
100
AcDbSpline
62
7
6
CONTINUOUS
70
0
71
3
72
18
73
14
74
12
42
0.0000001000
43
0.0000001000
44
0.0000000001
40
0.0000000000
40
0.0000000000
40
0.0000000000
40
0.0000000000
40
0.0386178507
40
0.0948310819
40
0.1622023173
40
0.2478466511
40
0.3455391054
40
0.4509631773
40
0.5638671999
40
0.6834671219
40
0.8088844824
40
0.9396398254
40
1.0000000000
40
1.0000000000
40
1.0000000000
40
1.0000000000
10
219.6852185537
20
39.5690591797
30
0.0000000000
10
219.7677119803
20
39.5756100731
30
0.0000000000
10
219.9701452234
20
39.5934791802
30
0.0000000000
10
220.3153753519
20
39.6348305322
30
0.0000000000
10
220.7562926255
20
39.7191506494
30
0.0000000000
10
221.2709195563
20
39.8786103343
30
0.0000000000
10
221.8320328236
20
40.1452105457
30
0.0000000000
10
222.3916467441
20
40.5321620828
30
0.0000000000
10
222.9094586336
20
41.0439896076
30
0.0000000000
10
223.3482200251
20
41.6787772538
30
0.0000000000
10
223.6698954727
20
42.4229755558
30
0.0000000000
10
223.8071563823
20
43.0920669367
30
0.0000000000
10
223.8269946421
20
43.5027776165
30
0.0000000000
10
223.8269919113
20
43.6324378351
30
0.0000000000
11
219.6852185537
21
39.5690591797
31
0.0000000000
11
219.9324861021
21
39.5912095568
31
0.0000000000
11
220.2910885928
21
39.6357718782
31
0.0000000000
11
220.7161638037
21
39.7186989446
31
0.0000000000
11
221.2418068447
21
39.8824383432
31
0.0000000000
11
221.8089102020
21
40.1522244786
31
0.0000000000
11
222.3662599863
21
40.5377738975
31
0.0000000000
11
222.8823966773
21
41.0480443714
31
0.0000000000
11
223.3194983754
21
41.6805391538
31
0.0000000000
11
223.6393898344
21
42.4205928208
31
0.0000000000
11
223.8081757055
21
43.2440185473
31
0.0000000000
11
223.8269919113
21
43.6324378351
31
0.0000000000
0
SPLINE
5
44D
100
AcDbEntity
8
0
100
AcDbSpline
62
7
6
CONTINUOUS
70
0
71
3
72
60
73
56
74
54
42
0.0000001000
43
0.0000001000
44
0.0000000001
40
0.0000000000
40
0.0000000000
40
0.0000000000
40
0.0000000000
40
0.0004417681
40
0.0031559435
40
0.0076444327
40
0.0137363931
40
0.0213313994
40
0.0303671243
40
0.0408012081
40
0.0526015949
40
0.0657540661
40
0.0802564943
40
0.0961102738
40
0.1133178785
40
0.1318810713
40
0.1517994850
40
0.1730694347
40
0.1956828554
40
0.2196263284
40
0.2448788599
40
0.2713811880
40
0.2990318526
40
0.3277137440
40
0.3572963382
40
0.3876371954
40
0.4185836870
40
0.4499749616
40
0.4816440586
40
0.5134199848
40
0.5451280026
40
0.5765934936
40
0.6076453679
40
0.6381183099
40
0.6678550181
40
0.6967083094
40
0.7245429908
40
0.7512374716
40
0.7766854786
40
0.8008209658
40
0.8236258247
40
0.8450908533
40
0.8652115775
40
0.8839871826
40
0.9014194018
40
0.9175112648
40
0.9322656372
40
0.9456834021
40
0.9577610281
40
0.9684824731
40
0.9778089005
40
0.9856907147
40
0.9920598887
40
0.9968097000
40
0.9997589902
40
1.0000000000
40
1.0000000000
40
1.0000000000
40
1.0000000000
10
194.7346016515
20
82.8298900686
30
0.0000000000
10
194.7193516763
20
82.8277954686
30
0.0000000000
10
194.5634995941
20
82.8054599320
30
0.0000000000
10
194.3079941783
20
82.7771392985
30
0.0000000000
10
193.7640292009
20
82.7192065229
30
0.0000000000
10
193.0646141561
20
82.6570619386
30
0.0000000000
10
192.1719788080
20
82.5859455756
30
0.0000000000
10
191.1142433294
20
82.5117806990
30
0.0000000000
10
189.8894646472
20
82.4349835799
30
0.0000000000
10
188.5035893682
20
82.3571535026
30
0.0000000000
10
186.9577086815
20
82.2790105960
30
0.0000000000
10
185.2526780753
20
82.2012586862
30
0.0000000000
10
183.3883596068
20
82.1244338472
30
0.0000000000
10
181.3645689171
20
82.0490335890
30
0.0000000000
10
179.1811577083
20
81.9755183557
30
0.0000000000
10
176.8382286678
20
81.9043347216
30
0.0000000000
10
174.3362665303
20
81.8359233801
30
0.0000000000
10
171.6762685488
20
81.7707263830
30
0.0000000000
10
168.8599104731
20
81.7091923238
30
0.0000000000
10
165.8908762626
20
81.6518018283
30
0.0000000000
10
162.7763036311
20
81.5990748460
30
0.0000000000
10
159.5271013922
20
81.5515430274
30
0.0000000000
10
156.1569748205
20
81.5097091047
30
0.0000000000
10
152.6812377806
20
81.4740199368
30
0.0000000000
10
149.1165983656
20
81.4448599660
30
0.0000000000
10
145.4809551036
20
81.4225457295
30
0.0000000000
10
141.7931690246
20
81.4073215858
30
0.0000000000
10
138.0728219982
20
81.3993563723
30
0.0000000000
10
134.3400409175
20
81.3987406170
30
0.0000000000
10
130.6152531843
20
81.4054842366
30
0.0000000000
10
126.9188899447
20
81.4195152997
30
0.0000000000
10
123.2710124917
20
81.4406803440
30
0.0000000000
10
119.6910023990
20
81.4687467786
30
0.0000000000
10
116.1973028281
20
81.5034064745
30
0.0000000000
10
112.8071745339
20
81.5442800069
30
0.0000000000
10
109.5364764959
20
81.5909219797
30
0.0000000000
10
106.3994618124
20
81.6428275472
30
0.0000000000
10
103.4076699995
20
81.6994572432
30
0.0000000000
10
100.5685804438
20
81.7602833305
30
0.0000000000
10
97.8858645139
20
81.8248223143
30
0.0000000000
10
95.3607784850
20
81.8926348745
30
0.0000000000
10
92.9939008530
20
81.9632939759
30
0.0000000000
10
90.7853805868
20
82.0363779038
30
0.0000000000
10
88.7350764929
20
82.1114625899
30
0.0000000000
10
86.8426919256
20
82.1881138840
30
0.0000000000
10
85.1080033132
20
82.2658629022
30
0.0000000000
10
83.5309174423
20
82.3442096164
30
0.0000000000
10
82.1124919424
20
82.4224795852
30
0.0000000000
10
80.8540403386
20
82.5000197867
30
0.0000000000
10
79.7626803839
20
82.5751681977
30
0.0000000000
10
78.8355795955
20
82.6478295683
30
0.0000000000
10
78.1064766461
20
82.7112702094
30
0.0000000000
10
77.5254180973
20
82.7725721390
30
0.0000000000
10
77.2693964087
20
82.7997718653
30
0.0000000000
10
77.1090852810
20
82.8224421613
30
0.0000000000
10
77.0975451422
20
82.8240747339
30
0.0000000000
11
194.7346016515
21
82.8298900686
31
0.0000000000
11
194.6767063547
21
82.8217509781
31
0.0000000000
11
194.3596352339
21
82.7830449269
31
0.0000000000
11
193.8342733812
21
82.7279807725
31
0.0000000000
11
193.1202771240
21
82.6629857732
31
0.0000000000
11
192.2292775052
21
82.5918055930
31
0.0000000000
11
191.1685326155
21
82.5168049602
31
0.0000000000
11
189.9429997339
21
82.4395951485
31
0.0000000000
11
188.5564462159
21
82.3613486110
31
0.0000000000
11
187.0105525084
21
82.2828946278
31
0.0000000000
11
185.3055807254
21
82.2048642483
31
0.0000000000
11
183.4413793012
21
82.1277961993
31
0.0000000000
11
181.4176694022
21
82.0521761136
31
0.0000000000
11
179.2342552212
21
81.9784604932
31
0.0000000000
11
176.8911909416
21
81.9070918582
31
0.0000000000
11
174.3889206299
21
81.8385084735
31
0.0000000000
11
171.7284033460
21
81.7731506758
31
0.0000000000
11
168.9112279644
21
81.7114649392
31
0.0000000000
11
165.9398747042
21
81.6539091167
31
0.0000000000
11
162.8213271308
21
81.6010073734
31
0.0000000000
11
159.5675353947
21
81.5533140882
31
0.0000000000
11
156.1922925423
21
81.5113355765
31
0.0000000000
11
152.7109712826
21
81.4755212900
31
0.0000000000
11
149.1403475436
21
81.4462578740
31
0.0000000000
11
145.4983970703
21
81.4238637637
31
0.0000000000
11
141.8040638788
21
81.4085847892
31
0.0000000000
11
138.0770114102
21
81.4005907384
31
0.0000000000
11
134.3373779317
21
81.3999727240
31
0.0000000000
11
130.6057425289
21
81.4067410125
31
0.0000000000
11
126.9026701634
21
81.4208231748
31
0.0000000000
11
123.2483103293
21
81.4420648350
31
0.0000000000
11
119.6621325512
21
81.4702320223
31
0.0000000000
11
116.1626626312
21
81.5050146967
31
0.0000000000
11
112.7672348191
21
81.5460311311
31
0.0000000000
11
109.4917714107
21
81.5928332850
31
0.0000000000
11
106.3505928726
21
81.6449130483
31
0.0000000000
11
103.3562157953
21
81.7017098361
31
0.0000000000
11
100.5164219245
21
81.7626821647
31
0.0000000000
11
97.8333518772
21
81.8273747112
31
0.0000000000
11
95.3080982545
21
81.8953519906
31
0.0000000000
11
92.9411976352
21
81.9661889307
31
0.0000000000
11
90.7327564823
21
82.0394664620
31
0.0000000000
11
88.6825821892
21
82.1147649730
31
0.0000000000
11
86.7903304475
21
82.1916543876
31
0.0000000000
11
85.0556771725
21
82.2696790262
31
0.0000000000
11
83.4785323006
21
82.3483338665
31
0.0000000000
11
82.0593250845
21
82.4270261015
31
0.0000000000
11
80.7999536131
21
82.5049749289
31
0.0000000000
11
79.7049867986
21
82.5810324692
31
0.0000000000
11
78.7802385755
21
82.6536116565
31
0.0000000000
11
78.0336463774
21
82.7203933181
31
0.0000000000
11
77.4775962496
21
82.7776872359
31
0.0000000000
11
77.1329787254
21
82.8190839348
31
0.0000000000
11
77.0975451422
21
82.8240747339
31
0.0000000000
0
SPLINE
5
44E
100
AcDbEntity
8
0
100
AcDbSpline
62
7
6
CONTINUOUS
70
0
71
3
72
23
73
19
74
17
42
0.0000001000
43
0.0000001000
44
0.0000000001
40
0.0000000000
40
0.0000000000
40
0.0000000000
40
0.0000000000
40
0.0024775603
40
0.0176630057
40
0.0427711803
40
0.0768469591
40
0.1193287956
40
0.1698681580
40
0.2282281360
40
0.2942294370
40
0.3677926124
40
0.4489058212
40
0.5375769246
40
0.6338198241
40
0.7376444491
40
0.8490488274
40
0.9680124102
40
1.0000000000
40
1.0000000000
40
1.0000000000
40
1.0000000000
10
77.0549619127
20
40.2884660720
30
0.0000000000
10
77.0702399414
20
40.2905643022
30
0.0000000000
10
77.2262835942
20
40.3129289624
30
0.0000000000
10
77.4818394027
20
40.3412472093
30
0.0000000000
10
78.0259914523
20
40.3991982627
30
0.0000000000
10
78.7255326061
20
40.4613469969
30
0.0000000000
10
79.6183273629
20
40.5324706927
30
0.0000000000
10
80.6762210963
20
40.6066401133
30
0.0000000000
10
81.9011691701
20
40.6834414244
30
0.0000000000
10
83.2872210192
20
40.7612747386
30
0.0000000000
10
84.8332875152
20
40.8394202900
30
0.0000000000
10
86.5385140508
20
40.9171742725
30
0.0000000000
10
88.4030400097
20
40.9940006924
30
0.0000000000
10
90.4270511141
20
41.0694020602
30
0.0000000000
10
92.6106972059
20
41.1429179405
30
0.0000000000
10
94.9538770716
20
41.2141017364
30
0.0000000000
10
96.7935349413
20
41.2643979991
30
0.0000000000
10
97.8520641497
20
41.2914939314
30
0.0000000000
10
98.0763757833
20
41.2971553808
30
0.0000000000
11
77.0549619127
21
40.2884660720
31
0.0000000000
11
77.1130221510
21
40.2966284707
31
0.0000000000
11
77.4302313223
21
40.3353479137
31
0.0000000000
11
77.9557313895
21
40.3904216626
31
0.0000000000
11
78.6698721510
21
40.4554241594
31
0.0000000000
11
79.5610240865
21
40.5266103982
31
0.0000000000
11
80.6219297102
21
40.6016160023
31
0.0000000000
11
81.8476313617
21
40.6788298691
31
0.0000000000
11
83.2343612253
21
40.7570796582
31
0.0000000000
11
84.7804402690
21
40.8355362508
31
0.0000000000
11
86.4856075674
21
40.9135686872
31
0.0000000000
11
88.3500160027
21
40.9906382968
31
0.0000000000
11
90.3739458272
21
41.0662594753
31
0.0000000000
11
92.5575943248
21
41.1399757247
31
0.0000000000
11
94.9009090116
21
41.2113445139
31
0.0000000000
11
97.4034470768
21
41.2799275459
31
0.0000000000
11
98.0763757833
21
41.2971553808
31
0.0000000000
0
SPLINE
5
44F
100
AcDbEntity
8
0
100
AcDbSpline
62
7
6
CONTINUOUS
70
0
71
3
72
8
73
4
74
2
42
0.0000001000
43
0.0000001000
44
0.0000000001
40
0.0000000000
40
0.0000000000
40
0.0000000000
40
0.0000000000
40
1.0000000000
40
1.0000000000
40
1.0000000000
40
1.0000000000
10
98.0763757833
20
41.2971553808
30
0.0000000000
10
98.2889641661
20
41.3025209445
30
0.0000000000
10
98.5015543699
20
41.3078143243
30
0.0000000000
10
98.7141462988
20
41.3130375569
30
0.0000000000
11
98.0763757833
21
41.2971553808
31
0.0000000000
11
98.7141462988
21
41.3130375569
31
0.0000000000
0
SPLINE
5
450
100
AcDbEntity
8
0
100
AcDbSpline
62
7
6
CONTINUOUS
70
0
71
3
72
8
73
4
74
2
42
0.0000001000
43
0.0000001000
44
0.0000000001
40
0.0000000000
40
0.0000000000
40
0.0000000000
40
0.0000000000
40
1.0000000000
40
1.0000000000
40
1.0000000000
40
1.0000000000
10
105.3823960864
20
41.4558826845
30
0.0000000000
10
105.5394016946
20
41.4587919699
30
0.0000000000
10
105.6964078512
20
41.4616716371
30
0.0000000000
10
105.8534145348
20
41.4645221657
30
0.0000000000
11
105.3823960864
21
41.4558826845
31
0.0000000000
11
105.8534145348
21
41.4645221657
31
0.0000000000
0
SPLINE
5
451
100
AcDbEntity
8
0
100
AcDbSpline
62
7
6
CONTINUOUS
70
0
71
3
72
8
73
4
74
2
42
0.0000001000
43
0.0000001000
44
0.0000000001
40
0.0000000000
40
0.0000000000
40
0.0000000000
40
0.0000000000
40
1.0000000000
40
1.0000000000
40
1.0000000000
40
1.0000000000
10
105.8534145348
20
41.4645221657
30
0.0000000000
10
105.9087778522
20
41.4655273122
30
0.0000000000
10
105.9641412351
20
41.4665288356
30
0.0000000000
10
106.0195046828
20
41.4675267522
30
0.0000000000
11
105.8534145348
21
41.4645221657
31
0.0000000000
11
106.0195046828
21
41.4675267522
31
0.0000000000
0
SPLINE
5
452
100
AcDbEntity
8
0
100
AcDbSpline
62
7
6
CONTINUOUS
70
0
71
3
72
11
73
7
74
5
42
0.0000001000
43
0.0000001000
44
0.0000000001
40
0.0000000000
40
0.0000000000
40
0.0000000000
40
0.0000000000
40
0.2427339209
40
0.5240878812
40
0.8126500329
40
1.0000000000
40
1.0000000000
40
1.0000000000
40
1.0000000000
10
112.5983496229
20
41.5700984370
30
0.0000000000
10
113.5995541255
20
41.5834050524
30
0.0000000000
10
115.7612877699
20
41.6099811889
30
0.0000000000
10
119.1133462833
20
41.6443905727
30
0.0000000000
10
122.2370143813
20
41.6699340025
30
0.0000000000
10
124.2001410202
20
41.6827130273
30
0.0000000000
10
124.9729582797
20
41.6872469071
30
0.0000000000
11
112.5983496229
21
41.5700984370
31
0.0000000000
11
115.6020002485
21
41.6070821328
31
0.0000000000
11
119.0836245925
21
41.6428893031
31
0.0000000000
11
122.6545159590
21
41.6721443342
31
0.0000000000
11
124.9729582797
21
41.6872469071
31
0.0000000000
0
SPLINE
5
453
100
AcDbEntity
8
0
100
AcDbSpline
62
7
6
CONTINUOUS
70
0
71
3
72
8
73
4
74
2
42
0.0000001000
43
0.0000001000
44
0.0000000001
40
0.0000000000
40
0.0000000000
40
0.0000000000
40
0.0000000000
40
1.0000000000
40
1.0000000000
40
1.0000000000
40
1.0000000000
10
131.3072076629
20
41.7134613966
30
0.0000000000
10
131.7517672571
20
41.7145428535
30
0.0000000000
10
132.1963272361
20
41.7154662058
30
0.0000000000
10
132.6408874865
20
41.7162321161
30
0.0000000000
11
131.3072076629
21
41.7134613966
31
0.0000000000
11
132.6408874865
21
41.7162321161
31
0.0000000000
0
SPLINE
5
454
100
AcDbEntity
8
0
100
AcDbSpline
62
7
6
CONTINUOUS
70
0
71
3
72
8
73
4
74
2
42
0.0000001000
43
0.0000001000
44
0.0000000001
40
0.0000000000
40
0.0000000000
40
0.0000000000
40
0.0000000000
40
1.0000000000
40
1.0000000000
40
1.0000000000
40
1.0000000000
10
138.6419489185
20
41.7170371653
30
0.0000000000
10
139.0865098980
20
41.7163908008
30
0.0000000000
10
139.5310706486
20
41.7155871710
30
0.0000000000
10
139.9756310580
20
41.7146257149
30
0.0000000000
11
138.6419489185
21
41.7170371653
31
0.0000000000
11
139.9756310580
21
41.7146257149
31
0.0000000000
0
SPLINE
5
455
100
AcDbEntity
8
0
100
AcDbSpline
62
7
6
CONTINUOUS
70
0
71
3
72
8
73
4
74
2
42
0.0000001000
43
0.0000001000
44
0.0000000001
40
0.0000000000
40
0.0000000000
40
0.0000000000
40
0.0000000000
40
1.0000000000
40
1.0000000000
40
1.0000000000
40
1.0000000000
10
146.6432228819
20
41.6882561239
30
0.0000000000
10
146.6710985277
20
41.6880952609
30
0.0000000000
10
146.6989741697
20
41.6879337525
30
0.0000000000
10
146.7268498079
20
41.6877715981
30
0.0000000000
11
146.6432228819
21
41.6882561239
31
0.0000000000
11
146.7268498079
21
41.6877715981
31
0.0000000000
0
SPLINE
5
456
100
AcDbEntity
8
0
100
AcDbSpline
62
7
6
CONTINUOUS
70
0
71
3
72
31
73
27
74
25
42
0.0000001000
43
0.0000001000
44
0.0000000001
40
0.0000000000
40
0.0000000000
40
0.0000000000
40
0.0000000000
40
0.0379200172
40
0.1126446211
40
0.1855629286
40
0.2563142665
40
0.3245673478
40
0.3900242179
40
0.4524244993
40
0.5116064700
40
0.5675257339
40
0.6201596890
40
0.6694973258
40
0.7155366272
40
0.7582818019
40
0.7977402391
40
0.8339189333
40
0.8668200218
40
0.8964348183
40
0.9227239441
40
0.9455921634
40
0.9649178657
40
0.9805342143
40
0.9921794384
40
0.9994091857
40
1.0000000000
40
1.0000000000
40
1.0000000000
40
1.0000000000
10
146.7268498079
20
41.6877715981
30
0.0000000000
10
147.3334323011
20
41.6842430698
30
0.0000000000
10
149.1353316567
20
41.6728527630
30
0.0000000000
10
152.1036248014
20
41.6495732696
30
0.0000000000
10
155.5970283515
20
41.6149062253
30
0.0000000000
10
158.9868349129
20
41.5740267114
30
0.0000000000
10
162.2571975038
20
41.5273800663
30
0.0000000000
10
165.3938745579
20
41.4754710088
30
0.0000000000
10
168.3853379680
20
41.4188388648
30
0.0000000000
10
171.2241163203
20
41.3580111884
30
0.0000000000
10
173.9065417886
20
41.2934712650
30
0.0000000000
10
176.4313571327
20
41.2256583172
30
0.0000000000
10
178.7979823723
20
41.1549993074
30
0.0000000000
10
181.0062669716
20
41.0819159190
30
0.0000000000
10
183.0563505026
20
41.0068322201
30
0.0000000000
10
184.9485277539
20
40.9301823635
30
0.0000000000
10
186.6830207078
20
40.8524352549
30
0.0000000000
10
188.2599210517
20
40.7740909930
30
0.0000000000
10
189.6781700959
20
40.6958240499
30
0.0000000000
10
190.9364520614
20
40.6182877839
30
0.0000000000
10
192.0276529914
20
40.5431437126
30
0.0000000000
10
192.9545932559
20
40.4704892606
30
0.0000000000
10
193.6835686805
20
40.4070527896
30
0.0000000000
10
194.2644365589
20
40.3457682653
30
0.0000000000
10
194.5204489705
20
40.3185624082
30
0.0000000000
10
194.6806482446
20
40.2959072244
30
0.0000000000
10
194.6921794438
20
40.2942758901
30
0.0000000000
11
146.7268498079
21
41.6877715981
31
0.0000000000
11
148.5465916101
21
41.6762636837
31
0.0000000000
11
152.1325074353
21
41.6480879317
31
0.0000000000
11
155.6316770199
21
41.6132979401
31
0.0000000000
11
159.0267790627
21
41.5722755447
31
0.0000000000
11
162.3019033804
21
41.5254687479
31
0.0000000000
11
165.4427404401
21
41.4733855529
31
0.0000000000
11
168.4367852012
21
41.4165863913
31
0.0000000000
11
171.2762676604
21
41.3556124750
31
0.0000000000
11
173.9590478242
21
41.2909189760
31
0.0000000000
11
176.4840313561
21
41.2229412935
31
0.0000000000
11
178.8506798937
21
41.1521044398
31
0.0000000000
11
181.0588860399
21
41.0788274320
31
0.0000000000
11
183.1088404211
21
41.0035298847
31
0.0000000000
11
185.0008853835
21
40.9266418851
31
0.0000000000
11
186.7353434197
21
40.8486191386
31
0.0000000000
11
188.3123032620
21
40.7699667150
31
0.0000000000
11
189.7313343869
21
40.6912775050
31
0.0000000000
11
190.9905368913
21
40.6133324863
31
0.0000000000
11
192.0853421205
21
40.5372796642
31
0.0000000000
11
193.0099368591
21
40.4647062528
31
0.0000000000
11
193.7563831668
21
40.3979317608
31
0.0000000000
11
194.3122926431
21
40.3406471417
31
0.0000000000
11
194.6567706032
21
40.2992633366
31
0.0000000000
11
194.6921794438
21
40.2942758901
31
0.0000000000
0
ENDSEC
0
SECTION
2
OBJECTS
0
DICTIONARY
5
457
100
AcDbDictionary
3
ACAD_GROUP
350
458
3
ACAD_MLINESTYLE
350
459
0
DICTIONARY
5
458
102
{ACAD_REACTORS
330
457
102
}
100
AcDbDictionary
0
DICTIONARY
5
459
102
{ACAD_REACTORS
330
457
102
}
100
AcDbDictionary
3
STANDARD
350
45A
0
MLINESTYLE
5
45A
102
{ACAD_REACTORS
330
459
102
}
100
AcDbMlineStyle
2
STANDARD
70
0
3

62
256
51
90.0
52
90.0
71
2
49
0.5
62
256
6
BYLAYER
49
-0.5
62
256
6
BYLAYER
0
ENDSEC
0
EOF
