999
DXF file: C:\Aktuell-Internet\CAD-Daten\2rs-m39.dxf
999
Pro/ENGINEER 2001400 by Parametric Technology Corporation
0
SECTION
2
HEADER
9
$ACADVER
1
AC1014
9
$EXTMAX
10
420.0000000000
20
297.0000000000
9
$EXTMIN
10
0.0000000000
20
0.0000000000
9
$LIMMIN
10
0.0000000000
20
0.0000000000
9
$LIMMAX
10
420.0000000000
20
297.0000000000
9
$VIEWCTR
10
210.0000000000
20
148.5000000000
9
$VIEWSIZE
40
297.0000000000
9
$CLAYER
8
0
9
$LTSCALE
40
23.1000000000
9
$CELTYPE
6
BYLAYER
9
$DIMSCALE
40
1
9
$DIMASZ
40
3.5000000000
9
$DIMEXO
40
2.6250000000
9
$DIMDLI
40
15.9600000000
9
$DIMEXE
40
7.5600000000
9
$DIMCEN
40
3.7800000000
9
$DIMLFAC
40
1.0000000000
9
$DIMTXT
40
3.5000000000
9
$DIMTOL
70
1
9
$DIMTFAC
40
0.6000000000
9
$DIMTP
40
0.0050000000
9
$DIMTM
40
0.0050000000
9
$HANDSEED
5
503
0
ENDSEC
0
SECTION
2
CLASSES
0
ENDSEC
0
SECTION
2
TABLES
0
TABLE
2
VPORT
5
8
100
AcDbSymbolTable
70
2
0
VPORT
5
1F4
100
AcDbSymbolTableRecord
100
AcDbViewportTableRecord
2
*ACTIVE
70
0
10
0.0
20
0.0
11
1.0
21
1.0
12
210.0000000000
22
148.5000000000
13
0.0
23
0.0
14
1.0
24
1.0
15
0.0
25
0.0
16
0.0
26
0.0
36
1.0
17
0.0
27
0.0
37
0.0
40
297.0000000000
41
1.4141414141
42
50.0
43
0.0
44
0.0
50
0.0
51
0.0
71
0
72
100
73
1
74
1
75
0
76
0
77
0
78
0
0
ENDTAB
0
TABLE
2
LTYPE
5
5
100
AcDbSymbolTable
70
6
0
LTYPE
5
14
100
AcDbSymbolTableRecord
100
AcDbLinetypeTableRecord
2
BYBLOCK
70
0
3

72
65
73
0
40
0.0
0
LTYPE
5
15
100
AcDbSymbolTableRecord
100
AcDbLinetypeTableRecord
2
BYLAYER
70
0
3

72
65
73
0
40
0.0
0
LTYPE
5
16
100
AcDbSymbolTableRecord
100
AcDbLinetypeTableRecord
2
CONTINUOUS
70
64
3
Solid line
72
65
73
0
40
0
0
LTYPE
5
1F5
100
AcDbSymbolTableRecord
100
AcDbLinetypeTableRecord
2
CENTER
70
64
3
____ _ ____ _ ____ _ ____ _ ____ _ ____ _ ____
72
65
73
4
40
0.6
49
0.375
74
0
49
-0.075
74
0
49
0.075
74
0
49
-0.075
74
0
0
LTYPE
5
1F6
100
AcDbSymbolTableRecord
100
AcDbLinetypeTableRecord
2
HIDDEN
70
64
3
- - - - - - - - - - - - - - - - - - - -
72
65
73
2
40
0.2
49
0.1
74
0
49
-0.1
74
0
0
LTYPE
5
1F7
100
AcDbSymbolTableRecord
100
AcDbLinetypeTableRecord
2
PHANTOM
70
64
3
_____ _ _ _____ _ _ _____ _ _ _____
72
65
73
6
40
0.8
49
0.45
74
0
49
-0.05
74
0
49
0.1
74
0
49
-0.05
74
0
49
0.1
74
0
49
-0.05
74
0
0
LTYPE
5
1F8
100
AcDbSymbolTableRecord
100
AcDbLinetypeTableRecord
2
DOT
70
64
3
. . . . . . . . . . . . . . . . . . . .
72
65
73
2
40
0.2
49
0.1
74
0
49
-0.1
74
0
0
LTYPE
5
1F9
100
AcDbSymbolTableRecord
100
AcDbLinetypeTableRecord
2
DASHED
70
64
3
- - - - - - - - - - - - - - - - - - - -
72
65
73
2
40
0.2
49
0.1
74
0
49
-0.1
74
0
0
ENDTAB
0
TABLE
2
LAYER
5
2
100
AcDbSymbolTable
70
36
0
LAYER
5
10
100
AcDbSymbolTableRecord
100
AcDbLayerTableRecord
2
0
70
0
62
7
6
CONTINUOUS
0
LAYER
5
1FA
100
AcDbSymbolTableRecord
100
AcDbLayerTableRecord
2
DEFAULT_1
70
0
62
7
6
CENTER
0
LAYER
5
1FB
100
AcDbSymbolTableRecord
100
AcDbLayerTableRecord
2
DEFAULT_2
70
0
62
8
6
HIDDEN
0
LAYER
5
1FC
100
AcDbSymbolTableRecord
100
AcDbLayerTableRecord
2
DEFAULT_3
70
0
62
7
6
PHANTOM
0
ENDTAB
0
TABLE
2
STYLE
5
3
100
AcDbSymbolTable
70
1
0
STYLE
5
11
100
AcDbSymbolTableRecord
100
AcDbTextStyleTableRecord
2
STANDARD
70
0
40
0.0
41
1.0
50
0.0
71
0
42
0.0
3
txt
4

0
STYLE
5
1FD
100
AcDbSymbolTableRecord
100
AcDbTextStyleTableRecord
2
TEXTSTYLE_0
70
0
40
0.0
41
0.80
50
0.0
71
0
42
0.2
3
txt
4

0
ENDTAB
0
TABLE
2
VIEW
5
6
100
AcDbSymbolTable
70
0
0
ENDTAB
0
TABLE
2
UCS
5
7
100
AcDbSymbolTable
70
0
0
ENDTAB
0
TABLE
2
APPID
5
9
100
AcDbSymbolTable
70
1
0
APPID
5
1FE
100
AcDbSymbolTableRecord
100
AcDbRegAppTableRecord
2
ACAD
70
0
0
ENDTAB
0
TABLE
2
DIMSTYLE
5
A
100
AcDbSymbolTable
70
1
0
DIMSTYLE
105
1FF
100
AcDbSymbolTableRecord
100
AcDbDimStyleTableRecord
2
STANDARD
70
0
3

4

5

6

7

40
1.0
41
0.18
42
0.0625
43
0.38
44
0.18
45
0.0
46
0.0
47
0.0050000000
48
0.0050000000
140
3.5000000000
141
0.09
142
0.0
143
25.4
144
1.0000000000
145
0.0
146
0.6000000000
147
0.09
71
1
72
0
73
1
74
1
75
0
76
0
77
0
78
0
170
0
171
2
172
0
173
0
174
0
175
0
176
0
177
0
178
0
270
2
271
3
272
4
273
2
274
2
340
11
275
0
280
0
281
0
282
0
283
1
284
0
285
0
286
0
287
3
288
0
0
ENDTAB
0
TABLE
2
BLOCK_RECORD
5
1
100
AcDbSymbolTable
70
0
0
BLOCK_RECORD
5
1B
100
AcDbSymbolTableRecord
100
AcDbBlockTableRecord
2
*MODEL_SPACE
0
BLOCK_RECORD
5
1C
100
AcDbSymbolTableRecord
100
AcDbBlockTableRecord
2
*PAPER_SPACE
0
ENDTAB
0
ENDSEC
0
SECTION
2
BLOCKS
0
BLOCK
5
1E
100
AcDbEntity
8
0
100
AcDbBlockBegin
2
*MODEL_SPACE
70
0
10
0.0
20
0.0
30
0.0
3
*MODEL_SPACE
1

0
ENDBLK
5
1F
100
AcDbEntity
8
0
100
AcDbBlockEnd
0
BLOCK
5
20
100
AcDbEntity
8
0
100
AcDbBlockBegin
2
*PAPER_SPACE
70
0
10
0.0
20
0.0
30
0.0
3
*PAPER_SPACE
1

0
ENDBLK
5
21
100
AcDbEntity
8
0
100
AcDbBlockEnd
0
ENDSEC
0
SECTION
2
ENTITIES
0
TEXT
5
200
100
AcDbEntity
8
0
100
AcDbText
62
2
6
CONTINUOUS
10
81.5584691977
20
67.0868950276
7
TEXTSTYLE_0
40
8.0000000000
1
RUD
72
5
11
101.3679930072
21
67.0868950276
100
AcDbText
0
TEXT
5
201
100
AcDbEntity
8
0
100
AcDbText
62
2
6
CONTINUOUS
10
80.6157396231
20
49.6463978971
7
TEXTSTYLE_0
40
8.0000000000
1
RS M39
72
5
11
118.3300253374
21
49.6463978971
100
AcDbText
0
TEXT
5
202
100
AcDbEntity
8
0
100
AcDbText
62
2
6
CONTINUOUS
10
313.3284878279
20
220.6807954291
7
TEXTSTYLE_0
40
8.0000000000
1
RUD
50
90.0000000000
72
5
11
313.3284878279
21
240.4903192387
100
AcDbText
0
TEXT
5
203
100
AcDbEntity
8
0
100
AcDbText
62
2
6
CONTINUOUS
10
335.3793694868
20
221.4683269169
7
TEXTSTYLE_0
40
8.0000000000
1
RS M39
50
90.0000000000
72
5
11
335.3793694868
21
259.1826126312
100
AcDbText
0
LINE
5
204
100
AcDbEntity
8
0
100
AcDbLine
62
7
6
CONTINUOUS
10
0.0000000000
20
0.0000000000
11
0.0000000000
21
297.0000000000
0
LINE
5
205
100
AcDbEntity
8
0
100
AcDbLine
62
7
6
CONTINUOUS
10
0.0000000000
20
0.0000000000
11
420.0000000000
21
0.0000000000
0
LINE
5
206
100
AcDbEntity
8
0
100
AcDbLine
62
7
6
CONTINUOUS
10
0.0000000000
20
297.0000000000
11
420.0000000000
21
297.0000000000
0
LINE
5
207
100
AcDbEntity
8
0
100
AcDbLine
62
7
6
CONTINUOUS
10
420.0000000000
20
0.0000000000
11
420.0000000000
21
297.0000000000
0
LINE
5
208
100
AcDbEntity
8
0
100
AcDbLine
62
7
6
CONTINUOUS
10
152.8416824822
20
129.0955523533
11
119.8416824822
21
129.0955523533
0
LINE
5
209
100
AcDbEntity
8
0
100
AcDbLine
62
7
6
CONTINUOUS
10
77.4084338979
20
338.4407619390
11
132.5148481585
21
361.2665860995
0
LINE
5
20A
100
AcDbEntity
8
0
100
AcDbLine
62
7
6
CONTINUOUS
10
155.8416824822
20
132.0955523533
11
116.8416824822
21
132.0955523533
0
LINE
5
20B
100
AcDbEntity
8
0
100
AcDbLine
62
7
6
CONTINUOUS
10
103.4291596326
20
341.8691396450
11
98.5216824822
21
339.0358063911
0
LINE
5
20C
100
AcDbEntity
8
0
100
AcDbLine
62
7
6
CONTINUOUS
10
99.7752851316
20
338.5311695366
11
103.9610744628
21
340.9478361338
0
LINE
5
20D
100
AcDbEntity
8
0
100
AcDbLine
62
7
6
CONTINUOUS
10
107.4936045804
20
342.4959814754
11
106.7719170192
21
342.0793149677
0
LINE
5
20E
100
AcDbEntity
8
0
100
AcDbLine
62
7
6
CONTINUOUS
10
109.9323815717
20
341.9385618490
11
108.3446686068
21
341.0218953413
0
LINE
5
20F
100
AcDbEntity
8
0
100
AcDbLine
62
7
6
CONTINUOUS
10
107.6229810456
20
340.6052288336
11
106.4682803695
21
339.9385620874
0
LINE
5
210
100
AcDbEntity
8
0
100
AcDbLine
62
7
6
CONTINUOUS
10
103.3612821161
20
337.6533739368
11
102.4952567124
21
337.1533739368
0
LINE
5
211
100
AcDbEntity
8
0
100
AcDbLine
62
7
6
CONTINUOUS
10
49.1706487360
20
277.9223866769
11
71.9964728965
21
333.0288009375
0
LINE
5
212
100
AcDbEntity
8
0
100
AcDbLine
62
7
6
CONTINUOUS
10
102.4952567124
20
337.1533739368
11
101.8799518075
21
336.5524465480
0
LINE
5
213
100
AcDbEntity
8
0
100
AcDbLine
62
7
6
CONTINUOUS
10
130.2550159744
20
345.5691693872
11
130.9216824822
21
345.9947012514
0
LINE
5
214
100
AcDbEntity
8
0
100
AcDbLine
62
7
6
CONTINUOUS
10
106.8938122337
20
339.2015192784
11
108.0485129097
21
339.8681860246
0
LINE
5
215
100
AcDbEntity
8
0
100
AcDbLine
62
7
6
CONTINUOUS
10
108.7702004709
20
340.2848525323
11
110.3579134359
21
341.2015190400
0
LINE
5
216
100
AcDbEntity
8
0
100
AcDbLine
62
7
6
CONTINUOUS
10
103.0271715426
20
336.2320704256
11
103.8931969463
21
336.7320704256
0
LINE
5
217
100
AcDbEntity
8
0
100
AcDbLine
62
7
6
CONTINUOUS
10
101.2876398973
20
334.2450276166
11
102.2980028339
21
334.8283609301
0
LINE
5
218
100
AcDbEntity
8
0
100
AcDbLine
62
7
6
CONTINUOUS
10
103.1111121444
20
333.0866810383
11
102.2450867407
21
332.5866810383
0
LINE
5
219
100
AcDbEntity
8
0
100
AcDbLine
62
7
6
CONTINUOUS
10
106.0208564907
20
333.0468559936
11
105.1548310869
21
332.5468559936
0
LINE
5
21A
100
AcDbEntity
8
0
100
AcDbLine
62
7
6
CONTINUOUS
10
105.6867459916
20
331.6255523533
11
106.5527713954
21
332.1255523533
0
LINE
5
21B
100
AcDbEntity
8
0
100
AcDbLine
62
7
6
CONTINUOUS
10
130.0883489899
20
346.6329990477
11
129.5883489899
21
346.4202331156
0
LINE
5
21C
100
AcDbEntity
8
0
100
AcDbLine
62
7
6
CONTINUOUS
10
112.0755535447
20
335.5598130717
11
113.0479619238
21
335.8755523533
0
LINE
5
21D
100
AcDbEntity
8
0
100
AcDbLine
62
7
6
CONTINUOUS
10
137.0883494667
20
342.1649140269
11
136.4216824822
21
341.9521480948
0
LINE
5
21E
100
AcDbEntity
8
0
100
AcDbLine
62
7
6
CONTINUOUS
10
145.0883485130
20
342.1649140269
11
144.4216824822
21
341.9521480948
0
LINE
5
21F
100
AcDbEntity
8
0
100
AcDbLine
62
7
6
CONTINUOUS
10
116.8416824822
20
132.0955523533
11
119.8416824822
21
129.0955523533
0
LINE
5
220
100
AcDbEntity
8
0
100
AcDbLine
62
7
6
CONTINUOUS
10
102.5562042738
20
335.7144764099
11
103.0271715426
21
336.2320704256
0
LINE
5
221
100
AcDbEntity
8
0
100
AcDbLine
62
7
6
CONTINUOUS
10
106.4918236562
20
333.5644499497
11
106.0208564907
21
333.0468559936
0
LINE
5
222
100
AcDbEntity
8
0
100
AcDbLine
62
7
6
CONTINUOUS
10
106.5527713954
20
332.1255523533
11
107.1680763942
21
332.7264798178
0
LINE
5
223
100
AcDbEntity
8
0
100
AcDbLine
62
7
6
CONTINUOUS
10
137.2550154976
20
340.8883183040
11
137.9216824822
21
341.3138502240
0
LINE
5
224
100
AcDbEntity
8
0
100
AcDbLine
62
7
6
CONTINUOUS
10
130.4216824822
20
347.0585309118
11
130.0883489899
21
346.6329990477
0
LINE
5
225
100
AcDbEntity
8
0
100
AcDbLine
62
7
6
CONTINUOUS
10
137.5883494667
20
342.5904460401
11
137.0883494667
21
342.1649140269
0
LINE
5
226
100
AcDbEntity
8
0
100
AcDbLine
62
7
6
CONTINUOUS
10
145.5883485130
20
342.5904460401
11
145.0883485130
21
342.1649140269
0
LINE
5
227
100
AcDbEntity
8
0
100
AcDbLine
62
7
6
CONTINUOUS
10
145.2550164513
20
340.8883183040
11
145.9216824822
21
341.3138502240
0
LINE
5
228
100
AcDbEntity
8
0
100
AcDbLine
62
7
6
CONTINUOUS
10
155.8416824822
20
174.0955523533
11
116.8416824822
21
174.0955523533
0
LINE
5
229
100
AcDbEntity
8
0
100
AcDbLine
62
7
6
CONTINUOUS
10
72.6088475731
20
213.6839005194
11
49.1706487360
21
270.2687180296
0
LINE
5
22A
100
AcDbEntity
8
0
100
AcDbLine
62
7
6
CONTINUOUS
10
102.2980028339
20
334.8283609301
11
102.5562042738
21
335.7144764099
0
LINE
5
22B
100
AcDbEntity
8
0
100
AcDbLine
62
7
6
CONTINUOUS
10
106.7120704260
20
334.1829713541
11
106.4918236562
21
333.5644499497
0
LINE
5
22C
100
AcDbEntity
8
0
100
AcDbLine
62
7
6
CONTINUOUS
10
101.8799518075
20
336.5524465480
11
101.4774128863
21
335.5829977846
0
LINE
5
22D
100
AcDbEntity
8
0
100
AcDbLine
62
7
6
CONTINUOUS
10
107.1680763942
20
332.7264798178
11
107.5706150293
21
333.6959284806
0
LINE
5
22E
100
AcDbEntity
8
0
100
AcDbLine
62
7
6
CONTINUOUS
10
137.9216824822
20
341.3138502240
11
138.5883494667
21
342.1649140269
0
LINE
5
22F
100
AcDbEntity
8
0
100
AcDbLine
62
7
6
CONTINUOUS
10
86.3416824822
20
188.0955523533
11
186.3416824822
21
188.0955523533
0
LINE
5
230
100
AcDbEntity
8
0
100
AcDbLine
62
7
6
CONTINUOUS
10
86.3416824822
20
188.0955523533
11
86.3416824822
21
199.3354694454
0
LINE
5
231
100
AcDbEntity
8
0
100
AcDbLine
62
7
6
CONTINUOUS
10
130.9216824822
20
345.9947012514
11
131.4216824822
21
346.8457649797
0
LINE
5
232
100
AcDbEntity
8
0
100
AcDbLine
62
7
6
CONTINUOUS
10
145.9216824822
20
341.3138502240
11
146.5883485130
21
342.1649140269
0
LINE
5
233
100
AcDbEntity
8
0
100
AcDbLine
62
7
6
CONTINUOUS
10
174.8737042915
20
193.0955523533
11
140.3416824821
21
193.0955523533
0
LINE
5
234
100
AcDbEntity
8
0
100
AcDbLine
62
7
6
CONTINUOUS
10
132.3416824822
20
193.0955523533
11
97.8096606728
21
193.0955523533
0
LINE
5
235
100
AcDbEntity
8
0
100
AcDbLine
62
7
6
CONTINUOUS
10
143.8808557065
20
197.1455523533
11
144.7326375964
21
197.1455523533
0
LINE
5
236
100
AcDbEntity
8
0
100
AcDbLine
62
7
6
CONTINUOUS
10
147.0888781212
20
197.1455523533
11
148.0441448056
21
197.1455523533
0
LINE
5
237
100
AcDbEntity
8
0
100
AcDbLine
62
7
6
CONTINUOUS
10
150.3208058454
20
197.1455523533
11
151.1486824257
21
197.1455523533
0
LINE
5
238
100
AcDbEntity
8
0
100
AcDbLine
62
7
6
CONTINUOUS
10
158.2652143232
20
197.1455523533
11
159.1169962130
21
197.1455523533
0
LINE
5
239
100
AcDbEntity
8
0
100
AcDbLine
62
7
6
CONTINUOUS
10
160.3349066620
20
197.1455523533
11
161.3936581410
21
197.1455523533
0
LINE
5
23A
100
AcDbEntity
8
0
100
AcDbLine
62
7
6
CONTINUOUS
10
162.6115674057
20
197.1455523533
11
163.4633492956
21
197.1455523533
0
LINE
5
23B
100
AcDbEntity
8
0
100
AcDbLine
62
7
6
CONTINUOUS
10
165.5091357327
20
197.1455523533
11
166.5678883960
21
197.1455523533
0
LINE
5
23C
100
AcDbEntity
8
0
100
AcDbLine
62
7
6
CONTINUOUS
10
170.5003023002
20
197.1455523533
11
170.9142414786
21
197.1455523533
0
LINE
5
23D
100
AcDbEntity
8
0
100
AcDbLine
62
7
6
CONTINUOUS
10
149.5725087502
20
197.2944885188
11
149.8033830568
21
197.2944885188
0
LINE
5
23E
100
AcDbEntity
8
0
100
AcDbLine
62
7
6
CONTINUOUS
10
165.0951989229
20
197.2944885188
11
165.3260732295
21
197.2944885188
0
LINE
5
23F
100
AcDbEntity
8
0
100
AcDbLine
62
7
6
CONTINUOUS
10
169.7520057971
20
197.2944885188
11
169.9828801037
21
197.2944885188
0
LINE
5
240
100
AcDbEntity
8
0
100
AcDbLine
62
7
6
CONTINUOUS
10
164.6812597446
20
197.5923608628
11
164.9121340512
21
197.5923608628
0
LINE
5
241
100
AcDbEntity
8
0
100
AcDbLine
62
7
6
CONTINUOUS
10
149.0550853694
20
197.7412970153
11
149.2859596760
21
197.7412970153
0
LINE
5
242
100
AcDbEntity
8
0
100
AcDbLine
62
7
6
CONTINUOUS
10
169.2345812320
20
197.7412970153
11
169.4654555386
21
197.7412970153
0
LINE
5
243
100
AcDbEntity
8
0
100
AcDbLine
62
7
6
CONTINUOUS
10
171.0177244967
20
197.8902332199
11
170.3968169135
21
197.8902332199
0
LINE
5
244
100
AcDbEntity
8
0
100
AcDbLine
62
7
6
CONTINUOUS
10
166.4644030093
20
197.8902332199
11
165.8434954260
21
197.8902332199
0
LINE
5
245
100
AcDbEntity
8
0
100
AcDbLine
62
7
6
CONTINUOUS
10
164.3708059530
20
197.8902332199
11
164.6016802596
21
197.8902332199
0
LINE
5
246
100
AcDbEntity
8
0
100
AcDbLine
62
7
6
CONTINUOUS
10
151.1486824257
20
198.0391693723
11
150.3208058454
21
198.0391693723
0
LINE
5
247
100
AcDbEntity
8
0
100
AcDbLine
62
7
6
CONTINUOUS
10
171.0973039817
20
198.0391693723
11
171.3281782883
21
198.0391693723
0
LINE
5
248
100
AcDbEntity
8
0
100
AcDbLine
62
7
6
CONTINUOUS
10
151.3317467052
20
198.1881055248
11
151.5626210119
21
198.1881055248
0
LINE
5
249
100
AcDbEntity
8
0
100
AcDbLine
62
7
6
CONTINUOUS
10
166.9579216726
20
198.1881055248
11
167.1887959792
21
198.1881055248
0
LINE
5
24A
100
AcDbEntity
8
0
100
AcDbLine
62
7
6
CONTINUOUS
10
97.8096607169
20
193.0955523533
11
97.8096607169
21
208.0955523533
0
LINE
5
24B
100
AcDbEntity
8
0
100
AcDbLine
62
7
6
CONTINUOUS
10
137.9216824822
20
343.2287438363
11
137.5883494667
21
342.5904460401
0
LINE
5
24C
100
AcDbEntity
8
0
100
AcDbLine
62
7
6
CONTINUOUS
10
166.0504638309
20
204.1455523533
11
165.3260732295
21
203.9966162008
0
LINE
5
24D
100
AcDbEntity
8
0
100
AcDbLine
62
7
6
CONTINUOUS
10
165.8195895243
20
204.1455523533
11
165.0951989229
21
203.9966162008
0
LINE
5
24E
100
AcDbEntity
8
0
100
AcDbLine
62
7
6
CONTINUOUS
10
164.1638375481
20
198.3370416773
11
164.3947118547
21
198.3370416773
0
LINE
5
24F
100
AcDbEntity
8
0
100
AcDbLine
62
7
6
CONTINUOUS
10
168.9241274404
20
198.3370416773
11
169.1550017470
21
198.3370416773
0
LINE
5
250
100
AcDbEntity
8
0
100
AcDbLine
62
7
6
CONTINUOUS
10
171.4077577733
20
198.3370416773
11
171.6386320799
21
198.3370416773
0
LINE
5
251
100
AcDbEntity
8
0
100
AcDbLine
62
7
6
CONTINUOUS
10
148.7446318738
20
198.4859779340
11
148.9755061804
21
198.4859779340
0
LINE
5
252
100
AcDbEntity
8
0
100
AcDbLine
62
7
6
CONTINUOUS
10
151.6422004969
20
198.4859779340
11
151.8730748035
21
198.4859779340
0
LINE
5
253
100
AcDbEntity
8
0
100
AcDbLine
62
7
6
CONTINUOUS
10
167.1648900775
20
198.4859779340
11
167.3957643841
21
198.4859779340
0
LINE
5
254
100
AcDbEntity
8
0
100
AcDbLine
62
7
6
CONTINUOUS
10
164.0603521613
20
198.7838502389
11
164.8086486645
21
198.7838502389
0
LINE
5
255
100
AcDbEntity
8
0
100
AcDbLine
62
7
6
CONTINUOUS
10
167.2683754642
20
198.7838502389
11
167.4992497708
21
198.7838502389
0
LINE
5
256
100
AcDbEntity
8
0
100
AcDbLine
62
7
6
CONTINUOUS
10
168.8206444223
20
198.7838502389
11
169.5689409254
21
198.7838502389
0
LINE
5
257
100
AcDbEntity
8
0
100
AcDbLine
62
7
6
CONTINUOUS
10
171.6147285468
20
198.7838502389
11
171.8456028534
21
198.7838502389
0
LINE
5
258
100
AcDbEntity
8
0
100
AcDbLine
62
7
6
CONTINUOUS
10
151.8491694939
20
198.9327863914
11
152.0800438005
21
198.9327863914
0
LINE
5
259
100
AcDbEntity
8
0
100
AcDbLine
62
7
6
CONTINUOUS
10
148.6411470792
20
199.0817225439
11
149.4929292652
21
199.0817225439
0
LINE
5
25A
100
AcDbEntity
8
0
100
AcDbLine
62
7
6
CONTINUOUS
10
171.7182115649
20
199.2306586963
11
171.9490858715
21
199.2306586963
0
LINE
5
25B
100
AcDbEntity
8
0
100
AcDbLine
62
7
6
CONTINUOUS
10
151.8491694939
20
199.3795948488
11
152.0800438005
21
199.3795948488
0
LINE
5
25C
100
AcDbEntity
8
0
100
AcDbLine
62
7
6
CONTINUOUS
10
167.2683754642
20
199.3795948488
11
167.4992497708
21
199.3795948488
0
LINE
5
25D
100
AcDbEntity
8
0
100
AcDbLine
62
7
6
CONTINUOUS
10
170.3968169135
20
199.6774671537
11
170.9142414786
21
199.6774671537
0
LINE
5
25E
100
AcDbEntity
8
0
100
AcDbLine
62
7
6
CONTINUOUS
10
151.6422004969
20
199.8264035148
11
151.8730748035
21
199.8264035148
0
LINE
5
25F
100
AcDbEntity
8
0
100
AcDbLine
62
7
6
CONTINUOUS
10
169.6485204104
20
199.8264035148
11
169.8793947170
21
199.8264035148
0
LINE
5
260
100
AcDbEntity
8
0
100
AcDbLine
62
7
6
CONTINUOUS
10
167.0614046907
20
199.9753396672
11
167.2922789974
21
199.9753396672
0
LINE
5
261
100
AcDbEntity
8
0
100
AcDbLine
62
7
6
CONTINUOUS
10
151.3317467052
20
200.1242758197
11
151.5626210119
21
200.1242758197
0
LINE
5
262
100
AcDbEntity
8
0
100
AcDbLine
62
7
6
CONTINUOUS
10
171.8216969517
20
200.1242758197
11
172.0525712583
21
200.1242758197
0
LINE
5
263
100
AcDbEntity
8
0
100
AcDbLine
62
7
6
CONTINUOUS
10
144.7326375964
20
200.2732119721
11
146.4918756995
21
200.2732119721
0
LINE
5
264
100
AcDbEntity
8
0
100
AcDbLine
62
7
6
CONTINUOUS
10
150.2969005358
20
200.2732119721
11
151.1486824257
21
200.2732119721
0
LINE
5
265
100
AcDbEntity
8
0
100
AcDbLine
62
7
6
CONTINUOUS
10
166.7509508991
20
200.2732119721
11
166.9818252057
21
200.2732119721
0
LINE
5
266
100
AcDbEntity
8
0
100
AcDbLine
62
7
6
CONTINUOUS
10
169.1310982139
20
200.2732119721
11
169.3619725205
21
200.2732119721
0
LINE
5
267
100
AcDbEntity
8
0
100
AcDbLine
62
7
6
CONTINUOUS
10
171.0177244967
20
200.4221481246
11
170.2933338953
21
200.4221481246
0
LINE
5
268
100
AcDbEntity
8
0
100
AcDbLine
62
7
6
CONTINUOUS
10
149.8829625418
20
200.4221481246
11
150.1138368484
21
200.4221481246
0
LINE
5
269
100
AcDbEntity
8
0
100
AcDbLine
62
7
6
CONTINUOUS
10
165.7161065061
20
200.4221481246
11
166.3609176225
21
200.4221481246
0
LINE
5
26A
100
AcDbEntity
8
0
100
AcDbLine
62
7
6
CONTINUOUS
10
171.0973039817
20
200.5710842771
11
171.3281782883
21
200.5710842771
0
LINE
5
26B
100
AcDbEntity
8
0
100
AcDbLine
62
7
6
CONTINUOUS
10
149.4690239556
20
200.7200204295
11
149.6998982622
21
200.7200204295
0
LINE
5
26C
100
AcDbEntity
8
0
100
AcDbLine
62
7
6
CONTINUOUS
10
168.8206444223
20
200.8689565820
11
169.0515187289
21
200.8689565820
0
LINE
5
26D
100
AcDbEntity
8
0
100
AcDbLine
62
7
6
CONTINUOUS
10
171.4077577733
20
200.8689565820
11
171.6386320799
21
200.8689565820
0
LINE
5
26E
100
AcDbEntity
8
0
100
AcDbLine
62
7
6
CONTINUOUS
10
165.7161065061
20
201.0178927344
11
166.3609176225
21
201.0178927344
0
LINE
5
26F
100
AcDbEntity
8
0
100
AcDbLine
62
7
6
CONTINUOUS
10
151.1486824257
20
201.1668288869
11
150.5277748424
21
201.1668288869
0
LINE
5
270
100
AcDbEntity
8
0
100
AcDbLine
62
7
6
CONTINUOUS
10
146.6988448446
20
201.1668288869
11
144.7326375964
21
201.1668288869
0
LINE
5
271
100
AcDbEntity
8
0
100
AcDbLine
62
7
6
CONTINUOUS
10
146.7784243296
20
201.3157650394
11
147.0092986362
21
201.3157650394
0
LINE
5
272
100
AcDbEntity
8
0
100
AcDbLine
62
7
6
CONTINUOUS
10
149.0550853694
20
201.3157650394
11
149.2859596760
21
201.3157650394
0
LINE
5
273
100
AcDbEntity
8
0
100
AcDbLine
62
7
6
CONTINUOUS
10
166.7509508991
20
201.3157650394
11
166.9818252057
21
201.3157650394
0
LINE
5
274
100
AcDbEntity
8
0
100
AcDbLine
62
7
6
CONTINUOUS
10
171.6147285468
20
201.3157650394
11
171.8456028534
21
201.3157650394
0
LINE
5
275
100
AcDbEntity
8
0
100
AcDbLine
62
7
6
CONTINUOUS
10
146.9853936227
20
201.6136373443
11
147.2162679293
21
201.6136373443
0
LINE
5
276
100
AcDbEntity
8
0
100
AcDbLine
62
7
6
CONTINUOUS
10
166.9579216726
20
201.6136373443
11
167.1887959792
21
201.6136373443
0
LINE
5
277
100
AcDbEntity
8
0
100
AcDbLine
62
7
6
CONTINUOUS
10
168.6136736488
20
201.6136373443
11
168.8445479554
21
201.6136373443
0
LINE
5
278
100
AcDbEntity
8
0
100
AcDbLine
62
7
6
CONTINUOUS
10
171.7182115649
20
201.7625734967
11
171.9490858715
21
201.7625734967
0
LINE
5
279
100
AcDbEntity
8
0
100
AcDbLine
62
7
6
CONTINUOUS
10
148.9516011669
20
201.9115096492
11
149.1824754735
21
201.9115096492
0
LINE
5
27A
100
AcDbEntity
8
0
100
AcDbLine
62
7
6
CONTINUOUS
10
147.0888781212
20
202.0604458016
11
147.3197524278
21
202.0604458016
0
LINE
5
27B
100
AcDbEntity
8
0
100
AcDbLine
62
7
6
CONTINUOUS
10
171.7182115649
20
202.0604458016
11
171.9490858715
21
202.0604458016
0
LINE
5
27C
100
AcDbEntity
8
0
100
AcDbLine
62
7
6
CONTINUOUS
10
167.1648900775
20
202.2093819541
11
167.3957643841
21
202.2093819541
0
LINE
5
27D
100
AcDbEntity
8
0
100
AcDbLine
62
7
6
CONTINUOUS
10
168.6136736488
20
202.2093819541
11
168.8445479554
21
202.2093819541
0
LINE
5
27E
100
AcDbEntity
8
0
100
AcDbLine
62
7
6
CONTINUOUS
10
147.0888781212
20
202.5072546762
11
147.3197524278
21
202.5072546762
0
LINE
5
27F
100
AcDbEntity
8
0
100
AcDbLine
62
7
6
CONTINUOUS
10
148.9516011669
20
202.5072546762
11
149.1824754735
21
202.5072546762
0
LINE
5
280
100
AcDbEntity
8
0
100
AcDbLine
62
7
6
CONTINUOUS
10
151.5387157023
20
202.5072546762
11
152.3904975921
21
202.5072546762
0
LINE
5
281
100
AcDbEntity
8
0
100
AcDbLine
62
7
6
CONTINUOUS
10
164.1638375481
20
202.5072546762
11
164.9121340512
21
202.5072546762
0
LINE
5
282
100
AcDbEntity
8
0
100
AcDbLine
62
7
6
CONTINUOUS
10
167.1648900775
20
202.5072546762
11
167.3957643841
21
202.5072546762
0
LINE
5
283
100
AcDbEntity
8
0
100
AcDbLine
62
7
6
CONTINUOUS
10
171.6147285468
20
202.5072546762
11
171.8456028534
21
202.5072546762
0
LINE
5
284
100
AcDbEntity
8
0
100
AcDbLine
62
7
6
CONTINUOUS
10
151.4352314998
20
202.8051269812
11
151.6661058064
21
202.8051269812
0
LINE
5
285
100
AcDbEntity
8
0
100
AcDbLine
62
7
6
CONTINUOUS
10
146.9853936227
20
202.9540631336
11
147.2162679293
21
202.9540631336
0
LINE
5
286
100
AcDbEntity
8
0
100
AcDbLine
62
7
6
CONTINUOUS
10
166.9579216726
20
202.9540631336
11
167.1887959792
21
202.9540631336
0
LINE
5
287
100
AcDbEntity
8
0
100
AcDbLine
62
7
6
CONTINUOUS
10
168.8206444223
20
202.9540631336
11
169.0515187289
21
202.9540631336
0
LINE
5
288
100
AcDbEntity
8
0
100
AcDbLine
62
7
6
CONTINUOUS
10
171.4077577733
20
202.9540631336
11
171.6386320799
21
202.9540631336
0
LINE
5
289
100
AcDbEntity
8
0
100
AcDbLine
62
7
6
CONTINUOUS
10
149.0550853694
20
203.1029992861
11
149.2859596760
21
203.1029992861
0
LINE
5
28A
100
AcDbEntity
8
0
100
AcDbLine
62
7
6
CONTINUOUS
10
151.2282619107
20
203.1029992861
11
151.4591362173
21
203.1029992861
0
LINE
5
28B
100
AcDbEntity
8
0
100
AcDbLine
62
7
6
CONTINUOUS
10
164.2673205662
20
203.1029992861
11
164.4981948728
21
203.1029992861
0
LINE
5
28C
100
AcDbEntity
8
0
100
AcDbLine
62
7
6
CONTINUOUS
10
146.7784243296
20
203.2519354385
11
147.0092986362
21
203.2519354385
0
LINE
5
28D
100
AcDbEntity
8
0
100
AcDbLine
62
7
6
CONTINUOUS
10
150.5277748424
20
203.2519354385
11
151.1486824257
21
203.2519354385
0
LINE
5
28E
100
AcDbEntity
8
0
100
AcDbLine
62
7
6
CONTINUOUS
10
166.6474678810
20
203.2519354385
11
166.8783421876
21
203.2519354385
0
LINE
5
28F
100
AcDbEntity
8
0
100
AcDbLine
62
7
6
CONTINUOUS
10
171.0973039817
20
203.2519354385
11
171.3281782883
21
203.2519354385
0
LINE
5
290
100
AcDbEntity
8
0
100
AcDbLine
62
7
6
CONTINUOUS
10
144.7326375964
20
203.4008715910
11
146.6988448446
21
203.4008715910
0
LINE
5
291
100
AcDbEntity
8
0
100
AcDbLine
62
7
6
CONTINUOUS
10
165.9469808128
20
203.4008715910
11
166.3609176225
21
203.4008715910
0
LINE
5
292
100
AcDbEntity
8
0
100
AcDbLine
62
7
6
CONTINUOUS
10
170.2933338953
20
203.4008715910
11
171.0177244967
21
203.4008715910
0
LINE
5
293
100
AcDbEntity
8
0
100
AcDbLine
62
7
6
CONTINUOUS
10
169.1310982139
20
203.5498077435
11
169.3619725205
21
203.5498077435
0
LINE
5
294
100
AcDbEntity
8
0
100
AcDbLine
62
7
6
CONTINUOUS
10
149.4690239556
20
203.6987438959
11
149.6998982622
21
203.6987438959
0
LINE
5
295
100
AcDbEntity
8
0
100
AcDbLine
62
7
6
CONTINUOUS
10
164.6812597446
20
203.6987438959
11
164.9121340512
21
203.6987438959
0
LINE
5
296
100
AcDbEntity
8
0
100
AcDbLine
62
7
6
CONTINUOUS
10
149.8829625418
20
203.9966162008
11
150.1138368484
21
203.9966162008
0
LINE
5
297
100
AcDbEntity
8
0
100
AcDbLine
62
7
6
CONTINUOUS
10
165.0951989229
20
203.9966162008
11
165.3260732295
21
203.9966162008
0
LINE
5
298
100
AcDbEntity
8
0
100
AcDbLine
62
7
6
CONTINUOUS
10
169.6485204104
20
203.9966162008
11
169.8793947170
21
203.9966162008
0
LINE
5
299
100
AcDbEntity
8
0
100
AcDbLine
62
7
6
CONTINUOUS
10
170.9142414786
20
204.1455523533
11
170.3968169135
21
204.1455523533
0
LINE
5
29A
100
AcDbEntity
8
0
100
AcDbLine
62
7
6
CONTINUOUS
10
166.2574346044
20
204.1455523533
11
166.0504638309
21
204.1455523533
0
LINE
5
29B
100
AcDbEntity
8
0
100
AcDbLine
62
7
6
CONTINUOUS
10
143.8808557065
20
204.1455523533
11
146.5953603461
21
204.1455523533
0
LINE
5
29C
100
AcDbEntity
8
0
100
AcDbLine
62
7
6
CONTINUOUS
10
150.2969005358
20
204.1455523533
11
151.0451982232
21
204.1455523533
0
LINE
5
29D
100
AcDbEntity
8
0
100
AcDbLine
62
7
6
CONTINUOUS
10
158.2652143232
20
204.1455523533
11
159.4274500046
21
204.1455523533
0
LINE
5
29E
100
AcDbEntity
8
0
100
AcDbLine
62
7
6
CONTINUOUS
10
162.3011136141
20
204.1455523533
11
163.4633492956
21
204.1455523533
0
LINE
5
29F
100
AcDbEntity
8
0
100
AcDbLine
62
7
6
CONTINUOUS
10
149.5725087502
20
197.2944885188
11
150.0899315388
21
197.1455523533
0
LINE
5
2A0
100
AcDbEntity
8
0
100
AcDbLine
62
7
6
CONTINUOUS
10
149.8033830568
20
197.2944885188
11
150.3208058454
21
197.1455523533
0
LINE
5
2A1
100
AcDbEntity
8
0
100
AcDbLine
62
7
6
CONTINUOUS
10
151.6661058064
20
201.0178927344
11
151.1486824257
21
201.1668288869
0
LINE
5
2A2
100
AcDbEntity
8
0
100
AcDbLine
62
7
6
CONTINUOUS
10
165.8434954260
20
197.8902332199
11
165.3260732295
21
198.0391693723
0
LINE
5
2A3
100
AcDbEntity
8
0
100
AcDbLine
62
7
6
CONTINUOUS
10
150.3208058454
20
198.0391693723
11
149.9068672592
21
198.1881055248
0
LINE
5
2A4
100
AcDbEntity
8
0
100
AcDbLine
62
7
6
CONTINUOUS
10
149.8829625418
20
200.4221481246
11
150.2969005358
21
200.2732119721
0
LINE
5
2A5
100
AcDbEntity
8
0
100
AcDbLine
62
7
6
CONTINUOUS
10
150.1138368484
20
200.4221481246
11
150.5277748424
21
200.2732119721
0
LINE
5
2A6
100
AcDbEntity
8
0
100
AcDbLine
62
7
6
CONTINUOUS
10
150.9178081190
20
200.2732119721
11
151.3317467052
21
200.1242758197
0
LINE
5
2A7
100
AcDbEntity
8
0
100
AcDbLine
62
7
6
CONTINUOUS
10
107.5706150293
20
333.6959284806
11
107.5780958298
21
334.6829713541
0
LINE
5
2A8
100
AcDbEntity
8
0
100
AcDbLine
62
7
6
CONTINUOUS
10
130.5883489899
20
347.6968287081
11
130.4216824822
21
347.0585309118
0
LINE
5
2A9
100
AcDbEntity
8
0
100
AcDbLine
62
7
6
CONTINUOUS
10
131.4216824822
20
346.8457649797
11
131.5883489899
21
347.4840627760
0
LINE
5
2AA
100
AcDbEntity
8
0
100
AcDbLine
62
7
6
CONTINUOUS
10
138.5883494667
20
342.1649140269
11
138.9216824822
21
343.0159779042
0
LINE
5
2AB
100
AcDbEntity
8
0
100
AcDbLine
62
7
6
CONTINUOUS
10
145.9216824822
20
343.2287438363
11
145.5883485130
21
342.5904460401
0
LINE
5
2AC
100
AcDbEntity
8
0
100
AcDbLine
62
7
6
CONTINUOUS
10
97.8096606728
20
208.0955523533
11
132.3416824822
21
208.0955523533
0
LINE
5
2AD
100
AcDbEntity
8
0
100
AcDbLine
62
7
6
CONTINUOUS
10
140.3416824821
20
208.0955523533
11
174.8737042915
21
208.0955523533
0
LINE
5
2AE
100
AcDbEntity
8
0
100
AcDbLine
62
7
6
CONTINUOUS
10
196.4290508384
20
211.3354694454
11
195.0728416200
21
211.3354694454
0
LINE
5
2AF
100
AcDbEntity
8
0
100
AcDbLine
62
7
6
CONTINUOUS
10
77.6105233443
20
211.3354694454
11
76.2543141260
21
211.3354694454
0
LINE
5
2B0
100
AcDbEntity
8
0
100
AcDbLine
62
7
6
CONTINUOUS
10
166.9818252057
20
203.9966162008
11
166.2574346044
21
204.1455523533
0
LINE
5
2B1
100
AcDbEntity
8
0
100
AcDbLine
62
7
6
CONTINUOUS
10
166.1300433159
20
200.4221481246
11
166.7509508991
21
200.2732119721
0
LINE
5
2B2
100
AcDbEntity
8
0
100
AcDbLine
62
7
6
CONTINUOUS
10
166.3609176225
20
200.4221481246
11
166.9818252057
21
200.2732119721
0
LINE
5
2B3
100
AcDbEntity
8
0
100
AcDbLine
62
7
6
CONTINUOUS
10
169.7520057971
20
197.2944885188
11
170.2694279936
21
197.1455523533
0
LINE
5
2B4
100
AcDbEntity
8
0
100
AcDbLine
62
7
6
CONTINUOUS
10
169.9828801037
20
197.2944885188
11
170.5003023002
21
197.1455523533
0
LINE
5
2B5
100
AcDbEntity
8
0
100
AcDbLine
62
7
6
CONTINUOUS
10
147.1127834308
20
203.9966162008
11
146.5953603461
21
204.1455523533
0
LINE
5
2B6
100
AcDbEntity
8
0
100
AcDbLine
62
7
6
CONTINUOUS
10
151.5626210119
20
203.9966162008
11
151.0451982232
21
204.1455523533
0
LINE
5
2B7
100
AcDbEntity
8
0
100
AcDbLine
62
7
6
CONTINUOUS
10
169.6485204104
20
199.8264035148
11
170.1659426069
21
199.6774671537
0
LINE
5
2B8
100
AcDbEntity
8
0
100
AcDbLine
62
7
6
CONTINUOUS
10
169.8793947170
20
199.8264035148
11
170.3968169135
21
199.6774671537
0
LINE
5
2B9
100
AcDbEntity
8
0
100
AcDbLine
62
7
6
CONTINUOUS
10
166.1300433159
20
203.4008715910
11
166.6474678810
21
203.2519354385
0
LINE
5
2BA
100
AcDbEntity
8
0
100
AcDbLine
62
7
6
CONTINUOUS
10
166.3609176225
20
203.4008715910
11
166.8783421876
21
203.2519354385
0
LINE
5
2BB
100
AcDbEntity
8
0
100
AcDbLine
62
7
6
CONTINUOUS
10
171.4316636750
20
203.9966162008
11
170.9142414786
21
204.1455523533
0
LINE
5
2BC
100
AcDbEntity
8
0
100
AcDbLine
62
7
6
CONTINUOUS
10
151.1486824257
20
200.2732119721
11
151.5626210119
21
200.1242758197
0
LINE
5
2BD
100
AcDbEntity
8
0
100
AcDbLine
62
7
6
CONTINUOUS
10
165.0951989229
20
197.2944885188
11
165.5091357327
21
197.1455523533
0
LINE
5
2BE
100
AcDbEntity
8
0
100
AcDbLine
62
7
6
CONTINUOUS
10
165.3260732295
20
197.2944885188
11
165.7400100393
21
197.1455523533
0
LINE
5
2BF
100
AcDbEntity
8
0
100
AcDbLine
62
7
6
CONTINUOUS
10
150.5277748424
20
201.1668288869
11
150.2173210508
21
201.3157650394
0
LINE
5
2C0
100
AcDbEntity
8
0
100
AcDbLine
62
7
6
CONTINUOUS
10
146.4679705380
20
203.4008715910
11
146.7784243296
21
203.2519354385
0
LINE
5
2C1
100
AcDbEntity
8
0
100
AcDbLine
62
7
6
CONTINUOUS
10
146.6988448446
20
203.4008715910
11
147.0092986362
21
203.2519354385
0
LINE
5
2C2
100
AcDbEntity
8
0
100
AcDbLine
62
7
6
CONTINUOUS
10
150.9178081190
20
203.2519354385
11
151.2282619107
21
203.1029992861
0
LINE
5
2C3
100
AcDbEntity
8
0
100
AcDbLine
62
7
6
CONTINUOUS
10
151.1486824257
20
203.2519354385
11
151.4591362173
21
203.1029992861
0
LINE
5
2C4
100
AcDbEntity
8
0
100
AcDbLine
62
7
6
CONTINUOUS
10
170.3968169135
20
197.8902332199
11
170.0863631219
21
198.0391693723
0
LINE
5
2C5
100
AcDbEntity
8
0
100
AcDbLine
62
7
6
CONTINUOUS
10
149.4690239556
20
200.7200204295
11
149.8829625418
21
200.4221481246
0
LINE
5
2C6
100
AcDbEntity
8
0
100
AcDbLine
62
7
6
CONTINUOUS
10
149.6998982622
20
200.7200204295
11
150.1138368484
21
200.4221481246
0
LINE
5
2C7
100
AcDbEntity
8
0
100
AcDbLine
62
7
6
CONTINUOUS
10
149.0550853694
20
197.7412970153
11
149.5725087502
21
197.2944885188
0
LINE
5
2C8
100
AcDbEntity
8
0
100
AcDbLine
62
7
6
CONTINUOUS
10
153.5774689198
20
176.3597659157
11
155.8416824822
21
174.0955523533
0
LINE
5
2C9
100
AcDbEntity
8
0
100
AcDbLine
62
7
6
CONTINUOUS
10
106.6815967256
20
334.9024203361
11
106.7120704260
21
334.1829713541
0
LINE
5
2CA
100
AcDbEntity
8
0
100
AcDbLine
62
7
6
CONTINUOUS
10
116.8416824822
20
174.0955523533
11
116.8416824822
21
132.0955523533
0
LINE
5
2CB
100
AcDbEntity
8
0
100
AcDbLine
62
7
6
CONTINUOUS
10
146.5883485130
20
342.1649140269
11
146.9216824822
21
343.0159779042
0
LINE
5
2CC
100
AcDbEntity
8
0
100
AcDbLine
62
7
6
CONTINUOUS
10
170.2933338953
20
200.4221481246
11
169.9828801037
21
200.5710842771
0
LINE
5
2CD
100
AcDbEntity
8
0
100
AcDbLine
62
7
6
CONTINUOUS
10
170.7868501901
20
203.4008715910
11
171.0973039817
21
203.2519354385
0
LINE
5
2CE
100
AcDbEntity
8
0
100
AcDbLine
62
7
6
CONTINUOUS
10
171.0177244967
20
203.4008715910
11
171.3281782883
21
203.2519354385
0
LINE
5
2CF
100
AcDbEntity
8
0
100
AcDbLine
62
7
6
CONTINUOUS
10
167.7062181757
20
200.4221481246
11
167.1887959792
21
200.7200204295
0
LINE
5
2D0
100
AcDbEntity
8
0
100
AcDbLine
62
7
6
CONTINUOUS
10
152.0800438005
20
200.7200204295
11
151.6661058064
21
201.0178927344
0
LINE
5
2D1
100
AcDbEntity
8
0
100
AcDbLine
62
7
6
CONTINUOUS
10
164.6812597446
20
197.5923608628
11
165.0951989229
21
197.2944885188
0
LINE
5
2D2
100
AcDbEntity
8
0
100
AcDbLine
62
7
6
CONTINUOUS
10
164.9121340512
20
197.5923608628
11
165.3260732295
21
197.2944885188
0
LINE
5
2D3
100
AcDbEntity
8
0
100
AcDbLine
62
7
6
CONTINUOUS
10
165.3260732295
20
198.0391693723
11
165.1191024561
21
198.1881055248
0
LINE
5
2D4
100
AcDbEntity
8
0
100
AcDbLine
62
7
6
CONTINUOUS
10
149.2859596760
20
197.7412970153
11
149.8033830568
21
197.2944885188
0
LINE
5
2D5
100
AcDbEntity
8
0
100
AcDbLine
62
7
6
CONTINUOUS
10
151.3317467052
20
200.1242758197
11
151.6422004969
21
199.8264035148
0
LINE
5
2D6
100
AcDbEntity
8
0
100
AcDbLine
62
7
6
CONTINUOUS
10
150.2173210508
20
201.3157650394
11
149.9068672592
21
201.6136373443
0
LINE
5
2D7
100
AcDbEntity
8
0
100
AcDbLine
62
7
6
CONTINUOUS
10
151.5626210119
20
200.1242758197
11
151.8730748035
21
199.8264035148
0
LINE
5
2D8
100
AcDbEntity
8
0
100
AcDbLine
62
7
6
CONTINUOUS
10
147.5267217209
20
203.5498077435
11
147.1127834308
21
203.9966162008
0
LINE
5
2D9
100
AcDbEntity
8
0
100
AcDbLine
62
7
6
CONTINUOUS
10
119.6916824822
20
188.0955523533
11
119.6916824822
21
177.7739794780
0
LINE
5
2DA
100
AcDbEntity
8
0
100
AcDbLine
62
7
6
CONTINUOUS
10
125.4216824822
20
350.6755523533
11
125.4216824822
21
340.6755523533
0
LINE
5
2DB
100
AcDbEntity
8
0
100
AcDbLine
62
7
6
CONTINUOUS
10
126.4216824822
20
340.6755523533
11
126.4216824822
21
345.1436375231
0
LINE
5
2DC
100
AcDbEntity
8
0
100
AcDbLine
62
7
6
CONTINUOUS
10
126.4216824822
20
346.4202331156
11
126.4216824822
21
349.6117226929
0
LINE
5
2DD
100
AcDbEntity
8
0
100
AcDbLine
62
7
6
CONTINUOUS
10
138.9216824822
20
343.0159779042
11
139.0883494667
21
344.0798075646
0
LINE
5
2DE
100
AcDbEntity
8
0
100
AcDbLine
62
7
6
CONTINUOUS
10
138.0883494667
20
344.0798075646
11
137.9216824822
21
343.2287438363
0
LINE
5
2DF
100
AcDbEntity
8
0
100
AcDbLine
62
7
6
CONTINUOUS
10
146.0883485130
20
344.0798075646
11
145.9216824822
21
343.2287438363
0
LINE
5
2E0
100
AcDbEntity
8
0
100
AcDbLine
62
7
6
CONTINUOUS
10
167.3957643841
20
203.6987438959
11
166.9818252057
21
203.9966162008
0
LINE
5
2E1
100
AcDbEntity
8
0
100
AcDbLine
62
7
6
CONTINUOUS
10
169.2345812320
20
197.7412970153
11
169.7520057971
21
197.2944885188
0
LINE
5
2E2
100
AcDbEntity
8
0
100
AcDbLine
62
7
6
CONTINUOUS
10
169.4654555386
20
197.7412970153
11
169.9828801037
21
197.2944885188
0
LINE
5
2E3
100
AcDbEntity
8
0
100
AcDbLine
62
7
6
CONTINUOUS
10
169.1310982139
20
200.2732119721
11
169.6485204104
21
199.8264035148
0
LINE
5
2E4
100
AcDbEntity
8
0
100
AcDbLine
62
7
6
CONTINUOUS
10
169.3619725205
20
200.2732119721
11
169.8793947170
21
199.8264035148
0
LINE
5
2E5
100
AcDbEntity
8
0
100
AcDbLine
62
7
6
CONTINUOUS
10
171.9490858715
20
203.5498077435
11
171.4316636750
21
203.9966162008
0
LINE
5
2E6
100
AcDbEntity
8
0
100
AcDbLine
62
7
6
CONTINUOUS
10
164.3708059530
20
197.8902332199
11
164.6812597446
21
197.5923608628
0
LINE
5
2E7
100
AcDbEntity
8
0
100
AcDbLine
62
7
6
CONTINUOUS
10
164.6016802596
20
197.8902332199
11
164.9121340512
21
197.5923608628
0
LINE
5
2E8
100
AcDbEntity
8
0
100
AcDbLine
62
7
6
CONTINUOUS
10
166.7509508991
20
200.2732119721
11
167.0614046907
21
199.9753396672
0
LINE
5
2E9
100
AcDbEntity
8
0
100
AcDbLine
62
7
6
CONTINUOUS
10
166.9818252057
20
200.2732119721
11
167.2922789974
21
199.9753396672
0
LINE
5
2EA
100
AcDbEntity
8
0
100
AcDbLine
62
7
6
CONTINUOUS
10
170.0863631219
20
198.0391693723
11
169.7759093303
21
198.3370416773
0
LINE
5
2EB
100
AcDbEntity
8
0
100
AcDbLine
62
7
6
CONTINUOUS
10
166.6474678810
20
203.2519354385
11
166.9579216726
21
202.9540631336
0
LINE
5
2EC
100
AcDbEntity
8
0
100
AcDbLine
62
7
6
CONTINUOUS
10
166.8783421876
20
203.2519354385
11
167.1887959792
21
202.9540631336
0
LINE
5
2ED
100
AcDbEntity
8
0
100
AcDbLine
62
7
6
CONTINUOUS
10
169.9828801037
20
200.5710842771
11
169.6724263121
21
200.8689565820
0
LINE
5
2EE
100
AcDbEntity
8
0
100
AcDbLine
62
7
6
CONTINUOUS
10
151.9765595981
20
203.5498077435
11
151.5626210119
21
203.9966162008
0
LINE
5
2EF
100
AcDbEntity
8
0
100
AcDbLine
62
7
6
CONTINUOUS
10
149.9068672592
20
198.1881055248
11
149.5964134676
21
198.6349140865
0
LINE
5
2F0
100
AcDbEntity
8
0
100
AcDbLine
62
7
6
CONTINUOUS
10
146.7784243296
20
203.2519354385
11
146.9853936227
21
202.9540631336
0
LINE
5
2F1
100
AcDbEntity
8
0
100
AcDbLine
62
7
6
CONTINUOUS
10
147.0092986362
20
203.2519354385
11
147.2162679293
21
202.9540631336
0
LINE
5
2F2
100
AcDbEntity
8
0
100
AcDbLine
62
7
6
CONTINUOUS
10
149.0550853694
20
201.3157650394
11
149.4690239556
21
200.7200204295
0
LINE
5
2F3
100
AcDbEntity
8
0
100
AcDbLine
62
7
6
CONTINUOUS
10
149.2859596760
20
201.3157650394
11
149.6998982622
21
200.7200204295
0
LINE
5
2F4
100
AcDbEntity
8
0
100
AcDbLine
62
7
6
CONTINUOUS
10
152.4939823867
20
200.1242758197
11
152.0800438005
21
200.7200204295
0
LINE
5
2F5
100
AcDbEntity
8
0
100
AcDbLine
62
7
6
CONTINUOUS
10
151.2282619107
20
203.1029992861
11
151.4352314998
21
202.8051269812
0
LINE
5
2F6
100
AcDbEntity
8
0
100
AcDbLine
62
7
6
CONTINUOUS
10
151.4591362173
20
203.1029992861
11
151.6661058064
21
202.8051269812
0
LINE
5
2F7
100
AcDbEntity
8
0
100
AcDbLine
62
7
6
CONTINUOUS
10
147.8371755125
20
202.9540631336
11
147.5267217209
21
203.5498077435
0
LINE
5
2F8
100
AcDbEntity
8
0
100
AcDbLine
62
7
6
CONTINUOUS
10
107.5780958298
20
334.6829713541
11
107.3348561973
21
335.7709417406
0
LINE
5
2F9
100
AcDbEntity
8
0
100
AcDbLine
62
7
6
CONTINUOUS
10
130.5883489899
20
348.3351271004
11
130.5883489899
21
347.6968287081
0
LINE
5
2FA
100
AcDbEntity
8
0
100
AcDbLine
62
7
6
CONTINUOUS
10
131.5883489899
20
347.4840627760
11
131.5883489899
21
348.3351271004
0
LINE
5
2FB
100
AcDbEntity
8
0
100
AcDbLine
62
7
6
CONTINUOUS
10
132.3416824822
20
193.0955523533
11
132.3416824822
21
208.0955523533
0
LINE
5
2FC
100
AcDbEntity
8
0
100
AcDbLine
62
7
6
CONTINUOUS
10
133.0883489899
20
350.6755523533
11
133.0883489899
21
344.0798075646
0
LINE
5
2FD
100
AcDbEntity
8
0
100
AcDbLine
62
7
6
CONTINUOUS
10
134.0883494667
20
344.0798075646
11
134.0883494667
21
350.6755523533
0
LINE
5
2FE
100
AcDbEntity
8
DEFAULT_1
100
AcDbLine
62
2
6
CENTER
10
136.3416824822
20
274.0955523533
11
136.3416824822
21
119.0955523533
0
LINE
5
2FF
100
AcDbEntity
8
DEFAULT_1
100
AcDbLine
62
2
6
CENTER
10
136.3416824822
20
274.0955523533
11
136.3416824822
21
322.0955523533
0
LINE
5
300
100
AcDbEntity
8
0
100
AcDbLine
62
7
6
CONTINUOUS
10
146.9216824822
20
343.0159779042
11
147.0883485130
21
344.0798075646
0
LINE
5
301
100
AcDbEntity
8
0
100
AcDbLine
62
7
6
CONTINUOUS
10
171.0973039817
20
203.2519354385
11
171.4077577733
21
202.9540631336
0
LINE
5
302
100
AcDbEntity
8
0
100
AcDbLine
62
7
6
CONTINUOUS
10
171.3281782883
20
203.2519354385
11
171.6386320799
21
202.9540631336
0
LINE
5
303
100
AcDbEntity
8
0
100
AcDbLine
62
7
6
CONTINUOUS
10
165.1191024561
20
198.1881055248
11
164.9121340512
21
198.4859779340
0
LINE
5
304
100
AcDbEntity
8
0
100
AcDbLine
62
7
6
CONTINUOUS
10
152.2870133897
20
202.9540631336
11
151.9765595981
21
203.5498077435
0
LINE
5
305
100
AcDbEntity
8
0
100
AcDbLine
62
7
6
CONTINUOUS
10
151.6422004969
20
199.8264035148
11
151.8491694939
21
199.3795948488
0
LINE
5
306
100
AcDbEntity
8
0
100
AcDbLine
62
7
6
CONTINUOUS
10
151.8730748035
20
199.8264035148
11
152.0800438005
21
199.3795948488
0
LINE
5
307
100
AcDbEntity
8
0
100
AcDbLine
62
7
6
CONTINUOUS
10
148.7446318738
20
198.4859779340
11
149.0550853694
21
197.7412970153
0
LINE
5
308
100
AcDbEntity
8
0
100
AcDbLine
62
7
6
CONTINUOUS
10
148.9755061804
20
198.4859779340
11
149.2859596760
21
197.7412970153
0
LINE
5
309
100
AcDbEntity
8
0
100
AcDbLine
62
7
6
CONTINUOUS
10
151.4352314998
20
202.8051269812
11
151.5387157023
21
202.5072546762
0
LINE
5
30A
100
AcDbEntity
8
0
100
AcDbLine
62
7
6
CONTINUOUS
10
152.7009513837
20
199.5285310012
11
152.4939823867
21
200.1242758197
0
LINE
5
30B
100
AcDbEntity
8
0
100
AcDbLine
62
7
6
CONTINUOUS
10
151.6661058064
20
202.8051269812
11
151.7695900089
21
202.5072546762
0
LINE
5
30C
100
AcDbEntity
8
0
100
AcDbLine
62
7
6
CONTINUOUS
10
106.5067852571
20
335.5385356967
11
106.6815967256
21
334.9024203361
0
LINE
5
30D
100
AcDbEntity
8
0
100
AcDbLine
62
7
6
CONTINUOUS
10
148.0441448056
20
197.1455523533
11
147.1127834308
21
200.5710842771
0
LINE
5
30E
100
AcDbEntity
8
0
100
AcDbLine
62
7
6
CONTINUOUS
10
146.2610013929
20
200.2732119721
11
147.0888781212
21
197.1455523533
0
LINE
5
30F
100
AcDbEntity
8
0
100
AcDbLine
62
7
6
CONTINUOUS
10
146.4918756995
20
200.2732119721
11
147.3197524278
21
197.1455523533
0
LINE
5
310
100
AcDbEntity
8
0
100
AcDbLine
62
7
6
CONTINUOUS
10
146.9853936227
20
202.9540631336
11
147.0888781212
21
202.5072546762
0
LINE
5
311
100
AcDbEntity
8
0
100
AcDbLine
62
7
6
CONTINUOUS
10
147.2162679293
20
202.9540631336
11
147.3197524278
21
202.5072546762
0
LINE
5
312
100
AcDbEntity
8
0
100
AcDbLine
62
7
6
CONTINUOUS
10
138.0883494667
20
350.6755523533
11
138.0883494667
21
344.0798075646
0
LINE
5
313
100
AcDbEntity
8
0
100
AcDbLine
62
7
6
CONTINUOUS
10
139.0883494667
20
344.0798075646
11
139.0883494667
21
350.6755523533
0
LINE
5
314
100
AcDbEntity
8
0
100
AcDbLine
62
7
6
CONTINUOUS
10
140.3416824822
20
193.0955523533
11
140.3416824822
21
208.0955523533
0
LINE
5
315
100
AcDbEntity
8
0
100
AcDbLine
62
7
6
CONTINUOUS
10
140.4216824822
20
350.6755523533
11
140.4216824822
21
340.6755523533
0
LINE
5
316
100
AcDbEntity
8
0
100
AcDbLine
62
7
6
CONTINUOUS
10
141.4216824822
20
341.9521480948
11
141.4216824822
21
349.3989567608
0
LINE
5
317
100
AcDbEntity
8
0
100
AcDbLine
62
7
6
CONTINUOUS
10
143.8808557065
20
204.1455523533
11
143.8808557065
21
197.1455523533
0
LINE
5
318
100
AcDbEntity
8
0
100
AcDbLine
62
7
6
CONTINUOUS
10
144.1117300132
20
204.1455523533
11
144.1117300132
21
197.1455523533
0
LINE
5
319
100
AcDbEntity
8
0
100
AcDbLine
62
7
6
CONTINUOUS
10
144.7326375964
20
197.1455523533
11
144.7326375964
21
200.2732119721
0
LINE
5
31A
100
AcDbEntity
8
0
100
AcDbLine
62
7
6
CONTINUOUS
10
144.7326375964
20
201.1668288869
11
144.7326375964
21
203.4008715910
0
LINE
5
31B
100
AcDbEntity
8
0
100
AcDbLine
62
7
6
CONTINUOUS
10
146.0883485130
20
347.2712968439
11
146.0883485130
21
344.0798075646
0
LINE
5
31C
100
AcDbEntity
8
0
100
AcDbLine
62
7
6
CONTINUOUS
10
147.0883485130
20
344.0798075646
11
147.0883485130
21
347.2712968439
0
LINE
5
31D
100
AcDbEntity
8
0
100
AcDbLine
62
7
6
CONTINUOUS
10
147.0888781212
20
202.5072546762
11
147.0888781212
21
202.0604458016
0
LINE
5
31E
100
AcDbEntity
8
0
100
AcDbLine
62
7
6
CONTINUOUS
10
147.3197524278
20
202.5072546762
11
147.3197524278
21
202.0604458016
0
LINE
5
31F
100
AcDbEntity
8
0
100
AcDbLine
62
7
6
CONTINUOUS
10
167.8097035624
20
203.1029992861
11
167.3957643841
21
203.6987438959
0
LINE
5
320
100
AcDbEntity
8
0
100
AcDbLine
62
7
6
CONTINUOUS
10
168.9241274404
20
198.3370416773
11
169.2345812320
21
197.7412970153
0
LINE
5
321
100
AcDbEntity
8
0
100
AcDbLine
62
7
6
CONTINUOUS
10
169.1550017470
20
198.3370416773
11
169.4654555386
21
197.7412970153
0
LINE
5
322
100
AcDbEntity
8
0
100
AcDbLine
62
7
6
CONTINUOUS
10
168.8206444223
20
200.8689565820
11
169.1310982139
21
200.2732119721
0
LINE
5
323
100
AcDbEntity
8
0
100
AcDbLine
62
7
6
CONTINUOUS
10
169.0515187289
20
200.8689565820
11
169.3619725205
21
200.2732119721
0
LINE
5
324
100
AcDbEntity
8
0
100
AcDbLine
62
7
6
CONTINUOUS
10
164.1638375481
20
198.3370416773
11
164.3708059530
21
197.8902332199
0
LINE
5
325
100
AcDbEntity
8
0
100
AcDbLine
62
7
6
CONTINUOUS
10
164.3947118547
20
198.3370416773
11
164.6016802596
21
197.8902332199
0
LINE
5
326
100
AcDbEntity
8
0
100
AcDbLine
62
7
6
CONTINUOUS
10
167.9131865806
20
199.9753396672
11
167.7062181757
21
200.4221481246
0
LINE
5
327
100
AcDbEntity
8
0
100
AcDbLine
62
7
6
CONTINUOUS
10
166.9579216726
20
202.9540631336
11
167.1648900775
21
202.5072546762
0
LINE
5
328
100
AcDbEntity
8
0
100
AcDbLine
62
7
6
CONTINUOUS
10
167.1887959792
20
202.9540631336
11
167.3957643841
21
202.5072546762
0
LINE
5
329
100
AcDbEntity
8
0
100
AcDbLine
62
7
6
CONTINUOUS
10
169.7759093303
20
198.3370416773
11
169.5689409254
21
198.7838502389
0
LINE
5
32A
100
AcDbEntity
8
0
100
AcDbLine
62
7
6
CONTINUOUS
10
159.1169962130
20
201.7780308176
11
160.3349066620
21
197.1455523533
0
LINE
5
32B
100
AcDbEntity
8
0
100
AcDbLine
62
7
6
CONTINUOUS
10
147.9406600110
20
202.5072546762
11
147.8371755125
21
202.9540631336
0
LINE
5
32C
100
AcDbEntity
8
0
100
AcDbLine
62
7
6
CONTINUOUS
10
149.5964134676
20
198.6349140865
11
149.4929292652
21
199.0817225439
0
LINE
5
32D
100
AcDbEntity
8
0
100
AcDbLine
62
7
6
CONTINUOUS
10
149.9068672592
20
201.6136373443
11
149.8033830568
21
202.0604458016
0
LINE
5
32E
100
AcDbEntity
8
0
100
AcDbLine
62
7
6
CONTINUOUS
10
152.3904975921
20
202.5072546762
11
152.2870133897
21
202.9540631336
0
LINE
5
32F
100
AcDbEntity
8
0
100
AcDbLine
62
7
6
CONTINUOUS
10
148.6411470792
20
199.0817225439
11
148.7446318738
21
198.4859779340
0
LINE
5
330
100
AcDbEntity
8
0
100
AcDbLine
62
7
6
CONTINUOUS
10
148.8720213859
20
199.0817225439
11
148.9755061804
21
198.4859779340
0
LINE
5
331
100
AcDbEntity
8
0
100
AcDbLine
62
7
6
CONTINUOUS
10
148.9516011669
20
201.9115096492
11
149.0550853694
21
201.3157650394
0
LINE
5
332
100
AcDbEntity
8
0
100
AcDbLine
62
7
6
CONTINUOUS
10
149.1824754735
20
201.9115096492
11
149.2859596760
21
201.3157650394
0
LINE
5
333
100
AcDbEntity
8
0
100
AcDbLine
62
7
6
CONTINUOUS
10
147.9406600110
20
201.9115096492
11
147.9406600110
21
202.5072546762
0
LINE
5
334
100
AcDbEntity
8
0
100
AcDbLine
62
7
6
CONTINUOUS
10
148.9516011669
20
202.5072546762
11
148.9516011669
21
201.9115096492
0
LINE
5
335
100
AcDbEntity
8
0
100
AcDbLine
62
7
6
CONTINUOUS
10
149.1824754735
20
202.5072546762
11
149.1824754735
21
201.9115096492
0
LINE
5
336
100
AcDbEntity
8
0
100
AcDbLine
62
7
6
CONTINUOUS
10
149.8033830568
20
202.0604458016
11
149.8033830568
21
202.3583181066
0
LINE
5
337
100
AcDbEntity
8
0
100
AcDbLine
62
7
6
CONTINUOUS
10
151.8491694939
20
199.3795948488
11
151.8491694939
21
198.9327863914
0
LINE
5
338
100
AcDbEntity
8
0
100
AcDbLine
62
7
6
CONTINUOUS
10
152.0800438005
20
199.3795948488
11
152.0800438005
21
198.9327863914
0
LINE
5
339
100
AcDbEntity
8
0
100
AcDbLine
62
7
6
CONTINUOUS
10
152.7009513837
20
198.7838502389
11
152.7009513837
21
199.5285310012
0
LINE
5
33A
100
AcDbEntity
8
0
100
AcDbLine
62
7
6
CONTINUOUS
10
152.9916824822
20
188.0955523533
11
152.9916824822
21
177.7739794780
0
LINE
5
33B
100
AcDbEntity
8
0
100
AcDbLine
62
7
6
CONTINUOUS
10
155.8416824822
20
174.0955523533
11
155.8416824822
21
132.0955523533
0
LINE
5
33C
100
AcDbEntity
8
0
100
AcDbLine
62
7
6
CONTINUOUS
10
149.0550853694
20
203.1029992861
11
148.9516011669
21
202.5072546762
0
LINE
5
33D
100
AcDbEntity
8
0
100
AcDbLine
62
7
6
CONTINUOUS
10
149.2859596760
20
203.1029992861
11
149.1824754735
21
202.5072546762
0
LINE
5
33E
100
AcDbEntity
8
0
100
AcDbLine
62
7
6
CONTINUOUS
10
147.0888781212
20
202.0604458016
11
146.9853936227
21
201.6136373443
0
LINE
5
33F
100
AcDbEntity
8
0
100
AcDbLine
62
7
6
CONTINUOUS
10
147.3197524278
20
202.0604458016
11
147.2162679293
21
201.6136373443
0
LINE
5
340
100
AcDbEntity
8
0
100
AcDbLine
62
7
6
CONTINUOUS
10
98.5216824822
20
339.0358063911
11
101.2876398973
21
334.2450276166
0
LINE
5
341
100
AcDbEntity
8
0
100
AcDbLine
62
7
6
CONTINUOUS
10
101.4774128863
20
335.5829977846
11
99.7752851316
21
338.5311695366
0
LINE
5
342
100
AcDbEntity
8
0
100
AcDbLine
62
7
6
CONTINUOUS
10
106.2940193251
20
335.9070571011
11
106.5067852571
21
335.5385356967
0
LINE
5
343
100
AcDbEntity
8
0
100
AcDbLine
62
7
6
CONTINUOUS
10
103.9610744628
20
340.9478361338
11
103.4291596326
21
341.8691396450
0
LINE
5
344
100
AcDbEntity
8
0
100
AcDbLine
62
7
6
CONTINUOUS
10
107.3348561973
20
335.7709417406
11
106.9093243331
21
336.5079845495
0
LINE
5
345
100
AcDbEntity
8
0
100
AcDbLine
62
7
6
CONTINUOUS
10
172.2595396632
20
202.9540631336
11
171.9490858715
21
203.5498077435
0
LINE
5
346
100
AcDbEntity
8
0
100
AcDbLine
62
7
6
CONTINUOUS
10
169.6724263121
20
200.8689565820
11
169.4654555386
21
201.3157650394
0
LINE
5
347
100
AcDbEntity
8
0
100
AcDbLine
62
7
6
CONTINUOUS
10
171.4077577733
20
202.9540631336
11
171.6147285468
21
202.5072546762
0
LINE
5
348
100
AcDbEntity
8
0
100
AcDbLine
62
7
6
CONTINUOUS
10
171.6386320799
20
202.9540631336
11
171.8456028534
21
202.5072546762
0
LINE
5
349
100
AcDbEntity
8
0
100
AcDbLine
62
7
6
CONTINUOUS
10
164.9121340512
20
198.4859779340
11
164.8086486645
21
198.7838502389
0
LINE
5
34A
100
AcDbEntity
8
0
100
AcDbLine
62
7
6
CONTINUOUS
10
167.0614046907
20
199.9753396672
11
167.2683754642
21
199.3795948488
0
LINE
5
34B
100
AcDbEntity
8
0
100
AcDbLine
62
7
6
CONTINUOUS
10
167.2922789974
20
199.9753396672
11
167.4992497708
21
199.3795948488
0
LINE
5
34C
100
AcDbEntity
8
0
100
AcDbLine
62
7
6
CONTINUOUS
10
168.6136736488
20
201.6136373443
11
168.8206444223
21
200.8689565820
0
LINE
5
34D
100
AcDbEntity
8
0
100
AcDbLine
62
7
6
CONTINUOUS
10
168.8445479554
20
201.6136373443
11
169.0515187289
21
200.8689565820
0
LINE
5
34E
100
AcDbEntity
8
0
100
AcDbLine
62
7
6
CONTINUOUS
10
159.1169962130
20
202.6561908287
11
160.5657809686
21
197.1455523533
0
LINE
5
34F
100
AcDbEntity
8
0
100
AcDbLine
62
7
6
CONTINUOUS
10
130.4216824822
20
348.9734248966
11
130.5883489899
21
348.3351271004
0
LINE
5
350
100
AcDbEntity
8
0
100
AcDbLine
62
7
6
CONTINUOUS
10
160.9797189627
20
197.8902332199
11
159.4274500046
21
204.1455523533
0
LINE
5
351
100
AcDbEntity
8
0
100
AcDbLine
62
7
6
CONTINUOUS
10
164.0603521613
20
198.7838502389
11
164.1638375481
21
198.3370416773
0
LINE
5
352
100
AcDbEntity
8
0
100
AcDbLine
62
7
6
CONTINUOUS
10
164.2912264680
20
198.7838502389
11
164.3947118547
21
198.3370416773
0
LINE
5
353
100
AcDbEntity
8
0
100
AcDbLine
62
7
6
CONTINUOUS
10
134.2550154976
20
343.2287438363
11
134.0883494667
21
344.0798075646
0
LINE
5
354
100
AcDbEntity
8
0
100
AcDbLine
62
7
6
CONTINUOUS
10
133.0883489899
20
344.0798075646
11
133.2550159744
21
343.0159779042
0
LINE
5
355
100
AcDbEntity
8
0
100
AcDbLine
62
7
6
CONTINUOUS
10
158.2652143232
20
204.1455523533
11
158.2652143232
21
197.1455523533
0
LINE
5
356
100
AcDbEntity
8
0
100
AcDbLine
62
7
6
CONTINUOUS
10
158.4960886298
20
204.1455523533
11
158.4960886298
21
197.1455523533
0
LINE
5
357
100
AcDbEntity
8
0
100
AcDbLine
62
7
6
CONTINUOUS
10
159.1169962130
20
197.1455523533
11
159.1169962130
21
202.6561908287
0
LINE
5
358
100
AcDbEntity
8
0
100
AcDbLine
62
7
6
CONTINUOUS
10
162.6115674057
20
201.7780300998
11
162.6115674057
21
197.1455523533
0
LINE
5
359
100
AcDbEntity
8
0
100
AcDbLine
62
7
6
CONTINUOUS
10
162.8424417123
20
202.6561908287
11
162.8424417123
21
197.1455523533
0
LINE
5
35A
100
AcDbEntity
8
0
100
AcDbLine
62
7
6
CONTINUOUS
10
163.4633492956
20
197.1455523533
11
163.4633492956
21
204.1455523533
0
LINE
5
35B
100
AcDbEntity
8
0
100
AcDbLine
62
7
6
CONTINUOUS
10
165.7161065061
20
201.0178927344
11
165.7161065061
21
200.4221481246
0
LINE
5
35C
100
AcDbEntity
8
0
100
AcDbLine
62
7
6
CONTINUOUS
10
165.9469808128
20
201.0178927344
11
165.9469808128
21
200.4221481246
0
LINE
5
35D
100
AcDbEntity
8
0
100
AcDbLine
62
7
6
CONTINUOUS
10
147.8371755125
20
201.4647011918
11
147.9406600110
21
201.9115096492
0
LINE
5
35E
100
AcDbEntity
8
0
100
AcDbLine
62
7
6
CONTINUOUS
10
149.8033830568
20
202.3583181066
11
149.9068672592
21
202.8051269812
0
LINE
5
35F
100
AcDbEntity
8
DEFAULT_1
100
AcDbLine
62
2
6
CENTER
10
136.3416824822
20
274.0955523533
11
88.3416824822
21
274.0955523533
0
LINE
5
360
100
AcDbEntity
8
DEFAULT_1
100
AcDbLine
62
2
6
CENTER
10
136.3416824822
20
274.0955523533
11
184.3416824822
21
274.0955523533
0
LINE
5
361
100
AcDbEntity
8
0
100
AcDbLine
62
7
6
CONTINUOUS
10
106.4682803695
20
339.9385620874
11
106.8938122337
21
339.2015192784
0
LINE
5
362
100
AcDbEntity
8
0
100
AcDbLine
62
7
6
CONTINUOUS
10
106.7719170192
20
342.0793149677
11
107.6229810456
21
340.6052288336
0
LINE
5
363
100
AcDbEntity
8
0
100
AcDbLine
62
7
6
CONTINUOUS
10
108.0485129097
20
339.8681860246
11
110.1761724541
21
336.1829715926
0
LINE
5
364
100
AcDbEntity
8
0
100
AcDbLine
62
7
6
CONTINUOUS
10
110.6850940087
20
336.9681596338
11
108.7702004709
21
340.2848525323
0
LINE
5
365
100
AcDbEntity
8
0
100
AcDbLine
62
7
6
CONTINUOUS
10
108.3446686068
20
341.0218953413
11
107.4936045804
21
342.4959814754
0
LINE
5
366
100
AcDbEntity
8
0
100
AcDbLine
62
7
6
CONTINUOUS
10
113.0479619238
20
335.8755523533
11
112.6224300224
21
336.6125952268
0
LINE
5
367
100
AcDbEntity
8
0
100
AcDbLine
62
7
6
CONTINUOUS
10
110.3579134359
20
341.2015190400
11
109.9323815717
21
341.9385618490
0
LINE
5
368
100
AcDbEntity
8
0
100
AcDbLine
62
7
6
CONTINUOUS
10
131.7550159744
20
340.6755523533
11
130.2550159744
21
345.5691693872
0
LINE
5
369
100
AcDbEntity
8
0
100
AcDbLine
62
7
6
CONTINUOUS
10
129.2550157360
20
345.1436375231
11
130.5883489899
21
340.6755523533
0
LINE
5
36A
100
AcDbEntity
8
0
100
AcDbLine
62
7
6
CONTINUOUS
10
172.4665104366
20
202.2093819541
11
172.2595396632
21
202.9540631336
0
LINE
5
36B
100
AcDbEntity
8
0
100
AcDbLine
62
7
6
CONTINUOUS
10
131.5883489899
20
348.3351271004
11
131.4216824822
21
348.9734248966
0
LINE
5
36C
100
AcDbEntity
8
0
100
AcDbLine
62
7
6
CONTINUOUS
10
168.8206444223
20
198.7838502389
11
168.9241274404
21
198.3370416773
0
LINE
5
36D
100
AcDbEntity
8
0
100
AcDbLine
62
7
6
CONTINUOUS
10
169.0515187289
20
198.7838502389
11
169.1550017470
21
198.3370416773
0
LINE
5
36E
100
AcDbEntity
8
0
100
AcDbLine
62
7
6
CONTINUOUS
10
169.4654555386
20
201.3157650394
11
169.3619725205
21
201.7625734967
0
LINE
5
36F
100
AcDbEntity
8
0
100
AcDbLine
62
7
6
CONTINUOUS
10
171.6147285468
20
202.5072546762
11
171.7182115649
21
202.0604458016
0
LINE
5
370
100
AcDbEntity
8
0
100
AcDbLine
62
7
6
CONTINUOUS
10
171.8456028534
20
202.5072546762
11
171.9490858715
21
202.0604458016
0
LINE
5
371
100
AcDbEntity
8
0
100
AcDbLine
62
7
6
CONTINUOUS
10
145.9216824822
20
348.1223605722
11
146.0883485130
21
347.2712968439
0
LINE
5
372
100
AcDbEntity
8
0
100
AcDbLine
62
7
6
CONTINUOUS
10
168.0166719673
20
199.3795948488
11
167.9131865806
21
199.9753396672
0
LINE
5
373
100
AcDbEntity
8
0
100
AcDbLine
62
7
6
CONTINUOUS
10
167.9131865806
20
202.5072546762
11
167.8097035624
21
203.1029992861
0
LINE
5
374
100
AcDbEntity
8
0
100
AcDbLine
62
7
6
CONTINUOUS
10
147.0883485130
20
347.2712968439
11
146.9216824822
21
348.3351271004
0
LINE
5
375
100
AcDbEntity
8
0
100
AcDbLine
62
7
6
CONTINUOUS
10
172.5699934548
20
201.1668288869
11
172.4665104366
21
202.2093819541
0
LINE
5
376
100
AcDbEntity
8
0
100
AcDbLine
62
7
6
CONTINUOUS
10
167.1648900775
20
202.5072546762
11
167.1648900775
21
202.2093819541
0
LINE
5
377
100
AcDbEntity
8
0
100
AcDbLine
62
7
6
CONTINUOUS
10
167.2683754642
20
199.3795948488
11
167.2683754642
21
198.7838502389
0
LINE
5
378
100
AcDbEntity
8
0
100
AcDbLine
62
7
6
CONTINUOUS
10
167.3957643841
20
202.5072546762
11
167.3957643841
21
202.2093819541
0
LINE
5
379
100
AcDbEntity
8
0
100
AcDbLine
62
7
6
CONTINUOUS
10
167.4992497708
20
199.3795948488
11
167.4992497708
21
198.7838502389
0
LINE
5
37A
100
AcDbEntity
8
0
100
AcDbLine
62
7
6
CONTINUOUS
10
167.9131865806
20
202.2093819541
11
167.9131865806
21
202.5072546762
0
LINE
5
37B
100
AcDbEntity
8
0
100
AcDbLine
62
7
6
CONTINUOUS
10
168.0166719673
20
198.7838502389
11
168.0166719673
21
199.3795948488
0
LINE
5
37C
100
AcDbEntity
8
0
100
AcDbLine
62
7
6
CONTINUOUS
10
168.6136736488
20
202.2093819541
11
168.6136736488
21
201.6136373443
0
LINE
5
37D
100
AcDbEntity
8
0
100
AcDbLine
62
7
6
CONTINUOUS
10
168.8445479554
20
202.2093819541
11
168.8445479554
21
201.6136373443
0
LINE
5
37E
100
AcDbEntity
8
0
100
AcDbLine
62
7
6
CONTINUOUS
10
169.3619725205
20
201.7625734967
11
169.3619725205
21
202.0604458016
0
LINE
5
37F
100
AcDbEntity
8
0
100
AcDbLine
62
7
6
CONTINUOUS
10
171.7182115649
20
202.0604458016
11
171.7182115649
21
201.7625734967
0
LINE
5
380
100
AcDbEntity
8
0
100
AcDbLine
62
7
6
CONTINUOUS
10
171.8216969517
20
200.2006302572
11
171.8216969517
21
200.1242758197
0
LINE
5
381
100
AcDbEntity
8
0
100
AcDbLine
62
7
6
CONTINUOUS
10
171.9490858715
20
202.0604458016
11
171.9490858715
21
201.7625734967
0
LINE
5
382
100
AcDbEntity
8
0
100
AcDbLine
62
7
6
CONTINUOUS
10
172.0525712583
20
200.4221481246
11
172.0525712583
21
200.1242758197
0
LINE
5
383
100
AcDbEntity
8
0
100
AcDbLine
62
7
6
CONTINUOUS
10
172.5699934548
20
200.1242758197
11
172.5699934548
21
201.1668288869
0
LINE
5
384
100
AcDbEntity
8
0
100
AcDbLine
62
7
6
CONTINUOUS
10
174.8737042475
20
193.0955523533
11
174.8737042475
21
208.0955523533
0
LINE
5
385
100
AcDbEntity
8
0
100
AcDbLine
62
7
6
CONTINUOUS
10
164.2673205662
20
203.1029992861
11
164.1638375481
21
202.5072546762
0
LINE
5
386
100
AcDbEntity
8
0
100
AcDbLine
62
7
6
CONTINUOUS
10
164.4981948728
20
203.1029992861
11
164.3947118547
21
202.5072546762
0
LINE
5
387
100
AcDbEntity
8
0
100
AcDbLine
62
7
6
CONTINUOUS
10
167.8097035624
20
201.6136373443
11
167.9131865806
21
202.2093819541
0
LINE
5
388
100
AcDbEntity
8
0
100
AcDbLine
62
7
6
CONTINUOUS
10
162.3011136141
20
204.1455523533
11
160.8642818094
21
198.3554207958
0
LINE
5
389
100
AcDbEntity
8
0
100
AcDbLine
62
7
6
CONTINUOUS
10
162.5319879207
20
204.1455523533
11
160.9797189627
21
197.8902332199
0
LINE
5
38A
100
AcDbEntity
8
0
100
AcDbLine
62
7
6
CONTINUOUS
10
161.3936581410
20
197.1455523533
11
162.8424417123
21
202.6561908287
0
LINE
5
38B
100
AcDbEntity
8
0
100
AcDbLine
62
7
6
CONTINUOUS
10
152.4939823867
20
198.1881055248
11
152.7009513837
21
198.7838502389
0
LINE
5
38C
100
AcDbEntity
8
0
100
AcDbLine
62
7
6
CONTINUOUS
10
151.8491694939
20
198.9327863914
11
151.6422004969
21
198.4859779340
0
LINE
5
38D
100
AcDbEntity
8
0
100
AcDbLine
62
7
6
CONTINUOUS
10
152.0800438005
20
198.9327863914
11
151.8730748035
21
198.4859779340
0
LINE
5
38E
100
AcDbEntity
8
0
100
AcDbLine
62
7
6
CONTINUOUS
10
147.5267217209
20
200.8689565820
11
147.8371755125
21
201.4647011918
0
LINE
5
38F
100
AcDbEntity
8
0
100
AcDbLine
62
7
6
CONTINUOUS
10
146.9853936227
20
201.6136373443
11
146.7784243296
21
201.3157650394
0
LINE
5
390
100
AcDbEntity
8
0
100
AcDbLine
62
7
6
CONTINUOUS
10
147.2162679293
20
201.6136373443
11
147.0092986362
21
201.3157650394
0
LINE
5
391
100
AcDbEntity
8
0
100
AcDbLine
62
7
6
CONTINUOUS
10
149.4690239556
20
203.6987438959
11
149.0550853694
21
203.1029992861
0
LINE
5
392
100
AcDbEntity
8
0
100
AcDbLine
62
7
6
CONTINUOUS
10
149.6998982622
20
203.6987438959
11
149.2859596760
21
203.1029992861
0
LINE
5
393
100
AcDbEntity
8
0
100
AcDbLine
62
7
6
CONTINUOUS
10
119.1058960445
20
176.3597659157
11
116.8416824822
21
174.0955523533
0
LINE
5
394
100
AcDbEntity
8
0
100
AcDbLine
62
7
6
CONTINUOUS
10
133.2550159744
20
343.0159779042
11
133.5883494667
21
342.1649140269
0
LINE
5
395
100
AcDbEntity
8
0
100
AcDbLine
62
7
6
CONTINUOUS
10
172.4665104366
20
199.0817225439
11
172.5699934548
21
200.1242758197
0
LINE
5
396
100
AcDbEntity
8
0
100
AcDbLine
62
7
6
CONTINUOUS
10
171.8216969517
20
200.1242758197
11
171.7182115649
21
199.2306586963
0
LINE
5
397
100
AcDbEntity
8
0
100
AcDbLine
62
7
6
CONTINUOUS
10
172.0525712583
20
200.1242758197
11
171.9490858715
21
199.2306586963
0
LINE
5
398
100
AcDbEntity
8
0
100
AcDbLine
62
7
6
CONTINUOUS
10
167.9131865806
20
198.3370416773
11
168.0166719673
21
198.7838502389
0
LINE
5
399
100
AcDbEntity
8
0
100
AcDbLine
62
7
6
CONTINUOUS
10
169.3619725205
20
202.0604458016
11
169.4654555386
21
202.5072546762
0
LINE
5
39A
100
AcDbEntity
8
0
100
AcDbLine
62
7
6
CONTINUOUS
10
171.7182115649
20
201.7625734967
11
171.6147285468
21
201.3157650394
0
LINE
5
39B
100
AcDbEntity
8
0
100
AcDbLine
62
7
6
CONTINUOUS
10
171.9490858715
20
201.7625734967
11
171.8456028534
21
201.3157650394
0
LINE
5
39C
100
AcDbEntity
8
0
100
AcDbLine
62
7
6
CONTINUOUS
10
171.7182115649
20
199.2306586963
11
171.6147285468
21
198.7838502389
0
LINE
5
39D
100
AcDbEntity
8
0
100
AcDbLine
62
7
6
CONTINUOUS
10
171.9490858715
20
199.2306586963
11
171.8456028534
21
198.7838502389
0
LINE
5
39E
100
AcDbEntity
8
0
100
AcDbLine
62
7
6
CONTINUOUS
10
168.8206444223
20
202.9540631336
11
168.6136736488
21
202.2093819541
0
LINE
5
39F
100
AcDbEntity
8
0
100
AcDbLine
62
7
6
CONTINUOUS
10
169.0515187289
20
202.9540631336
11
168.8445479554
21
202.2093819541
0
LINE
5
3A0
100
AcDbEntity
8
0
100
AcDbLine
62
7
6
CONTINUOUS
10
172.2595396632
20
198.3370416773
11
172.4665104366
21
199.0817225439
0
LINE
5
3A1
100
AcDbEntity
8
0
100
AcDbLine
62
7
6
CONTINUOUS
10
167.1648900775
20
202.2093819541
11
166.9579216726
21
201.6136373443
0
LINE
5
3A2
100
AcDbEntity
8
0
100
AcDbLine
62
7
6
CONTINUOUS
10
167.3957643841
20
202.2093819541
11
167.1887959792
21
201.6136373443
0
LINE
5
3A3
100
AcDbEntity
8
0
100
AcDbLine
62
7
6
CONTINUOUS
10
167.2683754642
20
198.7838502389
11
167.1648900775
21
198.4859779340
0
LINE
5
3A4
100
AcDbEntity
8
0
100
AcDbLine
62
7
6
CONTINUOUS
10
167.4992497708
20
198.7838502389
11
167.3957643841
21
198.4859779340
0
LINE
5
3A5
100
AcDbEntity
8
0
100
AcDbLine
62
7
6
CONTINUOUS
10
164.9121340512
20
202.5072546762
11
165.1191024561
21
202.9540631336
0
LINE
5
3A6
100
AcDbEntity
8
0
100
AcDbLine
62
7
6
CONTINUOUS
10
167.6027327890
20
201.1668288869
11
167.8097035624
21
201.6136373443
0
LINE
5
3A7
100
AcDbEntity
8
0
100
AcDbLine
62
7
6
CONTINUOUS
10
169.4654555386
20
202.5072546762
11
169.6724263121
21
202.9540631336
0
LINE
5
3A8
100
AcDbEntity
8
0
100
AcDbLine
62
7
6
CONTINUOUS
10
167.7062181757
20
197.8902332199
11
167.9131865806
21
198.3370416773
0
LINE
5
3A9
100
AcDbEntity
8
0
100
AcDbLine
62
7
6
CONTINUOUS
10
169.1310982139
20
203.5498077435
11
168.8206444223
21
202.9540631336
0
LINE
5
3AA
100
AcDbEntity
8
0
100
AcDbLine
62
7
6
CONTINUOUS
10
169.3619725205
20
203.5498077435
11
169.0515187289
21
202.9540631336
0
LINE
5
3AB
100
AcDbEntity
8
0
100
AcDbLine
62
7
6
CONTINUOUS
10
152.0800438005
20
197.5923608628
11
152.4939823867
21
198.1881055248
0
LINE
5
3AC
100
AcDbEntity
8
0
100
AcDbLine
62
7
6
CONTINUOUS
10
164.6812597446
20
203.6987438959
11
164.2673205662
21
203.1029992861
0
LINE
5
3AD
100
AcDbEntity
8
0
100
AcDbLine
62
7
6
CONTINUOUS
10
164.9121340512
20
203.6987438959
11
164.4981948728
21
203.1029992861
0
LINE
5
3AE
100
AcDbEntity
8
0
100
AcDbLine
62
7
6
CONTINUOUS
10
149.9068672592
20
202.8051269812
11
150.2173210508
21
203.1029992861
0
LINE
5
3AF
100
AcDbEntity
8
0
100
AcDbLine
62
7
6
CONTINUOUS
10
151.6422004969
20
198.4859779340
11
151.3317467052
21
198.1881055248
0
LINE
5
3B0
100
AcDbEntity
8
0
100
AcDbLine
62
7
6
CONTINUOUS
10
151.8730748035
20
198.4859779340
11
151.5626210119
21
198.1881055248
0
LINE
5
3B1
100
AcDbEntity
8
0
100
AcDbLine
62
7
6
CONTINUOUS
10
149.8829625418
20
203.9966162008
11
149.4690239556
21
203.6987438959
0
LINE
5
3B2
100
AcDbEntity
8
0
100
AcDbLine
62
7
6
CONTINUOUS
10
150.1138368484
20
203.9966162008
11
149.6998982622
21
203.6987438959
0
LINE
5
3B3
100
AcDbEntity
8
0
100
AcDbLine
62
7
6
CONTINUOUS
10
147.1127834308
20
200.5710842771
11
147.5267217209
21
200.8689565820
0
LINE
5
3B4
100
AcDbEntity
8
0
100
AcDbLine
62
7
6
CONTINUOUS
10
151.6661058064
20
197.2944885188
11
152.0800438005
21
197.5923608628
0
LINE
5
3B5
100
AcDbEntity
8
0
100
AcDbLine
62
7
6
CONTINUOUS
10
150.2173210508
20
203.1029992861
11
150.5277748424
21
203.2519354385
0
LINE
5
3B6
100
AcDbEntity
8
0
100
AcDbLine
62
7
6
CONTINUOUS
10
146.7784243296
20
201.3157650394
11
146.4679705380
21
201.1668288869
0
LINE
5
3B7
100
AcDbEntity
8
0
100
AcDbLine
62
7
6
CONTINUOUS
10
147.0092986362
20
201.3157650394
11
146.6988448446
21
201.1668288869
0
LINE
5
3B8
100
AcDbEntity
8
0
100
AcDbLine
62
7
6
CONTINUOUS
10
150.2969005358
20
204.1455523533
11
149.8829625418
21
203.9966162008
0
LINE
5
3B9
100
AcDbEntity
8
0
100
AcDbLine
62
7
6
CONTINUOUS
10
150.5277748424
20
204.1455523533
11
150.1138368484
21
203.9966162008
0
LINE
5
3BA
100
AcDbEntity
8
0
100
AcDbLine
62
7
6
CONTINUOUS
10
151.3317467052
20
198.1881055248
11
150.9178081190
21
198.0391693723
0
LINE
5
3BB
100
AcDbEntity
8
0
100
AcDbLine
62
7
6
CONTINUOUS
10
151.5626210119
20
198.1881055248
11
151.1486824257
21
198.0391693723
0
LINE
5
3BC
100
AcDbEntity
8
0
100
AcDbLine
62
7
6
CONTINUOUS
10
165.4295562477
20
203.2519354385
11
165.9469808128
21
203.4008715910
0
LINE
5
3BD
100
AcDbEntity
8
0
100
AcDbLine
62
7
6
CONTINUOUS
10
170.1659426069
20
204.1455523533
11
169.6485204104
21
203.9966162008
0
LINE
5
3BE
100
AcDbEntity
8
0
100
AcDbLine
62
7
6
CONTINUOUS
10
170.3968169135
20
204.1455523533
11
169.8793947170
21
203.9966162008
0
LINE
5
3BF
100
AcDbEntity
8
0
100
AcDbLine
62
7
6
CONTINUOUS
10
102.2450867407
20
332.5866810383
11
102.9592938225
21
332.0163047719
0
LINE
5
3C0
100
AcDbEntity
8
0
100
AcDbLine
62
7
6
CONTINUOUS
10
103.8253192521
20
332.5163047868
11
103.1111121444
21
333.0866810383
0
LINE
5
3C1
100
AcDbEntity
8
0
100
AcDbLine
62
7
6
CONTINUOUS
10
106.9093243331
20
336.5079845495
11
106.0887340817
21
337.2626215727
0
LINE
5
3C2
100
AcDbEntity
8
0
100
AcDbLine
62
7
6
CONTINUOUS
10
105.8305328483
20
336.3765062121
11
106.2940193251
21
335.9070571011
0
LINE
5
3C3
100
AcDbEntity
8
0
100
AcDbLine
62
7
6
CONTINUOUS
10
111.1485808239
20
336.4987108903
11
110.6850940087
21
336.9681596338
0
LINE
5
3C4
100
AcDbEntity
8
0
100
AcDbLine
62
7
6
CONTINUOUS
10
131.4216824822
20
348.9734248966
11
130.9216824822
21
349.8244886250
0
LINE
5
3C5
100
AcDbEntity
8
0
100
AcDbLine
62
7
6
CONTINUOUS
10
134.5883494667
20
342.5904460401
11
134.2550154976
21
343.2287438363
0
LINE
5
3C6
100
AcDbEntity
8
0
100
AcDbLine
62
7
6
CONTINUOUS
10
146.9216824822
20
348.3351271004
11
146.5883485130
21
349.1861908287
0
LINE
5
3C7
100
AcDbEntity
8
0
100
AcDbLine
62
7
6
CONTINUOUS
10
186.3416824822
20
188.0955523533
11
186.3416824822
21
199.3354694454
0
LINE
5
3C8
100
AcDbEntity
8
0
100
AcDbLine
62
7
6
CONTINUOUS
10
171.6147285468
20
201.3157650394
11
171.4077577733
21
200.8689565820
0
LINE
5
3C9
100
AcDbEntity
8
0
100
AcDbLine
62
7
6
CONTINUOUS
10
171.8456028534
20
201.3157650394
11
171.6386320799
21
200.8689565820
0
LINE
5
3CA
100
AcDbEntity
8
0
100
AcDbLine
62
7
6
CONTINUOUS
10
171.6147285468
20
198.7838502389
11
171.4077577733
21
198.3370416773
0
LINE
5
3CB
100
AcDbEntity
8
0
100
AcDbLine
62
7
6
CONTINUOUS
10
171.8456028534
20
198.7838502389
11
171.6386320799
21
198.3370416773
0
LINE
5
3CC
100
AcDbEntity
8
0
100
AcDbLine
62
7
6
CONTINUOUS
10
171.9490858715
20
197.7412970153
11
172.2595396632
21
198.3370416773
0
LINE
5
3CD
100
AcDbEntity
8
0
100
AcDbLine
62
7
6
CONTINUOUS
10
167.1648900775
20
198.4859779340
11
166.9579216726
21
198.1881055248
0
LINE
5
3CE
100
AcDbEntity
8
0
100
AcDbLine
62
7
6
CONTINUOUS
10
167.3957643841
20
198.4859779340
11
167.1887959792
21
198.1881055248
0
LINE
5
3CF
100
AcDbEntity
8
0
100
AcDbLine
62
7
6
CONTINUOUS
10
166.9579216726
20
201.6136373443
11
166.7509508991
21
201.3157650394
0
LINE
5
3D0
100
AcDbEntity
8
0
100
AcDbLine
62
7
6
CONTINUOUS
10
167.1887959792
20
201.6136373443
11
166.9818252057
21
201.3157650394
0
LINE
5
3D1
100
AcDbEntity
8
0
100
AcDbLine
62
7
6
CONTINUOUS
10
167.1887959792
20
200.7200204295
11
167.6027327890
21
201.1668288869
0
LINE
5
3D2
100
AcDbEntity
8
0
100
AcDbLine
62
7
6
CONTINUOUS
10
165.1191024561
20
202.9540631336
11
165.4295562477
21
203.2519354385
0
LINE
5
3D3
100
AcDbEntity
8
0
100
AcDbLine
62
7
6
CONTINUOUS
10
169.6724263121
20
202.9540631336
11
169.9828801037
21
203.2519354385
0
LINE
5
3D4
100
AcDbEntity
8
0
100
AcDbLine
62
7
6
CONTINUOUS
10
167.3957643841
20
197.5923608628
11
167.7062181757
21
197.8902332199
0
LINE
5
3D5
100
AcDbEntity
8
0
100
AcDbLine
62
7
6
CONTINUOUS
10
171.4077577733
20
200.8689565820
11
171.0973039817
21
200.5710842771
0
LINE
5
3D6
100
AcDbEntity
8
0
100
AcDbLine
62
7
6
CONTINUOUS
10
171.6386320799
20
200.8689565820
11
171.3281782883
21
200.5710842771
0
LINE
5
3D7
100
AcDbEntity
8
0
100
AcDbLine
62
7
6
CONTINUOUS
10
171.4316636750
20
199.8264035148
11
172.0525712583
21
200.4221481246
0
LINE
5
3D8
100
AcDbEntity
8
0
100
AcDbLine
62
7
6
CONTINUOUS
10
171.4077577733
20
198.3370416773
11
171.0973039817
21
198.0391693723
0
LINE
5
3D9
100
AcDbEntity
8
0
100
AcDbLine
62
7
6
CONTINUOUS
10
171.6386320799
20
198.3370416773
11
171.3281782883
21
198.0391693723
0
LINE
5
3DA
100
AcDbEntity
8
0
100
AcDbLine
62
7
6
CONTINUOUS
10
169.6485204104
20
203.9966162008
11
169.1310982139
21
203.5498077435
0
LINE
5
3DB
100
AcDbEntity
8
0
100
AcDbLine
62
7
6
CONTINUOUS
10
169.8793947170
20
203.9966162008
11
169.3619725205
21
203.5498077435
0
LINE
5
3DC
100
AcDbEntity
8
0
100
AcDbLine
62
7
6
CONTINUOUS
10
171.4316636750
20
197.2944885188
11
171.9490858715
21
197.7412970153
0
LINE
5
3DD
100
AcDbEntity
8
0
100
AcDbLine
62
7
6
CONTINUOUS
10
165.0951989229
20
203.9966162008
11
164.6812597446
21
203.6987438959
0
LINE
5
3DE
100
AcDbEntity
8
0
100
AcDbLine
62
7
6
CONTINUOUS
10
165.3260732295
20
203.9966162008
11
164.9121340512
21
203.6987438959
0
LINE
5
3DF
100
AcDbEntity
8
0
100
AcDbLine
62
7
6
CONTINUOUS
10
166.9579216726
20
198.1881055248
11
166.7509508991
21
198.0391693723
0
LINE
5
3E0
100
AcDbEntity
8
0
100
AcDbLine
62
7
6
CONTINUOUS
10
167.1887959792
20
198.1881055248
11
166.9818252057
21
198.0391693723
0
LINE
5
3E1
100
AcDbEntity
8
0
100
AcDbLine
62
7
6
CONTINUOUS
10
166.9818252057
20
197.2944885188
11
167.3957643841
21
197.5923608628
0
LINE
5
3E2
100
AcDbEntity
8
0
100
AcDbLine
62
7
6
CONTINUOUS
10
169.9828801037
20
203.2519354385
11
170.2933338953
21
203.4008715910
0
LINE
5
3E3
100
AcDbEntity
8
0
100
AcDbLine
62
7
6
CONTINUOUS
10
166.7509508991
20
201.3157650394
11
166.1300433159
21
201.0178927344
0
LINE
5
3E4
100
AcDbEntity
8
0
100
AcDbLine
62
7
6
CONTINUOUS
10
166.9818252057
20
201.3157650394
11
166.3609176225
21
201.0178927344
0
LINE
5
3E5
100
AcDbEntity
8
0
100
AcDbLine
62
7
6
CONTINUOUS
10
171.0973039817
20
200.5710842771
11
170.7868501901
21
200.4221481246
0
LINE
5
3E6
100
AcDbEntity
8
0
100
AcDbLine
62
7
6
CONTINUOUS
10
171.3281782883
20
200.5710842771
11
171.0177244967
21
200.4221481246
0
LINE
5
3E7
100
AcDbEntity
8
0
100
AcDbLine
62
7
6
CONTINUOUS
10
171.0973039817
20
198.0391693723
11
170.7868501901
21
197.8902332199
0
LINE
5
3E8
100
AcDbEntity
8
0
100
AcDbLine
62
7
6
CONTINUOUS
10
171.3281782883
20
198.0391693723
11
171.0177244967
21
197.8902332199
0
LINE
5
3E9
100
AcDbEntity
8
0
100
AcDbLine
62
7
6
CONTINUOUS
10
166.5678883960
20
197.1455523533
11
166.9818252057
21
197.2944885188
0
LINE
5
3EA
100
AcDbEntity
8
0
100
AcDbLine
62
7
6
CONTINUOUS
10
151.1486824257
20
197.1455523533
11
151.6661058064
21
197.2944885188
0
LINE
5
3EB
100
AcDbEntity
8
0
100
AcDbLine
62
7
6
CONTINUOUS
10
170.9142414786
20
199.6774671537
11
171.4316636750
21
199.8264035148
0
LINE
5
3EC
100
AcDbEntity
8
0
100
AcDbLine
62
7
6
CONTINUOUS
10
166.7509508991
20
198.0391693723
11
166.4467379091
21
197.9516039131
0
LINE
5
3ED
100
AcDbEntity
8
0
100
AcDbLine
62
7
6
CONTINUOUS
10
166.9818252057
20
198.0391693723
11
166.4644030093
21
197.8902332199
0
LINE
5
3EE
100
AcDbEntity
8
0
100
AcDbLine
62
7
6
CONTINUOUS
10
170.9142414786
20
197.1455523533
11
171.4316636750
21
197.2944885188
0
LINE
5
3EF
100
AcDbEntity
8
0
100
AcDbLine
62
7
6
CONTINUOUS
10
102.9592938225
20
332.0163047719
11
103.8178384000
21
331.5292618835
0
LINE
5
3F0
100
AcDbEntity
8
0
100
AcDbLine
62
7
6
CONTINUOUS
10
110.1761724541
20
336.1829715926
11
110.8903792148
21
335.6125952268
0
LINE
5
3F1
100
AcDbEntity
8
0
100
AcDbLine
62
7
6
CONTINUOUS
10
133.5883494667
20
342.1649140269
11
134.2550154976
21
341.3138502240
0
LINE
5
3F2
100
AcDbEntity
8
0
100
AcDbLine
62
7
6
CONTINUOUS
10
130.0883489899
20
349.3989567608
11
130.4216824822
21
348.9734248966
0
LINE
5
3F3
100
AcDbEntity
8
0
100
AcDbLine
62
7
6
CONTINUOUS
10
145.5883485130
20
348.7606589645
11
145.9216824822
21
348.1223605722
0
LINE
5
3F4
100
AcDbEntity
8
0
100
AcDbLine
62
7
6
CONTINUOUS
10
106.0887340817
20
337.2626215727
11
105.2301895156
21
337.7496643817
0
LINE
5
3F5
100
AcDbEntity
8
0
100
AcDbLine
62
7
6
CONTINUOUS
10
105.2227086779
20
336.7626215727
11
105.8305328483
21
336.3765062121
0
LINE
5
3F6
100
AcDbEntity
8
0
100
AcDbLine
62
7
6
CONTINUOUS
10
200.0745173912
20
213.6839005194
11
223.5127162283
21
270.2687180296
0
LINE
5
3F7
100
AcDbEntity
8
0
100
AcDbLine
62
7
6
CONTINUOUS
10
135.0883494667
20
342.1649140269
11
134.5883494667
21
342.5904460401
0
LINE
5
3F8
100
AcDbEntity
8
0
100
AcDbLine
62
7
6
CONTINUOUS
10
130.9216824822
20
349.8244886250
11
130.2550159744
21
350.4627864212
0
LINE
5
3F9
100
AcDbEntity
8
0
100
AcDbLine
62
7
6
CONTINUOUS
10
146.5883485130
20
349.1861908287
11
145.9216824822
21
350.0372545570
0
LINE
5
3FA
100
AcDbEntity
8
0
100
AcDbLine
62
7
6
CONTINUOUS
10
103.8178384000
20
331.5292618835
11
104.8586751454
21
331.3931463851
0
LINE
5
3FB
100
AcDbEntity
8
0
100
AcDbLine
62
7
6
CONTINUOUS
10
105.2301895156
20
337.7496643817
11
104.1893530563
21
337.8857799807
0
LINE
5
3FC
100
AcDbEntity
8
0
100
AcDbLine
62
7
6
CONTINUOUS
10
104.4710978861
20
332.3977833823
11
103.8253192521
21
332.5163047868
0
LINE
5
3FD
100
AcDbEntity
8
0
100
AcDbLine
62
7
6
CONTINUOUS
10
110.8903792148
20
335.6125952268
11
111.5361578674
21
335.4940737900
0
LINE
5
3FE
100
AcDbEntity
8
0
100
AcDbLine
62
7
6
CONTINUOUS
10
104.5769300439
20
336.8811429772
11
105.2227086779
21
336.7626215727
0
LINE
5
3FF
100
AcDbEntity
8
0
100
AcDbLine
62
7
6
CONTINUOUS
10
111.7943594579
20
336.3801894858
11
111.1485808239
21
336.4987108903
0
LINE
5
400
100
AcDbEntity
8
0
100
AcDbLine
62
7
6
CONTINUOUS
10
134.2550154976
20
341.3138502240
11
134.9216824822
21
340.8883183040
0
LINE
5
401
100
AcDbEntity
8
0
100
AcDbLine
62
7
6
CONTINUOUS
10
145.0883485130
20
349.1861908287
11
145.5883485130
21
348.7606589645
0
LINE
5
402
100
AcDbEntity
8
0
100
AcDbLine
62
7
6
CONTINUOUS
10
155.8416824822
20
132.0955523533
11
152.8416824822
21
129.0955523533
0
LINE
5
403
100
AcDbEntity
8
0
100
AcDbLine
62
7
6
CONTINUOUS
10
104.8586751454
20
331.3931463851
11
105.6867459916
21
331.6255523533
0
LINE
5
404
100
AcDbEntity
8
0
100
AcDbLine
62
7
6
CONTINUOUS
10
112.6224300224
20
336.6125952268
11
111.7943594579
21
336.3801894858
0
LINE
5
405
100
AcDbEntity
8
0
100
AcDbLine
62
7
6
CONTINUOUS
10
104.1893530563
20
337.8857799807
11
103.3612821161
21
337.6533739368
0
LINE
5
406
100
AcDbEntity
8
0
100
AcDbLine
62
7
6
CONTINUOUS
10
144.4216824822
20
340.6755523533
11
145.2550164513
21
340.8883183040
0
LINE
5
407
100
AcDbEntity
8
0
100
AcDbLine
62
7
6
CONTINUOUS
10
136.4216824822
20
340.6755523533
11
137.2550154976
21
340.8883183040
0
LINE
5
408
100
AcDbEntity
8
0
100
AcDbLine
62
7
6
CONTINUOUS
10
105.1548310869
20
332.5468559936
11
104.4710978861
21
332.3977833823
0
LINE
5
409
100
AcDbEntity
8
0
100
AcDbLine
62
7
6
CONTINUOUS
10
103.8931969463
20
336.7320704256
11
104.5769300439
21
336.8811429772
0
LINE
5
40A
100
AcDbEntity
8
0
100
AcDbLine
62
7
6
CONTINUOUS
10
111.5361578674
20
335.4940737900
11
112.0755535447
21
335.5598130717
0
LINE
5
40B
100
AcDbEntity
8
0
100
AcDbLine
62
7
6
CONTINUOUS
10
125.4216824822
20
340.6755523533
11
126.4216824822
21
340.6755523533
0
LINE
5
40C
100
AcDbEntity
8
0
100
AcDbLine
62
7
6
CONTINUOUS
10
130.5883489899
20
340.6755523533
11
131.7550159744
21
340.6755523533
0
LINE
5
40D
100
AcDbEntity
8
0
100
AcDbLine
62
7
6
CONTINUOUS
10
135.7550154976
20
340.6755523533
11
136.4216824822
21
340.6755523533
0
LINE
5
40E
100
AcDbEntity
8
0
100
AcDbLine
62
7
6
CONTINUOUS
10
140.4216824822
20
340.6755523533
11
144.4216824822
21
340.6755523533
0
LINE
5
40F
100
AcDbEntity
8
0
100
AcDbLine
62
7
6
CONTINUOUS
10
144.4216824822
20
341.9521480948
11
141.4216824822
21
341.9521480948
0
LINE
5
410
100
AcDbEntity
8
0
100
AcDbLine
62
7
6
CONTINUOUS
10
136.4216824822
20
341.9521480948
11
135.7550154976
21
341.9521480948
0
LINE
5
411
100
AcDbEntity
8
0
100
AcDbLine
62
7
6
CONTINUOUS
10
134.9216824822
20
340.8883183040
11
135.7550154976
21
340.6755523533
0
LINE
5
412
100
AcDbEntity
8
0
100
AcDbLine
62
7
6
CONTINUOUS
10
135.7550154976
20
341.9521480948
11
135.0883494667
21
342.1649140269
0
LINE
5
413
100
AcDbEntity
8
0
100
AcDbLine
62
7
6
CONTINUOUS
10
129.5883489899
20
349.6117226929
11
130.0883489899
21
349.3989567608
0
LINE
5
414
100
AcDbEntity
8
0
100
AcDbLine
62
7
6
CONTINUOUS
10
145.9216824822
20
350.0372545570
11
145.2550164513
21
350.4627864212
0
LINE
5
415
100
AcDbEntity
8
0
100
AcDbLine
62
7
6
CONTINUOUS
10
200.6868920678
20
333.0288009375
11
223.5127162283
21
277.9223866769
0
LINE
5
416
100
AcDbEntity
8
0
100
AcDbLine
62
7
6
CONTINUOUS
10
126.4216824822
20
345.1436375231
11
129.2550157360
21
345.1436375231
0
LINE
5
417
100
AcDbEntity
8
0
100
AcDbLine
62
7
6
CONTINUOUS
10
129.5883489899
20
346.4202331156
11
126.4216824822
21
346.4202331156
0
LINE
5
418
100
AcDbEntity
8
0
100
AcDbLine
62
7
6
CONTINUOUS
10
141.4216824822
20
349.3989567608
11
144.4216824822
21
349.3989567608
0
LINE
5
419
100
AcDbEntity
8
0
100
AcDbLine
62
7
6
CONTINUOUS
10
126.4216824822
20
349.6117226929
11
129.5883489899
21
349.6117226929
0
LINE
5
41A
100
AcDbEntity
8
0
100
AcDbLine
62
7
6
CONTINUOUS
10
144.4216824822
20
350.6755523533
11
140.4216824822
21
350.6755523533
0
LINE
5
41B
100
AcDbEntity
8
0
100
AcDbLine
62
7
6
CONTINUOUS
10
139.0883494667
20
350.6755523533
11
138.0883494667
21
350.6755523533
0
LINE
5
41C
100
AcDbEntity
8
0
100
AcDbLine
62
7
6
CONTINUOUS
10
134.0883494667
20
350.6755523533
11
133.0883489899
21
350.6755523533
0
LINE
5
41D
100
AcDbEntity
8
0
100
AcDbLine
62
7
6
CONTINUOUS
10
129.4216824822
20
350.6755523533
11
125.4216824822
21
350.6755523533
0
LINE
5
41E
100
AcDbEntity
8
0
100
AcDbLine
62
7
6
CONTINUOUS
10
130.2550159744
20
350.4627864212
11
129.4216824822
21
350.6755523533
0
LINE
5
41F
100
AcDbEntity
8
0
100
AcDbLine
62
7
6
CONTINUOUS
10
145.2550164513
20
350.4627864212
11
144.4216824822
21
350.6755523533
0
LINE
5
420
100
AcDbEntity
8
0
100
AcDbLine
62
7
6
CONTINUOUS
10
144.4216824822
20
349.3989567608
11
145.0883485130
21
349.1861908287
0
LINE
5
421
100
AcDbEntity
8
0
100
AcDbLine
62
7
6
CONTINUOUS
10
140.1685168058
20
361.2665860995
11
195.2749310664
21
338.4407619390
0
LINE
5
422
100
AcDbEntity
8
0
100
AcDbLine
62
7
6
CONTINUOUS
10
303.5254381597
20
129.0955523533
11
336.5254381597
21
129.0955523533
0
LINE
5
423
100
AcDbEntity
8
0
100
AcDbLine
62
7
6
CONTINUOUS
10
300.5254381597
20
132.0955523533
11
339.5254381597
21
132.0955523533
0
LINE
5
424
100
AcDbEntity
8
0
100
AcDbLine
62
7
6
CONTINUOUS
10
300.5254381597
20
132.0955523533
11
303.5254381597
21
129.0955523533
0
LINE
5
425
100
AcDbEntity
8
0
100
AcDbLine
62
7
6
CONTINUOUS
10
300.5254381597
20
174.0955523533
11
339.5254381597
21
174.0955523533
0
LINE
5
426
100
AcDbEntity
8
0
100
AcDbLine
62
7
6
CONTINUOUS
10
270.0254381597
20
188.0955523533
11
270.0254381597
21
211.2186689473
0
LINE
5
427
100
AcDbEntity
8
0
100
AcDbLine
62
7
6
CONTINUOUS
10
270.0263120902
20
188.0955523533
11
370.0245642292
21
188.0955523533
0
LINE
5
428
100
AcDbEntity
8
0
100
AcDbLine
62
7
6
CONTINUOUS
10
369.8651813373
20
193.0955523533
11
351.8889485944
21
193.0955523533
0
LINE
5
429
100
AcDbEntity
8
0
100
AcDbLine
62
7
6
CONTINUOUS
10
351.8889485944
20
208.0955523533
11
369.8651813373
21
208.0955523533
0
LINE
5
42A
100
AcDbEntity
8
0
100
AcDbLine
62
7
6
CONTINUOUS
10
339.8912617349
20
211.3354694454
11
335.3064120824
21
211.3354694454
0
LINE
5
42B
100
AcDbEntity
8
0
100
AcDbLine
62
7
6
CONTINUOUS
10
304.7444642370
20
211.3354694454
11
300.1596145845
21
211.3354694454
0
LINE
5
42C
100
AcDbEntity
8
0
100
AcDbLine
62
7
6
CONTINUOUS
10
337.2612245974
20
176.3597659157
11
339.5254381597
21
174.0955523533
0
LINE
5
42D
100
AcDbEntity
8
0
100
AcDbLine
62
7
6
CONTINUOUS
10
300.5254381597
20
174.0955523533
11
300.5254381597
21
132.0955523533
0
LINE
5
42E
100
AcDbEntity
8
0
100
AcDbLine
62
7
6
CONTINUOUS
10
303.3754381597
20
188.0955523533
11
303.3754381597
21
177.7739794780
0
LINE
5
42F
100
AcDbEntity
8
0
100
AcDbLine
62
7
6
CONTINUOUS
10
300.8706034473
20
358.1597179829
11
295.9751796457
21
209.8124731957
0
LINE
5
430
100
AcDbEntity
8
0
100
AcDbLine
62
7
6
CONTINUOUS
10
278.4610935093
20
221.0955523533
11
294.1001450523
21
223.5725347791
0
LINE
5
431
100
AcDbEntity
8
0
100
AcDbLine
62
7
6
CONTINUOUS
10
361.5897828101
20
221.0955523533
11
345.9507299280
21
223.5725349912
0
LINE
5
432
100
AcDbEntity
8
DEFAULT_1
100
AcDbLine
62
2
6
CENTER
10
320.0254381597
20
367.3698146081
11
320.0254381597
21
129.7877828457
0
LINE
5
433
100
AcDbEntity
8
0
100
AcDbLine
62
7
6
CONTINUOUS
10
336.6754381597
20
188.0955523533
11
336.6754381597
21
177.7739794780
0
LINE
5
434
100
AcDbEntity
8
0
100
AcDbLine
62
7
6
CONTINUOUS
10
344.0756966117
20
209.8124750786
11
339.1802728722
21
358.1597179830
0
LINE
5
435
100
AcDbEntity
8
0
100
AcDbLine
62
7
6
CONTINUOUS
10
339.5254381597
20
174.0955523533
11
339.5254381597
21
132.0955523533
0
LINE
5
436
100
AcDbEntity
8
0
100
AcDbLine
62
7
6
CONTINUOUS
10
340.2254381597
20
350.6755523533
11
340.2254381597
21
331.3931463851
0
LINE
5
437
100
AcDbEntity
8
0
100
AcDbLine
62
7
6
CONTINUOUS
10
351.8889486173
20
193.0955523533
11
351.8889486173
21
208.0955523533
0
LINE
5
438
100
AcDbEntity
8
0
100
AcDbLine
62
7
6
CONTINUOUS
10
302.7896517221
20
176.3597659157
11
300.5254381597
21
174.0955523533
0
LINE
5
439
100
AcDbEntity
8
0
100
AcDbLine
62
7
6
CONTINUOUS
10
369.8651813372
20
193.0955523533
11
369.8651813372
21
208.0955523533
0
LINE
5
43A
100
AcDbEntity
8
0
100
AcDbLine
62
7
6
CONTINUOUS
10
370.0254381597
20
188.0955523533
11
370.0254381597
21
211.2186689473
0
LINE
5
43B
100
AcDbEntity
8
0
100
AcDbLine
62
7
6
CONTINUOUS
10
339.5254381597
20
132.0955523533
11
336.5254381597
21
129.0955523533
0
LINE
5
43C
100
AcDbEntity
8
0
100
AcDbLine
62
7
6
CONTINUOUS
10
340.2254381597
20
331.3931463851
11
340.0635633700
21
331.3931463851
0
LINE
5
43D
100
AcDbEntity
8
0
100
AcDbLine
62
7
6
CONTINUOUS
10
340.2254381597
20
331.5292618835
11
340.0590715909
21
331.5292618835
0
LINE
5
43E
100
AcDbEntity
8
0
100
AcDbLine
62
7
6
CONTINUOUS
10
340.2254381597
20
332.0163047719
11
340.0429992914
21
332.0163047719
0
LINE
5
43F
100
AcDbEntity
8
0
100
AcDbLine
62
7
6
CONTINUOUS
10
340.2254381597
20
332.5866810383
11
340.0241770102
21
332.5866810383
0
LINE
5
440
100
AcDbEntity
8
0
100
AcDbLine
62
7
6
CONTINUOUS
10
340.2254381597
20
333.0866810383
11
340.0076771291
21
333.0866810383
0
LINE
5
441
100
AcDbEntity
8
0
100
AcDbLine
62
7
6
CONTINUOUS
10
340.2254381597
20
333.5644499497
11
339.9919108687
21
333.5644499497
0
LINE
5
442
100
AcDbEntity
8
0
100
AcDbLine
62
7
6
CONTINUOUS
10
340.2254381597
20
334.1829713541
11
339.9714998094
21
334.1829713541
0
LINE
5
443
100
AcDbEntity
8
0
100
AcDbLine
62
7
6
CONTINUOUS
10
340.2254381597
20
334.2450276166
11
339.9694519675
21
334.2450276166
0
LINE
5
444
100
AcDbEntity
8
0
100
AcDbLine
62
7
6
CONTINUOUS
10
340.2254381597
20
339.0358063911
11
339.8113574072
21
339.0358063911
0
LINE
5
445
100
AcDbEntity
8
0
100
AcDbLine
62
7
6
CONTINUOUS
10
340.2254381597
20
341.8691396450
11
339.7178580835
21
341.8691396450
0
LINE
5
446
100
AcDbEntity
8
0
100
AcDbLine
62
7
6
CONTINUOUS
10
340.2254381597
20
342.0793149677
11
339.7109223479
21
342.0793149677
0
LINE
5
447
100
AcDbEntity
8
0
100
AcDbLine
62
7
6
CONTINUOUS
10
340.2254381597
20
342.4959814754
11
339.6971724522
21
342.4959814754
0
LINE
5
448
100
AcDbEntity
8
0
100
AcDbLine
62
7
6
CONTINUOUS
10
340.2254381597
20
350.6755523533
11
339.4272485583
21
350.6755523533
0
LINE
5
449
100
AcDbEntity
8
0
100
AcDbLine
62
7
6
CONTINUOUS
10
335.1824490712
20
362.0277907743
11
304.8684272483
21
362.0277907743
0
LINE
5
44A
100
AcDbEntity
8
0
100
AcDbLine
62
7
6
CONTINUOUS
10
48.4094440611
20
43.6324272353
11
48.4094440611
21
79.4859373804
0
LINE
5
44B
100
AcDbEntity
8
0
100
AcDbLine
62
7
6
CONTINUOUS
10
93.3433857656
20
36.0416103334
11
93.3446048301
21
36.0395562647
0
LINE
5
44C
100
AcDbEntity
8
0
100
AcDbLine
62
7
6
CONTINUOUS
10
98.5216824822
20
41.3591823078
11
98.5216824822
21
41.7732630604
0
LINE
5
44D
100
AcDbEntity
8
0
100
AcDbLine
62
7
6
CONTINUOUS
10
103.4291596326
20
41.3591823078
11
103.4291596326
21
41.8667623840
0
LINE
5
44E
100
AcDbEntity
8
0
100
AcDbLine
62
7
6
CONTINUOUS
10
103.9610744628
20
41.3591823078
11
103.9610744628
21
41.8363595872
0
LINE
5
44F
100
AcDbEntity
8
0
100
AcDbLine
62
7
6
CONTINUOUS
10
104.1893530563
20
41.3591823078
11
104.1893530563
21
41.7353124623
0
LINE
5
450
100
AcDbEntity
8
0
100
AcDbLine
62
7
6
CONTINUOUS
10
105.2301895156
20
41.3591823078
11
105.2301895156
21
41.7308206799
0
LINE
5
451
100
AcDbEntity
8
0
100
AcDbLine
62
7
6
CONTINUOUS
10
106.0887340817
20
41.3591823078
11
106.0887340817
21
41.7147483830
0
LINE
5
452
100
AcDbEntity
8
0
100
AcDbLine
62
7
6
CONTINUOUS
10
106.4682803695
20
41.3591823078
11
106.4682803695
21
41.8030537837
0
LINE
5
453
100
AcDbEntity
8
0
100
AcDbLine
62
7
6
CONTINUOUS
10
106.7719170192
20
41.3591823078
11
106.7719170192
21
41.8736981197
0
LINE
5
454
100
AcDbEntity
8
0
100
AcDbLine
62
7
6
CONTINUOUS
10
107.4936045804
20
41.3591823078
11
107.4936045804
21
41.8874480154
0
LINE
5
455
100
AcDbEntity
8
0
100
AcDbLine
62
7
6
CONTINUOUS
10
108.3446686068
20
41.3591823078
11
108.3446686068
21
41.8388035235
0
LINE
5
456
100
AcDbEntity
8
0
100
AcDbLine
62
7
6
CONTINUOUS
10
109.9323815717
20
41.3591823078
11
109.9323815717
21
41.8690533002
0
LINE
5
457
100
AcDbEntity
8
0
100
AcDbLine
62
7
6
CONTINUOUS
10
220.1348654589
20
39.5692907434
11
196.7467181990
21
37.7059927539
0
LINE
5
458
100
AcDbEntity
8
0
100
AcDbLine
62
7
6
CONTINUOUS
10
196.4290508384
20
37.6933587326
11
196.7532553732
21
37.7065198855
0
LINE
5
459
100
AcDbEntity
8
0
100
AcDbLine
62
7
6
CONTINUOUS
10
75.9457216343
20
37.7052819571
11
76.2543141260
21
37.6933596701
0
LINE
5
45A
100
AcDbEntity
8
0
100
AcDbLine
62
7
6
CONTINUOUS
10
75.9366467653
20
37.7059927539
11
52.5484995065
21
39.5692907433
0
LINE
5
45B
100
AcDbEntity
8
0
100
AcDbLine
62
7
6
CONTINUOUS
10
110.3579134359
20
41.3591823078
11
110.3579134359
21
41.8447310628
0
LINE
5
45C
100
AcDbEntity
8
0
100
AcDbLine
62
7
6
CONTINUOUS
10
110.6850940087
20
41.3591823078
11
110.6850940087
21
41.7050312091
0
LINE
5
45D
100
AcDbEntity
8
0
100
AcDbLine
62
7
6
CONTINUOUS
10
111.1485808239
20
41.3591823078
11
111.1485808239
21
41.6895395122
0
LINE
5
45E
100
AcDbEntity
8
0
100
AcDbLine
62
7
6
CONTINUOUS
10
111.7943594579
20
41.3591823078
11
111.7943594579
21
41.6856283340
0
LINE
5
45F
100
AcDbEntity
8
0
100
AcDbLine
62
7
6
CONTINUOUS
10
112.6224300224
20
41.3591823078
11
112.6224300224
21
41.6932976682
0
LINE
5
460
100
AcDbEntity
8
0
100
AcDbLine
62
7
6
CONTINUOUS
10
113.0479619238
20
41.3591823078
11
113.0479619238
21
41.6689754286
0
LINE
5
461
100
AcDbEntity
8
0
100
AcDbLine
62
7
6
CONTINUOUS
10
138.0883494667
20
41.9397138997
11
137.9216824822
21
41.9116289990
0
LINE
5
462
100
AcDbEntity
8
0
100
AcDbLine
62
7
6
CONTINUOUS
10
137.9216824822
20
41.9116289990
11
137.5883494667
21
41.8905653235
0
LINE
5
463
100
AcDbEntity
8
0
100
AcDbLine
62
7
6
CONTINUOUS
10
181.8045962994
20
37.5000601982
11
181.8051511944
21
37.5000807141
0
LINE
5
464
100
AcDbEntity
8
0
100
AcDbLine
62
7
6
CONTINUOUS
10
137.5883494667
20
41.8905653235
11
137.0883494667
21
41.8765228683
0
LINE
5
465
100
AcDbEntity
8
0
100
AcDbLine
62
7
6
CONTINUOUS
10
137.0883494667
20
41.8765228683
11
136.4216824822
21
41.8695016431
0
LINE
5
466
100
AcDbEntity
8
0
100
AcDbLine
62
7
6
CONTINUOUS
10
112.6224300224
20
41.6932976682
11
111.7943594579
21
41.6856283340
0
LINE
5
467
100
AcDbEntity
8
0
100
AcDbLine
62
7
6
CONTINUOUS
10
104.1893530563
20
41.7353124623
11
103.9620298305
21
41.7332070629
0
LINE
5
468
100
AcDbEntity
8
0
100
AcDbLine
62
7
6
CONTINUOUS
10
196.4290508384
20
37.6933587326
11
195.0728416200
21
37.6933587326
0
LINE
5
469
100
AcDbEntity
8
0
100
AcDbLine
62
7
6
CONTINUOUS
10
77.6105233443
20
37.6933587326
11
76.2543141260
21
37.6933587326
0
LINE
5
46A
100
AcDbEntity
8
0
100
AcDbLine
62
7
6
CONTINUOUS
10
147.0883485130
20
41.3591823078
11
140.4216824822
21
41.3591823078
0
LINE
5
46B
100
AcDbEntity
8
0
100
AcDbLine
62
7
6
CONTINUOUS
10
139.0883494667
20
41.3591823078
11
133.0883489899
21
41.3591823078
0
LINE
5
46C
100
AcDbEntity
8
0
100
AcDbLine
62
7
6
CONTINUOUS
10
131.7550159744
20
41.3591823078
11
125.4216824822
21
41.3591823078
0
LINE
5
46D
100
AcDbEntity
8
0
100
AcDbLine
62
7
6
CONTINUOUS
10
113.0479619238
20
41.3591823078
11
98.5216824822
21
41.3591823078
0
LINE
5
46E
100
AcDbEntity
8
0
100
AcDbLine
62
7
6
CONTINUOUS
10
136.4216824822
20
41.8695016431
11
135.7550154976
21
41.8695016431
0
LINE
5
46F
100
AcDbEntity
8
0
100
AcDbLine
62
7
6
CONTINUOUS
10
144.4216824822
20
42.1573719093
11
140.4216824822
21
42.1573719093
0
LINE
5
470
100
AcDbEntity
8
0
100
AcDbLine
62
7
6
CONTINUOUS
10
139.0883494667
20
42.1573719093
11
138.0883494667
21
42.1573719093
0
LINE
5
471
100
AcDbEntity
8
0
100
AcDbLine
62
7
6
CONTINUOUS
10
134.0883494667
20
42.1573719093
11
133.0883489899
21
42.1573719093
0
LINE
5
472
100
AcDbEntity
8
0
100
AcDbLine
62
7
6
CONTINUOUS
10
129.4216824822
20
42.1573719093
11
125.4216824822
21
42.1573719093
0
LINE
5
473
100
AcDbEntity
8
0
100
AcDbLine
62
7
6
CONTINUOUS
10
105.2301895156
20
41.7308206799
11
104.1893530563
21
41.7353124623
0
LINE
5
474
100
AcDbEntity
8
0
100
AcDbLine
62
7
6
CONTINUOUS
10
111.7943594579
20
41.6856283340
11
111.1485808239
21
41.6895395122
0
LINE
5
475
100
AcDbEntity
8
0
100
AcDbLine
62
7
6
CONTINUOUS
10
130.2550159744
20
42.1503506841
11
129.4216824822
21
42.1573719093
0
LINE
5
476
100
AcDbEntity
8
0
100
AcDbLine
62
7
6
CONTINUOUS
10
145.2550164513
20
42.1503506841
11
144.4216824822
21
42.1573719093
0
LINE
5
477
100
AcDbEntity
8
0
100
AcDbLine
62
7
6
CONTINUOUS
10
135.7550154976
20
41.8695016431
11
135.0883494667
21
41.8765228683
0
LINE
5
478
100
AcDbEntity
8
0
100
AcDbLine
62
7
6
CONTINUOUS
10
106.0887340817
20
41.7147483830
11
105.2301895156
21
41.7308206799
0
LINE
5
479
100
AcDbEntity
8
0
100
AcDbLine
62
7
6
CONTINUOUS
10
135.0883494667
20
41.8765228683
11
134.5883494667
21
41.8905653235
0
LINE
5
47A
100
AcDbEntity
8
0
100
AcDbLine
62
7
6
CONTINUOUS
10
106.4652537605
20
41.7033219614
11
106.0887340817
21
41.7147483830
0
LINE
5
47B
100
AcDbEntity
8
0
100
AcDbLine
62
7
6
CONTINUOUS
10
130.9216824822
20
42.1292870086
11
130.2550159744
21
42.1503506841
0
LINE
5
47C
100
AcDbEntity
8
0
100
AcDbLine
62
7
6
CONTINUOUS
10
111.1485808239
20
41.6895395122
11
110.6850940087
21
41.7050312091
0
LINE
5
47D
100
AcDbEntity
8
0
100
AcDbLine
62
7
6
CONTINUOUS
10
90.8782042256
20
37.5000819969
11
90.8787734933
21
37.5000609453
0
LINE
5
47E
100
AcDbEntity
8
0
100
AcDbLine
62
7
6
CONTINUOUS
10
131.4216824822
20
42.1012021080
11
130.9216824822
21
42.1292870086
0
LINE
5
47F
100
AcDbEntity
8
0
100
AcDbLine
62
7
6
CONTINUOUS
10
103.9610744628
20
41.8363595872
11
103.4291596326
21
41.8667623840
0
LINE
5
480
100
AcDbEntity
8
0
100
AcDbLine
62
7
6
CONTINUOUS
10
110.6850940087
20
41.7050312091
11
110.3510199785
21
41.7241259669
0
LINE
5
481
100
AcDbEntity
8
0
100
AcDbLine
62
7
6
CONTINUOUS
10
108.3446686068
20
41.8388035235
11
107.4936045804
21
41.8874480154
0
LINE
5
482
100
AcDbEntity
8
0
100
AcDbLine
62
7
6
CONTINUOUS
10
113.0479619238
20
41.6689754286
11
112.6224300224
21
41.6932976682
0
LINE
5
483
100
AcDbEntity
8
0
100
AcDbLine
62
7
6
CONTINUOUS
10
110.3579134359
20
41.8447310628
11
109.9323815717
21
41.8690533002
0
LINE
5
484
100
AcDbEntity
8
0
100
AcDbLine
62
7
6
CONTINUOUS
10
134.5883494667
20
41.8905653235
11
134.2550154976
21
41.9116289990
0
LINE
5
485
100
AcDbEntity
8
0
100
AcDbLine
62
7
6
CONTINUOUS
10
131.7550159744
20
41.8273742872
11
131.5883489899
21
41.8453174546
0
LINE
5
486
100
AcDbEntity
8
0
100
AcDbLine
62
7
6
CONTINUOUS
10
131.5883489899
20
42.0801384325
11
131.4216824822
21
42.1012021080
0
LINE
5
487
100
AcDbEntity
8
0
100
AcDbLine
62
7
6
CONTINUOUS
10
134.2550154976
20
41.9116289990
11
134.0883494667
21
41.9397138997
0
LINE
5
488
100
AcDbEntity
8
0
100
AcDbLine
62
7
6
CONTINUOUS
10
109.9323815717
20
41.8690533002
11
108.3446686068
21
41.8388035235
0
LINE
5
489
100
AcDbEntity
8
0
100
AcDbLine
62
7
6
CONTINUOUS
10
106.7731522980
20
41.8088623322
11
106.4682803695
21
41.8030537837
0
LINE
5
48A
100
AcDbEntity
8
0
100
AcDbLine
62
7
6
CONTINUOUS
10
107.4936045804
20
41.8874480154
11
106.7719170192
21
41.8736981197
0
LINE
5
48B
100
AcDbEntity
8
0
100
AcDbLine
62
7
6
CONTINUOUS
10
103.4291596326
20
41.8667623840
11
98.5216824822
21
41.7732630604
0
LINE
5
48C
100
AcDbEntity
8
0
100
AcDbLine
62
7
6
CONTINUOUS
10
145.9216824822
20
42.1363082338
11
145.2550164513
21
42.1503506841
0
LINE
5
48D
100
AcDbEntity
8
0
100
AcDbLine
62
7
6
CONTINUOUS
10
146.5883485130
20
42.1082233331
11
145.9216824822
21
42.1363082338
0
LINE
5
48E
100
AcDbEntity
8
0
100
AcDbLine
62
7
6
CONTINUOUS
10
146.9216824822
20
42.0801384325
11
146.5883485130
21
42.1082233331
0
LINE
5
48F
100
AcDbEntity
8
0
100
AcDbLine
62
7
6
CONTINUOUS
10
147.0883485130
20
42.0450322870
11
146.9216824822
21
42.0801384325
0
LINE
5
490
100
AcDbEntity
8
0
100
AcDbLine
62
7
6
CONTINUOUS
10
125.4216824822
20
41.3591823078
11
125.4216824822
21
42.1573719093
0
LINE
5
491
100
AcDbEntity
8
0
100
AcDbLine
62
7
6
CONTINUOUS
10
129.4216824822
20
41.3591823078
11
129.4216824822
21
42.1573719093
0
LINE
5
492
100
AcDbEntity
8
0
100
AcDbLine
62
7
6
CONTINUOUS
10
130.2550159744
20
41.3591823078
11
130.2550159744
21
42.1503506841
0
LINE
5
493
100
AcDbEntity
8
0
100
AcDbLine
62
7
6
CONTINUOUS
10
130.9216824822
20
41.3591823078
11
130.9216824822
21
42.1292870086
0
LINE
5
494
100
AcDbEntity
8
0
100
AcDbLine
62
7
6
CONTINUOUS
10
131.4216824822
20
41.3591823078
11
131.4216824822
21
42.1012021080
0
LINE
5
495
100
AcDbEntity
8
0
100
AcDbLine
62
7
6
CONTINUOUS
10
131.5883489899
20
41.3591823078
11
131.5883489899
21
42.0801384325
0
LINE
5
496
100
AcDbEntity
8
0
100
AcDbLine
62
7
6
CONTINUOUS
10
131.7550159744
20
41.3591823078
11
131.7550159744
21
41.8273742872
0
LINE
5
497
100
AcDbEntity
8
0
100
AcDbLine
62
7
6
CONTINUOUS
10
133.0883489899
20
41.3591823078
11
133.0883489899
21
42.1573719093
0
LINE
5
498
100
AcDbEntity
8
0
100
AcDbLine
62
7
6
CONTINUOUS
10
134.0883494667
20
41.3591823078
11
134.0883494667
21
42.1573719093
0
LINE
5
499
100
AcDbEntity
8
0
100
AcDbLine
62
7
6
CONTINUOUS
10
134.2550154976
20
41.3591823078
11
134.2550154976
21
41.9116289990
0
LINE
5
49A
100
AcDbEntity
8
0
100
AcDbLine
62
7
6
CONTINUOUS
10
134.5883494667
20
41.3591823078
11
134.5883494667
21
41.8905653235
0
LINE
5
49B
100
AcDbEntity
8
0
100
AcDbLine
62
7
6
CONTINUOUS
10
135.0883494667
20
41.3591823078
11
135.0883494667
21
41.8765228683
0
LINE
5
49C
100
AcDbEntity
8
0
100
AcDbLine
62
7
6
CONTINUOUS
10
135.7550154976
20
41.3591823078
11
135.7550154976
21
41.8695016431
0
LINE
5
49D
100
AcDbEntity
8
DEFAULT_1
100
AcDbLine
62
2
6
CENTER
10
136.3416824822
20
61.5591823078
11
136.3416824822
21
8.5591823078
0
LINE
5
49E
100
AcDbEntity
8
DEFAULT_1
100
AcDbLine
62
2
6
CENTER
10
136.3416824822
20
61.5591823078
11
136.3416824822
21
114.5591823078
0
LINE
5
49F
100
AcDbEntity
8
0
100
AcDbLine
62
7
6
CONTINUOUS
10
136.4216824822
20
41.3591823078
11
136.4216824822
21
41.8695016431
0
LINE
5
4A0
100
AcDbEntity
8
0
100
AcDbLine
62
7
6
CONTINUOUS
10
137.0883494667
20
41.3591823078
11
137.0883494667
21
41.8765228683
0
LINE
5
4A1
100
AcDbEntity
8
DEFAULT_1
100
AcDbLine
62
2
6
CENTER
10
136.3416824822
20
61.5591823078
11
83.3416824822
21
61.5591823078
0
LINE
5
4A2
100
AcDbEntity
8
DEFAULT_1
100
AcDbLine
62
2
6
CENTER
10
136.3416824822
20
61.5591823078
11
189.3416824822
21
61.5591823078
0
LINE
5
4A3
100
AcDbEntity
8
0
100
AcDbLine
62
7
6
CONTINUOUS
10
137.5883494667
20
41.3591823078
11
137.5883494667
21
41.8905653235
0
LINE
5
4A4
100
AcDbEntity
8
0
100
AcDbLine
62
7
6
CONTINUOUS
10
137.9216824822
20
41.3591823078
11
137.9216824822
21
41.9116289990
0
LINE
5
4A5
100
AcDbEntity
8
0
100
AcDbLine
62
7
6
CONTINUOUS
10
138.0883494667
20
41.3591823078
11
138.0883494667
21
42.1573719093
0
LINE
5
4A6
100
AcDbEntity
8
0
100
AcDbLine
62
7
6
CONTINUOUS
10
139.0883494667
20
41.3591823078
11
139.0883494667
21
42.1573719093
0
LINE
5
4A7
100
AcDbEntity
8
0
100
AcDbLine
62
7
6
CONTINUOUS
10
140.4216824822
20
41.3591823078
11
140.4216824822
21
42.1573719093
0
LINE
5
4A8
100
AcDbEntity
8
0
100
AcDbLine
62
7
6
CONTINUOUS
10
144.4216824822
20
41.3591823078
11
144.4216824822
21
42.1573719093
0
LINE
5
4A9
100
AcDbEntity
8
0
100
AcDbLine
62
7
6
CONTINUOUS
10
145.2550164513
20
41.3591823078
11
145.2550164513
21
42.1503506841
0
LINE
5
4AA
100
AcDbEntity
8
0
100
AcDbLine
62
7
6
CONTINUOUS
10
145.9216824822
20
41.3591823078
11
145.9216824822
21
42.1363082338
0
LINE
5
4AB
100
AcDbEntity
8
0
100
AcDbLine
62
7
6
CONTINUOUS
10
146.5883485130
20
41.3591823078
11
146.5883485130
21
42.1082233331
0
LINE
5
4AC
100
AcDbEntity
8
0
100
AcDbLine
62
7
6
CONTINUOUS
10
146.9216824822
20
41.3591823078
11
146.9216824822
21
42.0801384325
0
LINE
5
4AD
100
AcDbEntity
8
0
100
AcDbLine
62
7
6
CONTINUOUS
10
147.0883485130
20
41.3591823078
11
147.0883485130
21
42.0450322870
0
LINE
5
4AE
100
AcDbEntity
8
0
100
AcDbLine
62
7
6
CONTINUOUS
10
76.2543141260
20
85.4250058830
11
75.9301095911
21
85.4118447301
0
LINE
5
4AF
100
AcDbEntity
8
0
100
AcDbLine
62
7
6
CONTINUOUS
10
90.8787686649
20
85.6183044174
11
90.8782137699
21
85.6182839015
0
LINE
5
4B0
100
AcDbEntity
8
0
100
AcDbLine
62
7
6
CONTINUOUS
10
76.2543141260
20
85.4250058830
11
77.6105233443
21
85.4250058830
0
LINE
5
4B1
100
AcDbEntity
8
0
100
AcDbLine
62
7
6
CONTINUOUS
10
195.0728416200
20
85.4250058830
11
196.4290508384
21
85.4250058830
0
LINE
5
4B2
100
AcDbEntity
8
0
100
AcDbLine
62
7
6
CONTINUOUS
10
181.8051607387
20
85.6182826187
11
181.8045914710
21
85.6183036703
0
LINE
5
4B3
100
AcDbEntity
8
0
100
AcDbLine
62
7
6
CONTINUOUS
10
196.7376433301
20
85.4130826585
11
196.4290508384
21
85.4250049455
0
LINE
5
4B4
100
AcDbEntity
8
0
100
AcDbLine
62
7
6
CONTINUOUS
10
52.5484995055
20
83.5490738723
11
75.9366467653
21
85.4123718617
0
LINE
5
4B5
100
AcDbEntity
8
0
100
AcDbLine
62
7
6
CONTINUOUS
10
196.7467181990
20
85.4123718617
11
220.1348654588
21
83.5490738723
0
LINE
5
4B6
100
AcDbEntity
8
0
100
AcDbLine
62
7
6
CONTINUOUS
10
224.2739209032
20
43.6324277560
11
224.2739209032
21
79.4859368595
0
ARC
5
4B7
100
AcDbEntity
8
0
100
AcDbCircle
62
7
6
CONTINUOUS
10
154.9916824822
20
177.7739794780
40
2.0000000000
100
AcDbArc
50
180.0000000000
51
225.0000000000
0
ARC
5
4B8
100
AcDbEntity
8
0
100
AcDbCircle
62
7
6
CONTINUOUS
10
117.6916824822
20
177.7739794780
40
2.0000000000
100
AcDbArc
50
315.0000000000
51
360.0000000000
0
ARC
5
4B9
100
AcDbEntity
8
0
100
AcDbCircle
62
7
6
CONTINUOUS
10
76.3043657064
20
215.2146342412
40
4.0000000000
100
AcDbArc
50
202.5000000000
51
262.9539116534
0
ARC
5
4BA
100
AcDbEntity
8
0
100
AcDbCircle
62
7
6
CONTINUOUS
10
196.3789992580
20
215.2146342412
40
4.0000000000
100
AcDbArc
50
277.0460883466
51
337.5000000000
0
ARC
5
4BB
100
AcDbEntity
8
0
100
AcDbCircle
62
7
6
CONTINUOUS
10
74.3416824822
20
199.3354694454
40
12.0000000000
100
AcDbArc
50
0.0000000000
51
82.9544863897
0
ARC
5
4BC
100
AcDbEntity
8
0
100
AcDbCircle
62
7
6
CONTINUOUS
10
198.3416824822
20
199.3354694454
40
12.0000000000
100
AcDbArc
50
97.0455136103
51
180.0000000000
0
CIRCLE
5
4BD
100
AcDbEntity
8
0
100
AcDbCircle
62
7
6
CONTINUOUS
10
136.3416824822
20
274.0955523533
40
45.0000000000
0
ARC
5
4BE
100
AcDbEntity
8
0
100
AcDbCircle
62
7
6
CONTINUOUS
10
58.4094440611
20
274.0955523533
40
10.0000000000
100
AcDbArc
50
157.5000000000
51
202.5000000000
0
ARC
5
4BF
100
AcDbEntity
8
0
100
AcDbCircle
62
7
6
CONTINUOUS
10
81.2352682216
20
329.2019666139
40
10.0000000000
100
AcDbArc
50
112.5000000000
51
157.5000000000
0
ARC
5
4C0
100
AcDbEntity
8
0
100
AcDbCircle
62
7
6
CONTINUOUS
10
136.3416824822
20
352.0277907743
40
10.0000000000
100
AcDbArc
50
67.5000000000
51
112.5000000000
0
ARC
5
4C1
100
AcDbEntity
8
0
100
AcDbCircle
62
7
6
CONTINUOUS
10
191.4480967427
20
329.2019666139
40
10.0000000000
100
AcDbArc
50
22.5000000000
51
67.5000000000
0
ARC
5
4C2
100
AcDbEntity
8
0
100
AcDbCircle
62
7
6
CONTINUOUS
10
214.2739209032
20
274.0955523533
40
10.0000000000
100
AcDbArc
50
337.5000000000
51
22.5000000000
0
ARC
5
4C3
100
AcDbEntity
8
0
100
AcDbCircle
62
7
6
CONTINUOUS
10
196.4290508384
20
215.3354694454
40
4.0000000000
100
AcDbArc
50
270.0000000000
51
337.5000000000
0
ARC
5
4C4
100
AcDbEntity
8
0
100
AcDbCircle
62
7
6
CONTINUOUS
10
76.2543141260
20
215.3354694454
40
4.0000000000
100
AcDbArc
50
202.5000000000
51
270.0000000000
0
ARC
5
4C5
100
AcDbEntity
8
0
100
AcDbCircle
62
7
6
CONTINUOUS
10
301.3754381597
20
177.7739794780
40
2.0000000000
100
AcDbArc
50
315.0000000000
51
360.0000000000
0
ARC
5
4C6
100
AcDbEntity
8
0
100
AcDbCircle
62
7
6
CONTINUOUS
10
338.6754381597
20
177.7739794780
40
2.0000000000
100
AcDbArc
50
180.0000000000
51
225.0000000000
0
ARC
5
4C7
100
AcDbEntity
8
0
100
AcDbCircle
62
7
6
CONTINUOUS
10
293.6314264390
20
226.5356533571
40
2.9999980136
100
AcDbArc
50
279.0000000228
51
336.8289516064
0
ARC
5
4C8
100
AcDbEntity
8
0
100
AcDbCircle
62
7
6
CONTINUOUS
10
346.4194498814
20
226.5356533569
40
2.9999980136
100
AcDbArc
50
203.1710467687
51
260.9999999765
0
ARC
5
4C9
100
AcDbEntity
8
0
100
AcDbCircle
62
7
6
CONTINUOUS
10
304.8684272559
20
358.0277907482
40
4.0000000000
100
AcDbArc
50
90.0000000180
51
178.1099387840
0
ARC
5
4CA
100
AcDbEntity
8
0
100
AcDbCircle
62
7
6
CONTINUOUS
10
335.1824490636
20
358.0277907483
40
4.0000000000
100
AcDbArc
50
1.8900612160
51
89.9999999820
0
ARC
5
4CB
100
AcDbEntity
8
0
100
AcDbCircle
62
7
6
CONTINUOUS
10
280.0254381597
20
211.2186689473
40
10.0000000000
100
AcDbArc
50
99.0000000000
51
180.0000000000
0
ARC
5
4CC
100
AcDbEntity
8
0
100
AcDbCircle
62
7
6
CONTINUOUS
10
360.0254381597
20
211.2186689473
40
10.0000000000
100
AcDbArc
50
0.0000000000
51
81.0000000000
0
ARC
5
4CD
100
AcDbEntity
8
0
100
AcDbCircle
62
7
6
CONTINUOUS
10
300.1596145811
20
215.3354693399
40
3.9999999736
100
AcDbArc
50
178.1099372720
51
270.0000000499
0
ARC
5
4CE
100
AcDbEntity
8
0
100
AcDbCircle
62
7
6
CONTINUOUS
10
339.8912617349
20
215.3354694454
40
4.0000000000
100
AcDbArc
50
270.0000000000
51
1.8900612160
0
ARC
5
4CF
100
AcDbEntity
8
0
100
AcDbCircle
62
7
6
CONTINUOUS
10
136.3416824822
20
61.5591823078
40
50.0000000000
100
AcDbArc
50
30.6330276603
51
149.3669723397
0
ARC
5
4D0
100
AcDbEntity
8
0
100
AcDbCircle
62
7
6
CONTINUOUS
10
136.3416824822
20
61.5591823078
40
50.0000000000
100
AcDbArc
50
210.6330276603
51
329.3669723397
0
SPLINE
5
4D1
100
AcDbEntity
8
0
100
AcDbSpline
62
7
6
CONTINUOUS
70
0
71
3
72
8
73
4
74
2
42
0.0000001000
43
0.0000001000
44
0.0000000001
40
0.0000000000
40
0.0000000000
40
0.0000000000
40
0.0000000000
40
1.0000000000
40
1.0000000000
40
1.0000000000
40
1.0000000000
10
296.5072772440
20
225.9358660070
30
0.0000000000
10
296.5049581079
20
225.8647383136
30
0.0000000000
10
296.4986442977
20
225.7935513277
30
0.0000000000
10
296.4880883837
20
225.7230210869
30
0.0000000000
11
296.5072772440
21
225.9358660070
31
0.0000000000
11
296.4880883837
21
225.7230210869
31
0.0000000000
0
SPLINE
5
4D2
100
AcDbEntity
8
0
100
AcDbSpline
62
7
6
CONTINUOUS
70
0
71
3
72
9
73
5
74
3
42
0.0000001000
43
0.0000001000
44
0.0000000001
40
0.0000000000
40
0.0000000000
40
0.0000000000
40
0.0000000000
40
0.5097377846
40
1.0000000000
40
1.0000000000
40
1.0000000000
40
1.0000000000
10
296.4880883837
20
225.7230210869
30
0.0000000000
10
296.4784713039
20
225.6587637476
30
0.0000000000
10
296.4526969523
20
225.5337735626
30
0.0000000000
10
296.4126511439
20
225.4129652761
30
0.0000000000
10
296.3894214810
20
225.3552244377
30
0.0000000000
11
296.4880883837
21
225.7230210869
31
0.0000000000
11
296.4484867923
21
225.5324259012
31
0.0000000000
11
296.3894214810
21
225.3552244377
31
0.0000000000
0
SPLINE
5
4D3
100
AcDbEntity
8
0
100
AcDbSpline
62
7
6
CONTINUOUS
70
0
71
3
72
8
73
4
74
2
42
0.0000001000
43
0.0000001000
44
0.0000000001
40
0.0000000000
40
0.0000000000
40
0.0000000000
40
0.0000000000
40
1.0000000000
40
1.0000000000
40
1.0000000000
40
1.0000000000
10
343.6657192634
20
225.3447397647
30
0.0000000000
10
343.6646861717
20
225.3472523297
30
0.0000000000
10
343.6636599529
20
225.3497677838
30
0.0000000000
10
343.6626405932
20
225.3522860867
30
0.0000000000
11
343.6657192634
21
225.3447397647
31
0.0000000000
11
343.6626405932
21
225.3522860867
31
0.0000000000
0
SPLINE
5
4D4
100
AcDbEntity
8
0
100
AcDbSpline
62
7
6
CONTINUOUS
70
0
71
3
72
9
73
5
74
3
42
0.0000001000
43
0.0000001000
44
0.0000000001
40
0.0000000000
40
0.0000000000
40
0.0000000000
40
0.0000000000
40
0.4061436044
40
1.0000000000
40
1.0000000000
40
1.0000000000
40
1.0000000000
10
343.6626405932
20
225.3522860867
30
0.0000000000
10
343.6622442943
20
225.3532651332
30
0.0000000000
10
343.6612710864
20
225.3556767855
30
0.0000000000
10
343.6603041584
20
225.3580910338
30
0.0000000000
10
343.6597321542
20
225.3595256589
30
0.0000000000
11
343.6626405932
21
225.3522860867
31
0.0000000000
11
343.6614548058
21
225.3552245157
31
0.0000000000
11
343.6597321542
21
225.3595256589
31
0.0000000000
0
SPLINE
5
4D5
100
AcDbEntity
8
0
100
AcDbSpline
62
7
6
CONTINUOUS
70
0
71
3
72
8
73
4
74
2
42
0.0000001000
43
0.0000001000
44
0.0000000001
40
0.0000000000
40
0.0000000000
40
0.0000000000
40
0.0000000000
40
1.0000000000
40
1.0000000000
40
1.0000000000
40
1.0000000000
10
343.6196477577
20
225.4728480251
30
0.0000000000
10
343.6135932043
20
225.4923290313
30
0.0000000000
10
343.6079121242
20
225.5119348605
30
0.0000000000
10
343.6025986777
20
225.5316486153
30
0.0000000000
11
343.6196477577
21
225.4728480251
31
0.0000000000
11
343.6025986777
21
225.5316486153
31
0.0000000000
0
SPLINE
5
4D6
100
AcDbEntity
8
0
100
AcDbSpline
62
7
6
CONTINUOUS
70
0
71
3
72
8
73
4
74
2
42
0.0000001000
43
0.0000001000
44
0.0000000001
40
0.0000000000
40
0.0000000000
40
0.0000000000
40
0.0000000000
40
1.0000000000
40
1.0000000000
40
1.0000000000
40
1.0000000000
10
343.6025986777
20
225.5316486153
30
0.0000000000
10
343.5967011965
20
225.5535292345
30
0.0000000000
10
343.5912566086
20
225.5755428087
30
0.0000000000
10
343.5862569296
20
225.5976662337
30
0.0000000000
11
343.6025986777
21
225.5316486153
31
0.0000000000
11
343.5862569296
21
225.5976662337
31
0.0000000000
0
SPLINE
5
4D7
100
AcDbEntity
8
0
100
AcDbSpline
62
7
6
CONTINUOUS
70
0
71
3
72
9
73
5
74
3
42
0.0000001000
43
0.0000001000
44
0.0000000001
40
0.0000000000
40
0.0000000000
40
0.0000000000
40
0.0000000000
40
0.3183589866
40
1.0000000000
40
1.0000000000
40
1.0000000000
40
1.0000000000
10
343.6614548058
20
225.3552245157
30
0.0000000000
10
343.6383933834
20
225.4125335755
30
0.0000000000
10
343.5770972436
20
225.5971529395
30
0.0000000000
10
343.5491731722
20
225.7915766046
30
0.0000000000
10
343.5440261581
20
225.9240214621
30
0.0000000000
11
343.6614548058
21
225.3552245157
31
0.0000000000
11
343.6027473702
21
225.5310777326
31
0.0000000000
11
343.5440261581
21
225.9240214621
31
0.0000000000
0
SPLINE
5
4D8
100
AcDbEntity
8
0
100
AcDbSpline
62
7
6
CONTINUOUS
70
0
71
3
72
8
73
4
74
2
42
0.0000001000
43
0.0000001000
44
0.0000000001
40
0.0000000000
40
0.0000000000
40
0.0000000000
40
0.0000000000
40
1.0000000000
40
1.0000000000
40
1.0000000000
40
1.0000000000
10
181.8044309241
20
85.6184307814
30
0.0000000000
10
181.6912648818
20
85.6225789486
30
0.0000000000
10
181.5782767071
20
85.6330948826
30
0.0000000000
10
181.4663205894
20
85.6499982297
30
0.0000000000
11
181.8044309241
21
85.6184307814
31
0.0000000000
11
181.4663205894
21
85.6499982297
31
0.0000000000
0
SPLINE
5
4D9
100
AcDbEntity
8
0
100
AcDbSpline
62
7
6
CONTINUOUS
70
0
71
3
72
10
73
6
74
4
42
0.0000001000
43
0.0000001000
44
0.0000000001
40
0.0000000000
40
0.0000000000
40
0.0000000000
40
0.0000000000
40
0.3403507481
40
0.6806846200
40
1.0000000000
40
1.0000000000
40
1.0000000000
40
1.0000000000
10
181.4663205894
20
85.6499982297
30
0.0000000000
10
181.1745816318
20
85.6940455312
30
0.0000000000
10
180.6051339237
20
85.8688815487
30
0.0000000000
10
179.8788417136
20
86.3570810281
30
0.0000000000
10
179.5097419325
20
86.8021580194
30
0.0000000000
10
179.3644833848
20
87.0365587345
30
0.0000000000
11
181.4663205894
21
85.6499982297
31
0.0000000000
11
180.6238886789
21
85.9082563004
31
0.0000000000
11
179.8928560946
21
86.4000927812
31
0.0000000000
11
179.3644833848
21
87.0365587345
31
0.0000000000
0
SPLINE
5
4DA
100
AcDbEntity
8
0
100
AcDbSpline
62
7
6
CONTINUOUS
70
0
71
3
72
8
73
4
74
2
42
0.0000001000
43
0.0000001000
44
0.0000000001
40
0.0000000000
40
0.0000000000
40
0.0000000000
40
0.0000000000
40
1.0000000000
40
1.0000000000
40
1.0000000000
40
1.0000000000
10
93.3470715838
20
87.0829913571
30
0.0000000000
10
93.3378206173
20
87.0674337782
30
0.0000000000
10
93.3284233290
20
87.0519551755
30
0.0000000000
10
93.3188818830
20
87.0365583482
30
0.0000000000
11
93.3470715838
21
87.0829913571
31
0.0000000000
11
93.3188818830
21
87.0365583482
31
0.0000000000
0
SPLINE
5
4DB
100
AcDbEntity
8
0
100
AcDbSpline
62
7
6
CONTINUOUS
70
0
71
3
72
10
73
6
74
4
42
0.0000001000
43
0.0000001000
44
0.0000000001
40
0.0000000000
40
0.0000000000
40
0.0000000000
40
0.0000000000
40
0.3193360363
40
0.6596597635
40
1.0000000000
40
1.0000000000
40
1.0000000000
40
1.0000000000
10
93.3188818830
20
87.0365583482
30
0.0000000000
10
93.1736128360
20
86.8021407939
30
0.0000000000
10
92.8044988837
20
86.3570563774
30
0.0000000000
10
92.0781925901
20
85.8688657584
30
0.0000000000
10
91.5087558812
20
85.6940399209
30
0.0000000000
10
91.2170232374
20
85.6499958173
30
0.0000000000
11
93.3188818830
21
87.0365583482
31
0.0000000000
11
92.7904643735
21
86.4000520776
31
0.0000000000
11
92.0594389441
21
85.9082388895
31
0.0000000000
11
91.2170232374
21
85.6499958173
31
0.0000000000
0
SPLINE
5
4DC
100
AcDbEntity
8
0
100
AcDbSpline
62
7
6
CONTINUOUS
70
0
71
3
72
8
73
4
74
2
42
0.0000001000
43
0.0000001000
44
0.0000000001
40
0.0000000000
40
0.0000000000
40
0.0000000000
40
0.0000000000
40
1.0000000000
40
1.0000000000
40
1.0000000000
40
1.0000000000
10
91.2170232374
20
85.6499958173
30
0.0000000000
10
91.1050733945
20
85.6330942789
30
0.0000000000
10
90.9920916630
20
85.6225794286
30
0.0000000000
10
90.8789320855
20
85.6184316202
30
0.0000000000
11
91.2170232374
21
85.6499958173
31
0.0000000000
11
90.8789320855
21
85.6184316202
31
0.0000000000
0
SPLINE
5
4DD
100
AcDbEntity
8
0
100
AcDbSpline
62
7
6
CONTINUOUS
70
0
71
3
72
8
73
4
74
2
42
0.0000001000
43
0.0000001000
44
0.0000000001
40
0.0000000000
40
0.0000000000
40
0.0000000000
40
0.0000000000
40
1.0000000000
40
1.0000000000
40
1.0000000000
40
1.0000000000
10
90.8789340402
20
37.4999338342
30
0.0000000000
10
90.9921000825
20
37.4957856670
30
0.0000000000
10
91.1050882572
20
37.4852697331
30
0.0000000000
10
91.2170443749
20
37.4683663859
30
0.0000000000
11
90.8789340402
21
37.4999338342
31
0.0000000000
11
91.2170443749
21
37.4683663859
31
0.0000000000
0
SPLINE
5
4DE
100
AcDbEntity
8
0
100
AcDbSpline
62
7
6
CONTINUOUS
70
0
71
3
72
10
73
6
74
4
42
0.0000001000
43
0.0000001000
44
0.0000000001
40
0.0000000000
40
0.0000000000
40
0.0000000000
40
0.0000000000
40
0.3403507481
40
0.6806846200
40
1.0000000000
40
1.0000000000
40
1.0000000000
40
1.0000000000
10
91.2170443749
20
37.4683663859
30
0.0000000000
10
91.5087833325
20
37.4243190844
30
0.0000000000
10
92.0782310406
20
37.2494830670
30
0.0000000000
10
92.8045232507
20
36.7612835876
30
0.0000000000
10
93.1736230318
20
36.3162065962
30
0.0000000000
10
93.3188815795
20
36.0818058812
30
0.0000000000
11
91.2170443749
21
37.4683663859
31
0.0000000000
11
92.0594762855
21
37.2101083152
31
0.0000000000
11
92.7905088697
21
36.7182718344
31
0.0000000000
11
93.3188815795
21
36.0818058812
31
0.0000000000
0
SPLINE
5
4DF
100
AcDbEntity
8
0
100
AcDbSpline
62
7
6
CONTINUOUS
70
0
71
3
72
8
73
4
74
2
42
0.0000001000
43
0.0000001000
44
0.0000000001
40
0.0000000000
40
0.0000000000
40
0.0000000000
40
0.0000000000
40
1.0000000000
40
1.0000000000
40
1.0000000000
40
1.0000000000
10
179.3362933805
20
36.0353732585
30
0.0000000000
10
179.3455443470
20
36.0509308374
30
0.0000000000
10
179.3549416354
20
36.0664094401
30
0.0000000000
10
179.3644830813
20
36.0818062674
30
0.0000000000
11
179.3362933805
21
36.0353732585
31
0.0000000000
11
179.3644830813
21
36.0818062674
31
0.0000000000
0
SPLINE
5
4E0
100
AcDbEntity
8
0
100
AcDbSpline
62
7
6
CONTINUOUS
70
0
71
3
72
10
73
6
74
4
42
0.0000001000
43
0.0000001000
44
0.0000000001
40
0.0000000000
40
0.0000000000
40
0.0000000000
40
0.0000000000
40
0.3193360363
40
0.6596597635
40
1.0000000000
40
1.0000000000
40
1.0000000000
40
1.0000000000
10
179.3644830813
20
36.0818062674
30
0.0000000000
10
179.5097521284
20
36.3162238217
30
0.0000000000
10
179.8788660806
20
36.7613082382
30
0.0000000000
10
180.6051723742
20
37.2494988572
30
0.0000000000
10
181.1746090832
20
37.4243246948
30
0.0000000000
10
181.4663417269
20
37.4683687983
30
0.0000000000
11
179.3644830813
21
36.0818062674
31
0.0000000000
11
179.8929005908
21
36.7183125381
31
0.0000000000
11
180.6239260202
21
37.2101257261
31
0.0000000000
11
181.4663417269
21
37.4683687983
31
0.0000000000
0
SPLINE
5
4E1
100
AcDbEntity
8
0
100
AcDbSpline
62
7
6
CONTINUOUS
70
0
71
3
72
8
73
4
74
2
42
0.0000001000
43
0.0000001000
44
0.0000000001
40
0.0000000000
40
0.0000000000
40
0.0000000000
40
0.0000000000
40
1.0000000000
40
1.0000000000
40
1.0000000000
40
1.0000000000
10
181.4663417269
20
37.4683687983
30
0.0000000000
10
181.5782915698
20
37.4852703367
30
0.0000000000
10
181.6912733013
20
37.4957851870
30
0.0000000000
10
181.8044328788
20
37.4999329954
30
0.0000000000
11
181.4663417269
21
37.4683687983
31
0.0000000000
11
181.8044328788
21
37.4999329954
31
0.0000000000
0
SPLINE
5
4E2
100
AcDbEntity
8
0
100
AcDbSpline
62
7
6
CONTINUOUS
70
0
71
3
72
17
73
13
74
11
42
0.0000001000
43
0.0000001000
44
0.0000000001
40
0.0000000000
40
0.0000000000
40
0.0000000000
40
0.0000000000
40
0.1080523371
40
0.2442361247
40
0.3725994071
40
0.4927186601
40
0.6043924836
40
0.7075883541
40
0.8023846611
40
0.8885476848
40
0.9653411567
40
1.0000000000
40
1.0000000000
40
1.0000000000
40
1.0000000000
10
77.6105233443
20
37.6933591127
30
0.0000000000
10
78.0624255088
20
37.6933595408
30
0.0000000000
10
79.0838831023
20
37.6920688725
30
0.0000000000
10
80.6421767499
20
37.6856620601
30
0.0000000000
10
82.2509079886
20
37.6739491765
30
0.0000000000
10
83.7570929678
20
37.6582468668
30
0.0000000000
10
85.1579736891
20
37.6391876671
30
0.0000000000
10
86.4528924257
20
37.6173233132
30
0.0000000000
10
87.6410583238
20
37.5931768415
30
0.0000000000
10
88.7187368495
20
37.5673275534
30
0.0000000000
10
89.5448963603
20
37.5442332679
30
0.0000000000
10
90.0107871279
20
37.5296732200
30
0.0000000000
10
90.1556627366
20
37.5249766648
30
0.0000000000
11
77.6105233443
21
37.6933591127
31
0.0000000000
11
78.9662287018
21
37.6916481764
31
0.0000000000
11
80.6748785695
21
37.6845983789
31
0.0000000000
11
82.2853780052
21
37.6728262181
31
0.0000000000
11
83.7924020970
21
37.6570509836
31
0.0000000000
11
85.1934152764
21
37.6379095134
31
0.0000000000
11
86.4880023167
21
37.6159573281
31
0.0000000000
11
87.6771404743
21
37.5916828919
31
0.0000000000
11
88.7578927831
21
37.5656326508
31
0.0000000000
11
89.7210216979
21
37.5385803703
31
0.0000000000
11
90.1556627366
21
37.5249766648
31
0.0000000000
0
SPLINE
5
4E3
100
AcDbEntity
8
0
100
AcDbSpline
62
7
6
CONTINUOUS
70
0
71
3
72
9
73
5
74
3
42
0.0000001000
43
0.0000001000
44
0.0000000001
40
0.0000000000
40
0.0000000000
40
0.0000000000
40
0.0000000000
40
0.6982535848
40
1.0000000000
40
1.0000000000
40
1.0000000000
40
1.0000000000
10
90.1556627366
20
37.5249766648
30
0.0000000000
10
90.2907988445
20
37.5205958432
30
0.0000000000
10
90.4843275357
20
37.5141116017
30
0.0000000000
10
90.6778486800
20
37.5072924483
30
0.0000000000
10
90.7362417585
20
37.5052024252
30
0.0000000000
11
90.1556627366
21
37.5249766648
31
0.0000000000
11
90.5610593697
21
37.5113772645
31
0.0000000000
11
90.7362417585
21
37.5052024252
31
0.0000000000
0
SPLINE
5
4E4
100
AcDbEntity
8
0
100
AcDbSpline
62
7
6
CONTINUOUS
70
0
71
3
72
8
73
4
74
2
42
0.0000001000
43
0.0000001000
44
0.0000000001
40
0.0000000000
40
0.0000000000
40
0.0000000000
40
0.0000000000
40
1.0000000000
40
1.0000000000
40
1.0000000000
40
1.0000000000
10
90.7362417585
20
37.5052024252
30
0.0000000000
10
90.7452686834
20
37.5048793308
30
0.0000000000
10
90.7542955788
20
37.5045554628
30
0.0000000000
10
90.7633224427
20
37.5042308143
30
0.0000000000
11
90.7362417585
21
37.5052024252
31
0.0000000000
11
90.7633224427
21
37.5042308143
31
0.0000000000
0
SPLINE
5
4E5
100
AcDbEntity
8
0
100
AcDbSpline
62
7
6
CONTINUOUS
70
0
71
3
72
8
73
4
74
2
42
0.0000001000
43
0.0000001000
44
0.0000000001
40
0.0000000000
40
0.0000000000
40
0.0000000000
40
0.0000000000
40
1.0000000000
40
1.0000000000
40
1.0000000000
40
1.0000000000
10
90.7633224427
20
37.5042308143
30
0.0000000000
10
90.8015564230
20
37.5028557407
30
0.0000000000
10
90.8397898385
20
37.5014666659
30
0.0000000000
10
90.8780225360
20
37.5000630638
30
0.0000000000
11
90.7633224427
21
37.5042308143
31
0.0000000000
11
90.8780225360
21
37.5000630638
31
0.0000000000
0
SPLINE
5
4E6
100
AcDbEntity
8
0
100
AcDbSpline
62
7
6
CONTINUOUS
70
0
71
3
72
8
73
4
74
2
42
0.0000001000
43
0.0000001000
44
0.0000000001
40
0.0000000000
40
0.0000000000
40
0.0000000000
40
0.0000000000
40
1.0000000000
40
1.0000000000
40
1.0000000000
40
1.0000000000
10
90.8780380484
20
85.6183004743
30
0.0000000000
10
90.8398019942
20
85.6168977126
30
0.0000000000
10
90.8015652236
20
85.6155093939
30
0.0000000000
10
90.7633272490
20
85.6141347775
30
0.0000000000
11
90.8780380484
21
85.6183004743
31
0.0000000000
11
90.7633272490
21
85.6141347775
31
0.0000000000
0
SPLINE
5
4E7
100
AcDbEntity
8
0
100
AcDbSpline
62
7
6
CONTINUOUS
70
0
71
3
72
8
73
4
74
2
42
0.0000001000
43
0.0000001000
44
0.0000000001
40
0.0000000000
40
0.0000000000
40
0.0000000000
40
0.0000000000
40
1.0000000000
40
1.0000000000
40
1.0000000000
40
1.0000000000
10
90.7633272490
20
85.6141347775
30
0.0000000000
10
90.7543140019
20
85.6138107605
30
0.0000000000
10
90.7453006892
20
85.6134875055
30
0.0000000000
10
90.7362873128
20
85.6131650076
30
0.0000000000
11
90.7633272490
21
85.6141347775
31
0.0000000000
11
90.7362873128
21
85.6131650076
31
0.0000000000
0
SPLINE
5
4E8
100
AcDbEntity
8
0
100
AcDbSpline
62
7
6
CONTINUOUS
70
0
71
3
72
8
73
4
74
2
42
0.0000001000
43
0.0000001000
44
0.0000000001
40
0.0000000000
40
0.0000000000
40
0.0000000000
40
0.0000000000
40
1.0000000000
40
1.0000000000
40
1.0000000000
40
1.0000000000
10
90.7362873128
20
85.6131650076
30
0.0000000000
10
90.6083927168
20
85.6085889489
30
0.0000000000
10
90.4804852794
20
85.6041653231
30
0.0000000000
10
90.3525701179
20
85.5998798761
30
0.0000000000
11
90.7362873128
21
85.6131650076
31
0.0000000000
11
90.3525701179
21
85.5998798761
31
0.0000000000
0
SPLINE
5
4E9
100
AcDbEntity
8
0
100
AcDbSpline
62
7
6
CONTINUOUS
70
0
71
3
72
17
73
13
74
11
42
0.0000001000
43
0.0000001000
44
0.0000000001
40
0.0000000000
40
0.0000000000
40
0.0000000000
40
0.0000000000
40
0.0348591869
40
0.1117649346
40
0.1986840814
40
0.2954101600
40
0.4014676417
40
0.5161336728
40
0.6384329016
40
0.7671480991
40
0.9008306081
40
1.0000000000
40
1.0000000000
40
1.0000000000
40
1.0000000000
10
90.3525701179
20
85.5998798761
30
0.0000000000
10
90.2045722013
20
85.5949216115
30
0.0000000000
10
89.7300306356
20
85.5796175651
30
0.0000000000
10
88.8863958615
20
85.5553883906
30
0.0000000000
10
87.7799217896
20
85.5282337575
30
0.0000000000
10
86.5495504574
20
85.5027816900
30
0.0000000000
10
85.2012437235
20
85.4797698777
30
0.0000000000
10
83.7442440932
20
85.4599047735
30
0.0000000000
10
82.1909437300
20
85.4438488122
30
0.0000000000
10
80.5568213322
20
85.4322138584
30
0.0000000000
10
79.0209233906
20
85.4261705544
30
0.0000000000
10
78.0317869275
20
85.4250051854
30
0.0000000000
10
77.6105233443
20
85.4250055223
30
0.0000000000
11
90.3525701179
21
85.5998798761
31
0.0000000000
11
89.9085532742
21
85.5855379246
31
0.0000000000
11
88.9288936999
21
85.5572495400
31
0.0000000000
11
87.8215544720
21
85.5299290404
31
0.0000000000
11
86.5891673902
21
85.5043104647
31
0.0000000000
11
85.2377956368
21
85.4811367981
31
0.0000000000
11
83.7766570199
21
85.4611239015
31
0.0000000000
11
82.2181897423
21
85.4449446276
31
0.0000000000
11
80.5779168729
21
85.4332183835
31
0.0000000000
11
78.8743131714
21
85.4264923757
31
0.0000000000
11
77.6105233443
21
85.4250055223
31
0.0000000000
0
SPLINE
5
4EA
100
AcDbEntity
8
0
100
AcDbSpline
62
7
6
CONTINUOUS
70
0
71
3
72
17
73
13
74
11
42
0.0000001000
43
0.0000001000
44
0.0000000001
40
0.0000000000
40
0.0000000000
40
0.0000000000
40
0.0000000000
40
0.1080523371
40
0.2442361247
40
0.3725994071
40
0.4927186601
40
0.6043924836
40
0.7075883541
40
0.8023846611
40
0.8885476848
40
0.9653411567
40
1.0000000000
40
1.0000000000
40
1.0000000000
40
1.0000000000
10
195.0728416200
20
85.4250055029
30
0.0000000000
10
194.6209394555
20
85.4250050748
30
0.0000000000
10
193.5994818620
20
85.4262957431
30
0.0000000000
10
192.0411882144
20
85.4327025555
30
0.0000000000
10
190.4324569758
20
85.4444154391
30
0.0000000000
10
188.9262719966
20
85.4601177488
30
0.0000000000
10
187.5253912752
20
85.4791769486
30
0.0000000000
10
186.2304725386
20
85.5010413024
30
0.0000000000
10
185.0423066405
20
85.5251877741
30
0.0000000000
10
183.9646281149
20
85.5510370622
30
0.0000000000
10
183.1384686040
20
85.5741313477
30
0.0000000000
10
182.6725778364
20
85.5886913957
30
0.0000000000
10
182.5277022277
20
85.5933879509
30
0.0000000000
11
195.0728416200
21
85.4250055029
31
0.0000000000
11
193.7171362625
21
85.4267164392
31
0.0000000000
11
192.0084863948
21
85.4337662367
31
0.0000000000
11
190.3979869591
21
85.4455383975
31
0.0000000000
11
188.8909628673
21
85.4613136320
31
0.0000000000
11
187.4899496879
21
85.4804551022
31
0.0000000000
11
186.1953626476
21
85.5024072875
31
0.0000000000
11
185.0062244901
21
85.5266817237
31
0.0000000000
11
183.9254721812
21
85.5527319648
31
0.0000000000
11
182.9623432665
21
85.5797842454
31
0.0000000000
11
182.5277022277
21
85.5933879509
31
0.0000000000
0
SPLINE
5
4EB
100
AcDbEntity
8
0
100
AcDbSpline
62
7
6
CONTINUOUS
70
0
71
3
72
9
73
5
74
3
42
0.0000001000
43
0.0000001000
44
0.0000000001
40
0.0000000000
40
0.0000000000
40
0.0000000000
40
0.0000000000
40
0.6982535848
40
1.0000000000
40
1.0000000000
40
1.0000000000
40
1.0000000000
10
182.5277022277
20
85.5933879509
30
0.0000000000
10
182.3925661198
20
85.5977687724
30
0.0000000000
10
182.1990374286
20
85.6042530139
30
0.0000000000
10
182.0055162844
20
85.6110721673
30
0.0000000000
10
181.9471232058
20
85.6131621904
30
0.0000000000
11
182.5277022277
21
85.5933879509
31
0.0000000000
11
182.1223055946
21
85.6069873512
31
0.0000000000
11
181.9471232058
21
85.6131621904
31
0.0000000000
0
SPLINE
5
4EC
100
AcDbEntity
8
0
100
AcDbSpline
62
7
6
CONTINUOUS
70
0
71
3
72
8
73
4
74
2
42
0.0000001000
43
0.0000001000
44
0.0000000001
40
0.0000000000
40
0.0000000000
40
0.0000000000
40
0.0000000000
40
1.0000000000
40
1.0000000000
40
1.0000000000
40
1.0000000000
10
181.9471232058
20
85.6131621904
30
0.0000000000
10
181.9380962810
20
85.6134852849
30
0.0000000000
10
181.9290693856
20
85.6138091528
30
0.0000000000
10
181.9200425216
20
85.6141338013
30
0.0000000000
11
181.9471232058
21
85.6131621904
31
0.0000000000
11
181.9200425216
21
85.6141338013
31
0.0000000000
0
SPLINE
5
4ED
100
AcDbEntity
8
0
100
AcDbSpline
62
7
6
CONTINUOUS
70
0
71
3
72
8
73
4
74
2
42
0.0000001000
43
0.0000001000
44
0.0000000001
40
0.0000000000
40
0.0000000000
40
0.0000000000
40
0.0000000000
40
1.0000000000
40
1.0000000000
40
1.0000000000
40
1.0000000000
10
181.9200425216
20
85.6141338013
30
0.0000000000
10
181.8818085413
20
85.6155088749
30
0.0000000000
10
181.8435751258
20
85.6168979497
30
0.0000000000
10
181.8053424283
20
85.6183015519
30
0.0000000000
11
181.9200425216
21
85.6141338013
31
0.0000000000
11
181.8053424283
21
85.6183015519
31
0.0000000000
0
SPLINE
5
4EE
100
AcDbEntity
8
0
100
AcDbSpline
62
7
6
CONTINUOUS
70
0
71
3
72
8
73
4
74
2
42
0.0000001000
43
0.0000001000
44
0.0000000001
40
0.0000000000
40
0.0000000000
40
0.0000000000
40
0.0000000000
40
1.0000000000
40
1.0000000000
40
1.0000000000
40
1.0000000000
10
181.8053269160
20
37.5000641413
30
0.0000000000
10
181.8435629701
20
37.5014669031
30
0.0000000000
10
181.8817997407
20
37.5028552217
30
0.0000000000
10
181.9200377153
20
37.5042298381
30
0.0000000000
11
181.8053269160
21
37.5000641413
31
0.0000000000
11
181.9200377153
21
37.5042298381
31
0.0000000000
0
SPLINE
5
4EF
100
AcDbEntity
8
0
100
AcDbSpline
62
7
6
CONTINUOUS
70
0
71
3
72
8
73
4
74
2
42
0.0000001000
43
0.0000001000
44
0.0000000001
40
0.0000000000
40
0.0000000000
40
0.0000000000
40
0.0000000000
40
1.0000000000
40
1.0000000000
40
1.0000000000
40
1.0000000000
10
181.9200377153
20
37.5042298381
30
0.0000000000
10
181.9290509624
20
37.5045538552
30
0.0000000000
10
181.9380642751
20
37.5048771102
30
0.0000000000
10
181.9470776516
20
37.5051996081
30
0.0000000000
11
181.9200377153
21
37.5042298381
31
0.0000000000
11
181.9470776516
21
37.5051996081
31
0.0000000000
0
SPLINE
5
4F0
100
AcDbEntity
8
0
100
AcDbSpline
62
7
6
CONTINUOUS
70
0
71
3
72
8
73
4
74
2
42
0.0000001000
43
0.0000001000
44
0.0000000001
40
0.0000000000
40
0.0000000000
40
0.0000000000
40
0.0000000000
40
1.0000000000
40
1.0000000000
40
1.0000000000
40
1.0000000000
10
181.9470776516
20
37.5051996081
30
0.0000000000
10
182.0749722475
20
37.5097756668
30
0.0000000000
10
182.2028796849
20
37.5141992925
30
0.0000000000
10
182.3307948464
20
37.5184847395
30
0.0000000000
11
181.9470776516
21
37.5051996081
31
0.0000000000
11
182.3307948464
21
37.5184847395
31
0.0000000000
0
SPLINE
5
4F1
100
AcDbEntity
8
0
100
AcDbSpline
62
7
6
CONTINUOUS
70
0
71
3
72
17
73
13
74
11
42
0.0000001000
43
0.0000001000
44
0.0000000001
40
0.0000000000
40
0.0000000000
40
0.0000000000
40
0.0000000000
40
0.0348591869
40
0.1117649346
40
0.1986840814
40
0.2954101600
40
0.4014676417
40
0.5161336728
40
0.6384329016
40
0.7671480991
40
0.9008306081
40
1.0000000000
40
1.0000000000
40
1.0000000000
40
1.0000000000
10
182.3307948464
20
37.5184847395
30
0.0000000000
10
182.4787927631
20
37.5234430041
30
0.0000000000
10
182.9533343288
20
37.5387470505
30
0.0000000000
10
183.7969691028
20
37.5629762251
30
0.0000000000
10
184.9034431747
20
37.5901308581
30
0.0000000000
10
186.1338145069
20
37.6155829257
30
0.0000000000
10
187.4821212408
20
37.6385947379
30
0.0000000000
10
188.9391208712
20
37.6584598422
30
0.0000000000
10
190.4924212343
20
37.6745158034
30
0.0000000000
10
192.1265436322
20
37.6861507572
30
0.0000000000
10
193.6624415737
20
37.6921940612
30
0.0000000000
10
194.6515780368
20
37.6933594302
30
0.0000000000
10
195.0728416200
20
37.6933590933
30
0.0000000000
11
182.3307948464
21
37.5184847395
31
0.0000000000
11
182.7748116901
21
37.5328266910
31
0.0000000000
11
183.7544712644
21
37.5611150756
31
0.0000000000
11
184.8618104923
21
37.5884355752
31
0.0000000000
11
186.0941975741
21
37.6140541510
31
0.0000000000
11
187.4455693275
21
37.6372278175
31
0.0000000000
11
188.9067079444
21
37.6572407141
31
0.0000000000
11
190.4651752221
21
37.6734199880
31
0.0000000000
11
192.1054480914
21
37.6851462321
31
0.0000000000
11
193.8090517930
21
37.6918722399
31
0.0000000000
11
195.0728416200
21
37.6933590933
31
0.0000000000
0
SPLINE
5
4F2
100
AcDbEntity
8
0
100
AcDbSpline
62
7
6
CONTINUOUS
70
0
71
3
72
18
73
14
74
12
42
0.0000001000
43
0.0000001000
44
0.0000000001
40
0.0000000000
40
0.0000000000
40
0.0000000000
40
0.0000000000
40
0.0746522106
40
0.2085291671
40
0.3333110431
40
0.4527309121
40
0.5658651504
40
0.6716294336
40
0.7687479933
40
0.8516240196
40
0.9140289240
40
0.9672672510
40
1.0000000000
40
1.0000000000
40
1.0000000000
40
1.0000000000
10
224.2738325507
20
79.4859251563
30
0.0000000000
10
224.2738256352
20
79.6463410076
30
0.0000000000
10
224.2470359245
20
80.0947429556
30
0.0000000000
10
224.0844703996
20
80.7954320741
30
0.0000000000
10
223.7404186105
20
81.5348812691
30
0.0000000000
10
223.2856001768
20
82.1565744160
30
0.0000000000
10
222.7537022406
20
82.6548785148
30
0.0000000000
10
222.1838568232
20
83.0264727454
30
0.0000000000
10
221.6218477254
20
83.2753826805
30
0.0000000000
10
221.1210301216
20
83.4179409846
30
0.0000000000
10
220.7017330497
20
83.4918099548
30
0.0000000000
10
220.3857737892
20
83.5277596562
30
0.0000000000
10
220.2022577420
20
83.5437253172
30
0.0000000000
10
220.1323444191
20
83.5492821751
30
0.0000000000
11
224.2738325507
21
79.4859251563
31
0.0000000000
11
224.2450432947
21
79.9661060289
31
0.0000000000
11
224.0507743587
21
80.8044074231
31
0.0000000000
11
223.7124065525
21
81.5315954909
31
0.0000000000
11
223.2592407902
21
82.1511419127
31
0.0000000000
11
222.7286066739
21
82.6483665106
31
0.0000000000
11
222.1592512977
21
83.0198325849
31
0.0000000000
11
221.5886300234
21
83.2729623180
31
0.0000000000
11
221.0765584746
21
83.4197678748
31
0.0000000000
11
220.6817886024
21
83.4908493238
31
0.0000000000
11
220.3419375625
21
83.5308626227
31
0.0000000000
11
220.1323444191
21
83.5492821751
31
0.0000000000
0
SPLINE
5
4F3
100
AcDbEntity
8
0
100
AcDbSpline
62
7
6
CONTINUOUS
70
0
71
3
72
18
73
14
74
12
42
0.0000001000
43
0.0000001000
44
0.0000000001
40
0.0000000000
40
0.0000000000
40
0.0000000000
40
0.0000000000
40
0.0386378346
40
0.0948741218
40
0.1622547372
40
0.2479017628
40
0.3455885257
40
0.4510059079
40
0.5639036458
40
0.6834969371
40
0.8089066100
40
0.9396524398
40
1.0000000000
40
1.0000000000
40
1.0000000000
40
1.0000000000
10
52.5512840387
20
83.5493060531
30
0.0000000000
10
52.4687478079
20
83.5427518702
30
0.0000000000
10
52.2662224378
20
83.5248744521
30
0.0000000000
10
51.9208810192
20
83.4835015594
30
0.0000000000
10
51.4798942017
20
83.3991387903
30
0.0000000000
10
50.9652658578
20
83.2396343425
30
0.0000000000
10
50.4041921787
20
82.9729980515
30
0.0000000000
10
49.8446383495
20
82.5860293969
30
0.0000000000
10
49.3268874993
20
82.0741994443
30
0.0000000000
10
48.8881837685
20
81.4394253285
30
0.0000000000
10
48.5665586935
20
80.6952608376
30
0.0000000000
10
48.4293288446
20
80.0262285273
30
0.0000000000
10
48.4094967985
20
79.6155651144
30
0.0000000000
10
48.4094994734
20
79.4859318706
30
0.0000000000
11
52.5512840387
21
83.5493060531
31
0.0000000000
11
52.3038882899
21
83.5271433242
31
0.0000000000
11
51.9451394553
21
83.4825529822
31
0.0000000000
11
51.5200096083
21
83.3995881307
31
0.0000000000
11
50.9943621594
21
83.2358023030
31
0.0000000000
11
50.4273124966
21
82.9659865715
31
0.0000000000
11
49.8700246795
21
82.5804216214
31
0.0000000000
11
49.3539473084
21
82.0701472714
31
0.0000000000
11
48.9169018350
21
81.4376642352
31
0.0000000000
11
48.5970595251
21
80.6976420214
31
0.0000000000
11
48.4283080412
21
79.8742705593
31
0.0000000000
11
48.4094994734
21
79.4859318706
31
0.0000000000
0
SPLINE
5
4F4
100
AcDbEntity
8
0
100
AcDbSpline
62
7
6
CONTINUOUS
70
0
71
3
72
18
73
14
74
12
42
0.0000001000
43
0.0000001000
44
0.0000000001
40
0.0000000000
40
0.0000000000
40
0.0000000000
40
0.0000000000
40
0.0746308515
40
0.2084920685
40
0.3332631889
40
0.4526779669
40
0.5658103680
40
0.6715729109
40
0.7686911825
40
0.8515740374
40
0.9139904979
40
0.9672485029
40
1.0000000000
40
1.0000000000
40
1.0000000000
40
1.0000000000
10
48.4095323670
20
43.6324344026
30
0.0000000000
10
48.4095393369
20
43.4720643399
30
0.0000000000
10
48.4363168492
20
43.0237420980
30
0.0000000000
10
48.5988265150
20
42.3231462792
30
0.0000000000
10
48.9428000199
20
41.5837356714
30
0.0000000000
10
49.3975470304
20
40.9620367059
30
0.0000000000
10
49.9293900158
20
40.4636999872
30
0.0000000000
10
50.4991971299
20
40.0920607808
30
0.0000000000
10
51.0611949255
20
39.8430976681
30
0.0000000000
10
51.5620399302
20
39.7004899550
30
0.0000000000
10
51.9814139986
20
39.6265823673
30
0.0000000000
10
52.2974796400
20
39.5906149236
30
0.0000000000
10
52.4810779328
20
39.5746418496
30
0.0000000000
10
52.5510313961
20
39.5690818707
30
0.0000000000
11
48.4095323670
21
43.6324344026
31
0.0000000000
11
48.4383054283
21
43.1523900442
31
0.0000000000
11
48.6325130366
21
42.3141771302
31
0.0000000000
11
48.9708033615
21
41.5870281023
31
0.0000000000
11
49.4239013015
21
40.9674713710
31
0.0000000000
11
49.9544856567
21
40.4702095467
31
0.0000000000
11
50.5238004376
21
40.0987000959
31
0.0000000000
11
51.0943990220
21
39.8455217670
31
0.0000000000
11
51.6065021892
21
39.6986647005
31
0.0000000000
11
52.0013417576
21
39.6275482008
31
0.0000000000
11
52.3413179854
21
39.5875126441
31
0.0000000000
11
52.5510313961
21
39.5690818707
31
0.0000000000
0
SPLINE
5
4F5
100
AcDbEntity
8
0
100
AcDbSpline
62
7
6
CONTINUOUS
70
0
71
3
72
18
73
14
74
12
42
0.0000001000
43
0.0000001000
44
0.0000000001
40
0.0000000000
40
0.0000000000
40
0.0000000000
40
0.0000000000
40
0.0386178507
40
0.0948310819
40
0.1622023173
40
0.2478466511
40
0.3455391054
40
0.4509631773
40
0.5638671999
40
0.6834671219
40
0.8088844824
40
0.9396398254
40
1.0000000000
40
1.0000000000
40
1.0000000000
40
1.0000000000
10
220.1320921114
20
39.5690591797
30
0.0000000000
10
220.2145855379
20
39.5756100731
30
0.0000000000
10
220.4170187811
20
39.5934791802
30
0.0000000000
10
220.7622489095
20
39.6348305322
30
0.0000000000
10
221.2031661831
20
39.7191506494
30
0.0000000000
10
221.7177931139
20
39.8786103343
30
0.0000000000
10
222.2789063813
20
40.1452105457
30
0.0000000000
10
222.8385203018
20
40.5321620828
30
0.0000000000
10
223.3563321913
20
41.0439896076
30
0.0000000000
10
223.7950935828
20
41.6787772538
30
0.0000000000
10
224.1167690303
20
42.4229755558
30
0.0000000000
10
224.2540299400
20
43.0920669367
30
0.0000000000
10
224.2738681998
20
43.5027776165
30
0.0000000000
10
224.2738654689
20
43.6324378351
30
0.0000000000
11
220.1320921114
21
39.5690591797
31
0.0000000000
11
220.3793596597
21
39.5912095568
31
0.0000000000
11
220.7379621504
21
39.6357718782
31
0.0000000000
11
221.1630373614
21
39.7186989446
31
0.0000000000
11
221.6886804023
21
39.8824383432
31
0.0000000000
11
222.2557837596
21
40.1522244786
31
0.0000000000
11
222.8131335440
21
40.5377738975
31
0.0000000000
11
223.3292702350
21
41.0480443714
31
0.0000000000
11
223.7663719330
21
41.6805391538
31
0.0000000000
11
224.0862633921
21
42.4205928208
31
0.0000000000
11
224.2550492632
21
43.2440185473
31
0.0000000000
11
224.2738654689
21
43.6324378351
31
0.0000000000
0
SPLINE
5
4F6
100
AcDbEntity
8
0
100
AcDbSpline
62
7
6
CONTINUOUS
70
0
71
3
72
60
73
56
74
54
42
0.0000001000
43
0.0000001000
44
0.0000000001
40
0.0000000000
40
0.0000000000
40
0.0000000000
40
0.0000000000
40
0.0004417681
40
0.0031559435
40
0.0076444327
40
0.0137363931
40
0.0213313994
40
0.0303671243
40
0.0408012081
40
0.0526015949
40
0.0657540661
40
0.0802564943
40
0.0961102738
40
0.1133178785
40
0.1318810713
40
0.1517994850
40
0.1730694347
40
0.1956828554
40
0.2196263284
40
0.2448788599
40
0.2713811880
40
0.2990318526
40
0.3277137440
40
0.3572963382
40
0.3876371954
40
0.4185836870
40
0.4499749616
40
0.4816440586
40
0.5134199848
40
0.5451280026
40
0.5765934936
40
0.6076453679
40
0.6381183099
40
0.6678550181
40
0.6967083094
40
0.7245429908
40
0.7512374716
40
0.7766854786
40
0.8008209658
40
0.8236258247
40
0.8450908533
40
0.8652115775
40
0.8839871826
40
0.9014194018
40
0.9175112648
40
0.9322656372
40
0.9456834021
40
0.9577610281
40
0.9684824731
40
0.9778089005
40
0.9856907147
40
0.9920598887
40
0.9968097000
40
0.9997589902
40
1.0000000000
40
1.0000000000
40
1.0000000000
40
1.0000000000
10
195.1814752092
20
82.8298900686
30
0.0000000000
10
195.1662252340
20
82.8277954686
30
0.0000000000
10
195.0103731518
20
82.8054599320
30
0.0000000000
10
194.7548677360
20
82.7771392985
30
0.0000000000
10
194.2109027586
20
82.7192065229
30
0.0000000000
10
193.5114877137
20
82.6570619386
30
0.0000000000
10
192.6188523656
20
82.5859455756
30
0.0000000000
10
191.5611168870
20
82.5117806990
30
0.0000000000
10
190.3363382049
20
82.4349835799
30
0.0000000000
10
188.9504629258
20
82.3571535026
30
0.0000000000
10
187.4045822392
20
82.2790105960
30
0.0000000000
10
185.6995516329
20
82.2012586862
30
0.0000000000
10
183.8352331645
20
82.1244338472
30
0.0000000000
10
181.8114424747
20
82.0490335890
30
0.0000000000
10
179.6280312659
20
81.9755183557
30
0.0000000000
10
177.2851022255
20
81.9043347216
30
0.0000000000
10
174.7831400880
20
81.8359233801
30
0.0000000000
10
172.1231421065
20
81.7707263830
30
0.0000000000
10
169.3067840308
20
81.7091923238
30
0.0000000000
10
166.3377498203
20
81.6518018283
30
0.0000000000
10
163.2231771888
20
81.5990748460
30
0.0000000000
10
159.9739749499
20
81.5515430274
30
0.0000000000
10
156.6038483782
20
81.5097091047
30
0.0000000000
10
153.1281113382
20
81.4740199368
30
0.0000000000
10
149.5634719233
20
81.4448599660
30
0.0000000000
10
145.9278286612
20
81.4225457295
30
0.0000000000
10
142.2400425823
20
81.4073215858
30
0.0000000000
10
138.5196955559
20
81.3993563723
30
0.0000000000
10
134.7869144752
20
81.3987406170
30
0.0000000000
10
131.0621267420
20
81.4054842366
30
0.0000000000
10
127.3657635024
20
81.4195152997
30
0.0000000000
10
123.7178860494
20
81.4406803440
30
0.0000000000
10
120.1378759567
20
81.4687467786
30
0.0000000000
10
116.6441763858
20
81.5034064745
30
0.0000000000
10
113.2540480916
20
81.5442800069
30
0.0000000000
10
109.9833500536
20
81.5909219797
30
0.0000000000
10
106.8463353700
20
81.6428275472
30
0.0000000000
10
103.8545435572
20
81.6994572432
30
0.0000000000
10
101.0154540014
20
81.7602833305
30
0.0000000000
10
98.3327380715
20
81.8248223143
30
0.0000000000
10
95.8076520427
20
81.8926348745
30
0.0000000000
10
93.4407744107
20
81.9632939759
30
0.0000000000
10
91.2322541444
20
82.0363779038
30
0.0000000000
10
89.1819500506
20
82.1114625899
30
0.0000000000
10
87.2895654833
20
82.1881138840
30
0.0000000000
10
85.5548768708
20
82.2658629022
30
0.0000000000
10
83.9777910000
20
82.3442096164
30
0.0000000000
10
82.5593655001
20
82.4224795852
30
0.0000000000
10
81.3009138963
20
82.5000197867
30
0.0000000000
10
80.2095539415
20
82.5751681977
30
0.0000000000
10
79.2824531532
20
82.6478295683
30
0.0000000000
10
78.5533502038
20
82.7112702094
30
0.0000000000
10
77.9722916550
20
82.7725721390
30
0.0000000000
10
77.7162699663
20
82.7997718653
30
0.0000000000
10
77.5559588387
20
82.8224421613
30
0.0000000000
10
77.5444186999
20
82.8240747339
30
0.0000000000
11
195.1814752092
21
82.8298900686
31
0.0000000000
11
195.1235799124
21
82.8217509781
31
0.0000000000
11
194.8065087916
21
82.7830449269
31
0.0000000000
11
194.2811469389
21
82.7279807725
31
0.0000000000
11
193.5671506817
21
82.6629857732
31
0.0000000000
11
192.6761510628
21
82.5918055930
31
0.0000000000
11
191.6154061731
21
82.5168049602
31
0.0000000000
11
190.3898732916
21
82.4395951485
31
0.0000000000
11
189.0033197736
21
82.3613486110
31
0.0000000000
11
187.4574260661
21
82.2828946278
31
0.0000000000
11
185.7524542831
21
82.2048642483
31
0.0000000000
11
183.8882528589
21
82.1277961993
31
0.0000000000
11
181.8645429598
21
82.0521761136
31
0.0000000000
11
179.6811287789
21
81.9784604932
31
0.0000000000
11
177.3380644992
21
81.9070918582
31
0.0000000000
11
174.8357941875
21
81.8385084735
31
0.0000000000
11
172.1752769036
21
81.7731506758
31
0.0000000000
11
169.3581015220
21
81.7114649392
31
0.0000000000
11
166.3867482618
21
81.6539091167
31
0.0000000000
11
163.2682006885
21
81.6010073734
31
0.0000000000
11
160.0144089524
21
81.5533140882
31
0.0000000000
11
156.6391660999
21
81.5113355765
31
0.0000000000
11
153.1578448403
21
81.4755212900
31
0.0000000000
11
149.5872211013
21
81.4462578740
31
0.0000000000
11
145.9452706280
21
81.4238637637
31
0.0000000000
11
142.2509374365
21
81.4085847892
31
0.0000000000
11
138.5238849678
21
81.4005907384
31
0.0000000000
11
134.7842514894
21
81.3999727240
31
0.0000000000
11
131.0526160866
21
81.4067410125
31
0.0000000000
11
127.3495437211
21
81.4208231748
31
0.0000000000
11
123.6951838870
21
81.4420648350
31
0.0000000000
11
120.1090061089
21
81.4702320223
31
0.0000000000
11
116.6095361889
21
81.5050146967
31
0.0000000000
11
113.2141083767
21
81.5460311311
31
0.0000000000
11
109.9386449684
21
81.5928332850
31
0.0000000000
11
106.7974664302
21
81.6449130483
31
0.0000000000
11
103.8030893530
21
81.7017098361
31
0.0000000000
11
100.9632954822
21
81.7626821647
31
0.0000000000
11
98.2802254348
21
81.8273747112
31
0.0000000000
11
95.7549718121
21
81.8953519906
31
0.0000000000
11
93.3880711929
21
81.9661889307
31
0.0000000000
11
91.1796300400
21
82.0394664620
31
0.0000000000
11
89.1294557469
21
82.1147649730
31
0.0000000000
11
87.2372040052
21
82.1916543876
31
0.0000000000
11
85.5025507301
21
82.2696790262
31
0.0000000000
11
83.9254058583
21
82.3483338665
31
0.0000000000
11
82.5061986422
21
82.4270261015
31
0.0000000000
11
81.2468271708
21
82.5049749289
31
0.0000000000
11
80.1518603563
21
82.5810324692
31
0.0000000000
11
79.2271121331
21
82.6536116565
31
0.0000000000
11
78.4805199351
21
82.7203933181
31
0.0000000000
11
77.9244698073
21
82.7776872359
31
0.0000000000
11
77.5798522830
21
82.8190839348
31
0.0000000000
11
77.5444186999
21
82.8240747339
31
0.0000000000
0
SPLINE
5
4F7
100
AcDbEntity
8
0
100
AcDbSpline
62
7
6
CONTINUOUS
70
0
71
3
72
23
73
19
74
17
42
0.0000001000
43
0.0000001000
44
0.0000000001
40
0.0000000000
40
0.0000000000
40
0.0000000000
40
0.0000000000
40
0.0024775603
40
0.0176630057
40
0.0427711803
40
0.0768469591
40
0.1193287956
40
0.1698681580
40
0.2282281360
40
0.2942294370
40
0.3677926124
40
0.4489058212
40
0.5375769246
40
0.6338198241
40
0.7376444491
40
0.8490488274
40
0.9680124102
40
1.0000000000
40
1.0000000000
40
1.0000000000
40
1.0000000000
10
77.5018354704
20
40.2884660720
30
0.0000000000
10
77.5171134991
20
40.2905643022
30
0.0000000000
10
77.6731571519
20
40.3129289624
30
0.0000000000
10
77.9287129604
20
40.3412472093
30
0.0000000000
10
78.4728650100
20
40.3991982627
30
0.0000000000
10
79.1724061638
20
40.4613469969
30
0.0000000000
10
80.0652009205
20
40.5324706927
30
0.0000000000
10
81.1230946539
20
40.6066401133
30
0.0000000000
10
82.3480427277
20
40.6834414244
30
0.0000000000
10
83.7340945769
20
40.7612747386
30
0.0000000000
10
85.2801610728
20
40.8394202900
30
0.0000000000
10
86.9853876085
20
40.9171742725
30
0.0000000000
10
88.8499135674
20
40.9940006924
30
0.0000000000
10
90.8739246718
20
41.0694020602
30
0.0000000000
10
93.0575707636
20
41.1429179405
30
0.0000000000
10
95.4007506293
20
41.2141017364
30
0.0000000000
10
97.2404084990
20
41.2643979991
30
0.0000000000
10
98.2989377074
20
41.2914939314
30
0.0000000000
10
98.5232493409
20
41.2971553808
30
0.0000000000
11
77.5018354704
21
40.2884660720
31
0.0000000000
11
77.5598957087
21
40.2966284707
31
0.0000000000
11
77.8771048800
21
40.3353479137
31
0.0000000000
11
78.4026049471
21
40.3904216626
31
0.0000000000
11
79.1167457087
21
40.4554241594
31
0.0000000000
11
80.0078976441
21
40.5266103982
31
0.0000000000
11
81.0688032678
21
40.6016160023
31
0.0000000000
11
82.2945049194
21
40.6788298691
31
0.0000000000
11
83.6812347830
21
40.7570796582
31
0.0000000000
11
85.2273138266
21
40.8355362508
31
0.0000000000
11
86.9324811251
21
40.9135686872
31
0.0000000000
11
88.7968895603
21
40.9906382968
31
0.0000000000
11
90.8208193848
21
41.0662594753
31
0.0000000000
11
93.0044678825
21
41.1399757247
31
0.0000000000
11
95.3477825693
21
41.2113445139
31
0.0000000000
11
97.8503206345
21
41.2799275459
31
0.0000000000
11
98.5232493409
21
41.2971553808
31
0.0000000000
0
SPLINE
5
4F8
100
AcDbEntity
8
0
100
AcDbSpline
62
7
6
CONTINUOUS
70
0
71
3
72
8
73
4
74
2
42
0.0000001000
43
0.0000001000
44
0.0000000001
40
0.0000000000
40
0.0000000000
40
0.0000000000
40
0.0000000000
40
1.0000000000
40
1.0000000000
40
1.0000000000
40
1.0000000000
10
98.5232493409
20
41.2971553808
30
0.0000000000
10
98.7358377238
20
41.3025209445
30
0.0000000000
10
98.9484279275
20
41.3078143243
30
0.0000000000
10
99.1610198564
20
41.3130375569
30
0.0000000000
11
98.5232493409
21
41.2971553808
31
0.0000000000
11
99.1610198564
21
41.3130375569
31
0.0000000000
0
SPLINE
5
4F9
100
AcDbEntity
8
0
100
AcDbSpline
62
7
6
CONTINUOUS
70
0
71
3
72
8
73
4
74
2
42
0.0000001000
43
0.0000001000
44
0.0000000001
40
0.0000000000
40
0.0000000000
40
0.0000000000
40
0.0000000000
40
1.0000000000
40
1.0000000000
40
1.0000000000
40
1.0000000000
10
99.1610198564
20
41.3130375569
30
0.0000000000
10
99.3660219998
20
41.3180743138
30
0.0000000000
10
99.5710257474
20
41.3230458429
30
0.0000000000
10
99.7760310133
20
41.3279539703
30
0.0000000000
11
99.1610198564
21
41.3130375569
31
0.0000000000
11
99.7760310133
21
41.3279539703
31
0.0000000000
0
SPLINE
5
4FA
100
AcDbEntity
8
0
100
AcDbSpline
62
7
6
CONTINUOUS
70
0
71
3
72
11
73
7
74
5
42
0.0000001000
43
0.0000001000
44
0.0000000001
40
0.0000000000
40
0.0000000000
40
0.0000000000
40
0.0000000000
40
0.2427339209
40
0.5240878812
40
0.8126500329
40
1.0000000000
40
1.0000000000
40
1.0000000000
40
1.0000000000
10
113.0452231805
20
41.5700984370
30
0.0000000000
10
114.0464276832
20
41.5834050524
30
0.0000000000
10
116.2081613275
20
41.6099811889
30
0.0000000000
10
119.5602198410
20
41.6443905727
30
0.0000000000
10
122.6838879390
20
41.6699340025
30
0.0000000000
10
124.6470145779
20
41.6827130273
30
0.0000000000
10
125.4198318374
20
41.6872469071
30
0.0000000000
11
113.0452231805
21
41.5700984370
31
0.0000000000
11
116.0488738062
21
41.6070821328
31
0.0000000000
11
119.5304981502
21
41.6428893031
31
0.0000000000
11
123.1013895167
21
41.6721443342
31
0.0000000000
11
125.4198318374
21
41.6872469071
31
0.0000000000
0
SPLINE
5
4FB
100
AcDbEntity
8
0
100
AcDbSpline
62
7
6
CONTINUOUS
70
0
71
3
72
8
73
4
74
2
42
0.0000001000
43
0.0000001000
44
0.0000000001
40
0.0000000000
40
0.0000000000
40
0.0000000000
40
0.0000000000
40
1.0000000000
40
1.0000000000
40
1.0000000000
40
1.0000000000
10
131.7540812206
20
41.7134613966
30
0.0000000000
10
132.1986408148
20
41.7145428535
30
0.0000000000
10
132.6432007937
20
41.7154662058
30
0.0000000000
10
133.0877610442
20
41.7162321161
30
0.0000000000
11
131.7540812206
21
41.7134613966
31
0.0000000000
11
133.0877610442
21
41.7162321161
31
0.0000000000
0
SPLINE
5
4FC
100
AcDbEntity
8
0
100
AcDbSpline
62
7
6
CONTINUOUS
70
0
71
3
72
8
73
4
74
2
42
0.0000001000
43
0.0000001000
44
0.0000000001
40
0.0000000000
40
0.0000000000
40
0.0000000000
40
0.0000000000
40
1.0000000000
40
1.0000000000
40
1.0000000000
40
1.0000000000
10
139.0888224761
20
41.7170371653
30
0.0000000000
10
139.5333834557
20
41.7163908008
30
0.0000000000
10
139.9779442063
20
41.7155871710
30
0.0000000000
10
140.4225046156
20
41.7146257149
30
0.0000000000
11
139.0888224761
21
41.7170371653
31
0.0000000000
11
140.4225046156
21
41.7146257149
31
0.0000000000
0
SPLINE
5
4FD
100
AcDbEntity
8
0
100
AcDbSpline
62
7
6
CONTINUOUS
70
0
71
3
72
8
73
4
74
2
42
0.0000001000
43
0.0000001000
44
0.0000000001
40
0.0000000000
40
0.0000000000
40
0.0000000000
40
0.0000000000
40
1.0000000000
40
1.0000000000
40
1.0000000000
40
1.0000000000
10
147.0900964396
20
41.6882561239
30
0.0000000000
10
147.1179720853
20
41.6880952609
30
0.0000000000
10
147.1458477273
20
41.6879337525
30
0.0000000000
10
147.1737233656
20
41.6877715981
30
0.0000000000
11
147.0900964396
21
41.6882561239
31
0.0000000000
11
147.1737233656
21
41.6877715981
31
0.0000000000
0
SPLINE
5
4FE
100
AcDbEntity
8
0
100
AcDbSpline
62
7
6
CONTINUOUS
70
0
71
3
72
31
73
27
74
25
42
0.0000001000
43
0.0000001000
44
0.0000000001
40
0.0000000000
40
0.0000000000
40
0.0000000000
40
0.0000000000
40
0.0379200172
40
0.1126446211
40
0.1855629286
40
0.2563142665
40
0.3245673478
40
0.3900242179
40
0.4524244993
40
0.5116064700
40
0.5675257339
40
0.6201596890
40
0.6694973258
40
0.7155366272
40
0.7582818019
40
0.7977402391
40
0.8339189333
40
0.8668200218
40
0.8964348183
40
0.9227239441
40
0.9455921634
40
0.9649178657
40
0.9805342143
40
0.9921794384
40
0.9994091857
40
1.0000000000
40
1.0000000000
40
1.0000000000
40
1.0000000000
10
147.1737233656
20
41.6877715981
30
0.0000000000
10
147.7803058588
20
41.6842430698
30
0.0000000000
10
149.5822052143
20
41.6728527630
30
0.0000000000
10
152.5504983590
20
41.6495732696
30
0.0000000000
10
156.0439019092
20
41.6149062253
30
0.0000000000
10
159.4337084705
20
41.5740267114
30
0.0000000000
10
162.7040710615
20
41.5273800663
30
0.0000000000
10
165.8407481156
20
41.4754710088
30
0.0000000000
10
168.8322115257
20
41.4188388648
30
0.0000000000
10
171.6709898779
20
41.3580111884
30
0.0000000000
10
174.3534153463
20
41.2934712650
30
0.0000000000
10
176.8782306903
20
41.2256583172
30
0.0000000000
10
179.2448559300
20
41.1549993074
30
0.0000000000
10
181.4531405293
20
41.0819159190
30
0.0000000000
10
183.5032240602
20
41.0068322201
30
0.0000000000
10
185.3954013115
20
40.9301823635
30
0.0000000000
10
187.1298942654
20
40.8524352549
30
0.0000000000
10
188.7067946093
20
40.7740909930
30
0.0000000000
10
190.1250436536
20
40.6958240499
30
0.0000000000
10
191.3833256190
20
40.6182877839
30
0.0000000000
10
192.4745265490
20
40.5431437126
30
0.0000000000
10
193.4014668136
20
40.4704892606
30
0.0000000000
10
194.1304422381
20
40.4070527896
30
0.0000000000
10
194.7113101165
20
40.3457682653
30
0.0000000000
10
194.9673225282
20
40.3185624082
30
0.0000000000
10
195.1275218022
20
40.2959072244
30
0.0000000000
10
195.1390530014
20
40.2942758901
30
0.0000000000
11
147.1737233656
21
41.6877715981
31
0.0000000000
11
148.9934651677
21
41.6762636837
31
0.0000000000
11
152.5793809930
21
41.6480879317
31
0.0000000000
11
156.0785505776
21
41.6132979401
31
0.0000000000
11
159.4736526204
21
41.5722755447
31
0.0000000000
11
162.7487769381
21
41.5254687479
31
0.0000000000
11
165.8896139978
21
41.4733855529
31
0.0000000000
11
168.8836587589
21
41.4165863913
31
0.0000000000
11
171.7231412181
21
41.3556124750
31
0.0000000000
11
174.4059213819
21
41.2909189760
31
0.0000000000
11
176.9309049137
21
41.2229412935
31
0.0000000000
11
179.2975534513
21
41.1521044398
31
0.0000000000
11
181.5057595976
21
41.0788274320
31
0.0000000000
11
183.5557139788
21
41.0035298847
31
0.0000000000
11
185.4477589411
21
40.9266418851
31
0.0000000000
11
187.1822169773
21
40.8486191386
31
0.0000000000
11
188.7591768196
21
40.7699667150
31
0.0000000000
11
190.1782079446
21
40.6912775050
31
0.0000000000
11
191.4374104490
21
40.6133324863
31
0.0000000000
11
192.5322156781
21
40.5372796642
31
0.0000000000
11
193.4568104168
21
40.4647062528
31
0.0000000000
11
194.2032567245
21
40.3979317608
31
0.0000000000
11
194.7591662007
21
40.3406471417
31
0.0000000000
11
195.1036441609
21
40.2992633366
31
0.0000000000
11
195.1390530014
21
40.2942758901
31
0.0000000000
0
ENDSEC
0
SECTION
2
OBJECTS
0
DICTIONARY
5
4FF
100
AcDbDictionary
3
ACAD_GROUP
350
500
3
ACAD_MLINESTYLE
350
501
0
DICTIONARY
5
500
102
{ACAD_REACTORS
330
4FF
102
}
100
AcDbDictionary
0
DICTIONARY
5
501
102
{ACAD_REACTORS
330
4FF
102
}
100
AcDbDictionary
3
STANDARD
350
502
0
MLINESTYLE
5
502
102
{ACAD_REACTORS
330
501
102
}
100
AcDbMlineStyle
2
STANDARD
70
0
3

62
256
51
90.0
52
90.0
71
2
49
0.5
62
256
6
BYLAYER
49
-0.5
62
256
6
BYLAYER
0
ENDSEC
0
EOF
