999
DXF file: C:\Aktuell-Internet\CAD-Daten\2rs-m30.dxf
999
Pro/ENGINEER 2001400 by Parametric Technology Corporation
0
SECTION
2
HEADER
9
$ACADVER
1
AC1014
9
$EXTMAX
10
420.0000000000
20
297.0000000000
9
$EXTMIN
10
0.0000000000
20
0.0000000000
9
$LIMMIN
10
0.0000000000
20
0.0000000000
9
$LIMMAX
10
420.0000000000
20
297.0000000000
9
$VIEWCTR
10
210.0000000000
20
148.5000000000
9
$VIEWSIZE
40
297.0000000000
9
$CLAYER
8
0
9
$LTSCALE
40
23.1000000000
9
$CELTYPE
6
BYLAYER
9
$DIMSCALE
40
1
9
$DIMASZ
40
3.5000000000
9
$DIMEXO
40
2.6250000000
9
$DIMDLI
40
15.9600000000
9
$DIMEXE
40
7.5600000000
9
$DIMCEN
40
3.7800000000
9
$DIMLFAC
40
1.0000000000
9
$DIMTXT
40
3.5000000000
9
$DIMTOL
70
1
9
$DIMTFAC
40
0.6000000000
9
$DIMTP
40
0.0050000000
9
$DIMTM
40
0.0050000000
9
$HANDSEED
5
423
0
ENDSEC
0
SECTION
2
CLASSES
0
ENDSEC
0
SECTION
2
TABLES
0
TABLE
2
VPORT
5
8
100
AcDbSymbolTable
70
2
0
VPORT
5
1F4
100
AcDbSymbolTableRecord
100
AcDbViewportTableRecord
2
*ACTIVE
70
0
10
0.0
20
0.0
11
1.0
21
1.0
12
210.0000000000
22
148.5000000000
13
0.0
23
0.0
14
1.0
24
1.0
15
0.0
25
0.0
16
0.0
26
0.0
36
1.0
17
0.0
27
0.0
37
0.0
40
297.0000000000
41
1.4141414141
42
50.0
43
0.0
44
0.0
50
0.0
51
0.0
71
0
72
100
73
1
74
1
75
0
76
0
77
0
78
0
0
ENDTAB
0
TABLE
2
LTYPE
5
5
100
AcDbSymbolTable
70
6
0
LTYPE
5
14
100
AcDbSymbolTableRecord
100
AcDbLinetypeTableRecord
2
BYBLOCK
70
0
3

72
65
73
0
40
0.0
0
LTYPE
5
15
100
AcDbSymbolTableRecord
100
AcDbLinetypeTableRecord
2
BYLAYER
70
0
3

72
65
73
0
40
0.0
0
LTYPE
5
16
100
AcDbSymbolTableRecord
100
AcDbLinetypeTableRecord
2
CONTINUOUS
70
64
3
Solid line
72
65
73
0
40
0
0
LTYPE
5
1F5
100
AcDbSymbolTableRecord
100
AcDbLinetypeTableRecord
2
CENTER
70
64
3
____ _ ____ _ ____ _ ____ _ ____ _ ____ _ ____
72
65
73
4
40
0.6
49
0.375
74
0
49
-0.075
74
0
49
0.075
74
0
49
-0.075
74
0
0
LTYPE
5
1F6
100
AcDbSymbolTableRecord
100
AcDbLinetypeTableRecord
2
HIDDEN
70
64
3
- - - - - - - - - - - - - - - - - - - -
72
65
73
2
40
0.2
49
0.1
74
0
49
-0.1
74
0
0
LTYPE
5
1F7
100
AcDbSymbolTableRecord
100
AcDbLinetypeTableRecord
2
PHANTOM
70
64
3
_____ _ _ _____ _ _ _____ _ _ _____
72
65
73
6
40
0.8
49
0.45
74
0
49
-0.05
74
0
49
0.1
74
0
49
-0.05
74
0
49
0.1
74
0
49
-0.05
74
0
0
LTYPE
5
1F8
100
AcDbSymbolTableRecord
100
AcDbLinetypeTableRecord
2
DOT
70
64
3
. . . . . . . . . . . . . . . . . . . .
72
65
73
2
40
0.2
49
0.1
74
0
49
-0.1
74
0
0
LTYPE
5
1F9
100
AcDbSymbolTableRecord
100
AcDbLinetypeTableRecord
2
DASHED
70
64
3
- - - - - - - - - - - - - - - - - - - -
72
65
73
2
40
0.2
49
0.1
74
0
49
-0.1
74
0
0
ENDTAB
0
TABLE
2
LAYER
5
2
100
AcDbSymbolTable
70
36
0
LAYER
5
10
100
AcDbSymbolTableRecord
100
AcDbLayerTableRecord
2
0
70
0
62
7
6
CONTINUOUS
0
LAYER
5
1FA
100
AcDbSymbolTableRecord
100
AcDbLayerTableRecord
2
DEFAULT_1
70
0
62
7
6
CENTER
0
LAYER
5
1FB
100
AcDbSymbolTableRecord
100
AcDbLayerTableRecord
2
DEFAULT_2
70
0
62
8
6
HIDDEN
0
LAYER
5
1FC
100
AcDbSymbolTableRecord
100
AcDbLayerTableRecord
2
DEFAULT_3
70
0
62
7
6
PHANTOM
0
ENDTAB
0
TABLE
2
STYLE
5
3
100
AcDbSymbolTable
70
1
0
STYLE
5
11
100
AcDbSymbolTableRecord
100
AcDbTextStyleTableRecord
2
STANDARD
70
0
40
0.0
41
1.0
50
0.0
71
0
42
0.0
3
txt
4

0
STYLE
5
1FD
100
AcDbSymbolTableRecord
100
AcDbTextStyleTableRecord
2
TEXTSTYLE_0
70
0
40
0.0
41
0.80
50
0.0
71
0
42
0.2
3
txt
4

0
ENDTAB
0
TABLE
2
VIEW
5
6
100
AcDbSymbolTable
70
0
0
ENDTAB
0
TABLE
2
UCS
5
7
100
AcDbSymbolTable
70
0
0
ENDTAB
0
TABLE
2
APPID
5
9
100
AcDbSymbolTable
70
1
0
APPID
5
1FE
100
AcDbSymbolTableRecord
100
AcDbRegAppTableRecord
2
ACAD
70
0
0
ENDTAB
0
TABLE
2
DIMSTYLE
5
A
100
AcDbSymbolTable
70
1
0
DIMSTYLE
105
1FF
100
AcDbSymbolTableRecord
100
AcDbDimStyleTableRecord
2
STANDARD
70
0
3

4

5

6

7

40
1.0
41
0.18
42
0.0625
43
0.38
44
0.18
45
0.0
46
0.0
47
0.0050000000
48
0.0050000000
140
3.5000000000
141
0.09
142
0.0
143
25.4
144
1.0000000000
145
0.0
146
0.6000000000
147
0.09
71
1
72
0
73
1
74
1
75
0
76
0
77
0
78
0
170
0
171
2
172
0
173
0
174
0
175
0
176
0
177
0
178
0
270
2
271
3
272
4
273
2
274
2
340
11
275
0
280
0
281
0
282
0
283
1
284
0
285
0
286
0
287
3
288
0
0
ENDTAB
0
TABLE
2
BLOCK_RECORD
5
1
100
AcDbSymbolTable
70
0
0
BLOCK_RECORD
5
1B
100
AcDbSymbolTableRecord
100
AcDbBlockTableRecord
2
*MODEL_SPACE
0
BLOCK_RECORD
5
1C
100
AcDbSymbolTableRecord
100
AcDbBlockTableRecord
2
*PAPER_SPACE
0
ENDTAB
0
ENDSEC
0
SECTION
2
BLOCKS
0
BLOCK
5
1E
100
AcDbEntity
8
0
100
AcDbBlockBegin
2
*MODEL_SPACE
70
0
10
0.0
20
0.0
30
0.0
3
*MODEL_SPACE
1

0
ENDBLK
5
1F
100
AcDbEntity
8
0
100
AcDbBlockEnd
0
BLOCK
5
20
100
AcDbEntity
8
0
100
AcDbBlockBegin
2
*PAPER_SPACE
70
0
10
0.0
20
0.0
30
0.0
3
*PAPER_SPACE
1

0
ENDBLK
5
21
100
AcDbEntity
8
0
100
AcDbBlockEnd
0
ENDSEC
0
SECTION
2
ENTITIES
0
TEXT
5
200
100
AcDbEntity
8
0
100
AcDbText
62
2
6
CONTINUOUS
10
78.8768437288
20
61.7467694546
7
TEXTSTYLE_0
40
5.0000000000
1
RUD
72
5
11
91.2577964876
21
61.7467694546
100
AcDbText
0
TEXT
5
201
100
AcDbEntity
8
0
100
AcDbText
62
2
6
CONTINUOUS
10
72.7776688498
20
50.6327174530
7
TEXTSTYLE_0
40
5.0000000000
1
RS M30
72
5
11
96.3490981406
21
50.6327174530
100
AcDbText
0
TEXT
5
202
100
AcDbEntity
8
0
100
AcDbText
62
2
6
CONTINUOUS
10
291.6702783939
20
187.3897719607
7
TEXTSTYLE_0
40
5.0000000000
1
RUD
50
90.0000000000
72
5
11
291.6702783939
21
199.7707243416
100
AcDbText
0
TEXT
5
203
100
AcDbEntity
8
0
100
AcDbText
62
2
6
CONTINUOUS
10
304.0041653713
20
187.9319208388
7
TEXTSTYLE_0
40
5.0000000000
1
RS M30
50
90.0000000000
72
5
11
304.0041653713
21
211.5033494102
100
AcDbText
0
LINE
5
204
100
AcDbEntity
8
0
100
AcDbLine
62
7
6
CONTINUOUS
10
0.0000000000
20
0.0000000000
11
0.0000000000
21
297.0000000000
0
LINE
5
205
100
AcDbEntity
8
0
100
AcDbLine
62
7
6
CONTINUOUS
10
0.0000000000
20
0.0000000000
11
420.0000000000
21
0.0000000000
0
LINE
5
206
100
AcDbEntity
8
0
100
AcDbLine
62
7
6
CONTINUOUS
10
0.0000000000
20
297.0000000000
11
420.0000000000
21
297.0000000000
0
LINE
5
207
100
AcDbEntity
8
0
100
AcDbLine
62
7
6
CONTINUOUS
10
420.0000000000
20
0.0000000000
11
420.0000000000
21
297.0000000000
0
LINE
5
208
100
AcDbEntity
8
0
100
AcDbLine
62
7
6
CONTINUOUS
10
124.9722838924
20
115.9732273846
11
98.9722838924
21
115.9732273846
0
LINE
5
209
100
AcDbEntity
8
0
100
AcDbLine
62
7
6
CONTINUOUS
10
126.9722838924
20
117.9732273846
11
96.9722838924
21
117.9732273846
0
LINE
5
20A
100
AcDbEntity
8
0
100
AcDbLine
62
7
6
CONTINUOUS
10
74.0866240882
20
257.5648676895
11
110.0588667305
21
272.4650584609
0
LINE
5
20B
100
AcDbEntity
8
0
100
AcDbLine
62
7
6
CONTINUOUS
10
86.1765895412
20
258.0524739056
11
86.5150085017
21
258.3829830914
0
LINE
5
20C
100
AcDbEntity
8
0
100
AcDbLine
62
7
6
CONTINUOUS
10
86.3018394038
20
258.9355343609
11
85.8046508357
21
258.5133579998
0
LINE
5
20D
100
AcDbEntity
8
0
100
AcDbLine
62
7
6
CONTINUOUS
10
86.4606109187
20
259.0272015362
11
86.3018394038
21
258.9355343609
0
LINE
5
20E
100
AcDbEntity
8
0
100
AcDbLine
62
7
6
CONTINUOUS
10
86.5150085017
20
258.3829830914
11
86.8325496242
21
258.5663174420
0
LINE
5
20F
100
AcDbEntity
8
0
100
AcDbLine
62
7
6
CONTINUOUS
10
89.8868403957
20
260.0594624310
11
89.4899135158
21
259.8302983075
0
LINE
5
210
100
AcDbEntity
8
0
100
AcDbLine
62
7
6
CONTINUOUS
10
85.6752868221
20
257.0874241620
11
86.0722156093
21
257.3165882855
0
LINE
5
211
100
AcDbEntity
8
0
100
AcDbLine
62
7
6
CONTINUOUS
10
89.9579978511
20
259.0195492535
11
89.3229117915
21
258.6528843670
0
LINE
5
212
100
AcDbEntity
8
0
100
AcDbLine
62
7
6
CONTINUOUS
10
91.2281680629
20
259.7528828412
11
90.3549266383
21
259.2487171917
0
LINE
5
213
100
AcDbEntity
8
0
100
AcDbLine
62
7
6
CONTINUOUS
10
89.5569549129
20
258.2475079327
11
90.1920409724
21
258.6141766339
0
LINE
5
214
100
AcDbEntity
8
0
100
AcDbLine
62
7
6
CONTINUOUS
10
90.5889678523
20
258.8433407574
11
91.4622111842
21
259.3475102215
0
LINE
5
215
100
AcDbEntity
8
0
100
AcDbLine
62
7
6
CONTINUOUS
10
87.7687202022
20
256.9448231488
11
87.4511771724
21
256.7614887982
0
LINE
5
216
100
AcDbEntity
8
0
100
AcDbLine
62
7
6
CONTINUOUS
10
87.6852202937
20
256.3561161786
11
88.0027633235
21
256.5394505291
0
LINE
5
217
100
AcDbEntity
8
0
100
AcDbLine
62
7
6
CONTINUOUS
10
87.4555945918
20
254.7371701031
11
87.0586677120
21
254.5080059796
0
LINE
5
218
100
AcDbEntity
8
0
100
AcDbLine
62
7
6
CONTINUOUS
10
89.0768294856
20
254.8624447613
11
88.6005149410
21
254.5874432354
0
LINE
5
219
100
AcDbEntity
8
0
100
AcDbLine
62
7
6
CONTINUOUS
10
71.8871703670
20
245.4347428112
11
71.4488540218
21
245.1862553387
0
LINE
5
21A
100
AcDbEntity
8
0
100
AcDbLine
62
7
6
CONTINUOUS
10
108.5222838447
20
264.1976956158
11
108.2222838924
21
264.0700367718
0
LINE
5
21B
100
AcDbEntity
8
0
100
AcDbLine
62
7
6
CONTINUOUS
10
87.0748210475
20
259.2466915875
11
86.4606109187
21
259.0272015362
0
LINE
5
21C
100
AcDbEntity
8
0
100
AcDbLine
62
7
6
CONTINUOUS
10
88.0027633235
20
256.5394505291
11
88.5375876949
21
256.7131069928
0
LINE
5
21D
100
AcDbEntity
8
0
100
AcDbLine
62
7
6
CONTINUOUS
10
92.4069133327
20
256.2445706158
11
92.9417377040
21
256.4182270794
0
LINE
5
21E
100
AcDbEntity
8
0
100
AcDbLine
62
7
6
CONTINUOUS
10
112.7222838924
20
261.5168446331
11
112.3222838864
21
261.3891857891
0
LINE
5
21F
100
AcDbEntity
8
0
100
AcDbLine
62
7
6
CONTINUOUS
10
96.9722838924
20
117.9732273846
11
98.9722838924
21
115.9732273846
0
LINE
5
220
100
AcDbEntity
8
0
100
AcDbLine
62
7
6
CONTINUOUS
10
56.4804528161
20
218.8866445464
11
71.3806435875
21
254.8588871888
0
LINE
5
221
100
AcDbEntity
8
0
100
AcDbLine
62
7
6
CONTINUOUS
10
69.8231788203
20
241.6177796154
11
69.7606597469
21
241.4704998761
0
LINE
5
222
100
AcDbEntity
8
0
100
AcDbLine
62
7
6
CONTINUOUS
10
63.8840652034
20
227.6261061459
11
63.1338592098
21
225.8587368756
0
LINE
5
223
100
AcDbEntity
8
0
100
AcDbLine
62
7
6
CONTINUOUS
10
67.7601180599
20
236.7575138836
11
67.4787917659
21
236.0947502881
0
LINE
5
224
100
AcDbEntity
8
0
100
AcDbLine
62
7
6
CONTINUOUS
10
65.2281775996
20
230.7926424771
11
65.0718856380
21
230.4244412213
0
LINE
5
225
100
AcDbEntity
8
0
100
AcDbLine
62
7
6
CONTINUOUS
10
68.9791999385
20
239.6294888287
11
68.6978736446
21
238.9667252331
0
LINE
5
226
100
AcDbEntity
8
0
100
AcDbLine
62
7
6
CONTINUOUS
10
70.1359954402
20
242.0933579235
11
69.8231788203
21
241.6177796154
0
LINE
5
227
100
AcDbEntity
8
0
100
AcDbLine
62
7
6
CONTINUOUS
10
71.4488540218
20
245.1862553387
11
71.1672912166
21
244.7843159466
0
LINE
5
228
100
AcDbEntity
8
0
100
AcDbLine
62
7
6
CONTINUOUS
10
72.2046599910
20
240.6938084393
11
72.4862227962
21
241.0957459240
0
LINE
5
229
100
AcDbEntity
8
0
100
AcDbLine
62
7
6
CONTINUOUS
10
75.3041549251
20
242.5068691998
11
75.5857177303
21
242.9088066845
0
LINE
5
22A
100
AcDbEntity
8
0
100
AcDbLine
62
7
6
CONTINUOUS
10
88.1280131862
20
257.4225109845
11
87.7687202022
21
256.9448231488
0
LINE
5
22B
100
AcDbEntity
8
0
100
AcDbLine
62
7
6
CONTINUOUS
10
71.6373382137
20
244.5847939282
11
71.8876395747
21
244.9130924969
0
LINE
5
22C
100
AcDbEntity
8
0
100
AcDbLine
62
7
6
CONTINUOUS
10
70.3244796321
20
241.4918984204
11
70.5747809932
21
241.8201950818
0
LINE
5
22D
100
AcDbEntity
8
0
100
AcDbLine
62
7
6
CONTINUOUS
10
65.4784827754
20
231.1209400921
11
65.2281775996
21
230.7926424771
0
LINE
5
22E
100
AcDbEntity
8
0
100
AcDbLine
62
7
6
CONTINUOUS
10
75.1156707332
20
243.1083287030
11
74.8653693721
21
242.7800320416
0
LINE
5
22F
100
AcDbEntity
8
0
100
AcDbLine
62
7
6
CONTINUOUS
10
64.1343665645
20
227.9544037610
11
63.8840652034
21
227.6261061459
0
LINE
5
230
100
AcDbEntity
8
0
100
AcDbLine
62
7
6
CONTINUOUS
10
73.6465201900
20
239.6472309857
11
73.3962188289
21
239.3189343243
0
LINE
5
231
100
AcDbEntity
8
0
100
AcDbLine
62
7
6
CONTINUOUS
10
67.3899207637
20
230.3964918881
11
67.1396194026
21
230.0681942730
0
LINE
5
232
100
AcDbEntity
8
0
100
AcDbLine
62
7
6
CONTINUOUS
10
73.8662658260
20
239.1194123059
11
74.0853095577
21
239.3740681439
0
LINE
5
233
100
AcDbEntity
8
0
100
AcDbLine
62
7
6
CONTINUOUS
10
89.4487681911
20
254.4015606671
11
89.7078013942
21
254.6862362652
0
LINE
5
234
100
AcDbEntity
8
0
100
AcDbLine
62
7
6
CONTINUOUS
10
89.4152465389
20
255.1929539471
11
89.0768294856
21
254.8624447613
0
LINE
5
235
100
AcDbEntity
8
0
100
AcDbLine
62
7
6
CONTINUOUS
10
65.8234916255
20
230.6268566876
11
66.0112777278
21
230.8078736096
0
LINE
5
236
100
AcDbEntity
8
0
100
AcDbLine
62
7
6
CONTINUOUS
10
72.6110206172
20
241.6511334210
11
72.2667098567
21
241.3627404004
0
LINE
5
237
100
AcDbEntity
8
0
100
AcDbLine
62
7
6
CONTINUOUS
10
70.4490485713
20
242.3081101208
11
70.1359954402
21
242.0933579235
0
LINE
5
238
100
AcDbEntity
8
0
100
AcDbLine
62
7
6
CONTINUOUS
10
73.3962188289
20
239.3189343243
11
73.2396941707
21
239.2115582257
0
LINE
5
239
100
AcDbEntity
8
0
100
AcDbLine
62
7
6
CONTINUOUS
10
73.5532126949
20
238.9046582013
11
73.8662658260
21
239.1194123059
0
LINE
5
23A
100
AcDbEntity
8
0
100
AcDbLine
62
7
6
CONTINUOUS
10
108.6222839877
20
263.5593975811
11
109.0222838447
21
263.8147152691
0
LINE
5
23B
100
AcDbEntity
8
0
100
AcDbLine
62
7
6
CONTINUOUS
10
88.8136840389
20
254.0348957806
11
89.4487681911
21
254.4015606671
0
LINE
5
23C
100
AcDbEntity
8
0
100
AcDbLine
62
7
6
CONTINUOUS
10
74.8658347652
20
242.2583798199
11
75.3041549251
21
242.5068691998
0
LINE
5
23D
100
AcDbEntity
8
0
100
AcDbLine
62
7
6
CONTINUOUS
10
71.8876395747
20
244.9130924969
11
72.1694312618
21
245.0542038708
0
LINE
5
23E
100
AcDbEntity
8
0
100
AcDbLine
62
7
6
CONTINUOUS
10
70.5747809932
20
241.8201950818
11
70.8565764949
21
241.9613083630
0
LINE
5
23F
100
AcDbEntity
8
0
100
AcDbLine
62
7
6
CONTINUOUS
10
74.8653693721
20
242.7800320416
11
74.5835776851
21
242.6389187603
0
LINE
5
240
100
AcDbEntity
8
0
100
AcDbLine
62
7
6
CONTINUOUS
10
72.4862227962
20
241.0957459240
11
72.7680144832
21
241.2368592053
0
LINE
5
241
100
AcDbEntity
8
0
100
AcDbLine
62
7
6
CONTINUOUS
10
73.2714210078
20
238.7635468274
11
73.5532126949
21
238.9046582013
0
LINE
5
242
100
AcDbEntity
8
0
100
AcDbLine
62
7
6
CONTINUOUS
10
117.5222840831
20
261.5168446331
11
117.1222839877
21
261.3891857891
0
LINE
5
243
100
AcDbEntity
8
0
100
AcDbLine
62
7
6
CONTINUOUS
10
69.7606597469
20
241.4704998761
11
69.6358619258
21
240.9151123791
0
LINE
5
244
100
AcDbEntity
8
0
100
AcDbLine
62
7
6
CONTINUOUS
10
70.1994452998
20
241.1973370343
11
70.3244796321
21
241.4918984204
0
LINE
5
245
100
AcDbEntity
8
0
100
AcDbLine
62
7
6
CONTINUOUS
10
63.7914557979
20
226.1010569363
11
64.3853660152
21
227.5002239972
0
LINE
5
246
100
AcDbEntity
8
0
100
AcDbLine
62
7
6
CONTINUOUS
10
65.6359420345
20
230.1850146084
11
65.8234916255
21
230.6268566876
0
LINE
5
247
100
AcDbEntity
8
0
100
AcDbLine
62
7
6
CONTINUOUS
10
70.2946219966
20
239.8533047467
11
70.4509177730
21
240.2215050488
0
LINE
5
248
100
AcDbEntity
8
0
100
AcDbLine
62
7
6
CONTINUOUS
10
66.4810882137
20
230.8691767483
11
66.6686378047
21
231.3110188275
0
LINE
5
249
100
AcDbEntity
8
0
100
AcDbLine
62
7
6
CONTINUOUS
10
67.1396194026
20
230.0681942730
11
66.9520659969
21
229.6263521939
0
LINE
5
24A
100
AcDbEntity
8
0
100
AcDbLine
62
7
6
CONTINUOUS
10
65.7955031917
20
226.9016569882
11
65.2015929744
21
225.5024899273
0
LINE
5
24B
100
AcDbEntity
8
0
100
AcDbLine
62
7
6
CONTINUOUS
10
71.8286262080
20
240.8534268170
11
71.7035918758
21
240.5588654309
0
LINE
5
24C
100
AcDbEntity
8
0
100
AcDbLine
62
7
6
CONTINUOUS
10
72.0796256587
20
240.3992470532
11
72.2046599910
21
240.6938084393
0
LINE
5
24D
100
AcDbEntity
8
0
100
AcDbLine
62
7
6
CONTINUOUS
10
65.7656455562
20
225.2630633145
11
66.2970405147
21
226.5149496823
0
LINE
5
24E
100
AcDbEntity
8
0
100
AcDbLine
62
7
6
CONTINUOUS
10
67.5161223933
20
229.3869246273
11
67.7036719844
21
229.8287676602
0
LINE
5
24F
100
AcDbEntity
8
0
100
AcDbLine
62
7
6
CONTINUOUS
10
67.9556098506
20
228.3312853604
11
67.7680564449
21
227.8894432812
0
LINE
5
250
100
AcDbEntity
8
0
100
AcDbLine
62
7
6
CONTINUOUS
10
72.7698836849
20
239.1502541333
11
72.6135917232
21
238.7820519238
0
LINE
5
251
100
AcDbEntity
8
0
100
AcDbLine
62
7
6
CONTINUOUS
10
69.1138053462
20
229.2302006512
11
68.8637404964
21
228.6410778790
0
LINE
5
252
100
AcDbEntity
8
0
100
AcDbLine
62
7
6
CONTINUOUS
10
73.8340735957
20
240.0890740185
11
73.6465201900
21
239.6472309857
0
LINE
5
253
100
AcDbEntity
8
0
100
AcDbLine
62
7
6
CONTINUOUS
10
73.2100692317
20
237.3121384411
11
73.3976226375
21
237.7539795666
0
LINE
5
254
100
AcDbEntity
8
0
100
AcDbLine
62
7
6
CONTINUOUS
10
72.5223823116
20
235.6920498639
11
72.7724509761
21
236.2811726361
0
LINE
5
255
100
AcDbEntity
8
0
100
AcDbLine
62
7
6
CONTINUOUS
10
69.4277930782
20
228.4016503125
11
69.6778617427
21
228.9907740384
0
LINE
5
256
100
AcDbEntity
8
0
100
AcDbLine
62
7
6
CONTINUOUS
10
67.5522857234
20
223.9832276135
11
67.7398353145
21
224.4250696927
0
LINE
5
257
100
AcDbEntity
8
0
100
AcDbLine
62
7
6
CONTINUOUS
10
68.5212989375
20
226.2660797863
11
68.7401061580
21
226.7815617352
0
LINE
5
258
100
AcDbEntity
8
0
100
AcDbLine
62
7
6
CONTINUOUS
10
71.8972144649
20
234.2192410260
11
72.0847640559
21
234.6610840588
0
LINE
5
259
100
AcDbEntity
8
0
100
AcDbLine
62
7
6
CONTINUOUS
10
74.0853095577
20
239.3740681439
11
74.3353744075
21
239.9631909161
0
LINE
5
25A
100
AcDbEntity
8
0
100
AcDbLine
62
7
6
CONTINUOUS
10
85.8046508357
20
258.5133579998
11
85.6041293666
21
258.1273373394
0
LINE
5
25B
100
AcDbEntity
8
0
100
AcDbLine
62
7
6
CONTINUOUS
10
69.1774917171
20
228.0733536511
11
69.4277930782
21
228.4016503125
0
LINE
5
25C
100
AcDbEntity
8
0
100
AcDbLine
62
7
6
CONTINUOUS
10
67.7036719844
20
229.8287676602
11
67.9227157161
21
230.0834244519
0
LINE
5
25D
100
AcDbEntity
8
0
100
AcDbLine
62
7
6
CONTINUOUS
10
67.2970786617
20
229.1322678357
11
67.5161223933
21
229.3869246273
0
LINE
5
25E
100
AcDbEntity
8
0
100
AcDbLine
62
7
6
CONTINUOUS
10
68.8637404964
20
228.6410778790
11
68.6446967647
21
228.3864201336
0
LINE
5
25F
100
AcDbEntity
8
0
100
AcDbLine
62
7
6
CONTINUOUS
10
64.3853660152
20
227.5002239972
11
64.5731521175
21
227.6812409192
0
LINE
5
260
100
AcDbEntity
8
0
100
AcDbLine
62
7
6
CONTINUOUS
10
66.9520659969
20
229.6263521939
11
66.7642837093
21
229.4453352719
0
LINE
5
261
100
AcDbEntity
8
0
100
AcDbLine
62
7
6
CONTINUOUS
10
113.0222838447
20
261.7721623211
11
112.7222838924
21
261.5168446331
0
LINE
5
262
100
AcDbEntity
8
0
100
AcDbLine
62
7
6
CONTINUOUS
10
67.7029700801
20
230.6112440854
11
67.3899207637
21
230.3964918881
0
LINE
5
263
100
AcDbEntity
8
0
100
AcDbLine
62
7
6
CONTINUOUS
10
66.9840255306
20
228.9175156384
11
67.2970786617
21
229.1322678357
0
LINE
5
264
100
AcDbEntity
8
0
100
AcDbLine
62
7
6
CONTINUOUS
10
112.8222839162
20
260.7508877545
11
113.2222838924
21
261.0062054425
0
LINE
5
265
100
AcDbEntity
8
0
100
AcDbLine
62
7
6
CONTINUOUS
10
117.6222839877
20
260.7508877545
11
118.0222840831
21
261.0062054425
0
LINE
5
266
100
AcDbEntity
8
0
100
AcDbLine
62
7
6
CONTINUOUS
10
67.9227157161
20
230.0834244519
11
68.2045074031
21
230.2245367794
0
LINE
5
267
100
AcDbEntity
8
0
100
AcDbLine
62
7
6
CONTINUOUS
10
66.7642837093
20
229.4453352719
11
66.4824882076
21
229.3042229443
0
LINE
5
268
100
AcDbEntity
8
0
100
AcDbLine
62
7
6
CONTINUOUS
10
65.8855414912
20
231.2957886486
11
65.4784827754
21
231.1209400921
0
LINE
5
269
100
AcDbEntity
8
0
100
AcDbLine
62
7
6
CONTINUOUS
10
65.6361747310
20
229.9241884976
11
65.6359420345
21
230.1850146084
0
LINE
5
26A
100
AcDbEntity
8
0
100
AcDbLine
62
7
6
CONTINUOUS
10
65.7952704952
20
227.1624830990
11
65.7955031917
21
226.9016569882
0
LINE
5
26B
100
AcDbEntity
8
0
100
AcDbLine
62
7
6
CONTINUOUS
10
65.0718856380
20
230.4244412213
11
65.0408607051
21
230.0899752407
0
LINE
5
26C
100
AcDbEntity
8
0
100
AcDbLine
62
7
6
CONTINUOUS
10
69.1448302791
20
229.5646666317
11
69.1138053462
21
229.2302006512
0
LINE
5
26D
100
AcDbEntity
8
0
100
AcDbLine
62
7
6
CONTINUOUS
10
70.1371627376
20
240.7892292767
11
70.1994452998
21
241.1973370343
0
LINE
5
26E
100
AcDbEntity
8
0
100
AcDbLine
62
7
6
CONTINUOUS
10
71.5750556514
20
244.1766880780
11
71.6373382137
21
244.5847939282
0
LINE
5
26F
100
AcDbEntity
8
0
100
AcDbLine
62
7
6
CONTINUOUS
10
69.6778617427
20
228.9907740384
11
69.7401443050
21
229.3988798886
0
LINE
5
270
100
AcDbEntity
8
0
100
AcDbLine
62
7
6
CONTINUOUS
10
73.8963561580
20
240.4971798687
11
73.8340735957
21
240.0890740185
0
LINE
5
271
100
AcDbEntity
8
0
100
AcDbLine
62
7
6
CONTINUOUS
10
71.1672912166
20
244.7843159466
11
71.0737510249
21
244.3025692730
0
LINE
5
272
100
AcDbEntity
8
0
100
AcDbLine
62
7
6
CONTINUOUS
10
75.5857177303
20
242.9088066845
11
75.6792579219
21
243.3905533581
0
LINE
5
273
100
AcDbEntity
8
0
100
AcDbLine
62
7
6
CONTINUOUS
10
86.0554538295
20
257.7122868329
11
86.1765895412
21
258.0524739056
0
LINE
5
274
100
AcDbEntity
8
0
100
AcDbLine
62
7
6
CONTINUOUS
10
89.5155082271
20
255.3859661847
11
89.4152465389
21
255.1929539471
0
LINE
5
275
100
AcDbEntity
8
0
100
AcDbLine
62
7
6
CONTINUOUS
10
89.7078013942
20
254.6862362652
11
89.9083209560
21
255.0722569256
0
LINE
5
276
100
AcDbEntity
8
0
100
AcDbLine
62
7
6
CONTINUOUS
10
108.7222838924
20
264.4530133038
11
108.5222838447
21
264.1976956158
0
LINE
5
277
100
AcDbEntity
8
0
100
AcDbLine
62
7
6
CONTINUOUS
10
117.8222837970
20
261.7721623211
11
117.5222840831
21
261.5168446331
0
LINE
5
278
100
AcDbEntity
8
0
100
AcDbLine
62
7
6
CONTINUOUS
10
68.7391715572
20
227.8248642712
11
69.1774917171
21
228.0733536511
0
LINE
5
279
100
AcDbEntity
8
0
100
AcDbLine
62
7
6
CONTINUOUS
10
64.5414252803
20
228.1292513638
11
64.1343665645
21
227.9544037610
0
LINE
5
27A
100
AcDbEntity
8
0
100
AcDbLine
62
7
6
CONTINUOUS
10
71.8281570003
20
241.3750771313
11
71.8286262080
21
240.8534268170
0
LINE
5
27B
100
AcDbEntity
8
0
100
AcDbLine
62
7
6
CONTINUOUS
10
74.3353744075
20
239.9631909161
11
74.3663993404
21
240.2976578503
0
LINE
5
27C
100
AcDbEntity
8
0
100
AcDbLine
62
7
6
CONTINUOUS
10
75.1779532954
20
243.5164364605
11
75.1156707332
21
243.1083287030
0
LINE
5
27D
100
AcDbEntity
8
0
100
AcDbLine
62
7
6
CONTINUOUS
10
88.5208278224
20
257.1088017254
11
88.6628375575
21
257.5961674481
0
LINE
5
27E
100
AcDbEntity
8
0
100
AcDbLine
62
7
6
CONTINUOUS
10
89.9083209560
20
255.0722569256
11
90.0294566676
21
255.4124439984
0
LINE
5
27F
100
AcDbEntity
8
0
100
AcDbLine
62
7
6
CONTINUOUS
10
109.0222838447
20
263.8147152691
11
109.3222837970
21
264.3253544598
0
LINE
5
280
100
AcDbEntity
8
0
100
AcDbLine
62
7
6
CONTINUOUS
10
113.2222838924
20
261.0062054425
11
113.6222838685
21
261.5168446331
0
LINE
5
281
100
AcDbEntity
8
0
100
AcDbLine
62
7
6
CONTINUOUS
10
126.9722838924
20
151.9732273846
11
96.9722838924
21
151.9732273846
0
LINE
5
282
100
AcDbEntity
8
0
100
AcDbLine
62
7
6
CONTINUOUS
10
124.4722838924
20
154.4732273846
11
99.4722838924
21
154.4732273846
0
LINE
5
283
100
AcDbEntity
8
0
100
AcDbLine
62
7
6
CONTINUOUS
10
71.5339546899
20
178.7174418377
11
56.4804528161
21
215.0598102228
0
LINE
5
284
100
AcDbEntity
8
0
100
AcDbLine
62
7
6
CONTINUOUS
10
65.0408607051
20
230.0899752407
11
65.1038451717
21
229.7156046658
0
LINE
5
285
100
AcDbEntity
8
0
100
AcDbLine
62
7
6
CONTINUOUS
10
66.2965713069
20
227.0366009503
11
66.2335906551
21
227.4109715252
0
LINE
5
286
100
AcDbEntity
8
0
100
AcDbLine
62
7
6
CONTINUOUS
10
85.6041293666
20
258.1273373394
11
85.5206294582
21
257.5386303692
0
LINE
5
287
100
AcDbEntity
8
0
100
AcDbLine
62
7
6
CONTINUOUS
10
88.1697631404
20
257.7168644696
11
88.1280131862
21
257.4225109845
0
LINE
5
288
100
AcDbEntity
8
0
100
AcDbLine
62
7
6
CONTINUOUS
10
118.0222840831
20
261.0062054425
11
118.4222837016
21
261.5168446331
0
LINE
5
289
100
AcDbEntity
8
0
100
AcDbLine
62
7
6
CONTINUOUS
10
81.9722838924
20
160.9732273846
11
141.9722838924
21
160.9732273846
0
LINE
5
28A
100
AcDbEntity
8
0
100
AcDbLine
62
7
6
CONTINUOUS
10
65.7304168269
20
229.6234587460
11
65.6361747310
21
229.9241884976
0
LINE
5
28B
100
AcDbEntity
8
0
100
AcDbLine
62
7
6
CONTINUOUS
10
69.7401443050
20
229.3988798886
11
69.6771598384
21
229.7732504635
0
LINE
5
28C
100
AcDbEntity
8
0
100
AcDbLine
62
7
6
CONTINUOUS
10
69.6358619258
20
240.9151123791
11
69.6988425777
21
240.5407418042
0
LINE
5
28D
100
AcDbEntity
8
0
100
AcDbLine
62
7
6
CONTINUOUS
10
81.9722838924
20
160.9732273846
11
81.9722838924
21
169.1741504186
0
LINE
5
28E
100
AcDbEntity
8
0
100
AcDbLine
62
7
6
CONTINUOUS
10
89.5572581813
20
255.6803196698
11
89.5155082271
21
255.3859661847
0
LINE
5
28F
100
AcDbEntity
8
0
100
AcDbLine
62
7
6
CONTINUOUS
10
113.2222838924
20
262.1551426678
11
113.0222838447
21
261.7721623211
0
LINE
5
290
100
AcDbEntity
8
0
100
AcDbLine
62
7
6
CONTINUOUS
10
118.0222840831
20
262.1551426678
11
117.8222837970
21
261.7721623211
0
LINE
5
291
100
AcDbEntity
8
0
100
AcDbLine
62
7
6
CONTINUOUS
10
69.0505881831
20
229.8653963833
11
69.1448302791
21
229.5646666317
0
LINE
5
292
100
AcDbEntity
8
0
100
AcDbLine
62
7
6
CONTINUOUS
10
70.2314048335
20
240.4884995251
11
70.1371627376
21
240.7892292767
0
LINE
5
293
100
AcDbEntity
8
0
100
AcDbLine
62
7
6
CONTINUOUS
10
71.0737510249
20
244.3025692730
11
71.1994834468
21
243.8146542340
0
LINE
5
294
100
AcDbEntity
8
0
100
AcDbLine
62
7
6
CONTINUOUS
10
73.8648658321
20
240.6843651562
11
73.8963561580
21
240.4971798687
0
LINE
5
295
100
AcDbEntity
8
0
100
AcDbLine
62
7
6
CONTINUOUS
10
74.3663993404
20
240.2976578503
11
74.3034186885
21
240.6720284253
0
LINE
5
296
100
AcDbEntity
8
0
100
AcDbLine
62
7
6
CONTINUOUS
10
86.0722156093
20
257.3165882855
11
86.0554538295
21
257.7122868329
0
LINE
5
297
100
AcDbEntity
8
0
100
AcDbLine
62
7
6
CONTINUOUS
10
88.6628375575
20
257.5961674481
11
88.6460776851
21
257.9918621808
0
LINE
5
298
100
AcDbEntity
8
0
100
AcDbLine
62
7
6
CONTINUOUS
10
90.0294566676
20
255.4124439984
11
90.0126967952
21
255.8081425457
0
LINE
5
299
100
AcDbEntity
8
0
100
AcDbLine
62
7
6
CONTINUOUS
10
108.8222837970
20
264.8359936505
11
108.7222838924
21
264.4530133038
0
LINE
5
29A
100
AcDbEntity
8
0
100
AcDbLine
62
7
6
CONTINUOUS
10
109.3222837970
20
264.3253544598
11
109.4222839401
21
264.7083348065
0
LINE
5
29B
100
AcDbEntity
8
0
100
AcDbLine
62
7
6
CONTINUOUS
10
113.6222838685
20
261.5168446331
11
113.8222839162
21
262.0274838238
0
LINE
5
29C
100
AcDbEntity
8
0
100
AcDbLine
62
7
6
CONTINUOUS
10
118.4222837016
20
261.5168446331
11
118.6222839877
21
262.0274838238
0
LINE
5
29D
100
AcDbEntity
8
0
100
AcDbLine
62
7
6
CONTINUOUS
10
124.4722838924
20
154.4732273846
11
126.9722838924
21
151.9732273846
0
LINE
5
29E
100
AcDbEntity
8
0
100
AcDbLine
62
7
6
CONTINUOUS
10
65.6697669551
20
227.3895729809
11
65.7952704952
21
227.1624830990
0
LINE
5
29F
100
AcDbEntity
8
0
100
AcDbLine
62
7
6
CONTINUOUS
10
65.1038451717
20
229.7156046658
11
65.3548484370
21
229.2614249020
0
LINE
5
2A0
100
AcDbEntity
8
0
100
AcDbLine
62
7
6
CONTINUOUS
10
69.6771598384
20
229.7732504635
11
69.4261603877
21
230.2274302273
0
LINE
5
2A1
100
AcDbEntity
8
0
100
AcDbLine
62
7
6
CONTINUOUS
10
72.2667098567
20
241.3627404004
11
72.1097198055
21
241.7770165234
0
LINE
5
2A2
100
AcDbEntity
8
0
100
AcDbLine
62
7
6
CONTINUOUS
10
71.6692977474
20
243.8759583264
11
71.5750556514
21
244.1766880780
0
LINE
5
2A3
100
AcDbEntity
8
0
100
AcDbLine
62
7
6
CONTINUOUS
10
74.3034186885
20
240.6720284253
11
74.2091727779
21
240.9727581768
0
LINE
5
2A4
100
AcDbEntity
8
0
100
AcDbLine
62
7
6
CONTINUOUS
10
75.0837111995
20
243.8171662121
11
75.1779532954
21
243.5164364605
0
LINE
5
2A5
100
AcDbEntity
8
0
100
AcDbLine
62
7
6
CONTINUOUS
10
75.6792579219
20
243.3905533581
11
75.5535216853
21
243.8784683972
0
LINE
5
2A6
100
AcDbEntity
8
0
100
AcDbLine
62
7
6
CONTINUOUS
10
96.9722838924
20
151.9732273846
11
96.9722838924
21
117.9732273846
0
LINE
5
2A7
100
AcDbEntity
8
0
100
AcDbLine
62
7
6
CONTINUOUS
10
99.4722838924
20
160.9732273846
11
99.4722838924
21
154.4732273846
0
LINE
5
2A8
100
AcDbEntity
8
0
100
AcDbLine
62
7
6
CONTINUOUS
10
150.1009142635
20
177.1741504186
11
147.9250339697
21
177.1741504186
0
LINE
5
2A9
100
AcDbEntity
8
0
100
AcDbLine
62
7
6
CONTINUOUS
10
76.0195338151
20
177.1741504186
11
73.8436535212
21
177.1741504186
0
LINE
5
2AA
100
AcDbEntity
8
0
100
AcDbLine
62
7
6
CONTINUOUS
10
66.2335906551
20
227.4109715252
11
65.9513297603
21
227.7915104657
0
LINE
5
2AB
100
AcDbEntity
8
0
100
AcDbLine
62
7
6
CONTINUOUS
10
69.6988425777
20
240.5407418042
11
69.9498458431
21
240.0865620404
0
LINE
5
2AC
100
AcDbEntity
8
0
100
AcDbLine
62
7
6
CONTINUOUS
10
71.7026572749
20
241.6021679669
11
71.8281570003
21
241.3750771313
0
LINE
5
2AD
100
AcDbEntity
8
0
100
AcDbLine
62
7
6
CONTINUOUS
10
88.0944915340
20
258.2139042645
11
88.1697631404
21
257.7168644696
0
LINE
5
2AE
100
AcDbEntity
8
0
100
AcDbLine
62
7
6
CONTINUOUS
10
89.5196223781
20
255.9288395672
11
89.5572581813
21
255.6803196698
0
LINE
5
2AF
100
AcDbEntity
8
0
100
AcDbLine
62
7
6
CONTINUOUS
10
105.7222838924
20
266.6232289105
11
105.7222838924
21
260.6232289105
0
LINE
5
2B0
100
AcDbEntity
8
0
100
AcDbLine
62
7
6
CONTINUOUS
10
106.3222837970
20
260.6232289105
11
106.3222837970
21
263.3040798932
0
LINE
5
2B1
100
AcDbEntity
8
0
100
AcDbLine
62
7
6
CONTINUOUS
10
106.3222837970
20
264.0700367718
11
106.3222837970
21
265.9849308758
0
LINE
5
2B2
100
AcDbEntity
8
0
100
AcDbLine
62
7
6
CONTINUOUS
10
113.8222839162
20
262.0274838238
11
113.9222839401
21
262.6657818585
0
LINE
5
2B3
100
AcDbEntity
8
0
100
AcDbLine
62
7
6
CONTINUOUS
10
113.3222839162
20
262.6657818585
11
113.2222838924
21
262.1551426678
0
LINE
5
2B4
100
AcDbEntity
8
0
100
AcDbLine
62
7
6
CONTINUOUS
10
118.1222839877
20
262.6657818585
11
118.0222840831
21
262.1551426678
0
LINE
5
2B5
100
AcDbEntity
8
0
100
AcDbLine
62
7
6
CONTINUOUS
10
68.8310790584
20
230.1323908596
11
69.0505881831
21
229.8653963833
0
LINE
5
2B6
100
AcDbEntity
8
0
100
AcDbLine
62
7
6
CONTINUOUS
10
73.7393622920
20
240.9114540844
11
73.8648658321
21
240.6843651562
0
LINE
5
2B7
100
AcDbEntity
8
0
100
AcDbLine
62
7
6
CONTINUOUS
10
71.1994834468
20
243.8146542340
11
71.3877349422
21
243.4740208416
0
LINE
5
2B8
100
AcDbEntity
8
0
100
AcDbLine
62
7
6
CONTINUOUS
10
75.5535216853
20
243.8784683972
11
75.3652701900
21
244.2191036969
0
LINE
5
2B9
100
AcDbEntity
8
0
100
AcDbLine
62
7
6
CONTINUOUS
10
108.8222837970
20
265.2189701825
11
108.8222837970
21
264.8359936505
0
LINE
5
2BA
100
AcDbEntity
8
0
100
AcDbLine
62
7
6
CONTINUOUS
10
109.4222839401
20
264.7083348065
11
109.4222839401
21
265.2189701825
0
LINE
5
2BB
100
AcDbEntity
8
0
100
AcDbLine
62
7
6
CONTINUOUS
10
110.3222839162
20
266.6232289105
11
110.3222839162
21
262.6657818585
0
LINE
5
2BC
100
AcDbEntity
8
0
100
AcDbLine
62
7
6
CONTINUOUS
10
110.9222839401
20
262.6657818585
11
110.9222839401
21
266.6232289105
0
LINE
5
2BD
100
AcDbEntity
8
DEFAULT_1
100
AcDbLine
62
2
6
CENTER
10
111.9722838924
20
216.9732273846
11
111.9722838924
21
112.9016032917
0
LINE
5
2BE
100
AcDbEntity
8
DEFAULT_1
100
AcDbLine
62
2
6
CENTER
10
111.9722838924
20
216.9732273846
11
111.9722838924
21
249.9732273846
0
LINE
5
2BF
100
AcDbEntity
8
0
100
AcDbLine
62
7
6
CONTINUOUS
10
118.6222839877
20
262.0274838238
11
118.7222838924
21
262.6657818585
0
LINE
5
2C0
100
AcDbEntity
8
0
100
AcDbLine
62
7
6
CONTINUOUS
10
65.4190002010
20
227.5829266339
11
65.6697669551
21
227.3895729809
0
LINE
5
2C1
100
AcDbEntity
8
0
100
AcDbLine
62
7
6
CONTINUOUS
10
65.9513297603
20
227.7915104657
11
65.7005591914
21
227.9848641186
0
LINE
5
2C2
100
AcDbEntity
8
0
100
AcDbLine
62
7
6
CONTINUOUS
10
65.9811873958
20
229.4301050930
11
65.7304168269
21
229.6234587460
0
LINE
5
2C3
100
AcDbEntity
8
0
100
AcDbLine
62
7
6
CONTINUOUS
10
69.4261603877
20
230.2274302273
11
69.1126380489
21
230.5343283444
0
LINE
5
2C4
100
AcDbEntity
8
0
100
AcDbLine
62
7
6
CONTINUOUS
10
70.4509177730
20
240.2215050488
11
70.2314048335
21
240.4884995251
0
LINE
5
2C5
100
AcDbEntity
8
0
100
AcDbLine
62
7
6
CONTINUOUS
10
72.1097198055
20
241.7770165234
11
71.8902068660
21
242.0440090924
0
LINE
5
2C6
100
AcDbEntity
8
0
100
AcDbLine
62
7
6
CONTINUOUS
10
72.1083159969
20
243.3419693737
11
71.6692977474
21
243.8759583264
0
LINE
5
2C7
100
AcDbEntity
8
0
100
AcDbLine
62
7
6
CONTINUOUS
10
74.2091727779
20
240.9727581768
11
73.9896636531
21
241.2397526532
0
LINE
5
2C8
100
AcDbEntity
8
0
100
AcDbLine
62
7
6
CONTINUOUS
10
85.5206294582
20
257.5386303692
11
85.6752868221
21
257.0874241620
0
LINE
5
2C9
100
AcDbEntity
8
0
100
AcDbLine
62
7
6
CONTINUOUS
10
88.6460776851
20
257.9918621808
11
88.4914203212
21
258.4430683880
0
LINE
5
2CA
100
AcDbEntity
8
0
100
AcDbLine
62
7
6
CONTINUOUS
10
90.0126967952
20
255.8081425457
11
89.9165511653
21
256.1580036908
0
LINE
5
2CB
100
AcDbEntity
8
0
100
AcDbLine
62
7
6
CONTINUOUS
10
113.3222839162
20
266.6232289105
11
113.3222839162
21
262.6657818585
0
LINE
5
2CC
100
AcDbEntity
8
0
100
AcDbLine
62
7
6
CONTINUOUS
10
113.9222839401
20
262.6657818585
11
113.9222839401
21
266.6232289105
0
LINE
5
2CD
100
AcDbEntity
8
0
100
AcDbLine
62
7
6
CONTINUOUS
10
114.7222838924
20
266.6232289105
11
114.7222838924
21
260.6232289105
0
LINE
5
2CE
100
AcDbEntity
8
0
100
AcDbLine
62
7
6
CONTINUOUS
10
115.3222837970
20
261.3891857891
11
115.3222837970
21
265.8572682171
0
LINE
5
2CF
100
AcDbEntity
8
0
100
AcDbLine
62
7
6
CONTINUOUS
10
118.1222839877
20
264.5806759625
11
118.1222839877
21
262.6657818585
0
LINE
5
2D0
100
AcDbEntity
8
0
100
AcDbLine
62
7
6
CONTINUOUS
10
118.7222838924
20
262.6657818585
11
118.7222838924
21
264.5806759625
0
LINE
5
2D1
100
AcDbEntity
8
0
100
AcDbLine
62
7
6
CONTINUOUS
10
65.3548484370
20
229.2614249020
11
65.6996245906
21
229.0281666546
0
LINE
5
2D2
100
AcDbEntity
8
0
100
AcDbLine
62
7
6
CONTINUOUS
10
71.3891387508
20
241.9090660839
11
71.7026572749
21
241.6021679669
0
LINE
5
2D3
100
AcDbEntity
8
0
100
AcDbLine
62
7
6
CONTINUOUS
10
73.5826049373
20
241.0649040966
11
73.7393622920
21
240.9114540844
0
LINE
5
2D4
100
AcDbEntity
8
0
100
AcDbLine
62
7
6
CONTINUOUS
10
71.3877349422
20
243.4740208416
11
71.7012572810
21
243.1671208172
0
LINE
5
2D5
100
AcDbEntity
8
0
100
AcDbLine
62
7
6
CONTINUOUS
10
74.6446929500
20
244.3511532574
11
75.0837111995
21
243.8171662121
0
LINE
5
2D6
100
AcDbEntity
8
0
100
AcDbLine
62
7
6
CONTINUOUS
10
124.4722838924
20
160.9732273846
11
124.4722838924
21
154.4732273846
0
LINE
5
2D7
100
AcDbEntity
8
0
100
AcDbLine
62
7
6
CONTINUOUS
10
63.1338592098
20
225.8587368756
11
67.5522857234
21
223.9832276135
0
LINE
5
2D8
100
AcDbEntity
8
0
100
AcDbLine
62
7
6
CONTINUOUS
10
67.7398353145
20
224.4250696927
11
65.7656455562
21
225.2630633145
0
LINE
5
2D9
100
AcDbEntity
8
0
100
AcDbLine
62
7
6
CONTINUOUS
10
65.2015929744
20
225.5024899273
11
63.7914557979
21
226.1010569363
0
LINE
5
2DA
100
AcDbEntity
8
0
100
AcDbLine
62
7
6
CONTINUOUS
10
65.1369720027
20
227.7026394635
11
65.4190002010
21
227.5829266339
0
LINE
5
2DB
100
AcDbEntity
8
0
100
AcDbLine
62
7
6
CONTINUOUS
10
65.7005591914
20
227.9848641186
11
65.3245254085
21
228.1444824963
0
LINE
5
2DC
100
AcDbEntity
8
0
100
AcDbLine
62
7
6
CONTINUOUS
10
68.6978736446
20
238.9667252331
11
72.1773734615
21
236.1861332684
0
LINE
5
2DD
100
AcDbEntity
8
0
100
AcDbLine
62
7
6
CONTINUOUS
10
72.7724509761
20
236.2811726361
11
69.7317367122
21
238.7886017590
0
LINE
5
2DE
100
AcDbEntity
8
0
100
AcDbLine
62
7
6
CONTINUOUS
10
75.3652701900
20
244.2191036969
11
75.0517516658
21
244.5260018139
0
LINE
5
2DF
100
AcDbEntity
8
0
100
AcDbLine
62
7
6
CONTINUOUS
10
87.4511771724
20
256.7614887982
11
87.6852202937
21
256.3561161786
0
LINE
5
2E0
100
AcDbEntity
8
0
100
AcDbLine
62
7
6
CONTINUOUS
10
87.9774699733
20
258.4165905743
11
88.0944915340
21
258.2139042645
0
LINE
5
2E1
100
AcDbEntity
8
0
100
AcDbLine
62
7
6
CONTINUOUS
10
89.2855792568
20
256.3342121869
11
89.5196223781
21
255.9288395672
0
LINE
5
2E2
100
AcDbEntity
8
0
100
AcDbLine
62
7
6
CONTINUOUS
10
88.4914203212
20
258.4430683880
11
88.3743987605
21
258.6457546978
0
LINE
5
2E3
100
AcDbEntity
8
0
100
AcDbLine
62
7
6
CONTINUOUS
10
89.9165511653
20
256.1580036908
11
89.6825080440
21
256.5633801251
0
LINE
5
2E4
100
AcDbEntity
8
0
100
AcDbLine
62
7
6
CONTINUOUS
10
89.3229117915
20
258.6528843670
11
89.5569549129
21
258.2475079327
0
LINE
5
2E5
100
AcDbEntity
8
0
100
AcDbLine
62
7
6
CONTINUOUS
10
89.4899135158
20
259.8302983075
11
89.9579978511
21
259.0195492535
0
LINE
5
2E6
100
AcDbEntity
8
0
100
AcDbLine
62
7
6
CONTINUOUS
10
90.1920409724
20
258.6141766339
11
91.3622527644
21
256.5873097210
0
LINE
5
2E7
100
AcDbEntity
8
0
100
AcDbLine
62
7
6
CONTINUOUS
10
91.6421599910
20
257.0191601544
11
90.5889678523
21
258.8433407574
0
LINE
5
2E8
100
AcDbEntity
8
0
100
AcDbLine
62
7
6
CONTINUOUS
10
90.3549266383
20
259.2487171917
11
89.8868403957
21
260.0594624310
0
LINE
5
2E9
100
AcDbEntity
8
0
100
AcDbLine
62
7
6
CONTINUOUS
10
111.0222839043
20
262.1551426678
11
110.9222839401
21
262.6657818585
0
LINE
5
2EA
100
AcDbEntity
8
0
100
AcDbLine
62
7
6
CONTINUOUS
10
110.3222839162
20
262.6657818585
11
110.4222839401
21
262.0274838238
0
LINE
5
2EB
100
AcDbEntity
8
0
100
AcDbLine
62
7
6
CONTINUOUS
10
126.9722838924
20
151.9732273846
11
126.9722838924
21
117.9732273846
0
LINE
5
2EC
100
AcDbEntity
8
0
100
AcDbLine
62
7
6
CONTINUOUS
10
99.4722838924
20
154.4732273846
11
96.9722838924
21
151.9732273846
0
LINE
5
2ED
100
AcDbEntity
8
0
100
AcDbLine
62
7
6
CONTINUOUS
10
65.6996245906
20
229.0281666546
11
66.0756621883
21
228.8685492306
0
LINE
5
2EE
100
AcDbEntity
8
0
100
AcDbLine
62
7
6
CONTINUOUS
10
66.1692023799
20
229.3502959042
11
65.9811873958
21
229.4301050930
0
LINE
5
2EF
100
AcDbEntity
8
0
100
AcDbLine
62
7
6
CONTINUOUS
10
68.5490508601
20
230.2521036892
11
68.8310790584
21
230.1323908596
0
LINE
5
2F0
100
AcDbEntity
8
0
100
AcDbLine
62
7
6
CONTINUOUS
10
69.1126380489
20
230.5343283444
11
68.6425948665
21
230.7338513165
0
LINE
5
2F1
100
AcDbEntity
8
0
100
AcDbLine
62
7
6
CONTINUOUS
10
71.9520240352
20
242.9737671643
11
72.3908095882
21
242.7006043225
0
LINE
5
2F2
100
AcDbEntity
8
0
100
AcDbLine
62
7
6
CONTINUOUS
10
69.9498458431
20
240.0865620404
11
70.2946219966
21
239.8533047467
0
LINE
5
2F3
100
AcDbEntity
8
0
100
AcDbLine
62
7
6
CONTINUOUS
10
71.8902068660
20
242.0440090924
11
71.5454307124
21
242.2772682934
0
LINE
5
2F4
100
AcDbEntity
8
0
100
AcDbLine
62
7
6
CONTINUOUS
10
73.9896636531
20
241.2397526532
11
73.7388968990
21
241.4331063061
0
LINE
5
2F5
100
AcDbEntity
8
0
100
AcDbLine
62
7
6
CONTINUOUS
10
71.7012572810
20
243.1671208172
11
71.9520240352
21
242.9737671643
0
LINE
5
2F6
100
AcDbEntity
8
0
100
AcDbLine
62
7
6
CONTINUOUS
10
75.0517516658
20
244.5260018139
11
74.8009849117
21
244.7193554669
0
LINE
5
2F7
100
AcDbEntity
8
0
100
AcDbLine
62
7
6
CONTINUOUS
10
92.9417377040
20
256.4182270794
11
92.7076945827
21
256.8235996991
0
LINE
5
2F8
100
AcDbEntity
8
0
100
AcDbLine
62
7
6
CONTINUOUS
10
91.4622111842
20
259.3475102215
11
91.2281680629
21
259.7528828412
0
LINE
5
2F9
100
AcDbEntity
8
0
100
AcDbLine
62
7
6
CONTINUOUS
10
109.5222838447
20
260.6232289105
11
108.6222839877
21
263.5593975811
0
LINE
5
2FA
100
AcDbEntity
8
0
100
AcDbLine
62
7
6
CONTINUOUS
10
108.0222838447
20
263.3040798932
11
108.8222837970
21
260.6232289105
0
LINE
5
2FB
100
AcDbEntity
8
0
100
AcDbLine
62
7
6
CONTINUOUS
10
108.7222838924
20
265.6019505291
11
108.8222837970
21
265.2189701825
0
LINE
5
2FC
100
AcDbEntity
8
0
100
AcDbLine
62
7
6
CONTINUOUS
10
109.4222839401
20
265.2189701825
11
109.3222837970
21
265.6019505291
0
LINE
5
2FD
100
AcDbEntity
8
0
100
AcDbLine
62
7
6
CONTINUOUS
10
118.0222840831
20
265.0913113385
11
118.1222839877
21
264.5806759625
0
LINE
5
2FE
100
AcDbEntity
8
0
100
AcDbLine
62
7
6
CONTINUOUS
10
118.7222838924
20
264.5806759625
11
118.6222839877
21
265.2189701825
0
LINE
5
2FF
100
AcDbEntity
8
DEFAULT_1
100
AcDbLine
62
2
6
CENTER
10
111.9722838924
20
216.9732273846
11
78.9722838924
21
216.9732273846
0
LINE
5
300
100
AcDbEntity
8
DEFAULT_1
100
AcDbLine
62
2
6
CENTER
10
111.9722838924
20
216.9732273846
11
144.9722838924
21
216.9732273846
0
LINE
5
301
100
AcDbEntity
8
0
100
AcDbLine
62
7
6
CONTINUOUS
10
64.8236861751
20
227.7487124234
11
65.1369720027
21
227.7026394635
0
LINE
5
302
100
AcDbEntity
8
0
100
AcDbLine
62
7
6
CONTINUOUS
10
67.7680564449
20
227.8894432812
11
68.1753516719
21
227.8034657269
0
LINE
5
303
100
AcDbEntity
8
0
100
AcDbLine
62
7
6
CONTINUOUS
10
66.0756621883
20
228.8685492306
11
66.4829574153
21
228.7825716763
0
LINE
5
304
100
AcDbEntity
8
0
100
AcDbLine
62
7
6
CONTINUOUS
10
67.4787917659
20
236.0947502881
11
71.8972144649
21
234.2192410260
0
LINE
5
305
100
AcDbEntity
8
0
100
AcDbLine
62
7
6
CONTINUOUS
10
72.0847640559
20
234.6610840588
11
68.6064315364
21
236.1375492840
0
LINE
5
306
100
AcDbEntity
8
0
100
AcDbLine
62
7
6
CONTINUOUS
10
69.7317367122
20
238.7886017590
11
73.2100692317
21
237.3121384411
0
LINE
5
307
100
AcDbEntity
8
0
100
AcDbLine
62
7
6
CONTINUOUS
10
73.3976226375
20
237.7539795666
11
68.9791999385
21
239.6294888287
0
LINE
5
308
100
AcDbEntity
8
0
100
AcDbLine
62
7
6
CONTINUOUS
10
72.6411109493
20
243.0289028912
11
72.1083159969
21
243.3419693737
0
LINE
5
309
100
AcDbEntity
8
0
100
AcDbLine
62
7
6
CONTINUOUS
10
74.1118979976
20
244.6642216473
11
74.6446929500
21
244.3511532574
0
LINE
5
30A
100
AcDbEntity
8
0
100
AcDbLine
62
7
6
CONTINUOUS
10
74.8009849117
20
244.7193554669
11
74.3621993587
21
244.9925183087
0
LINE
5
30B
100
AcDbEntity
8
0
100
AcDbLine
62
7
6
CONTINUOUS
10
87.0586677120
20
254.5080059796
11
87.3135848567
21
254.2498081952
0
LINE
5
30C
100
AcDbEntity
8
0
100
AcDbLine
62
7
6
CONTINUOUS
10
89.6825080440
20
256.5633801251
11
89.3690791652
21
256.9229191571
0
LINE
5
30D
100
AcDbEntity
8
0
100
AcDbLine
62
7
6
CONTINUOUS
10
88.3743987605
20
258.6457546978
11
88.0609717891
21
259.0052975445
0
LINE
5
30E
100
AcDbEntity
8
0
100
AcDbLine
62
7
6
CONTINUOUS
10
110.4222839401
20
262.0274838238
11
110.6222838685
21
261.5168446331
0
LINE
5
30F
100
AcDbEntity
8
0
100
AcDbLine
62
7
6
CONTINUOUS
10
141.9722838924
20
160.9732273846
11
141.9722838924
21
169.1741504186
0
LINE
5
310
100
AcDbEntity
8
0
100
AcDbLine
62
7
6
CONTINUOUS
10
68.7401061580
20
226.7815617352
11
66.2965713069
21
227.0366009503
0
LINE
5
311
100
AcDbEntity
8
0
100
AcDbLine
62
7
6
CONTINUOUS
10
66.2970405147
20
226.5149496823
11
68.5212989375
21
226.2660797863
0
LINE
5
312
100
AcDbEntity
8
0
100
AcDbLine
62
7
6
CONTINUOUS
10
65.3245254085
20
228.1444824963
11
65.0112395808
21
228.1905554562
0
LINE
5
313
100
AcDbEntity
8
0
100
AcDbLine
62
7
6
CONTINUOUS
10
68.2688956783
20
228.2852124005
11
67.9556098506
21
228.3312853604
0
LINE
5
314
100
AcDbEntity
8
0
100
AcDbLine
62
7
6
CONTINUOUS
10
66.4824882076
20
229.3042229443
11
66.1692023799
21
229.3502959042
0
LINE
5
315
100
AcDbEntity
8
0
100
AcDbLine
62
7
6
CONTINUOUS
10
66.6686378047
20
231.3110188275
11
66.3553519771
21
231.3570917874
0
LINE
5
316
100
AcDbEntity
8
0
100
AcDbLine
62
7
6
CONTINUOUS
10
71.7035918758
20
240.5588654309
11
72.0796256587
21
240.3992470532
0
LINE
5
317
100
AcDbEntity
8
0
100
AcDbLine
62
7
6
CONTINUOUS
10
71.2011199519
20
241.9888752728
11
71.3891387508
21
241.9090660839
0
LINE
5
318
100
AcDbEntity
8
0
100
AcDbLine
62
7
6
CONTINUOUS
10
73.2065673396
20
241.2245224743
11
73.5826049373
21
241.0649040966
0
LINE
5
319
100
AcDbEntity
8
0
100
AcDbLine
62
7
6
CONTINUOUS
10
71.5454307124
20
242.2772682934
11
71.3574119136
21
242.3570774823
0
LINE
5
31A
100
AcDbEntity
8
0
100
AcDbLine
62
7
6
CONTINUOUS
10
73.7388968990
20
241.4331063061
11
73.3628593013
21
241.5927246838
0
LINE
5
31B
100
AcDbEntity
8
0
100
AcDbLine
62
7
6
CONTINUOUS
10
72.3908095882
20
242.7006043225
11
73.2368903682
21
242.3414639264
0
LINE
5
31C
100
AcDbEntity
8
0
100
AcDbLine
62
7
6
CONTINUOUS
10
73.2991767452
20
242.7495716839
11
72.6411109493
21
243.0289028912
0
LINE
5
31D
100
AcDbEntity
8
0
100
AcDbLine
62
7
6
CONTINUOUS
10
73.4538322017
20
244.9435528546
11
74.1118979976
21
244.6642216473
0
LINE
5
31E
100
AcDbEntity
8
0
100
AcDbLine
62
7
6
CONTINUOUS
10
74.3621993587
20
244.9925183087
11
73.5161147640
21
245.3516587048
0
LINE
5
31F
100
AcDbEntity
8
0
100
AcDbLine
62
7
6
CONTINUOUS
10
87.6520019099
20
254.5803173809
11
87.4555945918
21
254.7371701031
0
LINE
5
320
100
AcDbEntity
8
0
100
AcDbLine
62
7
6
CONTINUOUS
10
91.8970771358
20
256.7609661847
11
91.6421599910
21
257.0191601544
0
LINE
5
321
100
AcDbEntity
8
0
100
AcDbLine
62
7
6
CONTINUOUS
10
111.2222838924
20
261.7721623211
11
111.0222839043
21
262.1551426678
0
LINE
5
322
100
AcDbEntity
8
0
100
AcDbLine
62
7
6
CONTINUOUS
10
118.6222839877
20
265.2189701825
11
118.4222837016
21
265.7296093731
0
LINE
5
323
100
AcDbEntity
8
0
100
AcDbLine
62
7
6
CONTINUOUS
10
68.2045074031
20
230.2245367794
11
68.5490508601
21
230.2521036892
0
LINE
5
324
100
AcDbEntity
8
0
100
AcDbLine
62
7
6
CONTINUOUS
10
68.1753516719
20
227.8034657269
11
68.7391715572
21
227.8248642712
0
LINE
5
325
100
AcDbEntity
8
0
100
AcDbLine
62
7
6
CONTINUOUS
10
68.6425948665
20
230.7338513165
11
68.2040420100
21
230.7461880475
0
LINE
5
326
100
AcDbEntity
8
0
100
AcDbLine
62
7
6
CONTINUOUS
10
66.2618117854
20
230.8753451138
11
66.4810882137
21
230.8691767483
0
LINE
5
327
100
AcDbEntity
8
0
100
AcDbLine
62
7
6
CONTINUOUS
10
68.6064315364
20
236.1375492840
11
72.5223823116
21
235.6920498639
0
LINE
5
328
100
AcDbEntity
8
0
100
AcDbLine
62
7
6
CONTINUOUS
10
72.1773734615
20
236.1861332684
11
67.7601180599
21
236.7575138836
0
LINE
5
329
100
AcDbEntity
8
0
100
AcDbLine
62
7
6
CONTINUOUS
10
72.6135917232
20
238.7820519238
11
72.9268775508
21
238.7359799176
0
LINE
5
32A
100
AcDbEntity
8
0
100
AcDbLine
62
7
6
CONTINUOUS
10
73.3628593013
20
241.5927246838
11
72.9555640743
21
241.6787022381
0
LINE
5
32B
100
AcDbEntity
8
0
100
AcDbLine
62
7
6
CONTINUOUS
10
71.3574119136
20
242.3570774823
11
70.9501166866
21
242.4430550366
0
LINE
5
32C
100
AcDbEntity
8
0
100
AcDbLine
62
7
6
CONTINUOUS
10
73.2368903682
20
242.3414639264
11
73.7381949947
21
242.2155827313
0
LINE
5
32D
100
AcDbEntity
8
0
100
AcDbLine
62
7
6
CONTINUOUS
10
73.8944869563
20
242.5837849408
11
73.2991767452
21
242.7495716839
0
LINE
5
32E
100
AcDbEntity
8
0
100
AcDbLine
62
7
6
CONTINUOUS
10
72.8585219905
20
245.1093395977
11
73.4538322017
21
244.9435528546
0
LINE
5
32F
100
AcDbEntity
8
0
100
AcDbLine
62
7
6
CONTINUOUS
10
87.3135848567
20
254.2498081952
11
87.6478877589
21
254.0374439984
0
LINE
5
330
100
AcDbEntity
8
0
100
AcDbLine
62
7
6
CONTINUOUS
10
88.8927665279
20
256.6479176312
11
89.2855792568
21
256.3342121869
0
LINE
5
331
100
AcDbEntity
8
0
100
AcDbLine
62
7
6
CONTINUOUS
10
91.3622527644
20
256.5873097210
11
91.7550674007
21
256.2736004620
0
LINE
5
332
100
AcDbEntity
8
0
100
AcDbLine
62
7
6
CONTINUOUS
10
109.3222837970
20
265.6019505291
11
109.0222838447
21
266.1125897198
0
LINE
5
333
100
AcDbEntity
8
0
100
AcDbLine
62
7
6
CONTINUOUS
10
117.8222837970
20
265.4742916851
11
118.0222840831
21
265.0913113385
0
LINE
5
334
100
AcDbEntity
8
0
100
AcDbLine
62
7
6
CONTINUOUS
10
167.4641149687
20
215.0598102228
11
152.4106130948
21
178.7174418377
0
LINE
5
335
100
AcDbEntity
8
0
100
AcDbLine
62
7
6
CONTINUOUS
10
68.6446967647
20
228.3864201336
11
68.2688956783
21
228.2852124005
0
LINE
5
336
100
AcDbEntity
8
0
100
AcDbLine
62
7
6
CONTINUOUS
10
64.5731521175
20
227.6812409192
11
64.8236861751
21
227.7487124234
0
LINE
5
337
100
AcDbEntity
8
0
100
AcDbLine
62
7
6
CONTINUOUS
10
66.4829574153
20
228.7825716763
11
66.9840255306
21
228.9175156384
0
LINE
5
338
100
AcDbEntity
8
0
100
AcDbLine
62
7
6
CONTINUOUS
10
65.0112395808
20
228.1905554562
11
64.5414252803
21
228.1292513638
0
LINE
5
339
100
AcDbEntity
8
0
100
AcDbLine
62
7
6
CONTINUOUS
10
66.3553519771
20
231.3570917874
11
65.8855414912
21
231.2957886486
0
LINE
5
33A
100
AcDbEntity
8
0
100
AcDbLine
62
7
6
CONTINUOUS
10
72.9891601131
20
239.1440857678
11
72.7698836849
21
239.1502541333
0
LINE
5
33B
100
AcDbEntity
8
0
100
AcDbLine
62
7
6
CONTINUOUS
10
72.7680144832
20
241.2368592053
11
73.2065673396
21
241.2245224743
0
LINE
5
33C
100
AcDbEntity
8
0
100
AcDbLine
62
7
6
CONTINUOUS
10
73.7381949947
20
242.2155827313
11
74.0514808223
21
242.1695107251
0
LINE
5
33D
100
AcDbEntity
8
0
100
AcDbLine
62
7
6
CONTINUOUS
10
73.0148139522
20
245.4775398999
11
72.7015281245
21
245.5236138134
0
LINE
5
33E
100
AcDbEntity
8
0
100
AcDbLine
62
7
6
CONTINUOUS
10
73.5161147640
20
245.3516587048
11
73.0148139522
21
245.4775398999
0
LINE
5
33F
100
AcDbEntity
8
0
100
AcDbLine
62
7
6
CONTINUOUS
10
89.3690791652
20
256.9229191571
11
89.0347762630
21
257.1352833538
0
LINE
5
340
100
AcDbEntity
8
0
100
AcDbLine
62
7
6
CONTINUOUS
10
87.6431670711
20
258.6289547711
11
87.9774699733
21
258.4165905743
0
LINE
5
341
100
AcDbEntity
8
0
100
AcDbLine
62
7
6
CONTINUOUS
10
110.6222838685
20
261.5168446331
11
111.0222839043
21
261.0062054425
0
LINE
5
342
100
AcDbEntity
8
0
100
AcDbLine
62
7
6
CONTINUOUS
10
108.5222838447
20
265.8572682171
11
108.7222838924
21
265.6019505291
0
LINE
5
343
100
AcDbEntity
8
0
100
AcDbLine
62
7
6
CONTINUOUS
10
68.2040420100
20
230.7461880475
11
67.7029700801
21
230.6112440854
0
LINE
5
344
100
AcDbEntity
8
0
100
AcDbLine
62
7
6
CONTINUOUS
10
66.0112777278
20
230.8078736096
11
66.2618117854
21
230.8753451138
0
LINE
5
345
100
AcDbEntity
8
0
100
AcDbLine
62
7
6
CONTINUOUS
10
72.9268775508
20
238.7359799176
11
73.2714210078
21
238.7635468274
0
LINE
5
346
100
AcDbEntity
8
0
100
AcDbLine
62
7
6
CONTINUOUS
10
72.9555640743
20
241.6787022381
11
72.6110206172
21
241.6511334210
0
LINE
5
347
100
AcDbEntity
8
0
100
AcDbLine
62
7
6
CONTINUOUS
10
70.8565764949
20
241.9613083630
11
71.2011199519
21
241.9888752728
0
LINE
5
348
100
AcDbEntity
8
0
100
AcDbLine
62
7
6
CONTINUOUS
10
74.5835776851
20
242.6389187603
11
73.8944869563
21
242.5837849408
0
LINE
5
349
100
AcDbEntity
8
0
100
AcDbLine
62
7
6
CONTINUOUS
10
74.0514808223
20
242.1695107251
11
74.4900336787
21
242.1571720868
0
LINE
5
34A
100
AcDbEntity
8
0
100
AcDbLine
62
7
6
CONTINUOUS
10
72.7015281245
20
245.5236138134
11
72.2629752681
21
245.5359505444
0
LINE
5
34B
100
AcDbEntity
8
0
100
AcDbLine
62
7
6
CONTINUOUS
10
87.9277949855
20
254.4692982464
11
87.6520019099
21
254.5803173809
0
LINE
5
34C
100
AcDbEntity
8
0
100
AcDbLine
62
7
6
CONTINUOUS
10
88.0609717891
20
259.0052975445
11
87.5093856380
21
259.2273358136
0
LINE
5
34D
100
AcDbEntity
8
0
100
AcDbLine
62
7
6
CONTINUOUS
10
111.5222839043
20
261.5168446331
11
111.2222838924
21
261.7721623211
0
LINE
5
34E
100
AcDbEntity
8
0
100
AcDbLine
62
7
6
CONTINUOUS
10
109.0222838447
20
266.1125897198
11
108.6222839877
21
266.4955662518
0
LINE
5
34F
100
AcDbEntity
8
0
100
AcDbLine
62
7
6
CONTINUOUS
10
118.4222837016
20
265.7296093731
11
118.0222840831
21
266.2402485638
0
LINE
5
350
100
AcDbEntity
8
0
100
AcDbLine
62
7
6
CONTINUOUS
10
73.2396941707
20
239.2115582257
11
72.9891601131
21
239.1440857678
0
LINE
5
351
100
AcDbEntity
8
0
100
AcDbLine
62
7
6
CONTINUOUS
10
74.4900336787
20
242.1571720868
11
74.8658347652
21
242.2583798199
0
LINE
5
352
100
AcDbEntity
8
0
100
AcDbLine
62
7
6
CONTINUOUS
10
70.9501166866
20
242.4430550366
11
70.4490485713
21
242.3081101208
0
LINE
5
353
100
AcDbEntity
8
0
100
AcDbLine
62
7
6
CONTINUOUS
10
72.1694312618
20
245.0542038708
11
72.8585219905
21
245.1093395977
0
LINE
5
354
100
AcDbEntity
8
0
100
AcDbLine
62
7
6
CONTINUOUS
10
88.0030665920
20
253.9722584515
11
88.4376292751
21
253.9529026776
0
LINE
5
355
100
AcDbEntity
8
0
100
AcDbLine
62
7
6
CONTINUOUS
10
87.6478877589
20
254.0374439984
11
88.0030665920
21
253.9722584515
0
LINE
5
356
100
AcDbEntity
8
0
100
AcDbLine
62
7
6
CONTINUOUS
10
88.5375876949
20
256.7131069928
11
88.8927665279
21
256.6479176312
0
LINE
5
357
100
AcDbEntity
8
0
100
AcDbLine
62
7
6
CONTINUOUS
10
91.7550674007
20
256.2736004620
11
92.1102462337
21
256.2084149151
0
LINE
5
358
100
AcDbEntity
8
0
100
AcDbLine
62
7
6
CONTINUOUS
10
92.2522559688
20
256.6957768231
11
91.8970771358
21
256.7609661847
0
LINE
5
359
100
AcDbEntity
8
0
100
AcDbLine
62
7
6
CONTINUOUS
10
111.0222839043
20
261.0062054425
11
111.4222838805
21
260.7508877545
0
LINE
5
35A
100
AcDbEntity
8
0
100
AcDbLine
62
7
6
CONTINUOUS
10
117.5222840831
20
265.7296093731
11
117.8222837970
21
265.4742916851
0
LINE
5
35B
100
AcDbEntity
8
0
100
AcDbLine
62
7
6
CONTINUOUS
10
126.9722838924
20
117.9732273846
11
124.9722838924
21
115.9732273846
0
LINE
5
35C
100
AcDbEntity
8
0
100
AcDbLine
62
7
6
CONTINUOUS
10
88.6005149410
20
254.5874432354
11
88.1450763271
21
254.4596203595
0
LINE
5
35D
100
AcDbEntity
8
0
100
AcDbLine
62
7
6
CONTINUOUS
10
72.2629752681
20
245.5359505444
11
71.8871703670
21
245.4347428112
0
LINE
5
35E
100
AcDbEntity
8
0
100
AcDbLine
62
7
6
CONTINUOUS
10
117.1222839877
20
260.6232289105
11
117.6222839877
21
260.7508877545
0
LINE
5
35F
100
AcDbEntity
8
0
100
AcDbLine
62
7
6
CONTINUOUS
10
112.3222838864
20
260.6232289105
11
112.8222839162
21
260.7508877545
0
LINE
5
360
100
AcDbEntity
8
0
100
AcDbLine
62
7
6
CONTINUOUS
10
88.4376292751
20
253.9529026776
11
88.8136840389
21
254.0348957806
0
LINE
5
361
100
AcDbEntity
8
0
100
AcDbLine
62
7
6
CONTINUOUS
10
92.1102462337
20
256.2084149151
11
92.4069133327
21
256.2445706158
0
LINE
5
362
100
AcDbEntity
8
0
100
AcDbLine
62
7
6
CONTINUOUS
10
89.0347762630
20
257.1352833538
11
88.5208278224
21
257.1088017254
0
LINE
5
363
100
AcDbEntity
8
0
100
AcDbLine
62
7
6
CONTINUOUS
10
88.1450763271
20
254.4596203595
11
87.9277949855
21
254.4692982464
0
LINE
5
364
100
AcDbEntity
8
0
100
AcDbLine
62
7
6
CONTINUOUS
10
87.5093856380
20
259.2273358136
11
87.0748210475
21
259.2466915875
0
LINE
5
365
100
AcDbEntity
8
0
100
AcDbLine
62
7
6
CONTINUOUS
10
87.2879901454
20
258.6941403180
11
87.6431670711
21
258.6289547711
0
LINE
5
366
100
AcDbEntity
8
0
100
AcDbLine
62
7
6
CONTINUOUS
10
111.4222838805
20
260.7508877545
11
111.9222838916
21
260.6232289105
0
LINE
5
367
100
AcDbEntity
8
0
100
AcDbLine
62
7
6
CONTINUOUS
10
111.9222838916
20
261.3891857891
11
111.5222839043
21
261.5168446331
0
LINE
5
368
100
AcDbEntity
8
0
100
AcDbLine
62
7
6
CONTINUOUS
10
108.2222838924
20
265.9849308758
11
108.5222838447
21
265.8572682171
0
LINE
5
369
100
AcDbEntity
8
0
100
AcDbLine
62
7
6
CONTINUOUS
10
118.0222840831
20
266.2402485638
11
117.6222839877
21
266.4955662518
0
LINE
5
36A
100
AcDbEntity
8
0
100
AcDbLine
62
7
6
CONTINUOUS
10
152.5639241972
20
254.8588871888
11
167.4641149687
21
218.8866445464
0
LINE
5
36B
100
AcDbEntity
8
0
100
AcDbLine
62
7
6
CONTINUOUS
10
92.7076945827
20
256.8235996991
11
92.2522559688
21
256.6957768231
0
LINE
5
36C
100
AcDbEntity
8
0
100
AcDbLine
62
7
6
CONTINUOUS
10
86.8325496242
20
258.5663174420
11
87.2879901454
21
258.6941403180
0
LINE
5
36D
100
AcDbEntity
8
0
100
AcDbLine
62
7
6
CONTINUOUS
10
105.7222838924
20
260.6232289105
11
106.3222837970
21
260.6232289105
0
LINE
5
36E
100
AcDbEntity
8
0
100
AcDbLine
62
7
6
CONTINUOUS
10
108.8222837970
20
260.6232289105
11
109.5222838447
21
260.6232289105
0
LINE
5
36F
100
AcDbEntity
8
0
100
AcDbLine
62
7
6
CONTINUOUS
10
111.9222838916
20
260.6232289105
11
112.3222838864
21
260.6232289105
0
LINE
5
370
100
AcDbEntity
8
0
100
AcDbLine
62
7
6
CONTINUOUS
10
114.7222838924
20
260.6232289105
11
117.1222839877
21
260.6232289105
0
LINE
5
371
100
AcDbEntity
8
0
100
AcDbLine
62
7
6
CONTINUOUS
10
117.1222839877
20
261.3891857891
11
115.3222837970
21
261.3891857891
0
LINE
5
372
100
AcDbEntity
8
0
100
AcDbLine
62
7
6
CONTINUOUS
10
112.3222838864
20
261.3891857891
11
111.9222838916
21
261.3891857891
0
LINE
5
373
100
AcDbEntity
8
0
100
AcDbLine
62
7
6
CONTINUOUS
10
106.3222837970
20
263.3040798932
11
108.0222838447
21
263.3040798932
0
LINE
5
374
100
AcDbEntity
8
0
100
AcDbLine
62
7
6
CONTINUOUS
10
108.2222838924
20
264.0700367718
11
106.3222837970
21
264.0700367718
0
LINE
5
375
100
AcDbEntity
8
0
100
AcDbLine
62
7
6
CONTINUOUS
10
115.3222837970
20
265.8572682171
11
117.1222839877
21
265.8572682171
0
LINE
5
376
100
AcDbEntity
8
0
100
AcDbLine
62
7
6
CONTINUOUS
10
108.6222839877
20
266.4955662518
11
108.1222839877
21
266.6232289105
0
LINE
5
377
100
AcDbEntity
8
0
100
AcDbLine
62
7
6
CONTINUOUS
10
117.6222839877
20
266.4955662518
11
117.1222839877
21
266.6232289105
0
LINE
5
378
100
AcDbEntity
8
0
100
AcDbLine
62
7
6
CONTINUOUS
10
117.1222839877
20
265.8572682171
11
117.5222840831
21
265.7296093731
0
LINE
5
379
100
AcDbEntity
8
0
100
AcDbLine
62
7
6
CONTINUOUS
10
106.3222837970
20
265.9849308758
11
108.2222838924
21
265.9849308758
0
LINE
5
37A
100
AcDbEntity
8
0
100
AcDbLine
62
7
6
CONTINUOUS
10
117.1222839877
20
266.6232289105
11
114.7222838924
21
266.6232289105
0
LINE
5
37B
100
AcDbEntity
8
0
100
AcDbLine
62
7
6
CONTINUOUS
10
113.9222839401
20
266.6232289105
11
113.3222839162
21
266.6232289105
0
LINE
5
37C
100
AcDbEntity
8
0
100
AcDbLine
62
7
6
CONTINUOUS
10
110.9222839401
20
266.6232289105
11
110.3222839162
21
266.6232289105
0
LINE
5
37D
100
AcDbEntity
8
0
100
AcDbLine
62
7
6
CONTINUOUS
10
108.1222839877
20
266.6232289105
11
105.7222838924
21
266.6232289105
0
LINE
5
37E
100
AcDbEntity
8
0
100
AcDbLine
62
7
6
CONTINUOUS
10
113.8857010542
20
272.4650584609
11
149.8579436965
21
257.5648676895
0
LINE
5
37F
100
AcDbEntity
8
0
100
AcDbLine
62
7
6
CONTINUOUS
10
282.3771297098
20
115.9732273846
11
308.3771297098
21
115.9732273846
0
LINE
5
380
100
AcDbEntity
8
0
100
AcDbLine
62
7
6
CONTINUOUS
10
280.3771297098
20
117.9732273846
11
310.3771297098
21
117.9732273846
0
LINE
5
381
100
AcDbEntity
8
0
100
AcDbLine
62
7
6
CONTINUOUS
10
280.3771297098
20
117.9732273846
11
282.3771297098
21
115.9732273846
0
LINE
5
382
100
AcDbEntity
8
0
100
AcDbLine
62
7
6
CONTINUOUS
10
280.3771297098
20
151.9732273846
11
310.3771297098
21
151.9732273846
0
LINE
5
383
100
AcDbEntity
8
0
100
AcDbLine
62
7
6
CONTINUOUS
10
282.8771297098
20
154.4732273846
11
307.8771297098
21
154.4732273846
0
LINE
5
384
100
AcDbEntity
8
0
100
AcDbLine
62
7
6
CONTINUOUS
10
265.3776540681
20
160.9732273846
11
325.3766053515
21
160.9732273846
0
LINE
5
385
100
AcDbEntity
8
0
100
AcDbLine
62
7
6
CONTINUOUS
10
265.3771297098
20
160.9732273846
11
265.3771297098
21
175.0470973410
0
LINE
5
386
100
AcDbEntity
8
0
100
AcDbLine
62
7
6
CONTINUOUS
10
307.6815907658
20
177.1741504186
11
283.0726686537
21
177.1741504186
0
LINE
5
387
100
AcDbEntity
8
0
100
AcDbLine
62
7
6
CONTINUOUS
10
307.8771297098
20
154.4732273846
11
310.3771297098
21
151.9732273846
0
LINE
5
388
100
AcDbEntity
8
0
100
AcDbLine
62
7
6
CONTINUOUS
10
280.3771297098
20
151.9732273846
11
280.3771297098
21
117.9732273846
0
LINE
5
389
100
AcDbEntity
8
0
100
AcDbLine
62
7
6
CONTINUOUS
10
282.8771297098
20
160.9732273846
11
282.8771297098
21
154.4732273846
0
LINE
5
38A
100
AcDbEntity
8
0
100
AcDbLine
62
7
6
CONTINUOUS
10
283.3771297098
20
270.3456607797
11
283.3771297098
21
217.7259459998
0
LINE
5
38B
100
AcDbEntity
8
0
100
AcDbLine
62
7
6
CONTINUOUS
10
283.3205513196
20
216.2226381497
11
280.3180721728
21
176.3906719319
0
LINE
5
38C
100
AcDbEntity
8
0
100
AcDbLine
62
7
6
CONTINUOUS
10
270.4385229195
20
180.9732273846
11
278.4749569988
21
182.2460734985
0
LINE
5
38D
100
AcDbEntity
8
0
100
AcDbLine
62
7
6
CONTINUOUS
10
320.3157365000
20
180.9732273846
11
312.2777128545
21
182.2463252610
0
LINE
5
38E
100
AcDbEntity
8
DEFAULT_1
100
AcDbLine
62
2
6
CENTER
10
295.3771297098
20
112.9732273846
11
295.3771297098
21
278.3272559591
0
LINE
5
38F
100
AcDbEntity
8
0
100
AcDbLine
62
7
6
CONTINUOUS
10
310.4361872828
20
176.3906714537
11
307.4337080999
21
216.2226381497
0
LINE
5
390
100
AcDbEntity
8
0
100
AcDbLine
62
7
6
CONTINUOUS
10
307.3771297098
20
217.7259459998
11
307.3771297098
21
270.3456607797
0
LINE
5
391
100
AcDbEntity
8
0
100
AcDbLine
62
7
6
CONTINUOUS
10
307.6771297098
20
266.6232289105
11
307.6771297098
21
260.6232289105
0
LINE
5
392
100
AcDbEntity
8
0
100
AcDbLine
62
7
6
CONTINUOUS
10
307.6771297098
20
260.0594624310
11
307.6771297098
21
256.3561161786
0
LINE
5
393
100
AcDbEntity
8
0
100
AcDbLine
62
7
6
CONTINUOUS
10
307.6771297098
20
256.3342121869
11
307.6771297098
21
253.9529026776
0
LINE
5
394
100
AcDbEntity
8
0
100
AcDbLine
62
7
6
CONTINUOUS
10
307.6771297098
20
245.5359505444
11
307.6771297098
21
239.6472309857
0
LINE
5
395
100
AcDbEntity
8
0
100
AcDbLine
62
7
6
CONTINUOUS
10
307.6771297098
20
239.6294888287
11
307.6771297098
21
234.2192410260
0
LINE
5
396
100
AcDbEntity
8
0
100
AcDbLine
62
7
6
CONTINUOUS
10
307.6771297098
20
231.3570917874
11
307.6771297098
21
223.9832276135
0
LINE
5
397
100
AcDbEntity
8
0
100
AcDbLine
62
7
6
CONTINUOUS
10
307.8771297098
20
160.9732273846
11
307.8771297098
21
154.4732273846
0
LINE
5
398
100
AcDbEntity
8
0
100
AcDbLine
62
7
6
CONTINUOUS
10
310.3771297098
20
151.9732273846
11
310.3771297098
21
117.9732273846
0
LINE
5
399
100
AcDbEntity
8
0
100
AcDbLine
62
7
6
CONTINUOUS
10
282.8771297098
20
154.4732273846
11
280.3771297098
21
151.9732273846
0
LINE
5
39A
100
AcDbEntity
8
0
100
AcDbLine
62
7
6
CONTINUOUS
10
325.3771297098
20
160.9732273846
11
325.3771297098
21
175.0470973410
0
LINE
5
39B
100
AcDbEntity
8
0
100
AcDbLine
62
7
6
CONTINUOUS
10
307.3771297098
20
223.9832276135
11
307.6771297098
21
223.9832276135
0
LINE
5
39C
100
AcDbEntity
8
0
100
AcDbLine
62
7
6
CONTINUOUS
10
307.3771297098
20
231.3570917874
11
307.6771297098
21
231.3570917874
0
LINE
5
39D
100
AcDbEntity
8
0
100
AcDbLine
62
7
6
CONTINUOUS
10
307.3771297098
20
234.2192410260
11
307.6771297098
21
234.2192410260
0
LINE
5
39E
100
AcDbEntity
8
0
100
AcDbLine
62
7
6
CONTINUOUS
10
307.3771297098
20
245.5359505444
11
307.6771297098
21
245.5359505444
0
LINE
5
39F
100
AcDbEntity
8
0
100
AcDbLine
62
7
6
CONTINUOUS
10
307.3771297098
20
253.9529026776
11
307.6771297098
21
253.9529026776
0
LINE
5
3A0
100
AcDbEntity
8
0
100
AcDbLine
62
7
6
CONTINUOUS
10
307.3771297098
20
253.9722584515
11
307.6771297098
21
253.9722584515
0
LINE
5
3A1
100
AcDbEntity
8
0
100
AcDbLine
62
7
6
CONTINUOUS
10
310.3771297098
20
117.9732273846
11
308.3771297098
21
115.9732273846
0
LINE
5
3A2
100
AcDbEntity
8
0
100
AcDbLine
62
7
6
CONTINUOUS
10
307.3771297098
20
260.0594624310
11
307.6771297098
21
260.0594624310
0
LINE
5
3A3
100
AcDbEntity
8
0
100
AcDbLine
62
7
6
CONTINUOUS
10
307.3771297098
20
260.6232289105
11
307.6771297098
21
260.6232289105
0
LINE
5
3A4
100
AcDbEntity
8
0
100
AcDbLine
62
7
6
CONTINUOUS
10
307.3771297098
20
266.6232289105
11
307.6771297098
21
266.6232289105
0
LINE
5
3A5
100
AcDbEntity
8
0
100
AcDbLine
62
7
6
CONTINUOUS
10
304.8771297098
20
272.8456607984
11
285.8771297098
21
272.8456607984
0
LINE
5
3A6
100
AcDbEntity
8
0
100
AcDbLine
62
7
6
CONTINUOUS
10
56.0998504786
20
49.7062612537
11
56.0998504786
21
68.7329163040
0
LINE
5
3A7
100
AcDbEntity
8
0
100
AcDbLine
62
7
6
CONTINUOUS
10
63.1338592098
20
47.2195887779
11
63.1338592098
21
46.9195887779
0
LINE
5
3A8
100
AcDbEntity
8
0
100
AcDbLine
62
7
6
CONTINUOUS
10
75.6792579219
20
47.2195887779
11
75.6792579219
21
46.9195887779
0
LINE
5
3A9
100
AcDbEntity
8
0
100
AcDbLine
62
7
6
CONTINUOUS
10
86.8397444257
20
75.6011267222
11
86.8500999855
21
75.6168823977
0
LINE
5
3AA
100
AcDbEntity
8
0
100
AcDbLine
62
7
6
CONTINUOUS
10
86.8397060354
20
42.8381107438
11
86.8497562068
21
42.8228222997
0
LINE
5
3AB
100
AcDbEntity
8
0
100
AcDbLine
62
7
6
CONTINUOUS
10
85.5206294582
20
47.2195887779
11
85.5206294582
21
46.9195887779
0
LINE
5
3AC
100
AcDbEntity
8
0
100
AcDbLine
62
7
6
CONTINUOUS
10
165.6192850999
20
47.1981394085
11
165.6162578373
21
47.1975782729
0
LINE
5
3AD
100
AcDbEntity
8
0
100
AcDbLine
62
7
6
CONTINUOUS
10
165.6020152787
20
47.1949611110
11
150.5485134048
21
44.4555230771
0
LINE
5
3AE
100
AcDbEntity
8
0
100
AcDbLine
62
7
6
CONTINUOUS
10
73.3960543799
20
44.4555230771
11
58.3425525063
21
47.1949611110
0
LINE
5
3AF
100
AcDbEntity
8
0
100
AcDbLine
62
7
6
CONTINUOUS
10
58.3252832409
20
47.1981408213
11
58.3281017806
21
47.1976181884
0
LINE
5
3B0
100
AcDbEntity
8
0
100
AcDbLine
62
7
6
CONTINUOUS
10
92.9417377040
20
47.2195887779
11
92.9417377040
21
46.9195887779
0
LINE
5
3B1
100
AcDbEntity
8
0
100
AcDbLine
62
7
6
CONTINUOUS
10
139.2996310309
20
44.1360198008
11
139.3010541871
21
44.1361320516
0
LINE
5
3B2
100
AcDbEntity
8
0
100
AcDbLine
62
7
6
CONTINUOUS
10
84.6435171858
20
44.1361323924
11
84.6449401689
21
44.1360201664
0
LINE
5
3B3
100
AcDbEntity
8
0
100
AcDbLine
62
7
6
CONTINUOUS
10
150.1009142635
20
44.4151277219
11
147.9250339696
21
44.4151277219
0
LINE
5
3B4
100
AcDbEntity
8
0
100
AcDbLine
62
7
6
CONTINUOUS
10
76.0195338151
20
44.4151277219
11
73.8436535212
21
44.4151277219
0
LINE
5
3B5
100
AcDbEntity
8
0
100
AcDbLine
62
7
6
CONTINUOUS
10
118.7222838924
20
46.9195887779
11
114.7222838924
21
46.9195887779
0
LINE
5
3B6
100
AcDbEntity
8
0
100
AcDbLine
62
7
6
CONTINUOUS
10
113.9222839401
20
46.9195887779
11
110.3222839162
21
46.9195887779
0
LINE
5
3B7
100
AcDbEntity
8
0
100
AcDbLine
62
7
6
CONTINUOUS
10
109.5222838447
20
46.9195887779
11
105.7222838924
21
46.9195887779
0
LINE
5
3B8
100
AcDbEntity
8
0
100
AcDbLine
62
7
6
CONTINUOUS
10
92.9417377040
20
46.9195887779
11
85.5206294582
21
46.9195887779
0
LINE
5
3B9
100
AcDbEntity
8
0
100
AcDbLine
62
7
6
CONTINUOUS
10
75.6792579219
20
46.9195887779
11
63.1338592098
21
46.9195887779
0
LINE
5
3BA
100
AcDbEntity
8
0
100
AcDbLine
62
7
6
CONTINUOUS
10
58.7158591434
20
47.2195887779
11
165.2287086413
21
47.2195887779
0
LINE
5
3BB
100
AcDbEntity
8
0
100
AcDbLine
62
7
6
CONTINUOUS
10
105.7222838924
20
47.2195887779
11
105.7222838924
21
46.9195887779
0
LINE
5
3BC
100
AcDbEntity
8
0
100
AcDbLine
62
7
6
CONTINUOUS
10
109.5222838447
20
47.2195887779
11
109.5222838447
21
46.9195887779
0
LINE
5
3BD
100
AcDbEntity
8
0
100
AcDbLine
62
7
6
CONTINUOUS
10
110.3222839162
20
47.2195887779
11
110.3222839162
21
46.9195887779
0
LINE
5
3BE
100
AcDbEntity
8
DEFAULT_1
100
AcDbLine
62
2
6
CENTER
10
111.9722838924
20
59.2195887779
11
111.9722838924
21
26.2195887779
0
LINE
5
3BF
100
AcDbEntity
8
DEFAULT_1
100
AcDbLine
62
2
6
CENTER
10
111.9722838924
20
59.2195887779
11
111.9722838924
21
92.2195887779
0
LINE
5
3C0
100
AcDbEntity
8
DEFAULT_1
100
AcDbLine
62
2
6
CENTER
10
111.9722838924
20
59.2195887779
11
78.9722838924
21
59.2195887779
0
LINE
5
3C1
100
AcDbEntity
8
DEFAULT_1
100
AcDbLine
62
2
6
CENTER
10
111.9722838924
20
59.2195887779
11
144.9722838924
21
59.2195887779
0
LINE
5
3C2
100
AcDbEntity
8
0
100
AcDbLine
62
7
6
CONTINUOUS
10
113.9222839401
20
47.2195887779
11
113.9222839401
21
46.9195887779
0
LINE
5
3C3
100
AcDbEntity
8
0
100
AcDbLine
62
7
6
CONTINUOUS
10
114.7222838924
20
47.2195887779
11
114.7222838924
21
46.9195887779
0
LINE
5
3C4
100
AcDbEntity
8
0
100
AcDbLine
62
7
6
CONTINUOUS
10
118.7222838924
20
47.2195887779
11
118.7222838924
21
46.9195887779
0
LINE
5
3C5
100
AcDbEntity
8
0
100
AcDbLine
62
7
6
CONTINUOUS
10
165.2287086413
20
71.2195887779
11
58.7158591434
21
71.2195887779
0
LINE
5
3C6
100
AcDbEntity
8
0
100
AcDbLine
62
7
6
CONTINUOUS
10
84.6449367538
20
74.3031577551
11
84.6435135977
21
74.3030455042
0
LINE
5
3C7
100
AcDbEntity
8
0
100
AcDbLine
62
7
6
CONTINUOUS
10
73.8436535212
20
74.0240498340
11
76.0195338152
21
74.0240498340
0
LINE
5
3C8
100
AcDbEntity
8
0
100
AcDbLine
62
7
6
CONTINUOUS
10
147.9250339697
20
74.0240498340
11
150.1009142635
21
74.0240498340
0
LINE
5
3C9
100
AcDbEntity
8
0
100
AcDbLine
62
7
6
CONTINUOUS
10
139.3010505990
20
74.3030451635
11
139.2996276158
21
74.3031573894
0
LINE
5
3CA
100
AcDbEntity
8
0
100
AcDbLine
62
7
6
CONTINUOUS
10
58.3252833512
20
71.2410382810
11
58.3283172366
21
71.2416006381
0
LINE
5
3CB
100
AcDbEntity
8
0
100
AcDbLine
62
7
6
CONTINUOUS
10
58.3425525060
20
71.2442164449
11
73.3960543799
21
73.9836544788
0
LINE
5
3CC
100
AcDbEntity
8
0
100
AcDbLine
62
7
6
CONTINUOUS
10
150.5485134048
20
73.9836544788
11
165.6020152784
21
71.2442164449
0
LINE
5
3CD
100
AcDbEntity
8
0
100
AcDbLine
62
7
6
CONTINUOUS
10
165.6192852077
20
71.2410366820
11
165.6164766973
21
71.2415574612
0
LINE
5
3CE
100
AcDbEntity
8
0
100
AcDbLine
62
7
6
CONTINUOUS
10
137.1048233591
20
42.8380508337
11
137.0944677992
21
42.8222951582
0
LINE
5
3CF
100
AcDbEntity
8
0
100
AcDbLine
62
7
6
CONTINUOUS
10
137.1048617493
20
75.6010668121
11
137.0948115780
21
75.6163552562
0
LINE
5
3D0
100
AcDbEntity
8
0
100
AcDbLine
62
7
6
CONTINUOUS
10
167.8447173061
20
49.7062611262
11
167.8447173061
21
68.7329170272
0
ARC
5
3D1
100
AcDbEntity
8
0
100
AcDbCircle
62
7
6
CONTINUOUS
10
73.9722838924
20
169.1741504186
40
8.0000000000
100
AcDbArc
50
0.0000000000
51
90.0000000000
0
ARC
5
3D2
100
AcDbEntity
8
0
100
AcDbCircle
62
7
6
CONTINUOUS
10
149.9722838924
20
169.1741504186
40
8.0000000000
100
AcDbArc
50
90.0000000000
51
180.0000000000
0
CIRCLE
5
3D3
100
AcDbEntity
8
0
100
AcDbCircle
62
7
6
CONTINUOUS
10
111.9722838924
20
216.9732273846
40
30.0000000000
0
ARC
5
3D4
100
AcDbEntity
8
0
100
AcDbCircle
62
7
6
CONTINUOUS
10
147.9445265347
20
252.9454700269
40
5.0000000000
100
AcDbArc
50
22.5000000000
51
67.5000000000
0
ARC
5
3D5
100
AcDbEntity
8
0
100
AcDbCircle
62
7
6
CONTINUOUS
10
111.9722838924
20
267.8456607984
40
5.0000000000
100
AcDbArc
50
67.5000000000
51
112.5000000000
0
ARC
5
3D6
100
AcDbEntity
8
0
100
AcDbCircle
62
7
6
CONTINUOUS
10
76.0000412501
20
252.9454700269
40
5.0000000000
100
AcDbArc
50
112.5000000000
51
157.5000000000
0
ARC
5
3D7
100
AcDbEntity
8
0
100
AcDbCircle
62
7
6
CONTINUOUS
10
61.0998504786
20
216.9732273846
40
5.0000000000
100
AcDbArc
50
157.5000000000
51
202.5000000000
0
ARC
5
3D8
100
AcDbEntity
8
0
100
AcDbCircle
62
7
6
CONTINUOUS
10
73.8436535212
20
179.6741504186
40
2.5000000000
100
AcDbArc
50
202.5000000000
51
270.0000000000
0
ARC
5
3D9
100
AcDbEntity
8
0
100
AcDbCircle
62
7
6
CONTINUOUS
10
162.8447173061
20
216.9732273846
40
5.0000000000
100
AcDbArc
50
337.5000000000
51
22.5000000000
0
ARC
5
3DA
100
AcDbEntity
8
0
100
AcDbCircle
62
7
6
CONTINUOUS
10
150.1009142635
20
179.6741504186
40
2.5000000000
100
AcDbArc
50
270.0000000000
51
337.5000000000
0
ARC
5
3DB
100
AcDbEntity
8
DEFAULT_2
100
AcDbCircle
62
8
6
HIDDEN
10
295.3771297098
20
258.9732273846
40
12.0000000000
100
AcDbArc
50
180.0000000000
51
360.0000000000
0
ARC
5
3DC
100
AcDbEntity
8
0
100
AcDbCircle
62
7
6
CONTINUOUS
10
285.8771297098
20
270.3456607984
40
2.5000000000
100
AcDbArc
50
90.0000000000
51
180.0000000000
0
ARC
5
3DD
100
AcDbEntity
8
0
100
AcDbCircle
62
7
6
CONTINUOUS
10
304.8771297098
20
270.3456607984
40
2.5000000000
100
AcDbArc
50
0.0000000000
51
90.0000000000
0
ARC
5
3DE
100
AcDbEntity
8
0
100
AcDbCircle
62
7
6
CONTINUOUS
10
271.3771297098
20
175.0470973410
40
6.0000000000
100
AcDbArc
50
99.0000000000
51
180.0000000000
0
ARC
5
3DF
100
AcDbEntity
8
0
100
AcDbCircle
62
7
6
CONTINUOUS
10
319.3771297098
20
175.0470973410
40
6.0000000000
100
AcDbArc
50
0.0000000000
51
81.0000000000
0
ARC
5
3E0
100
AcDbEntity
8
0
100
AcDbCircle
62
7
6
CONTINUOUS
10
327.3771297098
20
217.7259459998
40
20.0000000000
100
AcDbArc
50
180.0000000000
51
184.3107254215
0
ARC
5
3E1
100
AcDbEntity
8
0
100
AcDbCircle
62
7
6
CONTINUOUS
10
263.3771297098
20
217.7259459998
40
20.0000000000
100
AcDbArc
50
355.6892745785
51
360.0000000000
0
ARC
5
3E2
100
AcDbEntity
8
0
100
AcDbCircle
62
7
6
CONTINUOUS
10
307.6815907658
20
179.6741504186
40
2.5000000000
100
AcDbArc
50
270.0000000000
51
4.3107254215
0
ARC
5
3E3
100
AcDbEntity
8
0
100
AcDbCircle
62
7
6
CONTINUOUS
10
283.0726686537
20
179.6741504186
40
2.5000000000
100
AcDbArc
50
175.6892745785
51
270.0000000000
0
ARC
5
3E4
100
AcDbEntity
8
0
100
AcDbCircle
62
7
6
CONTINUOUS
10
111.9722838924
20
59.2195887779
40
30.0000000000
100
AcDbArc
50
213.1325553850
51
326.8674446895
0
ARC
5
3E5
100
AcDbEntity
8
0
100
AcDbCircle
62
7
6
CONTINUOUS
10
111.9722838924
20
59.2195887779
40
30.0000000000
100
AcDbArc
50
33.1110855186
51
146.8674446895
0
SPLINE
5
3E6
100
AcDbEntity
8
0
100
AcDbSpline
62
7
6
CONTINUOUS
70
0
71
3
72
8
73
4
74
2
42
0.0000001000
43
0.0000001000
44
0.0000000001
40
0.0000000000
40
0.0000000000
40
0.0000000000
40
0.0000000000
40
1.0000000000
40
1.0000000000
40
1.0000000000
40
1.0000000000
10
280.9251296429
20
184.5173249005
30
0.0000000000
10
280.9195867313
20
184.4802404455
30
0.0000000000
10
280.9130204508
20
184.4433054986
30
0.0000000000
10
280.9054188835
20
184.4065940012
30
0.0000000000
11
280.9251296429
21
184.5173249005
31
0.0000000000
11
280.9054188835
21
184.4065940012
31
0.0000000000
0
SPLINE
5
3E7
100
AcDbEntity
8
0
100
AcDbSpline
62
7
6
CONTINUOUS
70
0
71
3
72
8
73
4
74
2
42
0.0000001000
43
0.0000001000
44
0.0000000001
40
0.0000000000
40
0.0000000000
40
0.0000000000
40
0.0000000000
40
1.0000000000
40
1.0000000000
40
1.0000000000
40
1.0000000000
10
280.8656150858
20
184.2483269973
30
0.0000000000
10
280.8644193910
20
184.2443288726
30
0.0000000000
10
280.8632094782
20
184.2403351867
30
0.0000000000
10
280.8619852084
20
184.2363460773
30
0.0000000000
11
280.8656150858
21
184.2483269973
31
0.0000000000
11
280.8619852084
21
184.2363460773
31
0.0000000000
0
SPLINE
5
3E8
100
AcDbEntity
8
0
100
AcDbSpline
62
7
6
CONTINUOUS
70
0
71
3
72
8
73
4
74
2
42
0.0000001000
43
0.0000001000
44
0.0000000001
40
0.0000000000
40
0.0000000000
40
0.0000000000
40
0.0000000000
40
1.0000000000
40
1.0000000000
40
1.0000000000
40
1.0000000000
10
280.8358003331
20
184.1579213579
30
0.0000000000
10
280.8319671474
20
184.1473327668
30
0.0000000000
10
280.8280226610
20
184.1367841464
30
0.0000000000
10
280.8239641411
20
184.1262782034
30
0.0000000000
11
280.8358003331
21
184.1579213579
31
0.0000000000
11
280.8239641411
21
184.1262782034
31
0.0000000000
0
SPLINE
5
3E9
100
AcDbEntity
8
0
100
AcDbSpline
62
7
6
CONTINUOUS
70
0
71
3
72
8
73
4
74
2
42
0.0000001000
43
0.0000001000
44
0.0000000001
40
0.0000000000
40
0.0000000000
40
0.0000000000
40
0.0000000000
40
1.0000000000
40
1.0000000000
40
1.0000000000
40
1.0000000000
10
280.8239641411
20
184.1262782034
30
0.0000000000
10
280.7808392333
20
184.0152649660
30
0.0000000000
10
280.7309372916
20
183.9066057820
30
0.0000000000
10
280.6747227316
20
183.8011943520
30
0.0000000000
11
280.8239641411
21
184.1262782034
31
0.0000000000
11
280.6747227316
21
183.8011943520
31
0.0000000000
0
SPLINE
5
3EA
100
AcDbEntity
8
0
100
AcDbSpline
62
7
6
CONTINUOUS
70
0
71
3
72
8
73
4
74
2
42
0.0000001000
43
0.0000001000
44
0.0000000001
40
0.0000000000
40
0.0000000000
40
0.0000000000
40
0.0000000000
40
1.0000000000
40
1.0000000000
40
1.0000000000
40
1.0000000000
10
280.6747227316
20
183.8011943520
30
0.0000000000
10
280.6709491938
20
183.7941183557
30
0.0000000000
10
280.6671472107
20
183.7870569941
30
0.0000000000
10
280.6633169229
20
183.7800105374
30
0.0000000000
11
280.6747227316
21
183.8011943520
31
0.0000000000
11
280.6633169229
21
183.7800105374
31
0.0000000000
0
SPLINE
5
3EB
100
AcDbEntity
8
0
100
AcDbSpline
62
7
6
CONTINUOUS
70
0
71
3
72
11
73
7
74
5
42
0.0000001000
43
0.0000001000
44
0.0000000001
40
0.0000000000
40
0.0000000000
40
0.0000000000
40
0.0000000000
40
0.1425419475
40
0.4282075836
40
0.7141024554
40
1.0000000000
40
1.0000000000
40
1.0000000000
40
1.0000000000
10
280.6633169229
20
183.7800105374
30
0.0000000000
10
280.6024801465
20
183.6680910865
30
0.0000000000
10
280.3982708796
20
183.3431716695
30
0.0000000000
10
279.9587285721
20
182.8742085221
30
0.0000000000
10
279.3054412516
20
182.4622006686
30
0.0000000000
10
278.8149105711
20
182.3064440497
30
0.0000000000
10
278.5634681472
20
182.2608413903
30
0.0000000000
11
280.6633169229
21
183.7800105374
31
0.0000000000
11
280.4599479577
21
183.4566157082
31
0.0000000000
11
279.9379714413
21
182.8995186494
31
0.0000000000
11
279.2917212445
21
182.4919489606
31
0.0000000000
11
278.5634681472
21
182.2608413903
31
0.0000000000
0
SPLINE
5
3EC
100
AcDbEntity
8
0
100
AcDbSpline
62
7
6
CONTINUOUS
70
0
71
3
72
8
73
4
74
2
42
0.0000001000
43
0.0000001000
44
0.0000000001
40
0.0000000000
40
0.0000000000
40
0.0000000000
40
0.0000000000
40
1.0000000000
40
1.0000000000
40
1.0000000000
40
1.0000000000
10
278.5634681472
20
182.2608413903
30
0.0000000000
10
278.5413053709
20
182.2568218556
30
0.0000000000
10
278.5190946129
20
182.2530530768
30
0.0000000000
10
278.4968426156
20
182.2495352789
30
0.0000000000
11
278.5634681472
21
182.2608413903
31
0.0000000000
11
278.4968426156
21
182.2495352789
31
0.0000000000
0
SPLINE
5
3ED
100
AcDbEntity
8
0
100
AcDbSpline
62
7
6
CONTINUOUS
70
0
71
3
72
8
73
4
74
2
42
0.0000001000
43
0.0000001000
44
0.0000000001
40
0.0000000000
40
0.0000000000
40
0.0000000000
40
0.0000000000
40
1.0000000000
40
1.0000000000
40
1.0000000000
40
1.0000000000
10
280.9419017976
20
184.6666647388
30
0.0000000000
10
280.9381493260
20
184.6170953253
30
0.0000000000
10
280.9326245437
20
184.5676153135
30
0.0000000000
10
280.9252960049
20
184.5183984200
30
0.0000000000
11
280.9419017976
21
184.6666647388
31
0.0000000000
11
280.9252960049
21
184.5183984200
31
0.0000000000
0
SPLINE
5
3EE
100
AcDbEntity
8
0
100
AcDbSpline
62
7
6
CONTINUOUS
70
0
71
3
72
10
73
6
74
4
42
0.0000001000
43
0.0000001000
44
0.0000000001
40
0.0000000000
40
0.0000000000
40
0.0000000000
40
0.0000000000
40
0.3900874141
40
0.8797494178
40
1.0000000000
40
1.0000000000
40
1.0000000000
40
1.0000000000
10
280.9252960049
20
184.5183984200
30
0.0000000000
10
280.9175184656
20
184.4661661359
30
0.0000000000
10
280.8953963965
20
184.3490369778
30
0.0000000000
10
280.8582879536
20
184.2188115286
30
0.0000000000
10
280.8298128784
20
184.1414440800
30
0.0000000000
10
280.8239641411
20
184.1262782034
30
0.0000000000
11
280.9252960049
21
184.5183984200
31
0.0000000000
11
280.8958311495
21
184.3627982512
31
0.0000000000
11
280.8408140923
21
184.1720316932
31
0.0000000000
11
280.8239641411
21
184.1262782034
31
0.0000000000
0
SPLINE
5
3EF
100
AcDbEntity
8
0
100
AcDbSpline
62
7
6
CONTINUOUS
70
0
71
3
72
8
73
4
74
2
42
0.0000001000
43
0.0000001000
44
0.0000000001
40
0.0000000000
40
0.0000000000
40
0.0000000000
40
0.0000000000
40
1.0000000000
40
1.0000000000
40
1.0000000000
40
1.0000000000
10
312.2574141698
20
182.2495391461
30
0.0000000000
10
312.2351595765
20
182.2530573559
30
0.0000000000
10
312.2129462306
20
182.2568266059
30
0.0000000000
10
312.1907808765
20
182.2608466711
30
0.0000000000
11
312.2574141698
21
182.2495391461
31
0.0000000000
11
312.1907808765
21
182.2608466711
31
0.0000000000
0
SPLINE
5
3F0
100
AcDbEntity
8
0
100
AcDbSpline
62
7
6
CONTINUOUS
70
0
71
3
72
11
73
7
74
5
42
0.0000001000
43
0.0000001000
44
0.0000000001
40
0.0000000000
40
0.0000000000
40
0.0000000000
40
0.0000000000
40
0.2859295606
40
0.5718558875
40
0.8575036443
40
1.0000000000
40
1.0000000000
40
1.0000000000
40
1.0000000000
10
312.1907808765
20
182.2608466711
30
0.0000000000
10
311.9392926434
20
182.3064583526
30
0.0000000000
10
311.4486750723
20
182.4622566229
30
0.0000000000
10
310.7953346150
20
182.8743645379
30
0.0000000000
10
310.3558266386
20
183.3433828426
30
0.0000000000
10
310.1516605896
20
183.6682923660
30
0.0000000000
10
310.0908465571
20
183.7801876042
30
0.0000000000
11
312.1907808765
21
182.2608466711
31
0.0000000000
11
311.4624011902
21
182.4920153679
31
0.0000000000
11
310.8160642603
21
182.8997055660
31
0.0000000000
11
310.2941379045
21
183.4568575031
31
0.0000000000
11
310.0908465571
21
183.7801876042
31
0.0000000000
0
SPLINE
5
3F1
100
AcDbEntity
8
0
100
AcDbSpline
62
7
6
CONTINUOUS
70
0
71
3
72
8
73
4
74
2
42
0.0000001000
43
0.0000001000
44
0.0000000001
40
0.0000000000
40
0.0000000000
40
0.0000000000
40
0.0000000000
40
1.0000000000
40
1.0000000000
40
1.0000000000
40
1.0000000000
10
310.0908465571
20
183.7801876042
30
0.0000000000
10
310.0870500359
20
183.7871730421
30
0.0000000000
10
310.0832813305
20
183.7941731251
30
0.0000000000
10
310.0795405777
20
183.8011875899
30
0.0000000000
11
310.0908465571
21
183.7801876042
31
0.0000000000
11
310.0795405777
21
183.8011875899
31
0.0000000000
0
SPLINE
5
3F2
100
AcDbEntity
8
0
100
AcDbSpline
62
7
6
CONTINUOUS
70
0
71
3
72
8
73
4
74
2
42
0.0000001000
43
0.0000001000
44
0.0000000001
40
0.0000000000
40
0.0000000000
40
0.0000000000
40
0.0000000000
40
1.0000000000
40
1.0000000000
40
1.0000000000
40
1.0000000000
10
310.0795405777
20
183.8011875899
30
0.0000000000
10
310.0233183805
20
183.9066125262
30
0.0000000000
10
309.9734104098
20
184.0152861738
30
0.0000000000
10
309.9302811673
20
184.1263145090
30
0.0000000000
11
310.0795405777
21
183.8011875899
31
0.0000000000
11
309.9302811673
21
184.1263145090
31
0.0000000000
0
SPLINE
5
3F3
100
AcDbEntity
8
0
100
AcDbSpline
62
7
6
CONTINUOUS
70
0
71
3
72
8
73
4
74
2
42
0.0000001000
43
0.0000001000
44
0.0000000001
40
0.0000000000
40
0.0000000000
40
0.0000000000
40
0.0000000000
40
1.0000000000
40
1.0000000000
40
1.0000000000
40
1.0000000000
10
309.9302811673
20
184.1263145090
30
0.0000000000
10
309.9262286080
20
184.1368062864
30
0.0000000000
10
309.9222896896
20
184.1473405930
30
0.0000000000
10
309.9184617128
20
184.1579147421
30
0.0000000000
11
309.9302811673
21
184.1263145090
31
0.0000000000
11
309.9184617128
21
184.1579147421
31
0.0000000000
0
SPLINE
5
3F4
100
AcDbEntity
8
0
100
AcDbSpline
62
7
6
CONTINUOUS
70
0
71
3
72
8
73
4
74
2
42
0.0000001000
43
0.0000001000
44
0.0000000001
40
0.0000000000
40
0.0000000000
40
0.0000000000
40
0.0000000000
40
1.0000000000
40
1.0000000000
40
1.0000000000
40
1.0000000000
10
309.8989173022
20
184.2151872235
30
0.0000000000
10
309.8953339512
20
184.2263462798
30
0.0000000000
10
309.8918658167
20
184.2375433690
30
0.0000000000
10
309.8885098439
20
184.2487754509
30
0.0000000000
11
309.8989173022
21
184.2151872235
31
0.0000000000
11
309.8885098439
21
184.2487754509
31
0.0000000000
0
SPLINE
5
3F5
100
AcDbEntity
8
0
100
AcDbSpline
62
7
6
CONTINUOUS
70
0
71
3
72
8
73
4
74
2
42
0.0000001000
43
0.0000001000
44
0.0000000001
40
0.0000000000
40
0.0000000000
40
0.0000000000
40
0.0000000000
40
1.0000000000
40
1.0000000000
40
1.0000000000
40
1.0000000000
10
309.8584457704
20
184.3627126049
30
0.0000000000
10
309.8546695868
20
184.3790724716
30
0.0000000000
10
309.8511020369
20
184.3954831135
30
0.0000000000
10
309.8477420568
20
184.4119378973
30
0.0000000000
11
309.8584457704
21
184.3627126049
31
0.0000000000
11
309.8477420568
21
184.4119378973
31
0.0000000000
0
SPLINE
5
3F6
100
AcDbEntity
8
0
100
AcDbSpline
62
7
6
CONTINUOUS
70
0
71
3
72
8
73
4
74
2
42
0.0000001000
43
0.0000001000
44
0.0000000001
40
0.0000000000
40
0.0000000000
40
0.0000000000
40
0.0000000000
40
1.0000000000
40
1.0000000000
40
1.0000000000
40
1.0000000000
10
309.8189248896
20
184.5959960723
30
0.0000000000
10
309.8165217607
20
184.6178064939
30
0.0000000000
10
309.8144663833
20
184.6396504035
30
0.0000000000
10
309.8127563918
20
184.6615130014
30
0.0000000000
11
309.8189248896
21
184.5959960723
31
0.0000000000
11
309.8127563918
21
184.6615130014
31
0.0000000000
0
SPLINE
5
3F7
100
AcDbEntity
8
0
100
AcDbSpline
62
7
6
CONTINUOUS
70
0
71
3
72
10
73
6
74
4
42
0.0000001000
43
0.0000001000
44
0.0000000001
40
0.0000000000
40
0.0000000000
40
0.0000000000
40
0.0000000000
40
0.1025007037
40
0.5099040274
40
1.0000000000
40
1.0000000000
40
1.0000000000
40
1.0000000000
10
309.9302811673
20
184.1263145090
30
0.0000000000
10
309.9243341608
20
184.1417314739
30
0.0000000000
10
309.8959580213
20
184.2188779027
30
0.0000000000
10
309.8517076278
20
184.3741851387
30
0.0000000000
10
309.8275747761
20
184.5173719271
30
0.0000000000
10
309.8189171642
20
184.5959952210
30
0.0000000000
11
309.9302811673
21
184.1263145090
31
0.0000000000
11
309.9131607245
21
184.1728300130
31
0.0000000000
11
309.8585775105
21
184.3621250994
31
0.0000000000
11
309.8189171642
21
184.5959952210
31
0.0000000000
0
SPLINE
5
3F8
100
AcDbEntity
8
0
100
AcDbSpline
62
7
6
CONTINUOUS
70
0
71
3
72
8
73
4
74
2
42
0.0000001000
43
0.0000001000
44
0.0000000001
40
0.0000000000
40
0.0000000000
40
0.0000000000
40
0.0000000000
40
1.0000000000
40
1.0000000000
40
1.0000000000
40
1.0000000000
10
309.8189171642
20
184.5959952210
30
0.0000000000
10
309.8163391385
20
184.6194073212
30
0.0000000000
10
309.8141619536
20
184.6428578616
30
0.0000000000
10
309.8123822882
20
184.6663283806
30
0.0000000000
11
309.8189171642
21
184.5959952210
31
0.0000000000
11
309.8123822882
21
184.6663283806
31
0.0000000000
0
SPLINE
5
3F9
100
AcDbEntity
8
0
100
AcDbSpline
62
7
6
CONTINUOUS
70
0
71
3
72
8
73
4
74
2
42
0.0000001000
43
0.0000001000
44
0.0000000001
40
0.0000000000
40
0.0000000000
40
0.0000000000
40
0.0000000000
40
1.0000000000
40
1.0000000000
40
1.0000000000
40
1.0000000000
10
139.3007268189
20
74.3031422591
30
0.0000000000
10
139.2677143525
20
74.3057651686
30
0.0000000000
10
139.2347348067
20
74.3089578262
30
0.0000000000
10
139.2018112087
20
74.3127170601
30
0.0000000000
11
139.3007268189
21
74.3031422591
31
0.0000000000
11
139.2018112087
21
74.3127170601
31
0.0000000000
0
SPLINE
5
3FA
100
AcDbEntity
8
0
100
AcDbSpline
62
7
6
CONTINUOUS
70
0
71
3
72
11
73
7
74
5
42
0.0000001000
43
0.0000001000
44
0.0000000001
40
0.0000000000
40
0.0000000000
40
0.0000000000
40
0.0000000000
40
0.1638588182
40
0.4968351315
40
0.8323633393
40
1.0000000000
40
1.0000000000
40
1.0000000000
40
1.0000000000
10
139.2018112087
20
74.3127170601
30
0.0000000000
10
139.0694194949
20
74.3278336164
30
0.0000000000
10
138.6707385800
20
74.4014468588
30
0.0000000000
10
138.0398114338
20
74.6627045363
30
0.0000000000
10
137.5026100627
20
75.0893807152
30
0.0000000000
10
137.2416244895
20
75.4064000044
30
0.0000000000
10
137.1624674233
20
75.5174077502
30
0.0000000000
11
139.2018112087
21
74.3127170601
31
0.0000000000
11
138.8088473425
21
74.3853449076
31
0.0000000000
11
138.0609047202
21
74.6944799126
31
0.0000000000
11
137.4224404149
21
75.2018494541
31
0.0000000000
11
137.1624674233
21
75.5174077502
31
0.0000000000
0
SPLINE
5
3FB
100
AcDbEntity
8
0
100
AcDbSpline
62
7
6
CONTINUOUS
70
0
71
3
72
8
73
4
74
2
42
0.0000001000
43
0.0000001000
44
0.0000000001
40
0.0000000000
40
0.0000000000
40
0.0000000000
40
0.0000000000
40
1.0000000000
40
1.0000000000
40
1.0000000000
40
1.0000000000
10
137.1624674233
20
75.5174077502
30
0.0000000000
10
137.1428035694
20
75.5449838113
30
0.0000000000
10
137.1236206893
20
75.5728923788
30
0.0000000000
10
137.1049322790
20
75.6011135178
30
0.0000000000
11
137.1624674233
21
75.5174077502
31
0.0000000000
11
137.1049322790
21
75.6011135178
31
0.0000000000
0
SPLINE
5
3FC
100
AcDbEntity
8
0
100
AcDbSpline
62
7
6
CONTINUOUS
70
0
71
3
72
8
73
4
74
2
42
0.0000001000
43
0.0000001000
44
0.0000000001
40
0.0000000000
40
0.0000000000
40
0.0000000000
40
0.0000000000
40
1.0000000000
40
1.0000000000
40
1.0000000000
40
1.0000000000
10
86.8396667795
20
75.6011781336
30
0.0000000000
10
86.8254396206
20
75.5796909664
30
0.0000000000
10
86.8109262848
20
75.5583852562
30
0.0000000000
10
86.7961326508
20
75.5372698445
30
0.0000000000
11
86.8396667795
21
75.6011781336
31
0.0000000000
11
86.7961326508
21
75.5372698445
31
0.0000000000
0
SPLINE
5
3FD
100
AcDbEntity
8
0
100
AcDbSpline
62
7
6
CONTINUOUS
70
0
71
3
72
8
73
4
74
2
42
0.0000001000
43
0.0000001000
44
0.0000000001
40
0.0000000000
40
0.0000000000
40
0.0000000000
40
0.0000000000
40
1.0000000000
40
1.0000000000
40
1.0000000000
40
1.0000000000
10
86.7961326508
20
75.5372698445
30
0.0000000000
10
86.7172453410
20
75.4246715462
30
0.0000000000
10
86.6303875410
20
75.3174845273
30
0.0000000000
10
86.5364506298
20
75.2170494688
30
0.0000000000
11
86.7961326508
21
75.5372698445
31
0.0000000000
11
86.5364506298
21
75.2170494688
31
0.0000000000
0
SPLINE
5
3FE
100
AcDbEntity
8
0
100
AcDbSpline
62
7
6
CONTINUOUS
70
0
71
3
72
10
73
6
74
4
42
0.0000001000
43
0.0000001000
44
0.0000000001
40
0.0000000000
40
0.0000000000
40
0.0000000000
40
0.0000000000
40
0.4031629964
40
0.8033233192
40
1.0000000000
40
1.0000000000
40
1.0000000000
40
1.0000000000
10
86.5364506298
20
75.2170494688
30
0.0000000000
10
86.3483089512
20
75.0158929665
30
0.0000000000
10
85.9168438410
20
74.6690462269
30
0.0000000000
10
85.2810762484
20
74.4032813891
30
0.0000000000
10
84.8789794902
20
74.3284075822
30
0.0000000000
10
84.7455490715
20
74.3130401989
30
0.0000000000
11
86.5364506298
21
75.2170494688
31
0.0000000000
11
85.8952672390
21
74.7013373778
31
0.0000000000
11
85.1415274270
21
74.3868480660
31
0.0000000000
11
84.7455490715
21
74.3130401989
31
0.0000000000
0
SPLINE
5
3FF
100
AcDbEntity
8
0
100
AcDbSpline
62
7
6
CONTINUOUS
70
0
71
3
72
8
73
4
74
2
42
0.0000001000
43
0.0000001000
44
0.0000000001
40
0.0000000000
40
0.0000000000
40
0.0000000000
40
0.0000000000
40
1.0000000000
40
1.0000000000
40
1.0000000000
40
1.0000000000
10
84.7455490715
20
74.3130401989
30
0.0000000000
10
84.7116958087
20
74.3091412674
30
0.0000000000
10
84.6777828860
20
74.3058413679
30
0.0000000000
10
84.6438353315
20
74.3031439627
30
0.0000000000
11
84.7455490715
21
74.3130401989
31
0.0000000000
11
84.6438353315
21
74.3031439627
31
0.0000000000
0
SPLINE
5
400
100
AcDbEntity
8
0
100
AcDbSpline
62
7
6
CONTINUOUS
70
0
71
3
72
8
73
4
74
2
42
0.0000001000
43
0.0000001000
44
0.0000000001
40
0.0000000000
40
0.0000000000
40
0.0000000000
40
0.0000000000
40
1.0000000000
40
1.0000000000
40
1.0000000000
40
1.0000000000
10
84.6438409659
20
44.1360352967
30
0.0000000000
10
84.6768534322
20
44.1334123873
30
0.0000000000
10
84.7098329780
20
44.1302197297
30
0.0000000000
10
84.7427565761
20
44.1264604957
30
0.0000000000
11
84.6438409659
21
44.1360352967
31
0.0000000000
11
84.7427565761
21
44.1264604957
31
0.0000000000
0
SPLINE
5
401
100
AcDbEntity
8
0
100
AcDbSpline
62
7
6
CONTINUOUS
70
0
71
3
72
11
73
7
74
5
42
0.0000001000
43
0.0000001000
44
0.0000000001
40
0.0000000000
40
0.0000000000
40
0.0000000000
40
0.0000000000
40
0.1638588182
40
0.4968351315
40
0.8323633393
40
1.0000000000
40
1.0000000000
40
1.0000000000
40
1.0000000000
10
84.7427565761
20
44.1264604957
30
0.0000000000
10
84.8751482898
20
44.1113439395
30
0.0000000000
10
85.2738292048
20
44.0377306971
30
0.0000000000
10
85.9047563510
20
43.7764730196
30
0.0000000000
10
86.4419577221
20
43.3497968407
30
0.0000000000
10
86.7029432952
20
43.0327775515
30
0.0000000000
10
86.7821003614
20
42.9217698057
30
0.0000000000
11
84.7427565761
21
44.1264604957
31
0.0000000000
11
85.1357204423
21
44.0538326483
31
0.0000000000
11
85.8836630645
21
43.7446976432
31
0.0000000000
11
86.5221273698
21
43.2373281018
31
0.0000000000
11
86.7821003614
21
42.9217698057
31
0.0000000000
0
SPLINE
5
402
100
AcDbEntity
8
0
100
AcDbSpline
62
7
6
CONTINUOUS
70
0
71
3
72
8
73
4
74
2
42
0.0000001000
43
0.0000001000
44
0.0000000001
40
0.0000000000
40
0.0000000000
40
0.0000000000
40
0.0000000000
40
1.0000000000
40
1.0000000000
40
1.0000000000
40
1.0000000000
10
86.7821003614
20
42.9217698057
30
0.0000000000
10
86.8017642153
20
42.8941937446
30
0.0000000000
10
86.8209470954
20
42.8662851771
30
0.0000000000
10
86.8396355058
20
42.8380640381
30
0.0000000000
11
86.7821003614
21
42.9217698057
31
0.0000000000
11
86.8396355058
21
42.8380640381
31
0.0000000000
0
SPLINE
5
403
100
AcDbEntity
8
0
100
AcDbSpline
62
7
6
CONTINUOUS
70
0
71
3
72
8
73
4
74
2
42
0.0000001000
43
0.0000001000
44
0.0000000001
40
0.0000000000
40
0.0000000000
40
0.0000000000
40
0.0000000000
40
1.0000000000
40
1.0000000000
40
1.0000000000
40
1.0000000000
10
137.1049010052
20
42.8379994223
30
0.0000000000
10
137.1191281642
20
42.8594865895
30
0.0000000000
10
137.1336414999
20
42.8807922997
30
0.0000000000
10
137.1484351340
20
42.9019077114
30
0.0000000000
11
137.1049010052
21
42.8379994223
31
0.0000000000
11
137.1484351340
21
42.9019077114
31
0.0000000000
0
SPLINE
5
404
100
AcDbEntity
8
0
100
AcDbSpline
62
7
6
CONTINUOUS
70
0
71
3
72
8
73
4
74
2
42
0.0000001000
43
0.0000001000
44
0.0000000001
40
0.0000000000
40
0.0000000000
40
0.0000000000
40
0.0000000000
40
1.0000000000
40
1.0000000000
40
1.0000000000
40
1.0000000000
10
137.1484351340
20
42.9019077114
30
0.0000000000
10
137.2273224437
20
43.0145060097
30
0.0000000000
10
137.3141802438
20
43.1216930286
30
0.0000000000
10
137.4081171550
20
43.2221280871
30
0.0000000000
11
137.1484351340
21
42.9019077114
31
0.0000000000
11
137.4081171550
21
43.2221280871
31
0.0000000000
0
SPLINE
5
405
100
AcDbEntity
8
0
100
AcDbSpline
62
7
6
CONTINUOUS
70
0
71
3
72
10
73
6
74
4
42
0.0000001000
43
0.0000001000
44
0.0000000001
40
0.0000000000
40
0.0000000000
40
0.0000000000
40
0.0000000000
40
0.4031629964
40
0.8033233192
40
1.0000000000
40
1.0000000000
40
1.0000000000
40
1.0000000000
10
137.4081171550
20
43.2221280871
30
0.0000000000
10
137.5962588335
20
43.4232845894
30
0.0000000000
10
138.0277239438
20
43.7701313290
30
0.0000000000
10
138.6634915363
20
44.0358961668
30
0.0000000000
10
139.0655882945
20
44.1107699737
30
0.0000000000
10
139.1990187133
20
44.1261373570
30
0.0000000000
11
137.4081171550
21
43.2221280871
31
0.0000000000
11
138.0493005457
21
43.7378401781
31
0.0000000000
11
138.8030403578
21
44.0523294899
31
0.0000000000
11
139.1990187133
21
44.1261373570
31
0.0000000000
0
SPLINE
5
406
100
AcDbEntity
8
0
100
AcDbSpline
62
7
6
CONTINUOUS
70
0
71
3
72
8
73
4
74
2
42
0.0000001000
43
0.0000001000
44
0.0000000001
40
0.0000000000
40
0.0000000000
40
0.0000000000
40
0.0000000000
40
1.0000000000
40
1.0000000000
40
1.0000000000
40
1.0000000000
10
139.1990187133
20
44.1261373570
30
0.0000000000
10
139.2328719760
20
44.1300362885
30
0.0000000000
10
139.2667848987
20
44.1333361880
30
0.0000000000
10
139.3007324533
20
44.1360335932
30
0.0000000000
11
139.1990187133
21
44.1261373570
31
0.0000000000
11
139.3007324533
21
44.1360335932
31
0.0000000000
0
SPLINE
5
407
100
AcDbEntity
8
0
100
AcDbSpline
62
7
6
CONTINUOUS
70
0
71
3
72
16
73
12
74
10
42
0.0000001000
43
0.0000001000
44
0.0000000001
40
0.0000000000
40
0.0000000000
40
0.0000000000
40
0.0000000000
40
0.1191294125
40
0.2653866856
40
0.4040631141
40
0.5341804629
40
0.6550394613
40
0.7661830674
40
0.8673331989
40
0.9583390738
40
1.0000000000
40
1.0000000000
40
1.0000000000
40
1.0000000000
10
76.0195338151
20
44.4151282420
30
0.0000000000
10
76.3465380336
20
44.4151290830
30
0.0000000000
10
77.0750130753
20
44.4127969616
30
0.0000000000
10
78.1840960563
20
44.4013876793
30
0.0000000000
10
79.3232132047
20
44.3807697194
30
0.0000000000
10
80.3924406351
20
44.3530547508
30
0.0000000000
10
81.3858786726
20
44.3193631082
30
0.0000000000
10
82.2995634411
20
44.2807546827
30
0.0000000000
10
83.1310193029
20
44.2382406710
30
0.0000000000
10
83.7716891604
20
44.1992756588
30
0.0000000000
10
84.1349501047
20
44.1741780506
30
0.0000000000
10
84.2490076107
20
44.1659536396
30
0.0000000000
11
76.0195338151
21
44.4151282420
31
0.0000000000
11
77.0005412641
21
44.4119953100
31
0.0000000000
11
78.2048814003
21
44.3995640813
31
0.0000000000
11
79.3466700899
21
44.3788097602
31
0.0000000000
11
80.4178017110
21
44.3509180307
31
0.0000000000
11
81.4124780171
21
44.3170206730
31
0.0000000000
11
82.3269027414
21
44.2781835494
31
0.0000000000
11
83.1587582127
21
44.2354090264
31
0.0000000000
11
83.9067778784
21
44.1896459368
31
0.0000000000
11
84.2490076107
21
44.1659536396
31
0.0000000000
0
SPLINE
5
408
100
AcDbEntity
8
0
100
AcDbSpline
62
7
6
CONTINUOUS
70
0
71
3
72
8
73
4
74
2
42
0.0000001000
43
0.0000001000
44
0.0000000001
40
0.0000000000
40
0.0000000000
40
0.0000000000
40
0.0000000000
40
1.0000000000
40
1.0000000000
40
1.0000000000
40
1.0000000000
10
84.2490076107
20
44.1659536396
30
0.0000000000
10
84.3558511308
20
44.1582494117
30
0.0000000000
10
84.4626804769
20
44.1502441210
30
0.0000000000
10
84.5695028470
20
44.1418980358
30
0.0000000000
11
84.2490076107
21
44.1659536396
31
0.0000000000
11
84.5695028470
21
44.1418980358
31
0.0000000000
0
SPLINE
5
409
100
AcDbEntity
8
0
100
AcDbSpline
62
7
6
CONTINUOUS
70
0
71
3
72
8
73
4
74
2
42
0.0000001000
43
0.0000001000
44
0.0000000001
40
0.0000000000
40
0.0000000000
40
0.0000000000
40
0.0000000000
40
1.0000000000
40
1.0000000000
40
1.0000000000
40
1.0000000000
10
84.5695028470
20
44.1418980358
30
0.0000000000
10
84.5949392956
20
44.1399106733
30
0.0000000000
10
84.6203753488
20
44.1379039876
30
0.0000000000
10
84.6458101851
20
44.1358773366
30
0.0000000000
11
84.5695028470
21
44.1418980358
31
0.0000000000
11
84.6458101851
21
44.1358773366
31
0.0000000000
0
SPLINE
5
40A
100
AcDbEntity
8
0
100
AcDbSpline
62
7
6
CONTINUOUS
70
0
71
3
72
9
73
5
74
3
42
0.0000001000
43
0.0000001000
44
0.0000000001
40
0.0000000000
40
0.0000000000
40
0.0000000000
40
0.0000000000
40
0.0330952512
40
1.0000000000
40
1.0000000000
40
1.0000000000
40
1.0000000000
10
73.3956962473
20
44.4555828360
30
0.0000000000
10
73.4005828389
20
44.4546945537
30
0.0000000000
10
73.5483215997
20
44.4282961662
30
0.0000000000
10
73.6986016700
20
44.4152697021
30
0.0000000000
10
73.8436535505
20
44.4152254796
30
0.0000000000
11
73.3956962473
21
44.4555828360
31
0.0000000000
11
73.4103645252
21
44.4529618774
31
0.0000000000
11
73.8436535505
21
44.4152254796
31
0.0000000000
0
SPLINE
5
40B
100
AcDbEntity
8
0
100
AcDbSpline
62
7
6
CONTINUOUS
70
0
71
3
72
8
73
4
74
2
42
0.0000001000
43
0.0000001000
44
0.0000000001
40
0.0000000000
40
0.0000000000
40
0.0000000000
40
0.0000000000
40
1.0000000000
40
1.0000000000
40
1.0000000000
40
1.0000000000
10
73.8436535212
20
74.0240498340
30
0.0000000000
10
73.6931486693
20
74.0240498340
30
0.0000000000
10
73.5421550921
20
74.0103162953
30
0.0000000000
10
73.3935947078
20
73.9831623689
30
0.0000000000
11
73.8436535212
21
74.0240498340
31
0.0000000000
11
73.3935947078
21
73.9831623689
31
0.0000000000
0
SPLINE
5
40C
100
AcDbEntity
8
0
100
AcDbSpline
62
7
6
CONTINUOUS
70
0
71
3
72
9
73
5
74
3
42
0.0000001000
43
0.0000001000
44
0.0000000001
40
0.0000000000
40
0.0000000000
40
0.0000000000
40
0.0000000000
40
0.5453693159
40
1.0000000000
40
1.0000000000
40
1.0000000000
40
1.0000000000
10
84.6458017509
20
74.3032994055
30
0.0000000000
10
84.6211841781
20
74.3013378969
30
0.0000000000
10
84.5760428428
20
74.2977755281
30
0.0000000000
10
84.5309001623
20
74.2942740585
30
0.0000000000
10
84.5103765879
20
74.2926944887
30
0.0000000000
11
84.6458017509
21
74.3032994055
31
0.0000000000
11
84.5719463797
21
74.2974703968
31
0.0000000000
11
84.5103765879
21
74.2926944887
31
0.0000000000
0
SPLINE
5
40D
100
AcDbEntity
8
0
100
AcDbSpline
62
7
6
CONTINUOUS
70
0
71
3
72
8
73
4
74
2
42
0.0000001000
43
0.0000001000
44
0.0000000001
40
0.0000000000
40
0.0000000000
40
0.0000000000
40
0.0000000000
40
1.0000000000
40
1.0000000000
40
1.0000000000
40
1.0000000000
10
84.5103765879
20
74.2926944887
30
0.0000000000
10
84.4238317321
20
74.2860336781
30
0.0000000000
10
84.3372810678
20
74.2795916867
30
0.0000000000
10
84.2507209509
20
74.2733474136
30
0.0000000000
11
84.5103765879
21
74.2926944887
31
0.0000000000
11
84.2507209509
21
74.2733474136
31
0.0000000000
0
SPLINE
5
40E
100
AcDbEntity
8
0
100
AcDbSpline
62
7
6
CONTINUOUS
70
0
71
3
72
16
73
12
74
10
42
0.0000001000
43
0.0000001000
44
0.0000000001
40
0.0000000000
40
0.0000000000
40
0.0000000000
40
0.0000000000
40
0.0417538130
40
0.1329782243
40
0.2343851674
40
0.3458264291
40
0.4670264059
40
0.5975298600
40
0.7366370392
40
0.8833664504
40
1.0000000000
40
1.0000000000
40
1.0000000000
40
1.0000000000
10
84.2507209509
20
74.2733474136
30
0.0000000000
10
84.1363854549
20
74.2650994803
30
0.0000000000
10
83.7721953782
20
74.2399299740
30
0.0000000000
10
83.1298351189
20
74.2008645071
30
0.0000000000
10
82.2960849764
20
74.1582542468
30
0.0000000000
10
81.3797516865
20
74.1195748805
30
0.0000000000
10
80.3832924880
20
74.0858426395
30
0.0000000000
10
79.3106620446
20
74.0581245329
30
0.0000000000
10
78.1677668779
20
74.0375501796
30
0.0000000000
10
77.0628245710
20
74.0263156336
30
0.0000000000
10
76.3397538187
20
74.0240484294
30
0.0000000000
10
76.0195338152
20
74.0240492505
30
0.0000000000
11
84.2507209509
21
74.2733474136
31
0.0000000000
11
83.9076565875
21
74.2495898767
31
0.0000000000
11
83.1576842674
21
74.2037082194
31
0.0000000000
11
82.3235418492
21
74.1608364169
31
0.0000000000
11
81.4064753012
21
74.1219273454
31
0.0000000000
11
80.4087826418
21
74.0879886890
31
0.0000000000
11
79.3342463653
21
74.0600933636
31
0.0000000000
11
78.1886702454
21
74.0393825906
31
0.0000000000
11
76.9801889146
21
74.0270537185
31
0.0000000000
11
76.0195338152
21
74.0240492505
31
0.0000000000
0
SPLINE
5
40F
100
AcDbEntity
8
0
100
AcDbSpline
62
7
6
CONTINUOUS
70
0
71
3
72
16
73
12
74
10
42
0.0000001000
43
0.0000001000
44
0.0000000001
40
0.0000000000
40
0.0000000000
40
0.0000000000
40
0.0000000000
40
0.1191294125
40
0.2653866856
40
0.4040631141
40
0.5341804629
40
0.6550394613
40
0.7661830674
40
0.8673331989
40
0.9583390738
40
1.0000000000
40
1.0000000000
40
1.0000000000
40
1.0000000000
10
147.9250339697
20
74.0240493139
30
0.0000000000
10
147.5980297512
20
74.0240484729
30
0.0000000000
10
146.8695547095
20
74.0263805943
30
0.0000000000
10
145.7604717284
20
74.0377898766
30
0.0000000000
10
144.6213545800
20
74.0584078365
30
0.0000000000
10
143.5521271497
20
74.0861228051
30
0.0000000000
10
142.5586891121
20
74.1198144477
30
0.0000000000
10
141.6450043437
20
74.1584228732
30
0.0000000000
10
140.8135484818
20
74.2009368849
30
0.0000000000
10
140.1728786243
20
74.2399018970
30
0.0000000000
10
139.8096176801
20
74.2649995052
30
0.0000000000
10
139.6955601740
20
74.2732239162
30
0.0000000000
11
147.9250339697
21
74.0240493139
31
0.0000000000
11
146.9440265207
21
74.0271822459
31
0.0000000000
11
145.7396863845
21
74.0396134746
31
0.0000000000
11
144.5978976949
21
74.0603677956
31
0.0000000000
11
143.5267660737
21
74.0882595252
31
0.0000000000
11
142.5320897676
21
74.1221568829
31
0.0000000000
11
141.6176650433
21
74.1609940065
31
0.0000000000
11
140.7858095720
21
74.2037685295
31
0.0000000000
11
140.0377899063
21
74.2495316190
31
0.0000000000
11
139.6955601740
21
74.2732239162
31
0.0000000000
0
SPLINE
5
410
100
AcDbEntity
8
0
100
AcDbSpline
62
7
6
CONTINUOUS
70
0
71
3
72
8
73
4
74
2
42
0.0000001000
43
0.0000001000
44
0.0000000001
40
0.0000000000
40
0.0000000000
40
0.0000000000
40
0.0000000000
40
1.0000000000
40
1.0000000000
40
1.0000000000
40
1.0000000000
10
139.6955601740
20
74.2732239162
30
0.0000000000
10
139.5887166540
20
74.2809281442
30
0.0000000000
10
139.4818873079
20
74.2889334349
30
0.0000000000
10
139.3750649378
20
74.2972795201
30
0.0000000000
11
139.6955601740
21
74.2732239162
31
0.0000000000
11
139.3750649378
21
74.2972795201
31
0.0000000000
0
SPLINE
5
411
100
AcDbEntity
8
0
100
AcDbSpline
62
7
6
CONTINUOUS
70
0
71
3
72
8
73
4
74
2
42
0.0000001000
43
0.0000001000
44
0.0000000001
40
0.0000000000
40
0.0000000000
40
0.0000000000
40
0.0000000000
40
1.0000000000
40
1.0000000000
40
1.0000000000
40
1.0000000000
10
139.3750649378
20
74.2972795201
30
0.0000000000
10
139.3496284891
20
74.2992668825
30
0.0000000000
10
139.3241924360
20
74.3012735683
30
0.0000000000
10
139.2987575997
20
74.3033002193
30
0.0000000000
11
139.3750649378
21
74.2972795201
31
0.0000000000
11
139.2987575997
21
74.3033002193
31
0.0000000000
0
SPLINE
5
412
100
AcDbEntity
8
0
100
AcDbSpline
62
7
6
CONTINUOUS
70
0
71
3
72
9
73
5
74
3
42
0.0000001000
43
0.0000001000
44
0.0000000001
40
0.0000000000
40
0.0000000000
40
0.0000000000
40
0.0000000000
40
0.0330952512
40
1.0000000000
40
1.0000000000
40
1.0000000000
40
1.0000000000
10
150.5488715375
20
73.9835947199
30
0.0000000000
10
150.5439849458
20
73.9844830022
30
0.0000000000
10
150.3962461850
20
74.0108813897
30
0.0000000000
10
150.2459661148
20
74.0239078537
30
0.0000000000
10
150.1009142343
20
74.0239520763
30
0.0000000000
11
150.5488715375
21
73.9835947199
31
0.0000000000
11
150.5342032595
21
73.9862156785
31
0.0000000000
11
150.1009142343
21
74.0239520763
31
0.0000000000
0
SPLINE
5
413
100
AcDbEntity
8
0
100
AcDbSpline
62
7
6
CONTINUOUS
70
0
71
3
72
8
73
4
74
2
42
0.0000001000
43
0.0000001000
44
0.0000000001
40
0.0000000000
40
0.0000000000
40
0.0000000000
40
0.0000000000
40
1.0000000000
40
1.0000000000
40
1.0000000000
40
1.0000000000
10
150.1009142635
20
44.4151277219
30
0.0000000000
10
150.2514191154
20
44.4151277219
30
0.0000000000
10
150.4024126927
20
44.4288612606
30
0.0000000000
10
150.5509730769
20
44.4560151870
30
0.0000000000
11
150.1009142635
21
44.4151277219
31
0.0000000000
11
150.5509730769
21
44.4560151870
31
0.0000000000
0
SPLINE
5
414
100
AcDbEntity
8
0
100
AcDbSpline
62
7
6
CONTINUOUS
70
0
71
3
72
9
73
5
74
3
42
0.0000001000
43
0.0000001000
44
0.0000000001
40
0.0000000000
40
0.0000000000
40
0.0000000000
40
0.0000000000
40
0.5453693160
40
1.0000000000
40
1.0000000000
40
1.0000000000
40
1.0000000000
10
139.2987660339
20
44.1358781504
30
0.0000000000
10
139.3233836067
20
44.1378396590
30
0.0000000000
10
139.3685249419
20
44.1414020277
30
0.0000000000
10
139.4136676225
20
44.1449034974
30
0.0000000000
10
139.4341911968
20
44.1464830672
30
0.0000000000
11
139.2987660339
21
44.1358781504
31
0.0000000000
11
139.3726214051
21
44.1417071591
31
0.0000000000
11
139.4341911968
21
44.1464830672
31
0.0000000000
0
SPLINE
5
415
100
AcDbEntity
8
0
100
AcDbSpline
62
7
6
CONTINUOUS
70
0
71
3
72
8
73
4
74
2
42
0.0000001000
43
0.0000001000
44
0.0000000001
40
0.0000000000
40
0.0000000000
40
0.0000000000
40
0.0000000000
40
1.0000000000
40
1.0000000000
40
1.0000000000
40
1.0000000000
10
139.4341911968
20
44.1464830672
30
0.0000000000
10
139.5207360527
20
44.1531438777
30
0.0000000000
10
139.6072867169
20
44.1595858692
30
0.0000000000
10
139.6938468338
20
44.1658301423
30
0.0000000000
11
139.4341911968
21
44.1464830672
31
0.0000000000
11
139.6938468338
21
44.1658301423
31
0.0000000000
0
SPLINE
5
416
100
AcDbEntity
8
0
100
AcDbSpline
62
7
6
CONTINUOUS
70
0
71
3
72
16
73
12
74
10
42
0.0000001000
43
0.0000001000
44
0.0000000001
40
0.0000000000
40
0.0000000000
40
0.0000000000
40
0.0000000000
40
0.0417538130
40
0.1329782243
40
0.2343851674
40
0.3458264291
40
0.4670264059
40
0.5975298600
40
0.7366370392
40
0.8833664504
40
1.0000000000
40
1.0000000000
40
1.0000000000
40
1.0000000000
10
139.6938468338
20
44.1658301423
30
0.0000000000
10
139.8081823299
20
44.1740780756
30
0.0000000000
10
140.1723724065
20
44.1992475819
30
0.0000000000
10
140.8147326658
20
44.2383130488
30
0.0000000000
10
141.6484828084
20
44.2809233091
30
0.0000000000
10
142.5648160983
20
44.3196026753
30
0.0000000000
10
143.5612752967
20
44.3533349163
30
0.0000000000
10
144.6339057401
20
44.3810530230
30
0.0000000000
10
145.7768009068
20
44.4016273763
30
0.0000000000
10
146.8817432137
20
44.4128619223
30
0.0000000000
10
147.6048139660
20
44.4151291264
30
0.0000000000
10
147.9250339696
20
44.4151283054
30
0.0000000000
11
139.6938468338
21
44.1658301423
31
0.0000000000
11
140.0369111972
21
44.1895876792
31
0.0000000000
11
140.7868835174
21
44.2354693364
31
0.0000000000
11
141.6210259356
21
44.2783411390
31
0.0000000000
11
142.5380924835
21
44.3172502105
31
0.0000000000
11
143.5357851429
21
44.3511888669
31
0.0000000000
11
144.6103214194
21
44.3790841922
31
0.0000000000
11
145.7558975393
21
44.3997949653
31
0.0000000000
11
146.9643788701
21
44.4121238374
31
0.0000000000
11
147.9250339696
21
44.4151283054
31
0.0000000000
0
SPLINE
5
417
100
AcDbEntity
8
0
100
AcDbSpline
62
7
6
CONTINUOUS
70
0
71
3
72
10
73
6
74
4
42
0.0000001000
43
0.0000001000
44
0.0000000001
40
0.0000000000
40
0.0000000000
40
0.0000000000
40
0.0000000000
40
0.0172667602
40
0.9274061385
40
1.0000000000
40
1.0000000000
40
1.0000000000
40
1.0000000000
10
165.6192853832
20
71.2410380947
30
0.0000000000
10
165.6191859914
20
71.2410565921
30
0.0000000000
10
165.6138475750
20
71.2420499102
30
0.0000000000
10
165.6080892839
20
71.2431101996
30
0.0000000000
10
165.6024284144
20
71.2441411895
30
0.0000000000
10
165.6020102388
20
71.2442172882
30
0.0000000000
11
165.6192853832
21
71.2410380947
31
0.0000000000
11
165.6189872059
21
71.2410935765
31
0.0000000000
11
165.6032647329
21
71.2439888124
31
0.0000000000
11
165.6020102388
21
71.2442172882
31
0.0000000000
0
SPLINE
5
418
100
AcDbEntity
8
0
100
AcDbSpline
62
7
6
CONTINUOUS
70
0
71
3
72
17
73
13
74
11
42
0.0000001000
43
0.0000001000
44
0.0000000001
40
0.0000000000
40
0.0000000000
40
0.0000000000
40
0.0000000000
40
0.0635145515
40
0.2145673801
40
0.3576810727
40
0.4915375475
40
0.6147305626
40
0.7268005900
40
0.8284451412
40
0.9129349790
40
0.9730807129
40
1.0000000000
40
1.0000000000
40
1.0000000000
40
1.0000000000
10
167.8446746246
20
68.7321778220
30
0.0000000000
10
167.8446800001
20
68.8098173776
30
0.0000000000
10
167.8325482876
20
69.0721907981
30
0.0000000000
10
167.7436154252
20
69.5024601618
30
0.0000000000
10
167.5298456079
20
69.9826200253
30
0.0000000000
10
167.2440590438
20
70.3817179416
30
0.0000000000
10
166.9167296404
20
70.6939290478
30
0.0000000000
10
166.5741467888
20
70.9236195561
30
0.0000000000
10
166.2436203904
20
71.0779349867
30
0.0000000000
10
165.9569093127
20
71.1688919658
30
0.0000000000
10
165.7529281511
20
71.2153502380
30
0.0000000000
10
165.6487402543
20
71.2355754085
30
0.0000000000
10
165.6164779965
20
71.2415644600
30
0.0000000000
11
167.8446746246
21
68.7321778220
31
0.0000000000
11
167.8338861010
21
68.9647754173
31
0.0000000000
11
167.7221883689
21
69.5057174292
31
0.0000000000
11
167.5093425467
21
69.9838004338
31
0.0000000000
11
167.2244117906
21
70.3817919642
31
0.0000000000
11
166.8984758917
21
70.6927535136
31
0.0000000000
11
166.5581658155
21
70.9210727996
31
0.0000000000
11
166.2215102826
21
71.0785885104
31
0.0000000000
11
165.9273423581
21
71.1730205139
31
0.0000000000
11
165.7131034354
21
71.2227482283
31
0.0000000000
11
165.6164779965
21
71.2415644600
31
0.0000000000
0
SPLINE
5
419
100
AcDbEntity
8
0
100
AcDbSpline
62
7
6
CONTINUOUS
70
0
71
3
72
9
73
5
74
3
42
0.0000001000
43
0.0000001000
44
0.0000000001
40
0.0000000000
40
0.0000000000
40
0.0000000000
40
0.0000000000
40
0.0795956957
40
1.0000000000
40
1.0000000000
40
1.0000000000
40
1.0000000000
10
58.3425588787
20
71.2442175353
30
0.0000000000
10
58.3421054313
20
71.2441350183
30
0.0000000000
10
58.3364087084
20
71.2430974313
30
0.0000000000
10
58.3307140170
20
71.2420487109
30
0.0000000000
10
58.3254743891
20
71.2410738298
30
0.0000000000
11
58.3425588787
21
71.2442175353
31
0.0000000000
11
58.3411985749
21
71.2439697728
31
0.0000000000
11
58.3254743891
21
71.2410738298
31
0.0000000000
0
SPLINE
5
41A
100
AcDbEntity
8
0
100
AcDbSpline
62
7
6
CONTINUOUS
70
0
71
3
72
17
73
13
74
11
42
0.0000001000
43
0.0000001000
44
0.0000000001
40
0.0000000000
40
0.0000000000
40
0.0000000000
40
0.0000000000
40
0.0297211311
40
0.0907751239
40
0.1764997134
40
0.2778512902
40
0.3887880698
40
0.5101920286
40
0.6424472771
40
0.7845779596
40
0.9355062913
40
1.0000000000
40
1.0000000000
40
1.0000000000
40
1.0000000000
10
58.3283159809
20
71.2416068894
30
0.0000000000
10
58.2926925852
20
71.2349962574
30
0.0000000000
10
58.1840721543
20
71.2138221281
30
0.0000000000
10
57.9743315471
20
71.1653896549
30
0.0000000000
10
57.6859377678
20
71.0720948587
30
0.0000000000
10
57.3566585780
20
70.9156286570
30
0.0000000000
10
57.0186888088
20
70.6861442759
30
0.0000000000
10
56.6965642849
20
70.3765656404
30
0.0000000000
10
56.4144401202
20
69.9814892246
30
0.0000000000
10
56.2017566220
20
69.5044995532
30
0.0000000000
10
56.1122607920
20
69.0744827108
30
0.0000000000
10
56.0998902650
20
68.8110329431
30
0.0000000000
10
56.0998954098
20
68.7321879644
30
0.0000000000
11
58.3283159809
21
71.2416068894
31
0.0000000000
11
58.2216450048
21
71.2207304053
31
0.0000000000
11
58.0043104237
21
71.1695795216
31
0.0000000000
11
57.7063534287
21
71.0721158903
31
0.0000000000
11
57.3717057880
21
70.9127894362
31
0.0000000000
11
57.0361395227
21
70.6847940475
31
0.0000000000
11
56.7160699560
21
70.3771161730
31
0.0000000000
11
56.4350418261
21
69.9834866462
31
0.0000000000
11
56.2233725007
21
69.5087710703
31
0.0000000000
11
56.1110214385
21
68.9683861595
31
0.0000000000
11
56.0998954098
21
68.7321879644
31
0.0000000000
0
SPLINE
5
41B
100
AcDbEntity
8
0
100
AcDbSpline
62
7
6
CONTINUOUS
70
0
71
3
72
10
73
6
74
4
42
0.0000001000
43
0.0000001000
44
0.0000000001
40
0.0000000000
40
0.0000000000
40
0.0000000000
40
0.0000000000
40
0.0172337816
40
0.9273720499
40
1.0000000000
40
1.0000000000
40
1.0000000000
40
1.0000000000
10
58.3252830563
20
47.1981393298
30
0.0000000000
10
58.3253822622
20
47.1981208670
30
0.0000000000
10
58.3307206968
20
47.1971275470
30
0.0000000000
10
58.3364792193
20
47.1960672173
30
0.0000000000
10
58.3421405064
20
47.1950361547
30
0.0000000000
10
58.3425588952
20
47.1949600175
30
0.0000000000
11
58.3252830563
21
47.1981393298
31
0.0000000000
11
58.3255806760
21
47.1980839518
31
0.0000000000
11
58.3413037615
21
47.1951886090
31
0.0000000000
11
58.3425588952
21
47.1949600175
31
0.0000000000
0
SPLINE
5
41C
100
AcDbEntity
8
0
100
AcDbSpline
62
7
6
CONTINUOUS
70
0
71
3
72
17
73
13
74
11
42
0.0000001000
43
0.0000001000
44
0.0000000001
40
0.0000000000
40
0.0000000000
40
0.0000000000
40
0.0000000000
40
0.0635149736
40
0.2145695210
40
0.3576848606
40
0.4915427787
40
0.6147371036
40
0.7268083539
40
0.8284519431
40
0.9129284524
40
0.9730817237
40
1.0000000000
40
1.0000000000
40
1.0000000000
40
1.0000000000
10
56.0998939094
20
49.7069895983
30
0.0000000000
10
56.0998886384
20
49.6293494801
30
0.0000000000
10
56.1120209071
20
49.3669733004
30
0.0000000000
10
56.2009562643
20
48.9366993395
30
0.0000000000
10
56.4147320666
20
48.4565352118
30
0.0000000000
10
56.7005262100
20
48.0574356074
30
0.0000000000
10
57.0278637210
20
47.7452254846
30
0.0000000000
10
57.3704522458
20
47.5155393789
30
0.0000000000
10
57.7009671020
20
47.3612367966
30
0.0000000000
10
57.9876701686
20
47.2702820903
30
0.0000000000
10
58.1916435529
20
47.2238261850
30
0.0000000000
10
58.2958393912
20
47.2035998752
30
0.0000000000
10
58.3281004716
20
47.1976111369
30
0.0000000000
11
56.0998939094
21
49.7069895983
31
0.0000000000
11
56.1106828983
21
49.4743903360
31
0.0000000000
11
56.2223839057
21
48.9334422696
31
0.0000000000
11
56.4352356962
21
48.4553550122
31
0.0000000000
11
56.7201738998
21
48.0573619887
31
0.0000000000
11
57.0461177527
21
47.7464014758
31
0.0000000000
11
57.3864355465
21
47.5180852589
31
0.0000000000
11
57.7230906839
21
47.3605765168
31
0.0000000000
11
58.0172125985
21
47.2661600825
31
0.0000000000
11
58.2314785358
21
47.2164263152
31
0.0000000000
11
58.3281004716
21
47.1976111369
31
0.0000000000
0
SPLINE
5
41D
100
AcDbEntity
8
0
100
AcDbSpline
62
7
6
CONTINUOUS
70
0
71
3
72
9
73
5
74
3
42
0.0000001000
43
0.0000001000
44
0.0000000001
40
0.0000000000
40
0.0000000000
40
0.0000000000
40
0.0000000000
40
0.0795644815
40
1.0000000000
40
1.0000000000
40
1.0000000000
40
1.0000000000
10
165.6020102554
20
47.1949602707
30
0.0000000000
10
165.6024634919
20
47.1950427497
30
0.0000000000
10
165.6081597993
20
47.1960802644
30
0.0000000000
10
165.6138540755
20
47.1971289106
30
0.0000000000
10
165.6190934993
20
47.1981037549
30
0.0000000000
11
165.6020102554
21
47.1949602707
31
0.0000000000
11
165.6033699265
21
47.1952079188
31
0.0000000000
11
165.6190934993
21
47.1981037549
31
0.0000000000
0
SPLINE
5
41E
100
AcDbEntity
8
0
100
AcDbSpline
62
7
6
CONTINUOUS
70
0
71
3
72
17
73
13
74
11
42
0.0000001000
43
0.0000001000
44
0.0000000001
40
0.0000000000
40
0.0000000000
40
0.0000000000
40
0.0000000000
40
0.0297223517
40
0.0907733191
40
0.1765017727
40
0.2778536881
40
0.3887903784
40
0.5101942816
40
0.6424493574
40
0.7845795787
40
0.9355071794
40
1.0000000000
40
1.0000000000
40
1.0000000000
40
1.0000000000
10
165.6162591045
20
47.1975719053
30
0.0000000000
10
165.6518839042
20
47.2041828419
30
0.0000000000
10
165.7605019747
20
47.2253567484
30
0.0000000000
10
165.9702445168
20
47.2737904942
30
0.0000000000
10
166.2586392549
20
47.3670857659
30
0.0000000000
10
166.5879215103
20
47.5235560968
30
0.0000000000
10
166.9258895663
20
47.7530423104
30
0.0000000000
10
167.2480115914
20
48.0626220316
30
0.0000000000
10
167.5301329170
20
48.4576985310
30
0.0000000000
10
167.7428135777
20
48.9346867462
30
0.0000000000
10
167.8323077390
20
49.3647006242
30
0.0000000000
10
167.8446778947
20
49.6281480170
30
0.0000000000
10
167.8446727266
20
49.7069917919
30
0.0000000000
11
165.6162591045
21
47.1975719053
31
0.0000000000
11
165.7229342593
21
47.2184494518
31
0.0000000000
11
165.9402576259
21
47.2695982692
31
0.0000000000
11
166.2382274348
21
47.3670667085
31
0.0000000000
11
166.5728747594
21
47.5263954489
31
0.0000000000
11
166.9084388657
21
47.7543923810
31
0.0000000000
11
167.2285060988
21
48.0620714553
31
0.0000000000
11
167.5095315345
21
48.4557012626
31
0.0000000000
11
167.7211980481
21
48.9304154156
31
0.0000000000
11
167.8335471015
21
49.4707971908
31
0.0000000000
11
167.8446727266
21
49.7069917919
31
0.0000000000
0
ENDSEC
0
SECTION
2
OBJECTS
0
DICTIONARY
5
41F
100
AcDbDictionary
3
ACAD_GROUP
350
420
3
ACAD_MLINESTYLE
350
421
0
DICTIONARY
5
420
102
{ACAD_REACTORS
330
41F
102
}
100
AcDbDictionary
0
DICTIONARY
5
421
102
{ACAD_REACTORS
330
41F
102
}
100
AcDbDictionary
3
STANDARD
350
422
0
MLINESTYLE
5
422
102
{ACAD_REACTORS
330
421
102
}
100
AcDbMlineStyle
2
STANDARD
70
0
3

62
256
51
90.0
52
90.0
71
2
49
0.5
62
256
6
BYLAYER
49
-0.5
62
256
6
BYLAYER
0
ENDSEC
0
EOF
