999
DXF file: C:\Aktuell-Internet\CAD-Daten\2rs-m27.dxf
999
Pro/ENGINEER 2001400 by Parametric Technology Corporation
0
SECTION
2
HEADER
9
$ACADVER
1
AC1014
9
$EXTMAX
10
420.0000000000
20
297.0000000000
9
$EXTMIN
10
0.0000000000
20
0.0000000000
9
$LIMMIN
10
0.0000000000
20
0.0000000000
9
$LIMMAX
10
420.0000000000
20
297.0000000000
9
$VIEWCTR
10
210.0000000000
20
148.5000000000
9
$VIEWSIZE
40
297.0000000000
9
$CLAYER
8
0
9
$LTSCALE
40
23.1000000000
9
$CELTYPE
6
BYLAYER
9
$DIMSCALE
40
1
9
$DIMASZ
40
3.5000000000
9
$DIMEXO
40
2.6250000000
9
$DIMDLI
40
15.9600000000
9
$DIMEXE
40
7.5600000000
9
$DIMCEN
40
3.7800000000
9
$DIMLFAC
40
1.0000000000
9
$DIMTXT
40
3.5000000000
9
$DIMTOL
70
1
9
$DIMTFAC
40
0.6000000000
9
$DIMTP
40
0.0050000000
9
$DIMTM
40
0.0050000000
9
$HANDSEED
5
3ED
0
ENDSEC
0
SECTION
2
CLASSES
0
ENDSEC
0
SECTION
2
TABLES
0
TABLE
2
VPORT
5
8
100
AcDbSymbolTable
70
2
0
VPORT
5
1F4
100
AcDbSymbolTableRecord
100
AcDbViewportTableRecord
2
*ACTIVE
70
0
10
0.0
20
0.0
11
1.0
21
1.0
12
210.0000000000
22
148.5000000000
13
0.0
23
0.0
14
1.0
24
1.0
15
0.0
25
0.0
16
0.0
26
0.0
36
1.0
17
0.0
27
0.0
37
0.0
40
297.0000000000
41
1.4141414141
42
50.0
43
0.0
44
0.0
50
0.0
51
0.0
71
0
72
100
73
1
74
1
75
0
76
0
77
0
78
0
0
ENDTAB
0
TABLE
2
LTYPE
5
5
100
AcDbSymbolTable
70
6
0
LTYPE
5
14
100
AcDbSymbolTableRecord
100
AcDbLinetypeTableRecord
2
BYBLOCK
70
0
3

72
65
73
0
40
0.0
0
LTYPE
5
15
100
AcDbSymbolTableRecord
100
AcDbLinetypeTableRecord
2
BYLAYER
70
0
3

72
65
73
0
40
0.0
0
LTYPE
5
16
100
AcDbSymbolTableRecord
100
AcDbLinetypeTableRecord
2
CONTINUOUS
70
64
3
Solid line
72
65
73
0
40
0
0
LTYPE
5
1F5
100
AcDbSymbolTableRecord
100
AcDbLinetypeTableRecord
2
CENTER
70
64
3
____ _ ____ _ ____ _ ____ _ ____ _ ____ _ ____
72
65
73
4
40
0.6
49
0.375
74
0
49
-0.075
74
0
49
0.075
74
0
49
-0.075
74
0
0
LTYPE
5
1F6
100
AcDbSymbolTableRecord
100
AcDbLinetypeTableRecord
2
HIDDEN
70
64
3
- - - - - - - - - - - - - - - - - - - -
72
65
73
2
40
0.2
49
0.1
74
0
49
-0.1
74
0
0
LTYPE
5
1F7
100
AcDbSymbolTableRecord
100
AcDbLinetypeTableRecord
2
PHANTOM
70
64
3
_____ _ _ _____ _ _ _____ _ _ _____
72
65
73
6
40
0.8
49
0.45
74
0
49
-0.05
74
0
49
0.1
74
0
49
-0.05
74
0
49
0.1
74
0
49
-0.05
74
0
0
LTYPE
5
1F8
100
AcDbSymbolTableRecord
100
AcDbLinetypeTableRecord
2
DOT
70
64
3
. . . . . . . . . . . . . . . . . . . .
72
65
73
2
40
0.2
49
0.1
74
0
49
-0.1
74
0
0
LTYPE
5
1F9
100
AcDbSymbolTableRecord
100
AcDbLinetypeTableRecord
2
DASHED
70
64
3
- - - - - - - - - - - - - - - - - - - -
72
65
73
2
40
0.2
49
0.1
74
0
49
-0.1
74
0
0
ENDTAB
0
TABLE
2
LAYER
5
2
100
AcDbSymbolTable
70
36
0
LAYER
5
10
100
AcDbSymbolTableRecord
100
AcDbLayerTableRecord
2
0
70
0
62
7
6
CONTINUOUS
0
LAYER
5
1FA
100
AcDbSymbolTableRecord
100
AcDbLayerTableRecord
2
DEFAULT_1
70
0
62
7
6
CENTER
0
LAYER
5
1FB
100
AcDbSymbolTableRecord
100
AcDbLayerTableRecord
2
DEFAULT_2
70
0
62
8
6
HIDDEN
0
LAYER
5
1FC
100
AcDbSymbolTableRecord
100
AcDbLayerTableRecord
2
DEFAULT_3
70
0
62
7
6
PHANTOM
0
ENDTAB
0
TABLE
2
STYLE
5
3
100
AcDbSymbolTable
70
1
0
STYLE
5
11
100
AcDbSymbolTableRecord
100
AcDbTextStyleTableRecord
2
STANDARD
70
0
40
0.0
41
1.0
50
0.0
71
0
42
0.0
3
txt
4

0
STYLE
5
1FD
100
AcDbSymbolTableRecord
100
AcDbTextStyleTableRecord
2
TEXTSTYLE_0
70
0
40
0.0
41
0.80
50
0.0
71
0
42
0.2
3
txt
4

0
ENDTAB
0
TABLE
2
VIEW
5
6
100
AcDbSymbolTable
70
0
0
ENDTAB
0
TABLE
2
UCS
5
7
100
AcDbSymbolTable
70
0
0
ENDTAB
0
TABLE
2
APPID
5
9
100
AcDbSymbolTable
70
1
0
APPID
5
1FE
100
AcDbSymbolTableRecord
100
AcDbRegAppTableRecord
2
ACAD
70
0
0
ENDTAB
0
TABLE
2
DIMSTYLE
5
A
100
AcDbSymbolTable
70
1
0
DIMSTYLE
105
1FF
100
AcDbSymbolTableRecord
100
AcDbDimStyleTableRecord
2
STANDARD
70
0
3

4

5

6

7

40
1.0
41
0.18
42
0.0625
43
0.38
44
0.18
45
0.0
46
0.0
47
0.0050000000
48
0.0050000000
140
3.5000000000
141
0.09
142
0.0
143
25.4
144
1.0000000000
145
0.0
146
0.6000000000
147
0.09
71
1
72
0
73
1
74
1
75
0
76
0
77
0
78
0
170
0
171
2
172
0
173
0
174
0
175
0
176
0
177
0
178
0
270
2
271
3
272
4
273
2
274
2
340
11
275
0
280
0
281
0
282
0
283
1
284
0
285
0
286
0
287
3
288
0
0
ENDTAB
0
TABLE
2
BLOCK_RECORD
5
1
100
AcDbSymbolTable
70
0
0
BLOCK_RECORD
5
1B
100
AcDbSymbolTableRecord
100
AcDbBlockTableRecord
2
*MODEL_SPACE
0
BLOCK_RECORD
5
1C
100
AcDbSymbolTableRecord
100
AcDbBlockTableRecord
2
*PAPER_SPACE
0
ENDTAB
0
ENDSEC
0
SECTION
2
BLOCKS
0
BLOCK
5
1E
100
AcDbEntity
8
0
100
AcDbBlockBegin
2
*MODEL_SPACE
70
0
10
0.0
20
0.0
30
0.0
3
*MODEL_SPACE
1

0
ENDBLK
5
1F
100
AcDbEntity
8
0
100
AcDbBlockEnd
0
BLOCK
5
20
100
AcDbEntity
8
0
100
AcDbBlockBegin
2
*PAPER_SPACE
70
0
10
0.0
20
0.0
30
0.0
3
*PAPER_SPACE
1

0
ENDBLK
5
21
100
AcDbEntity
8
0
100
AcDbBlockEnd
0
ENDSEC
0
SECTION
2
ENTITIES
0
TEXT
5
200
100
AcDbEntity
8
0
100
AcDbText
62
2
6
CONTINUOUS
10
78.8768437288
20
61.7467694546
7
TEXTSTYLE_0
40
5.0000000000
1
RUD
72
5
11
91.2577961097
21
61.7467694546
100
AcDbText
0
TEXT
5
201
100
AcDbEntity
8
0
100
AcDbText
62
2
6
CONTINUOUS
10
72.7776688498
20
50.6327174530
7
TEXTSTYLE_0
40
5.0000000000
1
RS M27
72
5
11
96.7062402784
21
50.6327174530
100
AcDbText
0
TEXT
5
202
100
AcDbEntity
8
0
100
AcDbText
62
2
6
CONTINUOUS
10
291.6702783939
20
187.3897719607
7
TEXTSTYLE_0
40
5.0000000000
1
RUD
50
90.0000000000
72
5
11
291.6702783939
21
199.7707243416
100
AcDbText
0
TEXT
5
203
100
AcDbEntity
8
0
100
AcDbText
62
2
6
CONTINUOUS
10
304.0041653713
20
187.9319208388
7
TEXTSTYLE_0
40
5.0000000000
1
RS M27
50
90.0000000000
72
5
11
304.0041653713
21
211.8604922674
100
AcDbText
0
LINE
5
204
100
AcDbEntity
8
0
100
AcDbLine
62
7
6
CONTINUOUS
10
0.0000000000
20
0.0000000000
11
0.0000000000
21
297.0000000000
0
LINE
5
205
100
AcDbEntity
8
0
100
AcDbLine
62
7
6
CONTINUOUS
10
0.0000000000
20
0.0000000000
11
420.0000000000
21
0.0000000000
0
LINE
5
206
100
AcDbEntity
8
0
100
AcDbLine
62
7
6
CONTINUOUS
10
0.0000000000
20
297.0000000000
11
420.0000000000
21
297.0000000000
0
LINE
5
207
100
AcDbEntity
8
0
100
AcDbLine
62
7
6
CONTINUOUS
10
420.0000000000
20
0.0000000000
11
420.0000000000
21
297.0000000000
0
LINE
5
208
100
AcDbEntity
8
0
100
AcDbLine
62
7
6
CONTINUOUS
10
123.4722838924
20
115.9732273846
11
100.4722838924
21
115.9732273846
0
LINE
5
209
100
AcDbEntity
8
0
100
AcDbLine
62
7
6
CONTINUOUS
10
125.4722838924
20
117.9732273846
11
98.4722838924
21
117.9732273846
0
LINE
5
20A
100
AcDbEntity
8
0
100
AcDbLine
62
7
6
CONTINUOUS
10
74.0866240882
20
257.5648676895
11
110.0588667305
21
272.4650584609
0
LINE
5
20B
100
AcDbEntity
8
0
100
AcDbLine
62
7
6
CONTINUOUS
10
86.1765899814
20
258.0524734656
11
86.5150076791
21
258.3829835294
0
LINE
5
20C
100
AcDbEntity
8
0
100
AcDbLine
62
7
6
CONTINUOUS
10
86.3018401087
20
258.9355337502
11
85.8046511249
21
258.5133570416
0
LINE
5
20D
100
AcDbEntity
8
0
100
AcDbLine
62
7
6
CONTINUOUS
10
86.6193827947
20
259.1188671054
11
86.3018401087
21
258.9355337502
0
LINE
5
20E
100
AcDbEntity
8
0
100
AcDbLine
62
7
6
CONTINUOUS
10
86.5150076791
20
258.3829835294
11
86.8325502514
21
258.5663168191
0
LINE
5
20F
100
AcDbEntity
8
0
100
AcDbLine
62
7
6
CONTINUOUS
10
89.8868410464
20
260.0594634018
11
89.4899128878
21
259.8302968225
0
LINE
5
210
100
AcDbEntity
8
0
100
AcDbLine
62
7
6
CONTINUOUS
10
85.6752865013
20
257.0874231915
11
86.0722148090
21
257.3165898568
0
LINE
5
211
100
AcDbEntity
8
0
100
AcDbLine
62
7
6
CONTINUOUS
10
91.2281683916
20
259.7528826073
11
90.3549262609
21
259.2487160280
0
LINE
5
212
100
AcDbEntity
8
0
100
AcDbLine
62
7
6
CONTINUOUS
10
89.9579981022
20
259.0195494488
11
89.3229127304
21
258.6528827384
0
LINE
5
213
100
AcDbEntity
8
0
100
AcDbLine
62
7
6
CONTINUOUS
10
89.5569552557
20
258.2475091934
11
90.1920406275
21
258.6141759038
0
LINE
5
214
100
AcDbEntity
8
0
100
AcDbLine
62
7
6
CONTINUOUS
10
90.5889687862
20
258.8433424831
11
91.4622109169
21
259.3475090623
0
LINE
5
215
100
AcDbEntity
8
0
100
AcDbLine
62
7
6
CONTINUOUS
10
90.2676145273
20
255.5499443868
11
88.0448160098
21
254.2666110643
0
LINE
5
216
100
AcDbEntity
8
0
100
AcDbLine
62
7
6
CONTINUOUS
10
108.5222837970
20
264.1976954012
11
108.2222837970
21
264.0700358420
0
LINE
5
217
100
AcDbEntity
8
0
100
AcDbLine
62
7
6
CONTINUOUS
10
87.1542073981
20
259.2925237192
11
86.6193827947
21
259.1188671054
0
LINE
5
218
100
AcDbEntity
8
0
100
AcDbLine
62
7
6
CONTINUOUS
10
92.4069129767
20
256.2445707797
11
92.9417375853
21
256.4182273846
0
LINE
5
219
100
AcDbEntity
8
0
100
AcDbLine
62
7
6
CONTINUOUS
10
112.7222840831
20
261.5168443888
11
112.3222838924
21
261.3891848295
0
LINE
5
21A
100
AcDbEntity
8
0
100
AcDbLine
62
7
6
CONTINUOUS
10
98.4722838924
20
117.9732273846
11
100.4722838924
21
115.9732273846
0
LINE
5
21B
100
AcDbEntity
8
0
100
AcDbLine
62
7
6
CONTINUOUS
10
56.4804528161
20
218.8866445464
11
71.3806435875
21
254.8588871888
0
LINE
5
21C
100
AcDbEntity
8
0
100
AcDbLine
62
7
6
CONTINUOUS
10
71.7299451841
20
246.1098430155
11
70.6046395340
21
243.4587890375
0
LINE
5
21D
100
AcDbEntity
8
0
100
AcDbLine
62
7
6
CONTINUOUS
10
69.8856944961
20
241.7650606690
11
69.7606602965
21
241.4704985541
0
LINE
5
21E
100
AcDbEntity
8
0
100
AcDbLine
62
7
6
CONTINUOUS
10
68.9791981588
20
239.6294891281
11
68.6978717462
21
238.9667256336
0
LINE
5
21F
100
AcDbEntity
8
0
100
AcDbLine
62
7
6
CONTINUOUS
10
67.7601170379
20
236.7575139853
11
67.4787906254
21
236.0947504908
0
LINE
5
220
100
AcDbEntity
8
0
100
AcDbLine
62
7
6
CONTINUOUS
10
65.2281795041
20
230.7926429563
11
65.0718869335
21
230.4244407340
0
LINE
5
221
100
AcDbEntity
8
0
100
AcDbLine
62
7
6
CONTINUOUS
10
63.8840643625
20
227.6261061200
11
63.1338605958
21
225.8587368014
0
LINE
5
222
100
AcDbEntity
8
0
100
AcDbLine
62
7
6
CONTINUOUS
10
70.1672544329
20
242.1669985478
11
69.8856944961
21
241.7650606690
0
LINE
5
223
100
AcDbEntity
8
0
100
AcDbLine
62
7
6
CONTINUOUS
10
70.3244807428
20
241.4918974643
11
70.5747826663
21
241.8201960784
0
LINE
5
224
100
AcDbEntity
8
0
100
AcDbLine
62
7
6
CONTINUOUS
10
65.4784808910
20
231.1209403063
11
65.2281795041
21
230.7926429563
0
LINE
5
225
100
AcDbEntity
8
0
100
AcDbLine
62
7
6
CONTINUOUS
10
64.1343658388
20
227.9544036807
11
63.8840643625
21
227.6261061200
0
LINE
5
226
100
AcDbEntity
8
0
100
AcDbLine
62
7
6
CONTINUOUS
10
67.3899196063
20
230.3964917049
11
67.1396180406
21
230.0681939335
0
LINE
5
227
100
AcDbEntity
8
0
100
AcDbLine
62
7
6
CONTINUOUS
10
65.8234918458
20
230.6268563582
11
66.0112763117
21
230.8078730721
0
LINE
5
228
100
AcDbEntity
8
0
100
AcDbLine
62
7
6
CONTINUOUS
10
70.4803066227
20
242.3817517609
11
70.1672544329
21
242.1669985478
0
LINE
5
229
100
AcDbEntity
8
0
100
AcDbLine
62
7
6
CONTINUOUS
10
108.6222839877
20
263.5593976050
11
109.0222838924
21
263.8147167235
0
LINE
5
22A
100
AcDbEntity
8
0
100
AcDbLine
62
7
6
CONTINUOUS
10
87.7022838924
20
253.3932273846
11
90.5601677249
21
255.0432273846
0
LINE
5
22B
100
AcDbEntity
8
0
100
AcDbLine
62
7
6
CONTINUOUS
10
70.5747826663
20
241.8201960784
11
70.8565761274
21
241.9613083414
0
LINE
5
22C
100
AcDbEntity
8
0
100
AcDbLine
62
7
6
CONTINUOUS
10
117.5222835109
20
261.5168443888
11
117.1222838924
21
261.3891848295
0
LINE
5
22D
100
AcDbEntity
8
0
100
AcDbLine
62
7
6
CONTINUOUS
10
69.7606602965
20
241.4704985541
11
69.6358603366
21
240.9151125089
0
LINE
5
22E
100
AcDbEntity
8
0
100
AcDbLine
62
7
6
CONTINUOUS
10
63.7914565130
20
226.1010568764
11
64.3853677985
21
227.5002241834
0
LINE
5
22F
100
AcDbEntity
8
0
100
AcDbLine
62
7
6
CONTINUOUS
10
70.1994472587
20
241.1973370349
11
70.3244807428
21
241.4918974643
0
LINE
5
230
100
AcDbEntity
8
0
100
AcDbLine
62
7
6
CONTINUOUS
10
71.0746845095
20
243.2592667829
11
72.0124392179
21
245.4684784312
0
LINE
5
231
100
AcDbEntity
8
0
100
AcDbLine
62
7
6
CONTINUOUS
10
65.6359409041
20
230.1850140285
11
65.8234918458
21
230.6268563582
0
LINE
5
232
100
AcDbEntity
8
0
100
AcDbLine
62
7
6
CONTINUOUS
10
66.4810877630
20
230.8691764332
11
66.6686387046
21
231.3110187629
0
LINE
5
233
100
AcDbEntity
8
0
100
AcDbLine
62
7
6
CONTINUOUS
10
70.2946238751
20
239.8533045052
11
70.4509160880
21
240.2215058848
0
LINE
5
234
100
AcDbEntity
8
0
100
AcDbLine
62
7
6
CONTINUOUS
10
67.1396180406
20
230.0681939335
11
66.9520670989
21
229.6263516039
0
LINE
5
235
100
AcDbEntity
8
0
100
AcDbLine
62
7
6
CONTINUOUS
10
65.7955029884
20
226.9016573079
11
65.2015917029
21
225.5024900009
0
LINE
5
236
100
AcDbEntity
8
0
100
AcDbLine
62
7
6
CONTINUOUS
10
65.7656456735
20
225.2630632953
11
66.2970399934
21
226.5149498609
0
LINE
5
237
100
AcDbEntity
8
0
100
AcDbLine
62
7
6
CONTINUOUS
10
67.5161210695
20
229.3869248984
11
67.7036720112
21
229.8287672280
0
LINE
5
238
100
AcDbEntity
8
0
100
AcDbLine
62
7
6
CONTINUOUS
10
67.9556083785
20
228.3312856333
11
67.7680573474
21
227.8894430929
0
LINE
5
239
100
AcDbEntity
8
0
100
AcDbLine
62
7
6
CONTINUOUS
10
69.1138071353
20
229.2302003804
11
68.8637392727
21
228.6410774146
0
LINE
5
23A
100
AcDbEntity
8
0
100
AcDbLine
62
7
6
CONTINUOUS
10
74.3029501055
20
241.1936793589
11
73.4277121392
21
239.1317479254
0
LINE
5
23B
100
AcDbEntity
8
0
100
AcDbLine
62
7
6
CONTINUOUS
10
67.5522838924
20
223.9832273846
11
67.7398348340
21
224.4250697143
0
LINE
5
23C
100
AcDbEntity
8
0
100
AcDbLine
62
7
6
CONTINUOUS
10
68.5212970612
20
226.2660793509
11
68.7401065528
21
226.7815622093
0
LINE
5
23D
100
AcDbEntity
8
0
100
AcDbLine
62
7
6
CONTINUOUS
10
69.4277933091
20
228.4016506812
11
69.6778611717
21
228.9907736469
0
LINE
5
23E
100
AcDbEntity
8
0
100
AcDbLine
62
7
6
CONTINUOUS
10
71.8972139219
20
234.2192410741
11
72.0847648636
21
234.6610834037
0
LINE
5
23F
100
AcDbEntity
8
0
100
AcDbLine
62
7
6
CONTINUOUS
10
72.5223838468
20
235.6920491205
11
72.7724518882
21
236.2811725076
0
LINE
5
240
100
AcDbEntity
8
0
100
AcDbLine
62
7
6
CONTINUOUS
10
73.2100705137
20
237.3121373817
11
73.3976214553
21
237.7539797113
0
LINE
5
241
100
AcDbEntity
8
0
100
AcDbLine
62
7
6
CONTINUOUS
10
73.6476894968
20
238.3431030985
11
74.7729951469
21
240.9941570764
0
LINE
5
242
100
AcDbEntity
8
0
100
AcDbLine
62
7
6
CONTINUOUS
10
75.3356479719
20
242.3196840654
11
75.5231989136
21
242.7615263950
0
LINE
5
243
100
AcDbEntity
8
0
100
AcDbLine
62
7
6
CONTINUOUS
10
85.8046511249
20
258.5133570416
11
85.6041297584
21
258.1273369467
0
LINE
5
244
100
AcDbEntity
8
0
100
AcDbLine
62
7
6
CONTINUOUS
10
69.1774919140
20
228.0733533347
11
69.4277933091
21
228.4016506812
0
LINE
5
245
100
AcDbEntity
8
0
100
AcDbLine
62
7
6
CONTINUOUS
10
67.7036720112
20
229.8287672280
11
67.9227150270
21
230.0834244707
0
LINE
5
246
100
AcDbEntity
8
0
100
AcDbLine
62
7
6
CONTINUOUS
10
67.2970782326
20
229.1322680771
11
67.5161210695
21
229.3869248984
0
LINE
5
247
100
AcDbEntity
8
0
100
AcDbLine
62
7
6
CONTINUOUS
10
68.8637392727
20
228.6410774146
11
68.6446962568
21
228.3864201720
0
LINE
5
248
100
AcDbEntity
8
0
100
AcDbLine
62
7
6
CONTINUOUS
10
64.3853677985
20
227.5002241834
11
64.5731522644
21
227.6812408974
0
LINE
5
249
100
AcDbEntity
8
0
100
AcDbLine
62
7
6
CONTINUOUS
10
66.9520670989
20
229.6263516039
11
66.7642826330
21
229.4453348900
0
LINE
5
24A
100
AcDbEntity
8
0
100
AcDbLine
62
7
6
CONTINUOUS
10
113.0222840831
20
261.7721635967
11
112.7222840831
21
261.5168443888
0
LINE
5
24B
100
AcDbEntity
8
0
100
AcDbLine
62
7
6
CONTINUOUS
10
67.7029714384
20
230.6112440753
11
67.3899196063
21
230.3964917049
0
LINE
5
24C
100
AcDbEntity
8
0
100
AcDbLine
62
7
6
CONTINUOUS
10
66.9840262216
20
228.9175152854
11
67.2970782326
21
229.1322680771
0
LINE
5
24D
100
AcDbEntity
8
0
100
AcDbLine
62
7
6
CONTINUOUS
10
112.8222837016
20
260.7508869550
11
113.2222838924
21
261.0062061071
0
LINE
5
24E
100
AcDbEntity
8
0
100
AcDbLine
62
7
6
CONTINUOUS
10
117.6222842738
20
260.7508869550
11
118.0222838924
21
261.0062061071
0
LINE
5
24F
100
AcDbEntity
8
0
100
AcDbLine
62
7
6
CONTINUOUS
10
67.9227150270
20
230.0834244707
11
68.2045084881
21
230.2245367336
0
LINE
5
250
100
AcDbEntity
8
0
100
AcDbLine
62
7
6
CONTINUOUS
10
66.7642826330
20
229.4453348900
11
66.4824891719
21
229.3042226270
0
LINE
5
251
100
AcDbEntity
8
0
100
AcDbLine
62
7
6
CONTINUOUS
10
65.8855418970
20
231.2957886471
11
65.4784808910
21
231.1209403063
0
LINE
5
252
100
AcDbEntity
8
0
100
AcDbLine
62
7
6
CONTINUOUS
10
65.6361744284
20
229.9241884128
11
65.6359409041
21
230.1850140285
0
LINE
5
253
100
AcDbEntity
8
0
100
AcDbLine
62
7
6
CONTINUOUS
10
65.7952694641
20
227.1624829236
11
65.7955029884
21
226.9016573079
0
LINE
5
254
100
AcDbEntity
8
0
100
AcDbLine
62
7
6
CONTINUOUS
10
65.0718869335
20
230.4244407340
11
65.0408620867
21
230.0899750109
0
LINE
5
255
100
AcDbEntity
8
0
100
AcDbLine
62
7
6
CONTINUOUS
10
69.1448321609
20
229.5646665249
11
69.1138071353
21
229.2302003804
0
LINE
5
256
100
AcDbEntity
8
0
100
AcDbLine
62
7
6
CONTINUOUS
10
70.1371633254
20
240.7892295189
11
70.1994472587
21
241.1973370349
0
LINE
5
257
100
AcDbEntity
8
0
100
AcDbLine
62
7
6
CONTINUOUS
10
69.6778611717
20
228.9907736469
11
69.7401447390
21
229.3988803236
0
LINE
5
258
100
AcDbEntity
8
0
100
AcDbLine
62
7
6
CONTINUOUS
10
86.0554542580
20
257.7122866931
11
86.1765899814
21
258.0524734656
0
LINE
5
259
100
AcDbEntity
8
0
100
AcDbLine
62
7
6
CONTINUOUS
10
108.7222838924
20
264.4530145197
11
108.5222837970
21
264.1976954012
0
LINE
5
25A
100
AcDbEntity
8
0
100
AcDbLine
62
7
6
CONTINUOUS
10
117.8222835109
20
261.7721635967
11
117.5222835109
21
261.5168443888
0
LINE
5
25B
100
AcDbEntity
8
0
100
AcDbLine
62
7
6
CONTINUOUS
10
68.7391723334
20
227.8248644756
11
69.1774919140
21
228.0733533347
0
LINE
5
25C
100
AcDbEntity
8
0
100
AcDbLine
62
7
6
CONTINUOUS
10
64.5414267554
20
228.1292518108
11
64.1343658388
21
227.9544036807
0
LINE
5
25D
100
AcDbEntity
8
0
100
AcDbLine
62
7
6
CONTINUOUS
10
109.0222838924
20
263.8147167235
11
109.3222838924
21
264.3253549605
0
LINE
5
25E
100
AcDbEntity
8
0
100
AcDbLine
62
7
6
CONTINUOUS
10
113.2222838924
20
261.0062061071
11
113.6222840831
21
261.5168443888
0
LINE
5
25F
100
AcDbEntity
8
0
100
AcDbLine
62
7
6
CONTINUOUS
10
125.4722838924
20
151.9732273846
11
98.4722838924
21
151.9732273846
0
LINE
5
260
100
AcDbEntity
8
0
100
AcDbLine
62
7
6
CONTINUOUS
10
123.2722838924
20
154.1732273846
11
100.6722838924
21
154.1732273846
0
LINE
5
261
100
AcDbEntity
8
0
100
AcDbLine
62
7
6
CONTINUOUS
10
71.5339546899
20
178.7174418377
11
56.4804528161
21
215.0598102228
0
LINE
5
262
100
AcDbEntity
8
0
100
AcDbLine
62
7
6
CONTINUOUS
10
65.0408620867
20
230.0899750109
11
65.1038460562
21
229.7156044155
0
LINE
5
263
100
AcDbEntity
8
0
100
AcDbLine
62
7
6
CONTINUOUS
10
66.2965729895
20
227.0366011978
11
66.2335889306
21
227.4109715825
0
LINE
5
264
100
AcDbEntity
8
0
100
AcDbLine
62
7
6
CONTINUOUS
10
85.6041297584
20
258.1273369467
11
85.5206296404
21
257.5386300712
0
LINE
5
265
100
AcDbEntity
8
0
100
AcDbLine
62
7
6
CONTINUOUS
10
88.1697632494
20
257.7168625452
11
87.4097306948
21
253.8999443868
0
LINE
5
266
100
AcDbEntity
8
0
100
AcDbLine
62
7
6
CONTINUOUS
10
88.0448160098
20
254.2666110643
11
88.7422235292
21
257.6419990968
0
LINE
5
267
100
AcDbEntity
8
0
100
AcDbLine
62
7
6
CONTINUOUS
10
118.0222838924
20
261.0062061071
11
118.4222835109
21
261.5168443888
0
LINE
5
268
100
AcDbEntity
8
0
100
AcDbLine
62
7
6
CONTINUOUS
10
81.9722838924
20
160.9732273846
11
141.9722838924
21
160.9732273846
0
LINE
5
269
100
AcDbEntity
8
0
100
AcDbLine
62
7
6
CONTINUOUS
10
65.7304169477
20
229.6234583461
11
65.6361744284
21
229.9241884128
0
LINE
5
26A
100
AcDbEntity
8
0
100
AcDbLine
62
7
6
CONTINUOUS
10
69.7401447390
20
229.3988803236
11
69.6771605660
21
229.7732505081
0
LINE
5
26B
100
AcDbEntity
8
0
100
AcDbLine
62
7
6
CONTINUOUS
10
69.6358603366
20
240.9151125089
11
69.6988441272
21
240.5407414921
0
LINE
5
26C
100
AcDbEntity
8
0
100
AcDbLine
62
7
6
CONTINUOUS
10
81.9722838924
20
160.9732273846
11
81.9722838924
21
169.1741504186
0
LINE
5
26D
100
AcDbEntity
8
0
100
AcDbLine
62
7
6
CONTINUOUS
10
113.2222838924
20
262.1551422744
11
113.0222840831
21
261.7721635967
0
LINE
5
26E
100
AcDbEntity
8
0
100
AcDbLine
62
7
6
CONTINUOUS
10
118.0222838924
20
262.1551422744
11
117.8222835109
21
261.7721635967
0
LINE
5
26F
100
AcDbEntity
8
0
100
AcDbLine
62
7
6
CONTINUOUS
10
69.0505895757
20
229.8653966195
11
69.1448321609
21
229.5646665249
0
LINE
5
270
100
AcDbEntity
8
0
100
AcDbLine
62
7
6
CONTINUOUS
10
70.2314058448
20
240.4884994522
11
70.1371633254
21
240.7892295189
0
LINE
5
271
100
AcDbEntity
8
0
100
AcDbLine
62
7
6
CONTINUOUS
10
86.0722148090
20
257.3165898568
11
86.0554542580
21
257.7122866931
0
LINE
5
272
100
AcDbEntity
8
0
100
AcDbLine
62
7
6
CONTINUOUS
10
88.7422235292
20
257.6419990968
11
88.7254630350
21
258.0376959659
0
LINE
5
273
100
AcDbEntity
8
0
100
AcDbLine
62
7
6
CONTINUOUS
10
108.8222837970
20
264.8359931975
11
108.7222838924
21
264.4530145197
0
LINE
5
274
100
AcDbEntity
8
0
100
AcDbLine
62
7
6
CONTINUOUS
10
109.3222838924
20
264.3253549605
11
109.4222837970
21
264.7083336382
0
LINE
5
275
100
AcDbEntity
8
0
100
AcDbLine
62
7
6
CONTINUOUS
10
113.6222840831
20
261.5168443888
11
113.8222838924
21
262.0274827152
0
LINE
5
276
100
AcDbEntity
8
0
100
AcDbLine
62
7
6
CONTINUOUS
10
118.4222835109
20
261.5168443888
11
118.6222838924
21
262.0274827152
0
LINE
5
277
100
AcDbEntity
8
0
100
AcDbLine
62
7
6
CONTINUOUS
10
123.2722838924
20
154.1732273846
11
125.4722838924
21
151.9732273846
0
LINE
5
278
100
AcDbEntity
8
0
100
AcDbLine
62
7
6
CONTINUOUS
10
65.6697684843
20
227.3895726722
11
65.7952694641
21
227.1624829236
0
LINE
5
279
100
AcDbEntity
8
0
100
AcDbLine
62
7
6
CONTINUOUS
10
65.1038460562
20
229.7156044155
11
65.3548480159
21
229.2614249183
0
LINE
5
27A
100
AcDbEntity
8
0
100
AcDbLine
62
7
6
CONTINUOUS
10
69.6771605660
20
229.7732505081
11
69.4261585734
21
230.2274300194
0
LINE
5
27B
100
AcDbEntity
8
0
100
AcDbLine
62
7
6
CONTINUOUS
10
98.4722838924
20
151.9732273846
11
98.4722838924
21
117.9732273846
0
LINE
5
27C
100
AcDbEntity
8
0
100
AcDbLine
62
7
6
CONTINUOUS
10
150.1009142635
20
177.1741504186
11
147.9250339697
21
177.1741504186
0
LINE
5
27D
100
AcDbEntity
8
0
100
AcDbLine
62
7
6
CONTINUOUS
10
76.0195338151
20
177.1741504186
11
73.8436535212
21
177.1741504186
0
LINE
5
27E
100
AcDbEntity
8
0
100
AcDbLine
62
7
6
CONTINUOUS
10
66.2335889306
20
227.4109715825
11
65.9513284211
21
227.7915105510
0
LINE
5
27F
100
AcDbEntity
8
0
100
AcDbLine
62
7
6
CONTINUOUS
10
69.6988441272
20
240.5407414921
11
69.9498459080
21
240.0865615735
0
LINE
5
280
100
AcDbEntity
8
0
100
AcDbLine
62
7
6
CONTINUOUS
10
71.7026573466
20
241.6021681714
11
73.1776444554
21
238.5426253810
0
LINE
5
281
100
AcDbEntity
8
0
100
AcDbLine
62
7
6
CONTINUOUS
10
73.4277121392
20
239.1317479254
11
72.1409765449
21
241.8506561982
0
LINE
5
282
100
AcDbEntity
8
0
100
AcDbLine
62
7
6
CONTINUOUS
10
88.0944921239
20
258.2139028005
11
88.1697632494
21
257.7168625452
0
LINE
5
283
100
AcDbEntity
8
0
100
AcDbLine
62
7
6
CONTINUOUS
10
100.6722838924
20
160.9732273846
11
100.6722838924
21
154.1732273846
0
LINE
5
284
100
AcDbEntity
8
0
100
AcDbLine
62
7
6
CONTINUOUS
10
105.7222838924
20
266.6232273846
11
105.7222838924
21
260.6232273846
0
LINE
5
285
100
AcDbEntity
8
0
100
AcDbLine
62
7
6
CONTINUOUS
10
106.3222838924
20
260.6232273846
11
106.3222838924
21
263.3040784865
0
LINE
5
286
100
AcDbEntity
8
0
100
AcDbLine
62
7
6
CONTINUOUS
10
106.3222838924
20
264.0700358420
11
106.3222838924
21
265.9849295884
0
LINE
5
287
100
AcDbEntity
8
0
100
AcDbLine
62
7
6
CONTINUOUS
10
113.8222838924
20
262.0274827152
11
113.9222840831
21
262.6657805114
0
LINE
5
288
100
AcDbEntity
8
0
100
AcDbLine
62
7
6
CONTINUOUS
10
113.3222840831
20
262.6657805114
11
113.2222838924
21
262.1551422744
0
LINE
5
289
100
AcDbEntity
8
0
100
AcDbLine
62
7
6
CONTINUOUS
10
118.1222835109
20
262.6657805114
11
118.0222838924
21
262.1551422744
0
LINE
5
28A
100
AcDbEntity
8
0
100
AcDbLine
62
7
6
CONTINUOUS
10
68.8310795113
20
230.1323906083
11
69.0505895757
21
229.8653966195
0
LINE
5
28B
100
AcDbEntity
8
0
100
AcDbLine
62
7
6
CONTINUOUS
10
108.8222837970
20
265.2189722329
11
108.8222837970
21
264.8359931975
0
LINE
5
28C
100
AcDbEntity
8
0
100
AcDbLine
62
7
6
CONTINUOUS
10
109.4222837970
20
264.7083336382
11
109.4222837970
21
265.2189722329
0
LINE
5
28D
100
AcDbEntity
8
0
100
AcDbLine
62
7
6
CONTINUOUS
10
110.3222837970
20
266.6232273846
11
110.3222837970
21
262.6657805114
0
LINE
5
28E
100
AcDbEntity
8
0
100
AcDbLine
62
7
6
CONTINUOUS
10
110.9222840831
20
262.6657805114
11
110.9222840831
21
266.6232273846
0
LINE
5
28F
100
AcDbEntity
8
DEFAULT_1
100
AcDbLine
62
2
6
CENTER
10
111.9722838924
20
216.9732273846
11
111.9722838924
21
112.9016032917
0
LINE
5
290
100
AcDbEntity
8
DEFAULT_1
100
AcDbLine
62
2
6
CENTER
10
111.9722838924
20
216.9732273846
11
111.9722838924
21
249.9732273846
0
LINE
5
291
100
AcDbEntity
8
0
100
AcDbLine
62
7
6
CONTINUOUS
10
118.6222838924
20
262.0274827152
11
118.7222835109
21
262.6657805114
0
LINE
5
292
100
AcDbEntity
8
0
100
AcDbLine
62
7
6
CONTINUOUS
10
65.4189999594
20
227.5829263430
11
65.6697684843
21
227.3895726722
0
LINE
5
293
100
AcDbEntity
8
0
100
AcDbLine
62
7
6
CONTINUOUS
10
65.9513284211
20
227.7915105510
11
65.7005598962
21
227.9848642218
0
LINE
5
294
100
AcDbEntity
8
0
100
AcDbLine
62
7
6
CONTINUOUS
10
65.9811858254
20
229.4301047742
11
65.7304169477
21
229.6234583461
0
LINE
5
295
100
AcDbEntity
8
0
100
AcDbLine
62
7
6
CONTINUOUS
10
69.4261585734
20
230.2274300194
11
69.1126394481
21
230.5343284871
0
LINE
5
296
100
AcDbEntity
8
0
100
AcDbLine
62
7
6
CONTINUOUS
10
70.4509160880
20
240.2215058848
11
70.2314058448
21
240.4884994522
0
LINE
5
297
100
AcDbEntity
8
0
100
AcDbLine
62
7
6
CONTINUOUS
10
72.1409765449
20
241.8506561982
11
71.9214663016
21
242.1176497656
0
LINE
5
298
100
AcDbEntity
8
0
100
AcDbLine
62
7
6
CONTINUOUS
10
85.5206296404
20
257.5386300712
11
85.6752865013
21
257.0874231915
0
LINE
5
299
100
AcDbEntity
8
0
100
AcDbLine
62
7
6
CONTINUOUS
10
88.7254630350
20
258.0376959659
11
88.5708060960
21
258.4889028005
0
LINE
5
29A
100
AcDbEntity
8
0
100
AcDbLine
62
7
6
CONTINUOUS
10
113.3222840831
20
266.6232273846
11
113.3222840831
21
262.6657805114
0
LINE
5
29B
100
AcDbEntity
8
0
100
AcDbLine
62
7
6
CONTINUOUS
10
113.9222840831
20
262.6657805114
11
113.9222840831
21
266.6232273846
0
LINE
5
29C
100
AcDbEntity
8
0
100
AcDbLine
62
7
6
CONTINUOUS
10
114.7222838924
20
266.6232273846
11
114.7222838924
21
260.6232273846
0
LINE
5
29D
100
AcDbEntity
8
0
100
AcDbLine
62
7
6
CONTINUOUS
10
115.3222838924
20
261.3891848295
11
115.3222838924
21
265.8572700291
0
LINE
5
29E
100
AcDbEntity
8
0
100
AcDbLine
62
7
6
CONTINUOUS
10
118.1222835109
20
264.5806740790
11
118.1222835109
21
262.6657805114
0
LINE
5
29F
100
AcDbEntity
8
0
100
AcDbLine
62
7
6
CONTINUOUS
10
118.7222835109
20
262.6657805114
11
118.7222835109
21
264.5806740790
0
LINE
5
2A0
100
AcDbEntity
8
0
100
AcDbLine
62
7
6
CONTINUOUS
10
65.3548480159
20
229.2614249183
11
65.6996256252
21
229.0281670072
0
LINE
5
2A1
100
AcDbEntity
8
0
100
AcDbLine
62
7
6
CONTINUOUS
10
71.3891381083
20
241.9090661898
11
71.7026573466
21
241.6021681714
0
LINE
5
2A2
100
AcDbEntity
8
0
100
AcDbLine
62
7
6
CONTINUOUS
10
123.2722838924
20
160.9732273846
11
123.2722838924
21
154.1732273846
0
LINE
5
2A3
100
AcDbEntity
8
0
100
AcDbLine
62
7
6
CONTINUOUS
10
125.4722838924
20
151.9732273846
11
125.4722838924
21
117.9732273846
0
LINE
5
2A4
100
AcDbEntity
8
0
100
AcDbLine
62
7
6
CONTINUOUS
10
63.1338605958
20
225.8587368014
11
67.5522838924
21
223.9832273846
0
LINE
5
2A5
100
AcDbEntity
8
0
100
AcDbLine
62
7
6
CONTINUOUS
10
67.7398348340
20
224.4250697143
11
65.7656456735
21
225.2630632953
0
LINE
5
2A6
100
AcDbEntity
8
0
100
AcDbLine
62
7
6
CONTINUOUS
10
65.2015917029
20
225.5024900009
11
63.7914565130
21
226.1010568764
0
LINE
5
2A7
100
AcDbEntity
8
0
100
AcDbLine
62
7
6
CONTINUOUS
10
65.1369727108
20
227.7026398076
11
65.4189999594
21
227.5829263430
0
LINE
5
2A8
100
AcDbEntity
8
0
100
AcDbLine
62
7
6
CONTINUOUS
10
65.7005598962
20
227.9848642218
11
65.3245236525
21
228.1444821372
0
LINE
5
2A9
100
AcDbEntity
8
0
100
AcDbLine
62
7
6
CONTINUOUS
10
68.6978717462
20
238.9667256336
11
72.1773726473
21
236.1861326753
0
LINE
5
2AA
100
AcDbEntity
8
0
100
AcDbLine
62
7
6
CONTINUOUS
10
72.7724518882
20
236.2811725076
11
69.7317371681
21
238.7886022892
0
LINE
5
2AB
100
AcDbEntity
8
0
100
AcDbLine
62
7
6
CONTINUOUS
10
72.0124392179
20
245.4684784312
11
75.3356479719
21
242.3196840654
0
LINE
5
2AC
100
AcDbEntity
8
0
100
AcDbLine
62
7
6
CONTINUOUS
10
75.5231989136
20
242.7615263950
11
72.1999901596
21
245.9103207609
0
LINE
5
2AD
100
AcDbEntity
8
0
100
AcDbLine
62
7
6
CONTINUOUS
10
87.4097306948
20
253.8999443868
11
87.7022838924
21
253.3932273846
0
LINE
5
2AE
100
AcDbEntity
8
0
100
AcDbLine
62
7
6
CONTINUOUS
10
87.9774706973
20
258.4165898568
11
88.0944921239
21
258.2139028005
0
LINE
5
2AF
100
AcDbEntity
8
0
100
AcDbLine
62
7
6
CONTINUOUS
10
90.5601677249
20
255.0432273846
11
90.2676145273
21
255.5499443868
0
LINE
5
2B0
100
AcDbEntity
8
0
100
AcDbLine
62
7
6
CONTINUOUS
10
88.5708060960
20
258.4889028005
11
88.4537846694
21
258.6915898568
0
LINE
5
2B1
100
AcDbEntity
8
0
100
AcDbLine
62
7
6
CONTINUOUS
10
89.3229127304
20
258.6528827384
11
89.5569552557
21
258.2475091934
0
LINE
5
2B2
100
AcDbEntity
8
0
100
AcDbLine
62
7
6
CONTINUOUS
10
89.4899128878
20
259.8302968225
11
89.9579981022
21
259.0195494488
0
LINE
5
2B3
100
AcDbEntity
8
0
100
AcDbLine
62
7
6
CONTINUOUS
10
90.1920406275
20
258.6141759038
11
91.3622533769
21
256.5873079662
0
LINE
5
2B4
100
AcDbEntity
8
0
100
AcDbLine
62
7
6
CONTINUOUS
10
91.6421602320
20
257.0191613889
11
90.5889687862
21
258.8433424831
0
LINE
5
2B5
100
AcDbEntity
8
0
100
AcDbLine
62
7
6
CONTINUOUS
10
90.3549262609
20
259.2487160280
11
89.8868410464
21
260.0594634018
0
LINE
5
2B6
100
AcDbEntity
8
0
100
AcDbLine
62
7
6
CONTINUOUS
10
111.0222837016
20
262.1551422744
11
110.9222840831
21
262.6657805114
0
LINE
5
2B7
100
AcDbEntity
8
0
100
AcDbLine
62
7
6
CONTINUOUS
10
110.3222837970
20
262.6657805114
11
110.4222839877
21
262.0274827152
0
LINE
5
2B8
100
AcDbEntity
8
0
100
AcDbLine
62
7
6
CONTINUOUS
10
65.6996256252
20
229.0281670072
11
66.0756618690
21
228.8685490918
0
LINE
5
2B9
100
AcDbEntity
8
0
100
AcDbLine
62
7
6
CONTINUOUS
10
66.1692038156
20
229.3502958724
11
65.9811858254
21
229.4301047742
0
LINE
5
2BA
100
AcDbEntity
8
0
100
AcDbLine
62
7
6
CONTINUOUS
10
68.5490525260
20
230.2521039611
11
68.8310795113
21
230.1323906083
0
LINE
5
2BB
100
AcDbEntity
8
0
100
AcDbLine
62
7
6
CONTINUOUS
10
69.1126394481
20
230.5343284871
11
68.6425944726
21
230.7338507417
0
LINE
5
2BC
100
AcDbEntity
8
0
100
AcDbLine
62
7
6
CONTINUOUS
10
69.9498459080
20
240.0865615735
11
70.2946238751
21
239.8533045052
0
LINE
5
2BD
100
AcDbEntity
8
0
100
AcDbLine
62
7
6
CONTINUOUS
10
71.9214663016
20
242.1176497656
11
71.5766890500
21
242.3509085194
0
LINE
5
2BE
100
AcDbEntity
8
0
100
AcDbLine
62
7
6
CONTINUOUS
10
92.9417375853
20
256.4182273846
11
92.7076950395
21
256.8236009650
0
LINE
5
2BF
100
AcDbEntity
8
0
100
AcDbLine
62
7
6
CONTINUOUS
10
91.4622109169
20
259.3475090623
11
91.2281683916
21
259.7528826073
0
LINE
5
2C0
100
AcDbEntity
8
0
100
AcDbLine
62
7
6
CONTINUOUS
10
109.5222839877
20
260.6232273846
11
108.6222839877
21
263.5593976050
0
LINE
5
2C1
100
AcDbEntity
8
0
100
AcDbLine
62
7
6
CONTINUOUS
10
108.0222838447
20
263.3040784865
11
108.8222837970
21
260.6232273846
0
LINE
5
2C2
100
AcDbEntity
8
0
100
AcDbLine
62
7
6
CONTINUOUS
10
108.7222838924
20
265.6019509106
11
108.8222837970
21
265.2189722329
0
LINE
5
2C3
100
AcDbEntity
8
0
100
AcDbLine
62
7
6
CONTINUOUS
10
109.4222837970
20
265.2189722329
11
109.3222838924
21
265.6019509106
0
LINE
5
2C4
100
AcDbEntity
8
0
100
AcDbLine
62
7
6
CONTINUOUS
10
118.0222838924
20
265.0913123160
11
118.1222835109
21
264.5806740790
0
LINE
5
2C5
100
AcDbEntity
8
0
100
AcDbLine
62
7
6
CONTINUOUS
10
118.7222835109
20
264.5806740790
11
118.6222838924
21
265.2189722329
0
LINE
5
2C6
100
AcDbEntity
8
0
100
AcDbLine
62
7
6
CONTINUOUS
10
100.6722838924
20
154.1732273846
11
98.4722838924
21
151.9732273846
0
LINE
5
2C7
100
AcDbEntity
8
DEFAULT_1
100
AcDbLine
62
2
6
CENTER
10
111.9722838924
20
216.9732273846
11
78.9722838924
21
216.9732273846
0
LINE
5
2C8
100
AcDbEntity
8
DEFAULT_1
100
AcDbLine
62
2
6
CENTER
10
111.9722838924
20
216.9732273846
11
144.9722838924
21
216.9732273846
0
LINE
5
2C9
100
AcDbEntity
8
0
100
AcDbLine
62
7
6
CONTINUOUS
10
64.8236872650
20
227.7487128423
11
65.1369727108
21
227.7026398076
0
LINE
5
2CA
100
AcDbEntity
8
0
100
AcDbLine
62
7
6
CONTINUOUS
10
67.7680573474
20
227.8894430929
11
68.1753518777
21
227.8034658180
0
LINE
5
2CB
100
AcDbEntity
8
0
100
AcDbLine
62
7
6
CONTINUOUS
10
66.0756618690
20
228.8685490918
11
66.4829562205
21
228.7825713955
0
LINE
5
2CC
100
AcDbEntity
8
0
100
AcDbLine
62
7
6
CONTINUOUS
10
67.4787906254
20
236.0947504908
11
71.8972139219
21
234.2192410741
0
LINE
5
2CD
100
AcDbEntity
8
0
100
AcDbLine
62
7
6
CONTINUOUS
10
72.0847648636
20
234.6610834037
11
68.6064315181
21
236.1375483113
0
LINE
5
2CE
100
AcDbEntity
8
0
100
AcDbLine
62
7
6
CONTINUOUS
10
69.7317371681
20
238.7886022892
11
73.2100705137
21
237.3121373817
0
LINE
5
2CF
100
AcDbEntity
8
0
100
AcDbLine
62
7
6
CONTINUOUS
10
73.3976214553
20
237.7539797113
11
68.9791981588
21
239.6294891281
0
LINE
5
2D0
100
AcDbEntity
8
0
100
AcDbLine
62
7
6
CONTINUOUS
10
73.1776444554
20
238.5426253810
11
73.6476894968
21
238.3431030985
0
LINE
5
2D1
100
AcDbEntity
8
0
100
AcDbLine
62
7
6
CONTINUOUS
10
88.4537846694
20
258.6915898568
11
88.1403565578
21
259.0511301122
0
LINE
5
2D2
100
AcDbEntity
8
0
100
AcDbLine
62
7
6
CONTINUOUS
10
110.4222839877
20
262.0274827152
11
110.6222840831
21
261.5168443888
0
LINE
5
2D3
100
AcDbEntity
8
0
100
AcDbLine
62
7
6
CONTINUOUS
10
141.9722838924
20
160.9732273846
11
141.9722838924
21
169.1741504186
0
LINE
5
2D4
100
AcDbEntity
8
0
100
AcDbLine
62
7
6
CONTINUOUS
10
68.7401065528
20
226.7815622093
11
66.2965729895
21
227.0366011978
0
LINE
5
2D5
100
AcDbEntity
8
0
100
AcDbLine
62
7
6
CONTINUOUS
10
66.2970399934
20
226.5149498609
11
68.5212970612
21
226.2660793509
0
LINE
5
2D6
100
AcDbEntity
8
0
100
AcDbLine
62
7
6
CONTINUOUS
10
65.3245236525
20
228.1444821372
11
65.0112382067
21
228.1905551720
0
LINE
5
2D7
100
AcDbEntity
8
0
100
AcDbLine
62
7
6
CONTINUOUS
10
68.2688937348
20
228.2852123879
11
67.9556083785
21
228.3312856333
0
LINE
5
2D8
100
AcDbEntity
8
0
100
AcDbLine
62
7
6
CONTINUOUS
10
66.4824891719
20
229.3042226270
11
66.1692038156
21
229.3502958724
0
LINE
5
2D9
100
AcDbEntity
8
0
100
AcDbLine
62
7
6
CONTINUOUS
10
66.6686387046
20
231.3110187629
11
66.3553533483
21
231.3570920083
0
LINE
5
2DA
100
AcDbEntity
8
0
100
AcDbLine
62
7
6
CONTINUOUS
10
71.2011198547
20
241.9888752034
11
71.3891381083
21
241.9090661898
0
LINE
5
2DB
100
AcDbEntity
8
0
100
AcDbLine
62
7
6
CONTINUOUS
10
74.7729951469
20
240.9941570764
11
74.3029501055
21
241.1936793589
0
LINE
5
2DC
100
AcDbEntity
8
0
100
AcDbLine
62
7
6
CONTINUOUS
10
71.5766890500
20
242.3509085194
11
71.3886707964
21
242.4307175331
0
LINE
5
2DD
100
AcDbEntity
8
0
100
AcDbLine
62
7
6
CONTINUOUS
10
70.6046395340
20
243.4587890375
11
71.0746845095
21
243.2592667829
0
LINE
5
2DE
100
AcDbEntity
8
0
100
AcDbLine
62
7
6
CONTINUOUS
10
72.1999901596
20
245.9103207609
11
71.7299451841
21
246.1098430155
0
LINE
5
2DF
100
AcDbEntity
8
0
100
AcDbLine
62
7
6
CONTINUOUS
10
91.8970779803
20
256.7609645800
11
91.6421602320
21
257.0191613889
0
LINE
5
2E0
100
AcDbEntity
8
0
100
AcDbLine
62
7
6
CONTINUOUS
10
111.2222840831
20
261.7721635967
11
111.0222837016
21
262.1551422744
0
LINE
5
2E1
100
AcDbEntity
8
0
100
AcDbLine
62
7
6
CONTINUOUS
10
118.6222838924
20
265.2189722329
11
118.4222835109
21
265.7296104699
0
LINE
5
2E2
100
AcDbEntity
8
0
100
AcDbLine
62
7
6
CONTINUOUS
10
68.2045084881
20
230.2245367336
11
68.5490525260
21
230.2521039611
0
LINE
5
2E3
100
AcDbEntity
8
0
100
AcDbLine
62
7
6
CONTINUOUS
10
68.1753518777
20
227.8034658180
11
68.7391723334
21
227.8248644756
0
LINE
5
2E4
100
AcDbEntity
8
0
100
AcDbLine
62
7
6
CONTINUOUS
10
68.6425944726
20
230.7338507417
11
68.2040414396
21
230.7461879651
0
LINE
5
2E5
100
AcDbEntity
8
0
100
AcDbLine
62
7
6
CONTINUOUS
10
66.2618114017
20
230.8753452277
11
66.4810877630
21
230.8691764332
0
LINE
5
2E6
100
AcDbEntity
8
0
100
AcDbLine
62
7
6
CONTINUOUS
10
68.6064315181
20
236.1375483113
11
72.5223838468
21
235.6920491205
0
LINE
5
2E7
100
AcDbEntity
8
0
100
AcDbLine
62
7
6
CONTINUOUS
10
72.1773726473
20
236.1861326753
11
67.7601170379
21
236.7575139853
0
LINE
5
2E8
100
AcDbEntity
8
0
100
AcDbLine
62
7
6
CONTINUOUS
10
71.3886707964
20
242.4307175331
11
70.9813760872
21
242.5166943866
0
LINE
5
2E9
100
AcDbEntity
8
0
100
AcDbLine
62
7
6
CONTINUOUS
10
91.3622533769
20
256.5873079662
11
91.7550670953
21
256.2736009650
0
LINE
5
2EA
100
AcDbEntity
8
0
100
AcDbLine
62
7
6
CONTINUOUS
10
109.3222838924
20
265.6019509106
11
109.0222838924
21
266.1125891476
0
LINE
5
2EB
100
AcDbEntity
8
0
100
AcDbLine
62
7
6
CONTINUOUS
10
117.8222835109
20
265.4742913514
11
118.0222838924
21
265.0913123160
0
LINE
5
2EC
100
AcDbEntity
8
0
100
AcDbLine
62
7
6
CONTINUOUS
10
167.4641149687
20
215.0598102228
11
152.4106130948
21
178.7174418377
0
LINE
5
2ED
100
AcDbEntity
8
0
100
AcDbLine
62
7
6
CONTINUOUS
10
68.6446962568
20
228.3864201720
11
68.2688937348
21
228.2852123879
0
LINE
5
2EE
100
AcDbEntity
8
0
100
AcDbLine
62
7
6
CONTINUOUS
10
64.5731522644
20
227.6812408974
11
64.8236872650
21
227.7487128423
0
LINE
5
2EF
100
AcDbEntity
8
0
100
AcDbLine
62
7
6
CONTINUOUS
10
66.4829562205
20
228.7825713955
11
66.9840262216
21
228.9175152854
0
LINE
5
2F0
100
AcDbEntity
8
0
100
AcDbLine
62
7
6
CONTINUOUS
10
65.0112382067
20
228.1905551720
11
64.5414267554
21
228.1292518108
0
LINE
5
2F1
100
AcDbEntity
8
0
100
AcDbLine
62
7
6
CONTINUOUS
10
66.3553533483
20
231.3570920083
11
65.8855418970
21
231.2957886471
0
LINE
5
2F2
100
AcDbEntity
8
0
100
AcDbLine
62
7
6
CONTINUOUS
10
87.6431674036
20
258.6289533052
11
87.9774706973
21
258.4165898568
0
LINE
5
2F3
100
AcDbEntity
8
0
100
AcDbLine
62
7
6
CONTINUOUS
10
110.6222840831
20
261.5168443888
11
111.0222837016
21
261.0062061071
0
LINE
5
2F4
100
AcDbEntity
8
0
100
AcDbLine
62
7
6
CONTINUOUS
10
108.5222837970
20
265.8572700291
11
108.7222838924
21
265.6019509106
0
LINE
5
2F5
100
AcDbEntity
8
0
100
AcDbLine
62
7
6
CONTINUOUS
10
68.2040414396
20
230.7461879651
11
67.7029714384
21
230.6112440753
0
LINE
5
2F6
100
AcDbEntity
8
0
100
AcDbLine
62
7
6
CONTINUOUS
10
66.0112763117
20
230.8078730721
11
66.2618114017
21
230.8753452277
0
LINE
5
2F7
100
AcDbEntity
8
0
100
AcDbLine
62
7
6
CONTINUOUS
10
70.8565761274
20
241.9613083414
11
71.2011198547
21
241.9888752034
0
LINE
5
2F8
100
AcDbEntity
8
0
100
AcDbLine
62
7
6
CONTINUOUS
10
88.1403565578
20
259.0511301122
11
87.5887712331
21
259.2731702363
0
LINE
5
2F9
100
AcDbEntity
8
0
100
AcDbLine
62
7
6
CONTINUOUS
10
111.5222840831
20
261.5168443888
11
111.2222840831
21
261.7721635967
0
LINE
5
2FA
100
AcDbEntity
8
0
100
AcDbLine
62
7
6
CONTINUOUS
10
109.0222838924
20
266.1125891476
11
108.6222839877
21
266.4955678254
0
LINE
5
2FB
100
AcDbEntity
8
0
100
AcDbLine
62
7
6
CONTINUOUS
10
118.4222835109
20
265.7296104699
11
118.0222838924
21
266.2402487069
0
LINE
5
2FC
100
AcDbEntity
8
0
100
AcDbLine
62
7
6
CONTINUOUS
10
70.9813760872
20
242.5166943866
11
70.4803066227
21
242.3817517609
0
LINE
5
2FD
100
AcDbEntity
8
0
100
AcDbLine
62
7
6
CONTINUOUS
10
91.7550670953
20
256.2736009650
11
92.1102453543
21
256.2084141748
0
LINE
5
2FE
100
AcDbEntity
8
0
100
AcDbLine
62
7
6
CONTINUOUS
10
92.2522562290
20
256.6957778075
11
91.8970779803
21
256.7609645800
0
LINE
5
2FF
100
AcDbEntity
8
0
100
AcDbLine
62
7
6
CONTINUOUS
10
111.0222837016
20
261.0062061071
11
111.4222838924
21
260.7508869550
0
LINE
5
300
100
AcDbEntity
8
0
100
AcDbLine
62
7
6
CONTINUOUS
10
117.5222835109
20
265.7296104699
11
117.8222835109
21
265.4742913514
0
LINE
5
301
100
AcDbEntity
8
0
100
AcDbLine
62
7
6
CONTINUOUS
10
125.4722838924
20
117.9732273846
11
123.4722838924
21
115.9732273846
0
LINE
5
302
100
AcDbEntity
8
0
100
AcDbLine
62
7
6
CONTINUOUS
10
117.1222838924
20
260.6232273846
11
117.6222842738
21
260.7508869550
0
LINE
5
303
100
AcDbEntity
8
0
100
AcDbLine
62
7
6
CONTINUOUS
10
112.3222838924
20
260.6232273846
11
112.8222837016
21
260.7508869550
0
LINE
5
304
100
AcDbEntity
8
0
100
AcDbLine
62
7
6
CONTINUOUS
10
92.1102453543
20
256.2084141748
11
92.4069129767
21
256.2445707797
0
LINE
5
305
100
AcDbEntity
8
0
100
AcDbLine
62
7
6
CONTINUOUS
10
87.5887712331
20
259.2731702363
11
87.1542073981
21
259.2925237192
0
LINE
5
306
100
AcDbEntity
8
0
100
AcDbLine
62
7
6
CONTINUOUS
10
87.2879891549
20
258.6941400776
11
87.6431674036
21
258.6289533052
0
LINE
5
307
100
AcDbEntity
8
0
100
AcDbLine
62
7
6
CONTINUOUS
10
111.4222838924
20
260.7508869550
11
111.9222837016
21
260.6232273846
0
LINE
5
308
100
AcDbEntity
8
0
100
AcDbLine
62
7
6
CONTINUOUS
10
111.9222837016
20
261.3891848295
11
111.5222840831
21
261.5168443888
0
LINE
5
309
100
AcDbEntity
8
0
100
AcDbLine
62
7
6
CONTINUOUS
10
108.2222837970
20
265.9849295884
11
108.5222837970
21
265.8572700291
0
LINE
5
30A
100
AcDbEntity
8
0
100
AcDbLine
62
7
6
CONTINUOUS
10
118.0222838924
20
266.2402487069
11
117.6222842738
21
266.4955678254
0
LINE
5
30B
100
AcDbEntity
8
0
100
AcDbLine
62
7
6
CONTINUOUS
10
152.5639241972
20
254.8588871888
11
167.4641149687
21
218.8866445464
0
LINE
5
30C
100
AcDbEntity
8
0
100
AcDbLine
62
7
6
CONTINUOUS
10
92.7076950395
20
256.8236009650
11
92.2522562290
21
256.6957778075
0
LINE
5
30D
100
AcDbEntity
8
0
100
AcDbLine
62
7
6
CONTINUOUS
10
86.8325502514
20
258.5663168191
11
87.2879891549
21
258.6941400776
0
LINE
5
30E
100
AcDbEntity
8
0
100
AcDbLine
62
7
6
CONTINUOUS
10
105.7222838924
20
260.6232273846
11
106.3222838924
21
260.6232273846
0
LINE
5
30F
100
AcDbEntity
8
0
100
AcDbLine
62
7
6
CONTINUOUS
10
108.8222837970
20
260.6232273846
11
109.5222839877
21
260.6232273846
0
LINE
5
310
100
AcDbEntity
8
0
100
AcDbLine
62
7
6
CONTINUOUS
10
111.9222837016
20
260.6232273846
11
112.3222838924
21
260.6232273846
0
LINE
5
311
100
AcDbEntity
8
0
100
AcDbLine
62
7
6
CONTINUOUS
10
114.7222838924
20
260.6232273846
11
117.1222838924
21
260.6232273846
0
LINE
5
312
100
AcDbEntity
8
0
100
AcDbLine
62
7
6
CONTINUOUS
10
117.1222838924
20
261.3891848295
11
115.3222838924
21
261.3891848295
0
LINE
5
313
100
AcDbEntity
8
0
100
AcDbLine
62
7
6
CONTINUOUS
10
112.3222838924
20
261.3891848295
11
111.9222837016
21
261.3891848295
0
LINE
5
314
100
AcDbEntity
8
0
100
AcDbLine
62
7
6
CONTINUOUS
10
106.3222838924
20
263.3040784865
11
108.0222838447
21
263.3040784865
0
LINE
5
315
100
AcDbEntity
8
0
100
AcDbLine
62
7
6
CONTINUOUS
10
108.2222837970
20
264.0700358420
11
106.3222838924
21
264.0700358420
0
LINE
5
316
100
AcDbEntity
8
0
100
AcDbLine
62
7
6
CONTINUOUS
10
115.3222838924
20
265.8572700291
11
117.1222838924
21
265.8572700291
0
LINE
5
317
100
AcDbEntity
8
0
100
AcDbLine
62
7
6
CONTINUOUS
10
108.6222839877
20
266.4955678254
11
108.1222838924
21
266.6232273846
0
LINE
5
318
100
AcDbEntity
8
0
100
AcDbLine
62
7
6
CONTINUOUS
10
117.6222842738
20
266.4955678254
11
117.1222838924
21
266.6232273846
0
LINE
5
319
100
AcDbEntity
8
0
100
AcDbLine
62
7
6
CONTINUOUS
10
117.1222838924
20
265.8572700291
11
117.5222835109
21
265.7296104699
0
LINE
5
31A
100
AcDbEntity
8
0
100
AcDbLine
62
7
6
CONTINUOUS
10
106.3222838924
20
265.9849295884
11
108.2222837970
21
265.9849295884
0
LINE
5
31B
100
AcDbEntity
8
0
100
AcDbLine
62
7
6
CONTINUOUS
10
117.1222838924
20
266.6232273846
11
114.7222838924
21
266.6232273846
0
LINE
5
31C
100
AcDbEntity
8
0
100
AcDbLine
62
7
6
CONTINUOUS
10
113.9222840831
20
266.6232273846
11
113.3222840831
21
266.6232273846
0
LINE
5
31D
100
AcDbEntity
8
0
100
AcDbLine
62
7
6
CONTINUOUS
10
110.9222840831
20
266.6232273846
11
110.3222837970
21
266.6232273846
0
LINE
5
31E
100
AcDbEntity
8
0
100
AcDbLine
62
7
6
CONTINUOUS
10
108.1222838924
20
266.6232273846
11
105.7222838924
21
266.6232273846
0
LINE
5
31F
100
AcDbEntity
8
0
100
AcDbLine
62
7
6
CONTINUOUS
10
113.8857010542
20
272.4650584609
11
149.8579436965
21
257.5648676895
0
LINE
5
320
100
AcDbEntity
8
0
100
AcDbLine
62
7
6
CONTINUOUS
10
283.8771297098
20
115.9732273846
11
306.8771297098
21
115.9732273846
0
LINE
5
321
100
AcDbEntity
8
0
100
AcDbLine
62
7
6
CONTINUOUS
10
281.8771297098
20
117.9732273846
11
308.8771297098
21
117.9732273846
0
LINE
5
322
100
AcDbEntity
8
0
100
AcDbLine
62
7
6
CONTINUOUS
10
281.8771297098
20
117.9732273846
11
283.8771297098
21
115.9732273846
0
LINE
5
323
100
AcDbEntity
8
0
100
AcDbLine
62
7
6
CONTINUOUS
10
281.8771297098
20
151.9732273846
11
308.8771297098
21
151.9732273846
0
LINE
5
324
100
AcDbEntity
8
0
100
AcDbLine
62
7
6
CONTINUOUS
10
284.0771297098
20
154.1732273846
11
306.6771297098
21
154.1732273846
0
LINE
5
325
100
AcDbEntity
8
0
100
AcDbLine
62
7
6
CONTINUOUS
10
265.3776540681
20
160.9732273846
11
325.3766053515
21
160.9732273846
0
LINE
5
326
100
AcDbEntity
8
0
100
AcDbLine
62
7
6
CONTINUOUS
10
265.3771297098
20
160.9732273846
11
265.3771297098
21
175.0470973410
0
LINE
5
327
100
AcDbEntity
8
0
100
AcDbLine
62
7
6
CONTINUOUS
10
307.6815907658
20
177.1741504186
11
283.0726686537
21
177.1741504186
0
LINE
5
328
100
AcDbEntity
8
0
100
AcDbLine
62
7
6
CONTINUOUS
10
306.6771297098
20
154.1732273846
11
308.8771297098
21
151.9732273846
0
LINE
5
329
100
AcDbEntity
8
0
100
AcDbLine
62
7
6
CONTINUOUS
10
281.8771297098
20
151.9732273846
11
281.8771297098
21
117.9732273846
0
LINE
5
32A
100
AcDbEntity
8
0
100
AcDbLine
62
7
6
CONTINUOUS
10
283.3771297098
20
270.3456607797
11
283.3771297098
21
217.7259459998
0
LINE
5
32B
100
AcDbEntity
8
0
100
AcDbLine
62
7
6
CONTINUOUS
10
284.0771297098
20
160.9732273846
11
284.0771297098
21
154.1732273846
0
LINE
5
32C
100
AcDbEntity
8
0
100
AcDbLine
62
7
6
CONTINUOUS
10
283.3205513196
20
216.2226381497
11
280.3180721728
21
176.3906719319
0
LINE
5
32D
100
AcDbEntity
8
0
100
AcDbLine
62
7
6
CONTINUOUS
10
270.4385229195
20
180.9732273846
11
278.4749569988
21
182.2460734985
0
LINE
5
32E
100
AcDbEntity
8
0
100
AcDbLine
62
7
6
CONTINUOUS
10
320.3157365000
20
180.9732273846
11
312.2777128545
21
182.2463252610
0
LINE
5
32F
100
AcDbEntity
8
DEFAULT_1
100
AcDbLine
62
2
6
CENTER
10
295.3771297098
20
112.9732273846
11
295.3771297098
21
278.3272559591
0
LINE
5
330
100
AcDbEntity
8
0
100
AcDbLine
62
7
6
CONTINUOUS
10
306.6771297098
20
160.9732273846
11
306.6771297098
21
154.1732273846
0
LINE
5
331
100
AcDbEntity
8
0
100
AcDbLine
62
7
6
CONTINUOUS
10
310.4361872828
20
176.3906714537
11
307.4337080999
21
216.2226381497
0
LINE
5
332
100
AcDbEntity
8
0
100
AcDbLine
62
7
6
CONTINUOUS
10
307.3771297098
20
217.7259459998
11
307.3771297098
21
270.3456607797
0
LINE
5
333
100
AcDbEntity
8
0
100
AcDbLine
62
7
6
CONTINUOUS
10
307.6771297098
20
266.6232273846
11
307.6771297098
21
260.6232273846
0
LINE
5
334
100
AcDbEntity
8
0
100
AcDbLine
62
7
6
CONTINUOUS
10
307.6771297098
20
260.0594634018
11
307.6771297098
21
253.3932273846
0
LINE
5
335
100
AcDbEntity
8
0
100
AcDbLine
62
7
6
CONTINUOUS
10
307.6771297098
20
246.1098430155
11
307.6771297098
21
234.2192410741
0
LINE
5
336
100
AcDbEntity
8
0
100
AcDbLine
62
7
6
CONTINUOUS
10
307.6771297098
20
231.3570920083
11
307.6771297098
21
223.9832273846
0
LINE
5
337
100
AcDbEntity
8
0
100
AcDbLine
62
7
6
CONTINUOUS
10
308.8771297098
20
151.9732273846
11
308.8771297098
21
117.9732273846
0
LINE
5
338
100
AcDbEntity
8
0
100
AcDbLine
62
7
6
CONTINUOUS
10
284.0771297098
20
154.1732273846
11
281.8771297098
21
151.9732273846
0
LINE
5
339
100
AcDbEntity
8
0
100
AcDbLine
62
7
6
CONTINUOUS
10
325.3771297098
20
160.9732273846
11
325.3771297098
21
175.0470973410
0
LINE
5
33A
100
AcDbEntity
8
0
100
AcDbLine
62
7
6
CONTINUOUS
10
307.3771297098
20
223.9832273846
11
307.6771297098
21
223.9832273846
0
LINE
5
33B
100
AcDbEntity
8
0
100
AcDbLine
62
7
6
CONTINUOUS
10
307.3771297098
20
231.3570920083
11
307.6771297098
21
231.3570920083
0
LINE
5
33C
100
AcDbEntity
8
0
100
AcDbLine
62
7
6
CONTINUOUS
10
307.3771297098
20
234.2192410741
11
307.6771297098
21
234.2192410741
0
LINE
5
33D
100
AcDbEntity
8
0
100
AcDbLine
62
7
6
CONTINUOUS
10
307.3771297098
20
239.8533045052
11
307.6771297098
21
239.8533045052
0
LINE
5
33E
100
AcDbEntity
8
0
100
AcDbLine
62
7
6
CONTINUOUS
10
307.3771297098
20
240.0865615735
11
307.6771297098
21
240.0865615735
0
LINE
5
33F
100
AcDbEntity
8
0
100
AcDbLine
62
7
6
CONTINUOUS
10
307.3771297098
20
240.5407414921
11
307.6771297098
21
240.5407414921
0
LINE
5
340
100
AcDbEntity
8
0
100
AcDbLine
62
7
6
CONTINUOUS
10
307.3771297098
20
240.9151125089
11
307.6771297098
21
240.9151125089
0
LINE
5
341
100
AcDbEntity
8
0
100
AcDbLine
62
7
6
CONTINUOUS
10
307.3771297098
20
241.4704985541
11
307.6771297098
21
241.4704985541
0
LINE
5
342
100
AcDbEntity
8
0
100
AcDbLine
62
7
6
CONTINUOUS
10
307.3771297098
20
241.7650606690
11
307.6771297098
21
241.7650606690
0
LINE
5
343
100
AcDbEntity
8
0
100
AcDbLine
62
7
6
CONTINUOUS
10
307.3771297098
20
242.1669985478
11
307.6771297098
21
242.1669985478
0
LINE
5
344
100
AcDbEntity
8
0
100
AcDbLine
62
7
6
CONTINUOUS
10
307.3771297098
20
242.3817517609
11
307.6771297098
21
242.3817517609
0
LINE
5
345
100
AcDbEntity
8
0
100
AcDbLine
62
7
6
CONTINUOUS
10
307.3771297098
20
242.5166943866
11
307.6771297098
21
242.5166943866
0
LINE
5
346
100
AcDbEntity
8
0
100
AcDbLine
62
7
6
CONTINUOUS
10
307.3771297098
20
243.2592667829
11
307.6771297098
21
243.2592667829
0
LINE
5
347
100
AcDbEntity
8
0
100
AcDbLine
62
7
6
CONTINUOUS
10
307.3771297098
20
243.4587890375
11
307.6771297098
21
243.4587890375
0
LINE
5
348
100
AcDbEntity
8
0
100
AcDbLine
62
7
6
CONTINUOUS
10
307.3771297098
20
246.1098430155
11
307.6771297098
21
246.1098430155
0
LINE
5
349
100
AcDbEntity
8
0
100
AcDbLine
62
7
6
CONTINUOUS
10
307.3771297098
20
253.3932273846
11
307.6771297098
21
253.3932273846
0
LINE
5
34A
100
AcDbEntity
8
0
100
AcDbLine
62
7
6
CONTINUOUS
10
307.3771297098
20
253.8999443868
11
307.6771297098
21
253.8999443868
0
LINE
5
34B
100
AcDbEntity
8
0
100
AcDbLine
62
7
6
CONTINUOUS
10
308.8771297098
20
117.9732273846
11
306.8771297098
21
115.9732273846
0
LINE
5
34C
100
AcDbEntity
8
0
100
AcDbLine
62
7
6
CONTINUOUS
10
307.3771297098
20
257.0874231915
11
307.6771297098
21
257.0874231915
0
LINE
5
34D
100
AcDbEntity
8
0
100
AcDbLine
62
7
6
CONTINUOUS
10
307.3771297098
20
258.5133570416
11
307.6771297098
21
258.5133570416
0
LINE
5
34E
100
AcDbEntity
8
0
100
AcDbLine
62
7
6
CONTINUOUS
10
307.3771297098
20
259.8302968225
11
307.6771297098
21
259.8302968225
0
LINE
5
34F
100
AcDbEntity
8
0
100
AcDbLine
62
7
6
CONTINUOUS
10
307.3771297098
20
260.0594634018
11
307.6771297098
21
260.0594634018
0
LINE
5
350
100
AcDbEntity
8
0
100
AcDbLine
62
7
6
CONTINUOUS
10
307.3771297098
20
260.6232273846
11
307.6771297098
21
260.6232273846
0
LINE
5
351
100
AcDbEntity
8
0
100
AcDbLine
62
7
6
CONTINUOUS
10
307.3771297098
20
266.6232273846
11
307.6771297098
21
266.6232273846
0
LINE
5
352
100
AcDbEntity
8
0
100
AcDbLine
62
7
6
CONTINUOUS
10
304.8771297098
20
272.8456607984
11
285.8771297098
21
272.8456607984
0
LINE
5
353
100
AcDbEntity
8
0
100
AcDbLine
62
7
6
CONTINUOUS
10
56.0998504786
20
49.7062612537
11
56.0998504786
21
68.7329163040
0
LINE
5
354
100
AcDbEntity
8
0
100
AcDbLine
62
7
6
CONTINUOUS
10
63.1338605958
20
47.2195887779
11
63.1338605958
21
46.9195887779
0
LINE
5
355
100
AcDbEntity
8
0
100
AcDbLine
62
7
6
CONTINUOUS
10
69.6358603366
20
47.2195887779
11
69.6358603366
21
46.9195887779
0
LINE
5
356
100
AcDbEntity
8
0
100
AcDbLine
62
7
6
CONTINUOUS
10
69.7606602965
20
47.2195887779
11
69.7606602965
21
46.9195887779
0
LINE
5
357
100
AcDbEntity
8
0
100
AcDbLine
62
7
6
CONTINUOUS
10
69.8856944961
20
47.2195887779
11
69.8856944961
21
46.9195887779
0
LINE
5
358
100
AcDbEntity
8
0
100
AcDbLine
62
7
6
CONTINUOUS
10
70.1672544329
20
47.2195887779
11
70.1672544329
21
46.9195887779
0
LINE
5
359
100
AcDbEntity
8
0
100
AcDbLine
62
7
6
CONTINUOUS
10
70.4803066227
20
47.2195887779
11
70.4803066227
21
46.9195887779
0
LINE
5
35A
100
AcDbEntity
8
0
100
AcDbLine
62
7
6
CONTINUOUS
10
70.6046395340
20
47.2195887779
11
70.6046395340
21
46.9195887779
0
LINE
5
35B
100
AcDbEntity
8
0
100
AcDbLine
62
7
6
CONTINUOUS
10
71.7299451841
20
47.2195887779
11
71.7299451841
21
46.9195887779
0
LINE
5
35C
100
AcDbEntity
8
0
100
AcDbLine
62
7
6
CONTINUOUS
10
72.1999901596
20
47.2195887779
11
72.1999901596
21
46.9195887779
0
LINE
5
35D
100
AcDbEntity
8
0
100
AcDbLine
62
7
6
CONTINUOUS
10
75.5231989136
20
47.2195887779
11
75.5231989136
21
46.9195887779
0
LINE
5
35E
100
AcDbEntity
8
0
100
AcDbLine
62
7
6
CONTINUOUS
10
86.8397444257
20
75.6011267222
11
86.8500999855
21
75.6168823977
0
LINE
5
35F
100
AcDbEntity
8
0
100
AcDbLine
62
7
6
CONTINUOUS
10
86.8397060354
20
42.8381107438
11
86.8497562068
21
42.8228222997
0
LINE
5
360
100
AcDbEntity
8
0
100
AcDbLine
62
7
6
CONTINUOUS
10
85.5206296404
20
47.2195887779
11
85.5206296404
21
46.9195887779
0
LINE
5
361
100
AcDbEntity
8
0
100
AcDbLine
62
7
6
CONTINUOUS
10
85.6041297584
20
47.2195887779
11
85.6041297584
21
46.9195887779
0
LINE
5
362
100
AcDbEntity
8
0
100
AcDbLine
62
7
6
CONTINUOUS
10
85.8046511249
20
47.2195887779
11
85.8046511249
21
46.9195887779
0
LINE
5
363
100
AcDbEntity
8
0
100
AcDbLine
62
7
6
CONTINUOUS
10
86.3018401087
20
47.2195887779
11
86.3018401087
21
46.9195887779
0
LINE
5
364
100
AcDbEntity
8
0
100
AcDbLine
62
7
6
CONTINUOUS
10
86.6193827947
20
47.2195887779
11
86.6193827947
21
46.9195887779
0
LINE
5
365
100
AcDbEntity
8
0
100
AcDbLine
62
7
6
CONTINUOUS
10
87.1542073981
20
47.2195887779
11
87.1542073981
21
46.9195887779
0
LINE
5
366
100
AcDbEntity
8
0
100
AcDbLine
62
7
6
CONTINUOUS
10
87.5887712331
20
47.2195887779
11
87.5887712331
21
46.9195887779
0
LINE
5
367
100
AcDbEntity
8
0
100
AcDbLine
62
7
6
CONTINUOUS
10
88.1403565578
20
47.2195887779
11
88.1403565578
21
46.9195887779
0
LINE
5
368
100
AcDbEntity
8
0
100
AcDbLine
62
7
6
CONTINUOUS
10
88.4537846694
20
47.2195887779
11
88.4537846694
21
46.9195887779
0
LINE
5
369
100
AcDbEntity
8
0
100
AcDbLine
62
7
6
CONTINUOUS
10
88.5708060960
20
47.2195887779
11
88.5708060960
21
46.9195887779
0
LINE
5
36A
100
AcDbEntity
8
0
100
AcDbLine
62
7
6
CONTINUOUS
10
88.7254630350
20
47.2195887779
11
88.7254630350
21
46.9195887779
0
LINE
5
36B
100
AcDbEntity
8
0
100
AcDbLine
62
7
6
CONTINUOUS
10
88.7422235292
20
47.2195887779
11
88.7422235292
21
46.9195887779
0
LINE
5
36C
100
AcDbEntity
8
0
100
AcDbLine
62
7
6
CONTINUOUS
10
89.3229127304
20
47.2195887779
11
89.3229127304
21
46.9195887779
0
LINE
5
36D
100
AcDbEntity
8
0
100
AcDbLine
62
7
6
CONTINUOUS
10
89.4899128878
20
47.2195887779
11
89.4899128878
21
46.9195887779
0
LINE
5
36E
100
AcDbEntity
8
0
100
AcDbLine
62
7
6
CONTINUOUS
10
89.8868410464
20
47.2195887779
11
89.8868410464
21
46.9195887779
0
LINE
5
36F
100
AcDbEntity
8
0
100
AcDbLine
62
7
6
CONTINUOUS
10
90.3549262609
20
47.2195887779
11
90.3549262609
21
46.9195887779
0
LINE
5
370
100
AcDbEntity
8
0
100
AcDbLine
62
7
6
CONTINUOUS
10
91.2281683916
20
47.2195887779
11
91.2281683916
21
46.9195887779
0
LINE
5
371
100
AcDbEntity
8
0
100
AcDbLine
62
7
6
CONTINUOUS
10
165.6192850999
20
47.1981394085
11
165.6162578369
21
47.1975782729
0
LINE
5
372
100
AcDbEntity
8
0
100
AcDbLine
62
7
6
CONTINUOUS
10
165.6020152787
20
47.1949611110
11
150.5485134048
21
44.4555230771
0
LINE
5
373
100
AcDbEntity
8
0
100
AcDbLine
62
7
6
CONTINUOUS
10
73.3960543799
20
44.4555230771
11
58.3425525063
21
47.1949611110
0
LINE
5
374
100
AcDbEntity
8
0
100
AcDbLine
62
7
6
CONTINUOUS
10
58.3252832409
20
47.1981408213
11
58.3281017810
21
47.1976181884
0
LINE
5
375
100
AcDbEntity
8
0
100
AcDbLine
62
7
6
CONTINUOUS
10
91.4622109169
20
47.2195887779
11
91.4622109169
21
46.9195887779
0
LINE
5
376
100
AcDbEntity
8
0
100
AcDbLine
62
7
6
CONTINUOUS
10
91.6421602320
20
47.2195887779
11
91.6421602320
21
46.9195887779
0
LINE
5
377
100
AcDbEntity
8
0
100
AcDbLine
62
7
6
CONTINUOUS
10
91.8970779803
20
47.2195887779
11
91.8970779803
21
46.9195887779
0
LINE
5
378
100
AcDbEntity
8
0
100
AcDbLine
62
7
6
CONTINUOUS
10
92.2522562290
20
47.2195887779
11
92.2522562290
21
46.9195887779
0
LINE
5
379
100
AcDbEntity
8
0
100
AcDbLine
62
7
6
CONTINUOUS
10
92.7076950395
20
47.2195887779
11
92.7076950395
21
46.9195887779
0
LINE
5
37A
100
AcDbEntity
8
0
100
AcDbLine
62
7
6
CONTINUOUS
10
92.9417375853
20
47.2195887779
11
92.9417375853
21
46.9195887779
0
LINE
5
37B
100
AcDbEntity
8
0
100
AcDbLine
62
7
6
CONTINUOUS
10
139.2996310309
20
44.1360198008
11
139.3010541871
21
44.1361320516
0
LINE
5
37C
100
AcDbEntity
8
0
100
AcDbLine
62
7
6
CONTINUOUS
10
84.6435171858
20
44.1361323924
11
84.6449401689
21
44.1360201664
0
LINE
5
37D
100
AcDbEntity
8
0
100
AcDbLine
62
7
6
CONTINUOUS
10
150.1009142635
20
44.4151277219
11
147.9250339696
21
44.4151277219
0
LINE
5
37E
100
AcDbEntity
8
0
100
AcDbLine
62
7
6
CONTINUOUS
10
76.0195338151
20
44.4151277219
11
73.8436535212
21
44.4151277219
0
LINE
5
37F
100
AcDbEntity
8
0
100
AcDbLine
62
7
6
CONTINUOUS
10
118.7222835109
20
46.9195887779
11
114.7222838924
21
46.9195887779
0
LINE
5
380
100
AcDbEntity
8
0
100
AcDbLine
62
7
6
CONTINUOUS
10
113.9222840831
20
46.9195887779
11
110.3222837970
21
46.9195887779
0
LINE
5
381
100
AcDbEntity
8
0
100
AcDbLine
62
7
6
CONTINUOUS
10
109.5222839877
20
46.9195887779
11
105.7222838924
21
46.9195887779
0
LINE
5
382
100
AcDbEntity
8
0
100
AcDbLine
62
7
6
CONTINUOUS
10
92.9417375853
20
46.9195887779
11
85.5206296404
21
46.9195887779
0
LINE
5
383
100
AcDbEntity
8
0
100
AcDbLine
62
7
6
CONTINUOUS
10
75.5231989136
20
46.9195887779
11
63.1338605958
21
46.9195887779
0
LINE
5
384
100
AcDbEntity
8
0
100
AcDbLine
62
7
6
CONTINUOUS
10
58.7158591434
20
47.2195887779
11
165.2287086413
21
47.2195887779
0
LINE
5
385
100
AcDbEntity
8
0
100
AcDbLine
62
7
6
CONTINUOUS
10
105.7222838924
20
47.2195887779
11
105.7222838924
21
46.9195887779
0
LINE
5
386
100
AcDbEntity
8
0
100
AcDbLine
62
7
6
CONTINUOUS
10
109.5222839877
20
47.2195887779
11
109.5222839877
21
46.9195887779
0
LINE
5
387
100
AcDbEntity
8
0
100
AcDbLine
62
7
6
CONTINUOUS
10
110.3222837970
20
47.2195887779
11
110.3222837970
21
46.9195887779
0
LINE
5
388
100
AcDbEntity
8
DEFAULT_1
100
AcDbLine
62
2
6
CENTER
10
111.9722838924
20
59.2195887779
11
111.9722838924
21
26.2195887779
0
LINE
5
389
100
AcDbEntity
8
DEFAULT_1
100
AcDbLine
62
2
6
CENTER
10
111.9722838924
20
59.2195887779
11
111.9722838924
21
92.2195887779
0
LINE
5
38A
100
AcDbEntity
8
DEFAULT_1
100
AcDbLine
62
2
6
CENTER
10
111.9722838924
20
59.2195887779
11
78.9722838924
21
59.2195887779
0
LINE
5
38B
100
AcDbEntity
8
DEFAULT_1
100
AcDbLine
62
2
6
CENTER
10
111.9722838924
20
59.2195887779
11
144.9722838924
21
59.2195887779
0
LINE
5
38C
100
AcDbEntity
8
0
100
AcDbLine
62
7
6
CONTINUOUS
10
113.9222840831
20
47.2195887779
11
113.9222840831
21
46.9195887779
0
LINE
5
38D
100
AcDbEntity
8
0
100
AcDbLine
62
7
6
CONTINUOUS
10
114.7222838924
20
47.2195887779
11
114.7222838924
21
46.9195887779
0
LINE
5
38E
100
AcDbEntity
8
0
100
AcDbLine
62
7
6
CONTINUOUS
10
118.7222835109
20
47.2195887779
11
118.7222835109
21
46.9195887779
0
LINE
5
38F
100
AcDbEntity
8
0
100
AcDbLine
62
7
6
CONTINUOUS
10
165.2287086413
20
71.2195887779
11
58.7158591434
21
71.2195887779
0
LINE
5
390
100
AcDbEntity
8
0
100
AcDbLine
62
7
6
CONTINUOUS
10
84.6449367538
20
74.3031577551
11
84.6435135977
21
74.3030455042
0
LINE
5
391
100
AcDbEntity
8
0
100
AcDbLine
62
7
6
CONTINUOUS
10
73.8436535212
20
74.0240498340
11
76.0195338152
21
74.0240498340
0
LINE
5
392
100
AcDbEntity
8
0
100
AcDbLine
62
7
6
CONTINUOUS
10
147.9250339697
20
74.0240498340
11
150.1009142635
21
74.0240498340
0
LINE
5
393
100
AcDbEntity
8
0
100
AcDbLine
62
7
6
CONTINUOUS
10
139.3010505990
20
74.3030451635
11
139.2996276158
21
74.3031573894
0
LINE
5
394
100
AcDbEntity
8
0
100
AcDbLine
62
7
6
CONTINUOUS
10
58.3252833512
20
71.2410382810
11
58.3283172369
21
71.2416006382
0
LINE
5
395
100
AcDbEntity
8
0
100
AcDbLine
62
7
6
CONTINUOUS
10
58.3425525060
20
71.2442164449
11
73.3960543799
21
73.9836544788
0
LINE
5
396
100
AcDbEntity
8
0
100
AcDbLine
62
7
6
CONTINUOUS
10
150.5485134048
20
73.9836544788
11
165.6020152784
21
71.2442164449
0
LINE
5
397
100
AcDbEntity
8
0
100
AcDbLine
62
7
6
CONTINUOUS
10
165.6192852077
20
71.2410366820
11
165.6164766970
21
71.2415574613
0
LINE
5
398
100
AcDbEntity
8
0
100
AcDbLine
62
7
6
CONTINUOUS
10
137.1048233591
20
42.8380508337
11
137.0944677992
21
42.8222951582
0
LINE
5
399
100
AcDbEntity
8
0
100
AcDbLine
62
7
6
CONTINUOUS
10
137.1048617493
20
75.6010668121
11
137.0948115780
21
75.6163552562
0
LINE
5
39A
100
AcDbEntity
8
0
100
AcDbLine
62
7
6
CONTINUOUS
10
167.8447173061
20
49.7062611262
11
167.8447173061
21
68.7329170272
0
ARC
5
39B
100
AcDbEntity
8
0
100
AcDbCircle
62
7
6
CONTINUOUS
10
73.9722838924
20
169.1741504186
40
8.0000000000
100
AcDbArc
50
0.0000000000
51
90.0000000000
0
ARC
5
39C
100
AcDbEntity
8
0
100
AcDbCircle
62
7
6
CONTINUOUS
10
149.9722838924
20
169.1741504186
40
8.0000000000
100
AcDbArc
50
90.0000000000
51
180.0000000000
0
CIRCLE
5
39D
100
AcDbEntity
8
0
100
AcDbCircle
62
7
6
CONTINUOUS
10
111.9722838924
20
216.9732273846
40
30.0000000000
0
ARC
5
39E
100
AcDbEntity
8
0
100
AcDbCircle
62
7
6
CONTINUOUS
10
147.9445265347
20
252.9454700269
40
5.0000000000
100
AcDbArc
50
22.5000000000
51
67.5000000000
0
ARC
5
39F
100
AcDbEntity
8
0
100
AcDbCircle
62
7
6
CONTINUOUS
10
111.9722838924
20
267.8456607984
40
5.0000000000
100
AcDbArc
50
67.5000000000
51
112.5000000000
0
ARC
5
3A0
100
AcDbEntity
8
0
100
AcDbCircle
62
7
6
CONTINUOUS
10
76.0000412501
20
252.9454700269
40
5.0000000000
100
AcDbArc
50
112.5000000000
51
157.5000000000
0
ARC
5
3A1
100
AcDbEntity
8
0
100
AcDbCircle
62
7
6
CONTINUOUS
10
61.0998504786
20
216.9732273846
40
5.0000000000
100
AcDbArc
50
157.5000000000
51
202.5000000000
0
ARC
5
3A2
100
AcDbEntity
8
0
100
AcDbCircle
62
7
6
CONTINUOUS
10
73.8436535212
20
179.6741504186
40
2.5000000000
100
AcDbArc
50
202.5000000000
51
270.0000000000
0
ARC
5
3A3
100
AcDbEntity
8
0
100
AcDbCircle
62
7
6
CONTINUOUS
10
162.8447173061
20
216.9732273846
40
5.0000000000
100
AcDbArc
50
337.5000000000
51
22.5000000000
0
ARC
5
3A4
100
AcDbEntity
8
0
100
AcDbCircle
62
7
6
CONTINUOUS
10
150.1009142635
20
179.6741504186
40
2.5000000000
100
AcDbArc
50
270.0000000000
51
337.5000000000
0
ARC
5
3A5
100
AcDbEntity
8
DEFAULT_2
100
AcDbCircle
62
8
6
HIDDEN
10
295.3771297098
20
258.9732273846
40
12.0000000000
100
AcDbArc
50
180.0000000000
51
360.0000000000
0
ARC
5
3A6
100
AcDbEntity
8
0
100
AcDbCircle
62
7
6
CONTINUOUS
10
285.8771297098
20
270.3456607984
40
2.5000000000
100
AcDbArc
50
90.0000000000
51
180.0000000000
0
ARC
5
3A7
100
AcDbEntity
8
0
100
AcDbCircle
62
7
6
CONTINUOUS
10
304.8771297098
20
270.3456607984
40
2.5000000000
100
AcDbArc
50
0.0000000000
51
90.0000000000
0
ARC
5
3A8
100
AcDbEntity
8
0
100
AcDbCircle
62
7
6
CONTINUOUS
10
271.3771297098
20
175.0470973410
40
6.0000000000
100
AcDbArc
50
99.0000000000
51
180.0000000000
0
ARC
5
3A9
100
AcDbEntity
8
0
100
AcDbCircle
62
7
6
CONTINUOUS
10
319.3771297098
20
175.0470973410
40
6.0000000000
100
AcDbArc
50
0.0000000000
51
81.0000000000
0
ARC
5
3AA
100
AcDbEntity
8
0
100
AcDbCircle
62
7
6
CONTINUOUS
10
327.3771297098
20
217.7259459998
40
20.0000000000
100
AcDbArc
50
180.0000000000
51
184.3107254215
0
ARC
5
3AB
100
AcDbEntity
8
0
100
AcDbCircle
62
7
6
CONTINUOUS
10
263.3771297098
20
217.7259459998
40
20.0000000000
100
AcDbArc
50
355.6892745785
51
360.0000000000
0
ARC
5
3AC
100
AcDbEntity
8
0
100
AcDbCircle
62
7
6
CONTINUOUS
10
307.6815907658
20
179.6741504186
40
2.5000000000
100
AcDbArc
50
270.0000000000
51
4.3107254215
0
ARC
5
3AD
100
AcDbEntity
8
0
100
AcDbCircle
62
7
6
CONTINUOUS
10
283.0726686476
20
179.6741503372
40
2.4999999806
100
AcDbArc
50
175.6892727063
51
270.0000001407
0
ARC
5
3AE
100
AcDbEntity
8
0
100
AcDbCircle
62
7
6
CONTINUOUS
10
111.9722838924
20
59.2195887779
40
30.0000000000
100
AcDbArc
50
213.1325553850
51
326.8674446895
0
ARC
5
3AF
100
AcDbEntity
8
0
100
AcDbCircle
62
7
6
CONTINUOUS
10
111.9722838924
20
59.2195887779
40
30.0000000000
100
AcDbArc
50
33.1110855186
51
146.8674446895
0
SPLINE
5
3B0
100
AcDbEntity
8
0
100
AcDbSpline
62
7
6
CONTINUOUS
70
0
71
3
72
8
73
4
74
2
42
0.0000001000
43
0.0000001000
44
0.0000000001
40
0.0000000000
40
0.0000000000
40
0.0000000000
40
0.0000000000
40
1.0000000000
40
1.0000000000
40
1.0000000000
40
1.0000000000
10
280.9251291929
20
184.5173218898
30
0.0000000000
10
280.9195764037
20
184.4801717290
30
0.0000000000
10
280.9129966153
20
184.4431716085
30
0.0000000000
10
280.9053778462
20
184.4063958637
30
0.0000000000
11
280.9251291929
21
184.5173218898
31
0.0000000000
11
280.9053778462
21
184.4063958637
31
0.0000000000
0
SPLINE
5
3B1
100
AcDbEntity
8
0
100
AcDbSpline
62
7
6
CONTINUOUS
70
0
71
3
72
8
73
4
74
2
42
0.0000001000
43
0.0000001000
44
0.0000000001
40
0.0000000000
40
0.0000000000
40
0.0000000000
40
0.0000000000
40
1.0000000000
40
1.0000000000
40
1.0000000000
40
1.0000000000
10
280.8656139673
20
184.2483232571
30
0.0000000000
10
280.8644006001
20
184.2442660731
30
0.0000000000
10
280.8631725917
20
184.2402134600
30
0.0000000000
10
280.8619297968
20
184.2361655617
30
0.0000000000
11
280.8656139673
21
184.2483232571
31
0.0000000000
11
280.8619297968
21
184.2361655617
31
0.0000000000
0
SPLINE
5
3B2
100
AcDbEntity
8
0
100
AcDbSpline
62
7
6
CONTINUOUS
70
0
71
3
72
8
73
4
74
2
42
0.0000001000
43
0.0000001000
44
0.0000000001
40
0.0000000000
40
0.0000000000
40
0.0000000000
40
0.0000000000
40
1.0000000000
40
1.0000000000
40
1.0000000000
40
1.0000000000
10
280.8358168405
20
184.1579669593
30
0.0000000000
10
280.8319784722
20
184.1473630529
30
0.0000000000
10
280.8280284872
20
184.1367992282
30
0.0000000000
10
280.8239641412
20
184.1262782036
30
0.0000000000
11
280.8358168405
21
184.1579669593
31
0.0000000000
11
280.8239641412
21
184.1262782036
31
0.0000000000
0
SPLINE
5
3B3
100
AcDbEntity
8
0
100
AcDbSpline
62
7
6
CONTINUOUS
70
0
71
3
72
8
73
4
74
2
42
0.0000001000
43
0.0000001000
44
0.0000000001
40
0.0000000000
40
0.0000000000
40
0.0000000000
40
0.0000000000
40
1.0000000000
40
1.0000000000
40
1.0000000000
40
1.0000000000
10
280.8239641412
20
184.1262782036
30
0.0000000000
10
280.7808392333
20
184.0152649660
30
0.0000000000
10
280.7309372916
20
183.9066057818
30
0.0000000000
10
280.6747227315
20
183.8011943518
30
0.0000000000
11
280.8239641412
21
184.1262782036
31
0.0000000000
11
280.6747227315
21
183.8011943518
31
0.0000000000
0
SPLINE
5
3B4
100
AcDbEntity
8
0
100
AcDbSpline
62
7
6
CONTINUOUS
70
0
71
3
72
8
73
4
74
2
42
0.0000001000
43
0.0000001000
44
0.0000000001
40
0.0000000000
40
0.0000000000
40
0.0000000000
40
0.0000000000
40
1.0000000000
40
1.0000000000
40
1.0000000000
40
1.0000000000
10
280.6747227315
20
183.8011943518
30
0.0000000000
10
280.6709491952
20
183.7941183583
30
0.0000000000
10
280.6671472137
20
183.7870569995
30
0.0000000000
10
280.6633169275
20
183.7800105457
30
0.0000000000
11
280.6747227315
21
183.8011943518
31
0.0000000000
11
280.6633169275
21
183.7800105457
31
0.0000000000
0
SPLINE
5
3B5
100
AcDbEntity
8
0
100
AcDbSpline
62
7
6
CONTINUOUS
70
0
71
3
72
11
73
7
74
5
42
0.0000001000
43
0.0000001000
44
0.0000000001
40
0.0000000000
40
0.0000000000
40
0.0000000000
40
0.0000000000
40
0.1425419449
40
0.4282075802
40
0.7141024540
40
1.0000000000
40
1.0000000000
40
1.0000000000
40
1.0000000000
10
280.6633169275
20
183.7800105457
30
0.0000000000
10
280.6024801522
20
183.6680910962
30
0.0000000000
10
280.3982708874
20
183.3431716796
30
0.0000000000
10
279.9587285810
20
182.8742085288
30
0.0000000000
10
279.3054412565
20
182.4622006701
30
0.0000000000
10
278.8149105708
20
182.3064440494
30
0.0000000000
10
278.5634681445
20
182.2608413898
30
0.0000000000
11
280.6633169275
21
183.7800105457
31
0.0000000000
11
280.4599479664
21
183.4566157202
31
0.0000000000
11
279.9379714516
21
182.8995186579
31
0.0000000000
11
279.2917212487
21
182.4919489625
31
0.0000000000
11
278.5634681445
21
182.2608413898
31
0.0000000000
0
SPLINE
5
3B6
100
AcDbEntity
8
0
100
AcDbSpline
62
7
6
CONTINUOUS
70
0
71
3
72
8
73
4
74
2
42
0.0000001000
43
0.0000001000
44
0.0000000001
40
0.0000000000
40
0.0000000000
40
0.0000000000
40
0.0000000000
40
1.0000000000
40
1.0000000000
40
1.0000000000
40
1.0000000000
10
278.5634681445
20
182.2608413898
30
0.0000000000
10
278.5413053690
20
182.2568218553
30
0.0000000000
10
278.5190946120
20
182.2530530766
30
0.0000000000
10
278.4968426156
20
182.2495352789
30
0.0000000000
11
278.5634681445
21
182.2608413898
31
0.0000000000
11
278.4968426156
21
182.2495352789
31
0.0000000000
0
SPLINE
5
3B7
100
AcDbEntity
8
0
100
AcDbSpline
62
7
6
CONTINUOUS
70
0
71
3
72
8
73
4
74
2
42
0.0000001000
43
0.0000001000
44
0.0000000001
40
0.0000000000
40
0.0000000000
40
0.0000000000
40
0.0000000000
40
1.0000000000
40
1.0000000000
40
1.0000000000
40
1.0000000000
10
280.9419018398
20
184.6666652958
30
0.0000000000
10
280.9381492196
20
184.6170937429
30
0.0000000000
10
280.9326241358
20
184.5676115964
30
0.0000000000
10
280.9252951378
20
184.5183925977
30
0.0000000000
11
280.9419018398
21
184.6666652958
31
0.0000000000
11
280.9252951378
21
184.5183925977
31
0.0000000000
0
SPLINE
5
3B8
100
AcDbEntity
8
0
100
AcDbSpline
62
7
6
CONTINUOUS
70
0
71
3
72
10
73
6
74
4
42
0.0000001000
43
0.0000001000
44
0.0000000001
40
0.0000000000
40
0.0000000000
40
0.0000000000
40
0.0000000000
40
0.3900991743
40
0.8797561255
40
1.0000000000
40
1.0000000000
40
1.0000000000
40
1.0000000000
10
280.9252951378
20
184.5183925977
30
0.0000000000
10
280.9175173251
20
184.4661595156
30
0.0000000000
10
280.8953949891
20
184.3490312341
30
0.0000000000
10
280.8582866693
20
184.2188078119
30
0.0000000000
10
280.8298124692
20
184.1414430130
30
0.0000000000
10
280.8239641412
20
184.1262782036
30
0.0000000000
11
280.9252951378
21
184.5183925977
31
0.0000000000
11
280.8958292620
21
184.3627900980
31
0.0000000000
11
280.8408129589
21
184.1720284575
31
0.0000000000
11
280.8239641412
21
184.1262782036
31
0.0000000000
0
SPLINE
5
3B9
100
AcDbEntity
8
0
100
AcDbSpline
62
7
6
CONTINUOUS
70
0
71
3
72
8
73
4
74
2
42
0.0000001000
43
0.0000001000
44
0.0000000001
40
0.0000000000
40
0.0000000000
40
0.0000000000
40
0.0000000000
40
1.0000000000
40
1.0000000000
40
1.0000000000
40
1.0000000000
10
312.2574141698
20
182.2495391461
30
0.0000000000
10
312.2351595800
20
182.2530573554
30
0.0000000000
10
312.2129462376
20
182.2568266047
30
0.0000000000
10
312.1907808870
20
182.2608466691
30
0.0000000000
11
312.2574141698
21
182.2495391461
31
0.0000000000
11
312.1907808870
21
182.2608466691
31
0.0000000000
0
SPLINE
5
3BA
100
AcDbEntity
8
0
100
AcDbSpline
62
7
6
CONTINUOUS
70
0
71
3
72
11
73
7
74
5
42
0.0000001000
43
0.0000001000
44
0.0000000001
40
0.0000000000
40
0.0000000000
40
0.0000000000
40
0.0000000000
40
0.2859295662
40
0.5718559005
40
0.8575036544
40
1.0000000000
40
1.0000000000
40
1.0000000000
40
1.0000000000
10
312.1907808870
20
182.2608466691
30
0.0000000000
10
311.9392926445
20
182.3064583515
30
0.0000000000
10
311.4486750534
20
182.4622566287
30
0.0000000000
10
310.7953345810
20
182.8743645637
30
0.0000000000
10
310.3558266087
20
183.3433828812
30
0.0000000000
10
310.1516605675
20
183.6682924032
30
0.0000000000
10
310.0908465397
20
183.7801876362
30
0.0000000000
11
312.1907808870
21
182.2608466691
31
0.0000000000
11
311.4624011742
21
182.4920153754
31
0.0000000000
11
310.8160642206
21
182.8997055988
31
0.0000000000
11
310.2941378712
21
183.4568575493
31
0.0000000000
11
310.0908465397
21
183.7801876362
31
0.0000000000
0
SPLINE
5
3BB
100
AcDbEntity
8
0
100
AcDbSpline
62
7
6
CONTINUOUS
70
0
71
3
72
8
73
4
74
2
42
0.0000001000
43
0.0000001000
44
0.0000000001
40
0.0000000000
40
0.0000000000
40
0.0000000000
40
0.0000000000
40
1.0000000000
40
1.0000000000
40
1.0000000000
40
1.0000000000
10
310.0908465397
20
183.7801876362
30
0.0000000000
10
310.0870500246
20
183.7871730631
30
0.0000000000
10
310.0832813251
20
183.7941731351
30
0.0000000000
10
310.0795405782
20
183.8011875889
30
0.0000000000
11
310.0908465397
21
183.7801876362
31
0.0000000000
11
310.0795405782
21
183.8011875889
31
0.0000000000
0
SPLINE
5
3BC
100
AcDbEntity
8
0
100
AcDbSpline
62
7
6
CONTINUOUS
70
0
71
3
72
8
73
4
74
2
42
0.0000001000
43
0.0000001000
44
0.0000000001
40
0.0000000000
40
0.0000000000
40
0.0000000000
40
0.0000000000
40
1.0000000000
40
1.0000000000
40
1.0000000000
40
1.0000000000
10
310.0795405782
20
183.8011875889
30
0.0000000000
10
310.0233183808
20
183.9066125255
30
0.0000000000
10
309.9734104099
20
184.0152861736
30
0.0000000000
10
309.9302811671
20
184.1263145094
30
0.0000000000
11
310.0795405782
21
183.8011875889
31
0.0000000000
11
309.9302811671
21
184.1263145094
31
0.0000000000
0
SPLINE
5
3BD
100
AcDbEntity
8
0
100
AcDbSpline
62
7
6
CONTINUOUS
70
0
71
3
72
8
73
4
74
2
42
0.0000001000
43
0.0000001000
44
0.0000000001
40
0.0000000000
40
0.0000000000
40
0.0000000000
40
0.0000000000
40
1.0000000000
40
1.0000000000
40
1.0000000000
40
1.0000000000
10
309.9302811671
20
184.1263145094
30
0.0000000000
10
309.9262286053
20
184.1368062934
30
0.0000000000
10
309.9222896845
20
184.1473406067
30
0.0000000000
10
309.9184617054
20
184.1579147625
30
0.0000000000
11
309.9302811671
21
184.1263145094
31
0.0000000000
11
309.9184617054
21
184.1579147625
31
0.0000000000
0
SPLINE
5
3BE
100
AcDbEntity
8
0
100
AcDbSpline
62
7
6
CONTINUOUS
70
0
71
3
72
8
73
4
74
2
42
0.0000001000
43
0.0000001000
44
0.0000000001
40
0.0000000000
40
0.0000000000
40
0.0000000000
40
0.0000000000
40
1.0000000000
40
1.0000000000
40
1.0000000000
40
1.0000000000
10
309.8989173172
20
184.2151871769
30
0.0000000000
10
309.8953339610
20
184.2263462482
30
0.0000000000
10
309.8918658217
20
184.2375433526
30
0.0000000000
10
309.8885098443
20
184.2487754496
30
0.0000000000
11
309.8989173172
21
184.2151871769
31
0.0000000000
11
309.8885098443
21
184.2487754496
31
0.0000000000
0
SPLINE
5
3BF
100
AcDbEntity
8
0
100
AcDbSpline
62
7
6
CONTINUOUS
70
0
71
3
72
8
73
4
74
2
42
0.0000001000
43
0.0000001000
44
0.0000000001
40
0.0000000000
40
0.0000000000
40
0.0000000000
40
0.0000000000
40
1.0000000000
40
1.0000000000
40
1.0000000000
40
1.0000000000
10
309.8584457708
20
184.3627126031
30
0.0000000000
10
309.8546695804
20
184.3790724994
30
0.0000000000
10
309.8511020244
20
184.3954831711
30
0.0000000000
10
309.8477420389
20
184.4119379848
30
0.0000000000
11
309.8584457708
21
184.3627126031
31
0.0000000000
11
309.8477420389
21
184.4119379848
31
0.0000000000
0
SPLINE
5
3C0
100
AcDbEntity
8
0
100
AcDbSpline
62
7
6
CONTINUOUS
70
0
71
3
72
8
73
4
74
2
42
0.0000001000
43
0.0000001000
44
0.0000000001
40
0.0000000000
40
0.0000000000
40
0.0000000000
40
0.0000000000
40
1.0000000000
40
1.0000000000
40
1.0000000000
40
1.0000000000
10
309.8189248896
20
184.5959960723
30
0.0000000000
10
309.8165217605
20
184.6178064957
30
0.0000000000
10
309.8144663830
20
184.6396504070
30
0.0000000000
10
309.8127563914
20
184.6615130066
30
0.0000000000
11
309.8189248896
21
184.5959960723
31
0.0000000000
11
309.8127563914
21
184.6615130066
31
0.0000000000
0
SPLINE
5
3C1
100
AcDbEntity
8
0
100
AcDbSpline
62
7
6
CONTINUOUS
70
0
71
3
72
10
73
6
74
4
42
0.0000001000
43
0.0000001000
44
0.0000000001
40
0.0000000000
40
0.0000000000
40
0.0000000000
40
0.0000000000
40
0.1025006985
40
0.5099040194
40
1.0000000000
40
1.0000000000
40
1.0000000000
40
1.0000000000
10
309.9302811671
20
184.1263145094
30
0.0000000000
10
309.9243341610
20
184.1417314735
30
0.0000000000
10
309.8959580219
20
184.2188779010
30
0.0000000000
10
309.8517076282
20
184.3741851369
30
0.0000000000
10
309.8275747762
20
184.5173719259
30
0.0000000000
10
309.8189171642
20
184.5959952211
30
0.0000000000
11
309.9302811671
21
184.1263145094
31
0.0000000000
11
309.9131607252
21
184.1728300110
31
0.0000000000
11
309.8585775113
21
184.3621250959
31
0.0000000000
11
309.8189171642
21
184.5959952211
31
0.0000000000
0
SPLINE
5
3C2
100
AcDbEntity
8
0
100
AcDbSpline
62
7
6
CONTINUOUS
70
0
71
3
72
8
73
4
74
2
42
0.0000001000
43
0.0000001000
44
0.0000000001
40
0.0000000000
40
0.0000000000
40
0.0000000000
40
0.0000000000
40
1.0000000000
40
1.0000000000
40
1.0000000000
40
1.0000000000
10
309.8189171642
20
184.5959952211
30
0.0000000000
10
309.8163391385
20
184.6194073213
30
0.0000000000
10
309.8141619535
20
184.6428578617
30
0.0000000000
10
309.8123822882
20
184.6663283807
30
0.0000000000
11
309.8189171642
21
184.5959952211
31
0.0000000000
11
309.8123822882
21
184.6663283807
31
0.0000000000
0
SPLINE
5
3C3
100
AcDbEntity
8
0
100
AcDbSpline
62
7
6
CONTINUOUS
70
0
71
3
72
8
73
4
74
2
42
0.0000001000
43
0.0000001000
44
0.0000000001
40
0.0000000000
40
0.0000000000
40
0.0000000000
40
0.0000000000
40
1.0000000000
40
1.0000000000
40
1.0000000000
40
1.0000000000
10
139.3007268189
20
74.3031422591
30
0.0000000000
10
139.2677143525
20
74.3057651686
30
0.0000000000
10
139.2347348067
20
74.3089578262
30
0.0000000000
10
139.2018112087
20
74.3127170601
30
0.0000000000
11
139.3007268189
21
74.3031422591
31
0.0000000000
11
139.2018112087
21
74.3127170601
31
0.0000000000
0
SPLINE
5
3C4
100
AcDbEntity
8
0
100
AcDbSpline
62
7
6
CONTINUOUS
70
0
71
3
72
11
73
7
74
5
42
0.0000001000
43
0.0000001000
44
0.0000000001
40
0.0000000000
40
0.0000000000
40
0.0000000000
40
0.0000000000
40
0.1638588182
40
0.4968351315
40
0.8323633393
40
1.0000000000
40
1.0000000000
40
1.0000000000
40
1.0000000000
10
139.2018112087
20
74.3127170601
30
0.0000000000
10
139.0694194949
20
74.3278336164
30
0.0000000000
10
138.6707385800
20
74.4014468588
30
0.0000000000
10
138.0398114338
20
74.6627045363
30
0.0000000000
10
137.5026100627
20
75.0893807152
30
0.0000000000
10
137.2416244895
20
75.4064000044
30
0.0000000000
10
137.1624674233
20
75.5174077502
30
0.0000000000
11
139.2018112087
21
74.3127170601
31
0.0000000000
11
138.8088473425
21
74.3853449076
31
0.0000000000
11
138.0609047202
21
74.6944799126
31
0.0000000000
11
137.4224404149
21
75.2018494541
31
0.0000000000
11
137.1624674233
21
75.5174077502
31
0.0000000000
0
SPLINE
5
3C5
100
AcDbEntity
8
0
100
AcDbSpline
62
7
6
CONTINUOUS
70
0
71
3
72
8
73
4
74
2
42
0.0000001000
43
0.0000001000
44
0.0000000001
40
0.0000000000
40
0.0000000000
40
0.0000000000
40
0.0000000000
40
1.0000000000
40
1.0000000000
40
1.0000000000
40
1.0000000000
10
137.1624674233
20
75.5174077502
30
0.0000000000
10
137.1428035694
20
75.5449838113
30
0.0000000000
10
137.1236206893
20
75.5728923788
30
0.0000000000
10
137.1049322790
20
75.6011135178
30
0.0000000000
11
137.1624674233
21
75.5174077502
31
0.0000000000
11
137.1049322790
21
75.6011135178
31
0.0000000000
0
SPLINE
5
3C6
100
AcDbEntity
8
0
100
AcDbSpline
62
7
6
CONTINUOUS
70
0
71
3
72
8
73
4
74
2
42
0.0000001000
43
0.0000001000
44
0.0000000001
40
0.0000000000
40
0.0000000000
40
0.0000000000
40
0.0000000000
40
1.0000000000
40
1.0000000000
40
1.0000000000
40
1.0000000000
10
86.8396667795
20
75.6011781336
30
0.0000000000
10
86.8254396206
20
75.5796909664
30
0.0000000000
10
86.8109262848
20
75.5583852562
30
0.0000000000
10
86.7961326508
20
75.5372698445
30
0.0000000000
11
86.8396667795
21
75.6011781336
31
0.0000000000
11
86.7961326508
21
75.5372698445
31
0.0000000000
0
SPLINE
5
3C7
100
AcDbEntity
8
0
100
AcDbSpline
62
7
6
CONTINUOUS
70
0
71
3
72
8
73
4
74
2
42
0.0000001000
43
0.0000001000
44
0.0000000001
40
0.0000000000
40
0.0000000000
40
0.0000000000
40
0.0000000000
40
1.0000000000
40
1.0000000000
40
1.0000000000
40
1.0000000000
10
86.7961326508
20
75.5372698445
30
0.0000000000
10
86.7172453410
20
75.4246715462
30
0.0000000000
10
86.6303875410
20
75.3174845273
30
0.0000000000
10
86.5364506298
20
75.2170494688
30
0.0000000000
11
86.7961326508
21
75.5372698445
31
0.0000000000
11
86.5364506298
21
75.2170494688
31
0.0000000000
0
SPLINE
5
3C8
100
AcDbEntity
8
0
100
AcDbSpline
62
7
6
CONTINUOUS
70
0
71
3
72
10
73
6
74
4
42
0.0000001000
43
0.0000001000
44
0.0000000001
40
0.0000000000
40
0.0000000000
40
0.0000000000
40
0.0000000000
40
0.4031629964
40
0.8033233192
40
1.0000000000
40
1.0000000000
40
1.0000000000
40
1.0000000000
10
86.5364506298
20
75.2170494688
30
0.0000000000
10
86.3483089512
20
75.0158929665
30
0.0000000000
10
85.9168438410
20
74.6690462269
30
0.0000000000
10
85.2810762484
20
74.4032813891
30
0.0000000000
10
84.8789794902
20
74.3284075822
30
0.0000000000
10
84.7455490715
20
74.3130401989
30
0.0000000000
11
86.5364506298
21
75.2170494688
31
0.0000000000
11
85.8952672390
21
74.7013373778
31
0.0000000000
11
85.1415274270
21
74.3868480660
31
0.0000000000
11
84.7455490715
21
74.3130401989
31
0.0000000000
0
SPLINE
5
3C9
100
AcDbEntity
8
0
100
AcDbSpline
62
7
6
CONTINUOUS
70
0
71
3
72
8
73
4
74
2
42
0.0000001000
43
0.0000001000
44
0.0000000001
40
0.0000000000
40
0.0000000000
40
0.0000000000
40
0.0000000000
40
1.0000000000
40
1.0000000000
40
1.0000000000
40
1.0000000000
10
84.7455490715
20
74.3130401989
30
0.0000000000
10
84.7116958087
20
74.3091412674
30
0.0000000000
10
84.6777828860
20
74.3058413679
30
0.0000000000
10
84.6438353315
20
74.3031439627
30
0.0000000000
11
84.7455490715
21
74.3130401989
31
0.0000000000
11
84.6438353315
21
74.3031439627
31
0.0000000000
0
SPLINE
5
3CA
100
AcDbEntity
8
0
100
AcDbSpline
62
7
6
CONTINUOUS
70
0
71
3
72
8
73
4
74
2
42
0.0000001000
43
0.0000001000
44
0.0000000001
40
0.0000000000
40
0.0000000000
40
0.0000000000
40
0.0000000000
40
1.0000000000
40
1.0000000000
40
1.0000000000
40
1.0000000000
10
84.6438409659
20
44.1360352967
30
0.0000000000
10
84.6768534322
20
44.1334123873
30
0.0000000000
10
84.7098329780
20
44.1302197297
30
0.0000000000
10
84.7427565761
20
44.1264604957
30
0.0000000000
11
84.6438409659
21
44.1360352967
31
0.0000000000
11
84.7427565761
21
44.1264604957
31
0.0000000000
0
SPLINE
5
3CB
100
AcDbEntity
8
0
100
AcDbSpline
62
7
6
CONTINUOUS
70
0
71
3
72
11
73
7
74
5
42
0.0000001000
43
0.0000001000
44
0.0000000001
40
0.0000000000
40
0.0000000000
40
0.0000000000
40
0.0000000000
40
0.1638588182
40
0.4968351315
40
0.8323633393
40
1.0000000000
40
1.0000000000
40
1.0000000000
40
1.0000000000
10
84.7427565761
20
44.1264604957
30
0.0000000000
10
84.8751482898
20
44.1113439395
30
0.0000000000
10
85.2738292048
20
44.0377306971
30
0.0000000000
10
85.9047563510
20
43.7764730196
30
0.0000000000
10
86.4419577221
20
43.3497968407
30
0.0000000000
10
86.7029432952
20
43.0327775515
30
0.0000000000
10
86.7821003614
20
42.9217698057
30
0.0000000000
11
84.7427565761
21
44.1264604957
31
0.0000000000
11
85.1357204423
21
44.0538326483
31
0.0000000000
11
85.8836630645
21
43.7446976432
31
0.0000000000
11
86.5221273698
21
43.2373281018
31
0.0000000000
11
86.7821003614
21
42.9217698057
31
0.0000000000
0
SPLINE
5
3CC
100
AcDbEntity
8
0
100
AcDbSpline
62
7
6
CONTINUOUS
70
0
71
3
72
8
73
4
74
2
42
0.0000001000
43
0.0000001000
44
0.0000000001
40
0.0000000000
40
0.0000000000
40
0.0000000000
40
0.0000000000
40
1.0000000000
40
1.0000000000
40
1.0000000000
40
1.0000000000
10
86.7821003614
20
42.9217698057
30
0.0000000000
10
86.8017642153
20
42.8941937446
30
0.0000000000
10
86.8209470954
20
42.8662851771
30
0.0000000000
10
86.8396355058
20
42.8380640381
30
0.0000000000
11
86.7821003614
21
42.9217698057
31
0.0000000000
11
86.8396355058
21
42.8380640381
31
0.0000000000
0
SPLINE
5
3CD
100
AcDbEntity
8
0
100
AcDbSpline
62
7
6
CONTINUOUS
70
0
71
3
72
8
73
4
74
2
42
0.0000001000
43
0.0000001000
44
0.0000000001
40
0.0000000000
40
0.0000000000
40
0.0000000000
40
0.0000000000
40
1.0000000000
40
1.0000000000
40
1.0000000000
40
1.0000000000
10
137.1049010052
20
42.8379994223
30
0.0000000000
10
137.1191281642
20
42.8594865895
30
0.0000000000
10
137.1336414999
20
42.8807922997
30
0.0000000000
10
137.1484351340
20
42.9019077114
30
0.0000000000
11
137.1049010052
21
42.8379994223
31
0.0000000000
11
137.1484351340
21
42.9019077114
31
0.0000000000
0
SPLINE
5
3CE
100
AcDbEntity
8
0
100
AcDbSpline
62
7
6
CONTINUOUS
70
0
71
3
72
8
73
4
74
2
42
0.0000001000
43
0.0000001000
44
0.0000000001
40
0.0000000000
40
0.0000000000
40
0.0000000000
40
0.0000000000
40
1.0000000000
40
1.0000000000
40
1.0000000000
40
1.0000000000
10
137.1484351340
20
42.9019077114
30
0.0000000000
10
137.2273224437
20
43.0145060097
30
0.0000000000
10
137.3141802438
20
43.1216930286
30
0.0000000000
10
137.4081171550
20
43.2221280871
30
0.0000000000
11
137.1484351340
21
42.9019077114
31
0.0000000000
11
137.4081171550
21
43.2221280871
31
0.0000000000
0
SPLINE
5
3CF
100
AcDbEntity
8
0
100
AcDbSpline
62
7
6
CONTINUOUS
70
0
71
3
72
10
73
6
74
4
42
0.0000001000
43
0.0000001000
44
0.0000000001
40
0.0000000000
40
0.0000000000
40
0.0000000000
40
0.0000000000
40
0.4031629964
40
0.8033233192
40
1.0000000000
40
1.0000000000
40
1.0000000000
40
1.0000000000
10
137.4081171550
20
43.2221280871
30
0.0000000000
10
137.5962588335
20
43.4232845894
30
0.0000000000
10
138.0277239438
20
43.7701313290
30
0.0000000000
10
138.6634915363
20
44.0358961668
30
0.0000000000
10
139.0655882945
20
44.1107699737
30
0.0000000000
10
139.1990187133
20
44.1261373570
30
0.0000000000
11
137.4081171550
21
43.2221280871
31
0.0000000000
11
138.0493005457
21
43.7378401781
31
0.0000000000
11
138.8030403578
21
44.0523294899
31
0.0000000000
11
139.1990187133
21
44.1261373570
31
0.0000000000
0
SPLINE
5
3D0
100
AcDbEntity
8
0
100
AcDbSpline
62
7
6
CONTINUOUS
70
0
71
3
72
8
73
4
74
2
42
0.0000001000
43
0.0000001000
44
0.0000000001
40
0.0000000000
40
0.0000000000
40
0.0000000000
40
0.0000000000
40
1.0000000000
40
1.0000000000
40
1.0000000000
40
1.0000000000
10
139.1990187133
20
44.1261373570
30
0.0000000000
10
139.2328719760
20
44.1300362885
30
0.0000000000
10
139.2667848987
20
44.1333361880
30
0.0000000000
10
139.3007324533
20
44.1360335932
30
0.0000000000
11
139.1990187133
21
44.1261373570
31
0.0000000000
11
139.3007324533
21
44.1360335932
31
0.0000000000
0
SPLINE
5
3D1
100
AcDbEntity
8
0
100
AcDbSpline
62
7
6
CONTINUOUS
70
0
71
3
72
16
73
12
74
10
42
0.0000001000
43
0.0000001000
44
0.0000000001
40
0.0000000000
40
0.0000000000
40
0.0000000000
40
0.0000000000
40
0.1191294125
40
0.2653866856
40
0.4040631141
40
0.5341804629
40
0.6550394613
40
0.7661830674
40
0.8673331989
40
0.9583390738
40
1.0000000000
40
1.0000000000
40
1.0000000000
40
1.0000000000
10
76.0195338151
20
44.4151282420
30
0.0000000000
10
76.3465380336
20
44.4151290830
30
0.0000000000
10
77.0750130753
20
44.4127969616
30
0.0000000000
10
78.1840960563
20
44.4013876793
30
0.0000000000
10
79.3232132047
20
44.3807697194
30
0.0000000000
10
80.3924406351
20
44.3530547508
30
0.0000000000
10
81.3858786726
20
44.3193631082
30
0.0000000000
10
82.2995634411
20
44.2807546827
30
0.0000000000
10
83.1310193029
20
44.2382406710
30
0.0000000000
10
83.7716891604
20
44.1992756588
30
0.0000000000
10
84.1349501047
20
44.1741780506
30
0.0000000000
10
84.2490076107
20
44.1659536396
30
0.0000000000
11
76.0195338151
21
44.4151282420
31
0.0000000000
11
77.0005412641
21
44.4119953100
31
0.0000000000
11
78.2048814003
21
44.3995640813
31
0.0000000000
11
79.3466700899
21
44.3788097602
31
0.0000000000
11
80.4178017110
21
44.3509180307
31
0.0000000000
11
81.4124780171
21
44.3170206730
31
0.0000000000
11
82.3269027414
21
44.2781835494
31
0.0000000000
11
83.1587582127
21
44.2354090264
31
0.0000000000
11
83.9067778784
21
44.1896459368
31
0.0000000000
11
84.2490076107
21
44.1659536396
31
0.0000000000
0
SPLINE
5
3D2
100
AcDbEntity
8
0
100
AcDbSpline
62
7
6
CONTINUOUS
70
0
71
3
72
8
73
4
74
2
42
0.0000001000
43
0.0000001000
44
0.0000000001
40
0.0000000000
40
0.0000000000
40
0.0000000000
40
0.0000000000
40
1.0000000000
40
1.0000000000
40
1.0000000000
40
1.0000000000
10
84.2490076107
20
44.1659536396
30
0.0000000000
10
84.3558511308
20
44.1582494117
30
0.0000000000
10
84.4626804769
20
44.1502441210
30
0.0000000000
10
84.5695028470
20
44.1418980358
30
0.0000000000
11
84.2490076107
21
44.1659536396
31
0.0000000000
11
84.5695028470
21
44.1418980358
31
0.0000000000
0
SPLINE
5
3D3
100
AcDbEntity
8
0
100
AcDbSpline
62
7
6
CONTINUOUS
70
0
71
3
72
8
73
4
74
2
42
0.0000001000
43
0.0000001000
44
0.0000000001
40
0.0000000000
40
0.0000000000
40
0.0000000000
40
0.0000000000
40
1.0000000000
40
1.0000000000
40
1.0000000000
40
1.0000000000
10
84.5695028470
20
44.1418980358
30
0.0000000000
10
84.5949392956
20
44.1399106733
30
0.0000000000
10
84.6203753488
20
44.1379039876
30
0.0000000000
10
84.6458101851
20
44.1358773366
30
0.0000000000
11
84.5695028470
21
44.1418980358
31
0.0000000000
11
84.6458101851
21
44.1358773366
31
0.0000000000
0
SPLINE
5
3D4
100
AcDbEntity
8
0
100
AcDbSpline
62
7
6
CONTINUOUS
70
0
71
3
72
9
73
5
74
3
42
0.0000001000
43
0.0000001000
44
0.0000000001
40
0.0000000000
40
0.0000000000
40
0.0000000000
40
0.0000000000
40
0.0330955954
40
1.0000000000
40
1.0000000000
40
1.0000000000
40
1.0000000000
10
73.3956960896
20
44.4555828647
30
0.0000000000
10
73.4005827337
20
44.4546945725
30
0.0000000000
10
73.5483215462
20
44.4282961708
30
0.0000000000
10
73.6986016700
20
44.4152697021
30
0.0000000000
10
73.8436535505
20
44.4152254796
30
0.0000000000
11
73.3956960896
21
44.4555828647
31
0.0000000000
11
73.4103645252
21
44.4529618774
31
0.0000000000
11
73.8436535505
21
44.4152254796
31
0.0000000000
0
SPLINE
5
3D5
100
AcDbEntity
8
0
100
AcDbSpline
62
7
6
CONTINUOUS
70
0
71
3
72
8
73
4
74
2
42
0.0000001000
43
0.0000001000
44
0.0000000001
40
0.0000000000
40
0.0000000000
40
0.0000000000
40
0.0000000000
40
1.0000000000
40
1.0000000000
40
1.0000000000
40
1.0000000000
10
73.8436535212
20
74.0240498340
30
0.0000000000
10
73.6931487303
20
74.0240498340
30
0.0000000000
10
73.5421552144
20
74.0103163064
30
0.0000000000
10
73.3935948883
20
73.9831624019
30
0.0000000000
11
73.8436535212
21
74.0240498340
31
0.0000000000
11
73.3935948883
21
73.9831624019
31
0.0000000000
0
SPLINE
5
3D6
100
AcDbEntity
8
0
100
AcDbSpline
62
7
6
CONTINUOUS
70
0
71
3
72
9
73
5
74
3
42
0.0000001000
43
0.0000001000
44
0.0000000001
40
0.0000000000
40
0.0000000000
40
0.0000000000
40
0.0000000000
40
0.5453693159
40
1.0000000000
40
1.0000000000
40
1.0000000000
40
1.0000000000
10
84.6458017509
20
74.3032994055
30
0.0000000000
10
84.6211841781
20
74.3013378969
30
0.0000000000
10
84.5760428428
20
74.2977755281
30
0.0000000000
10
84.5309001623
20
74.2942740585
30
0.0000000000
10
84.5103765879
20
74.2926944887
30
0.0000000000
11
84.6458017509
21
74.3032994055
31
0.0000000000
11
84.5719463797
21
74.2974703968
31
0.0000000000
11
84.5103765879
21
74.2926944887
31
0.0000000000
0
SPLINE
5
3D7
100
AcDbEntity
8
0
100
AcDbSpline
62
7
6
CONTINUOUS
70
0
71
3
72
8
73
4
74
2
42
0.0000001000
43
0.0000001000
44
0.0000000001
40
0.0000000000
40
0.0000000000
40
0.0000000000
40
0.0000000000
40
1.0000000000
40
1.0000000000
40
1.0000000000
40
1.0000000000
10
84.5103765879
20
74.2926944887
30
0.0000000000
10
84.4238317321
20
74.2860336781
30
0.0000000000
10
84.3372810678
20
74.2795916867
30
0.0000000000
10
84.2507209509
20
74.2733474136
30
0.0000000000
11
84.5103765879
21
74.2926944887
31
0.0000000000
11
84.2507209509
21
74.2733474136
31
0.0000000000
0
SPLINE
5
3D8
100
AcDbEntity
8
0
100
AcDbSpline
62
7
6
CONTINUOUS
70
0
71
3
72
16
73
12
74
10
42
0.0000001000
43
0.0000001000
44
0.0000000001
40
0.0000000000
40
0.0000000000
40
0.0000000000
40
0.0000000000
40
0.0417538130
40
0.1329782243
40
0.2343851674
40
0.3458264291
40
0.4670264059
40
0.5975298600
40
0.7366370392
40
0.8833664504
40
1.0000000000
40
1.0000000000
40
1.0000000000
40
1.0000000000
10
84.2507209509
20
74.2733474136
30
0.0000000000
10
84.1363854549
20
74.2650994803
30
0.0000000000
10
83.7721953782
20
74.2399299740
30
0.0000000000
10
83.1298351189
20
74.2008645071
30
0.0000000000
10
82.2960849764
20
74.1582542468
30
0.0000000000
10
81.3797516865
20
74.1195748805
30
0.0000000000
10
80.3832924880
20
74.0858426395
30
0.0000000000
10
79.3106620446
20
74.0581245329
30
0.0000000000
10
78.1677668779
20
74.0375501796
30
0.0000000000
10
77.0628245710
20
74.0263156336
30
0.0000000000
10
76.3397538187
20
74.0240484294
30
0.0000000000
10
76.0195338152
20
74.0240492505
30
0.0000000000
11
84.2507209509
21
74.2733474136
31
0.0000000000
11
83.9076565875
21
74.2495898767
31
0.0000000000
11
83.1576842674
21
74.2037082194
31
0.0000000000
11
82.3235418492
21
74.1608364169
31
0.0000000000
11
81.4064753012
21
74.1219273454
31
0.0000000000
11
80.4087826418
21
74.0879886890
31
0.0000000000
11
79.3342463653
21
74.0600933636
31
0.0000000000
11
78.1886702454
21
74.0393825906
31
0.0000000000
11
76.9801889146
21
74.0270537185
31
0.0000000000
11
76.0195338152
21
74.0240492505
31
0.0000000000
0
SPLINE
5
3D9
100
AcDbEntity
8
0
100
AcDbSpline
62
7
6
CONTINUOUS
70
0
71
3
72
16
73
12
74
10
42
0.0000001000
43
0.0000001000
44
0.0000000001
40
0.0000000000
40
0.0000000000
40
0.0000000000
40
0.0000000000
40
0.1191294125
40
0.2653866856
40
0.4040631141
40
0.5341804629
40
0.6550394613
40
0.7661830674
40
0.8673331989
40
0.9583390738
40
1.0000000000
40
1.0000000000
40
1.0000000000
40
1.0000000000
10
147.9250339697
20
74.0240493139
30
0.0000000000
10
147.5980297512
20
74.0240484729
30
0.0000000000
10
146.8695547095
20
74.0263805943
30
0.0000000000
10
145.7604717284
20
74.0377898766
30
0.0000000000
10
144.6213545800
20
74.0584078365
30
0.0000000000
10
143.5521271497
20
74.0861228051
30
0.0000000000
10
142.5586891121
20
74.1198144477
30
0.0000000000
10
141.6450043437
20
74.1584228732
30
0.0000000000
10
140.8135484818
20
74.2009368849
30
0.0000000000
10
140.1728786243
20
74.2399018970
30
0.0000000000
10
139.8096176801
20
74.2649995052
30
0.0000000000
10
139.6955601740
20
74.2732239162
30
0.0000000000
11
147.9250339697
21
74.0240493139
31
0.0000000000
11
146.9440265207
21
74.0271822459
31
0.0000000000
11
145.7396863845
21
74.0396134746
31
0.0000000000
11
144.5978976949
21
74.0603677956
31
0.0000000000
11
143.5267660737
21
74.0882595252
31
0.0000000000
11
142.5320897676
21
74.1221568829
31
0.0000000000
11
141.6176650433
21
74.1609940065
31
0.0000000000
11
140.7858095720
21
74.2037685295
31
0.0000000000
11
140.0377899063
21
74.2495316190
31
0.0000000000
11
139.6955601740
21
74.2732239162
31
0.0000000000
0
SPLINE
5
3DA
100
AcDbEntity
8
0
100
AcDbSpline
62
7
6
CONTINUOUS
70
0
71
3
72
8
73
4
74
2
42
0.0000001000
43
0.0000001000
44
0.0000000001
40
0.0000000000
40
0.0000000000
40
0.0000000000
40
0.0000000000
40
1.0000000000
40
1.0000000000
40
1.0000000000
40
1.0000000000
10
139.6955601740
20
74.2732239162
30
0.0000000000
10
139.5887166540
20
74.2809281442
30
0.0000000000
10
139.4818873079
20
74.2889334349
30
0.0000000000
10
139.3750649378
20
74.2972795201
30
0.0000000000
11
139.6955601740
21
74.2732239162
31
0.0000000000
11
139.3750649378
21
74.2972795201
31
0.0000000000
0
SPLINE
5
3DB
100
AcDbEntity
8
0
100
AcDbSpline
62
7
6
CONTINUOUS
70
0
71
3
72
8
73
4
74
2
42
0.0000001000
43
0.0000001000
44
0.0000000001
40
0.0000000000
40
0.0000000000
40
0.0000000000
40
0.0000000000
40
1.0000000000
40
1.0000000000
40
1.0000000000
40
1.0000000000
10
139.3750649378
20
74.2972795201
30
0.0000000000
10
139.3496284891
20
74.2992668825
30
0.0000000000
10
139.3241924360
20
74.3012735683
30
0.0000000000
10
139.2987575997
20
74.3033002193
30
0.0000000000
11
139.3750649378
21
74.2972795201
31
0.0000000000
11
139.2987575997
21
74.3033002193
31
0.0000000000
0
SPLINE
5
3DC
100
AcDbEntity
8
0
100
AcDbSpline
62
7
6
CONTINUOUS
70
0
71
3
72
9
73
5
74
3
42
0.0000001000
43
0.0000001000
44
0.0000000001
40
0.0000000000
40
0.0000000000
40
0.0000000000
40
0.0000000000
40
0.0330952512
40
1.0000000000
40
1.0000000000
40
1.0000000000
40
1.0000000000
10
150.5488715375
20
73.9835947199
30
0.0000000000
10
150.5439849458
20
73.9844830022
30
0.0000000000
10
150.3962461850
20
74.0108813897
30
0.0000000000
10
150.2459661148
20
74.0239078537
30
0.0000000000
10
150.1009142343
20
74.0239520763
30
0.0000000000
11
150.5488715375
21
73.9835947199
31
0.0000000000
11
150.5342032595
21
73.9862156785
31
0.0000000000
11
150.1009142343
21
74.0239520763
31
0.0000000000
0
SPLINE
5
3DD
100
AcDbEntity
8
0
100
AcDbSpline
62
7
6
CONTINUOUS
70
0
71
3
72
8
73
4
74
2
42
0.0000001000
43
0.0000001000
44
0.0000000001
40
0.0000000000
40
0.0000000000
40
0.0000000000
40
0.0000000000
40
1.0000000000
40
1.0000000000
40
1.0000000000
40
1.0000000000
10
150.1009142635
20
44.4151277219
30
0.0000000000
10
150.2514191154
20
44.4151277219
30
0.0000000000
10
150.4024126927
20
44.4288612606
30
0.0000000000
10
150.5509730769
20
44.4560151870
30
0.0000000000
11
150.1009142635
21
44.4151277219
31
0.0000000000
11
150.5509730769
21
44.4560151870
31
0.0000000000
0
SPLINE
5
3DE
100
AcDbEntity
8
0
100
AcDbSpline
62
7
6
CONTINUOUS
70
0
71
3
72
9
73
5
74
3
42
0.0000001000
43
0.0000001000
44
0.0000000001
40
0.0000000000
40
0.0000000000
40
0.0000000000
40
0.0000000000
40
0.5453693160
40
1.0000000000
40
1.0000000000
40
1.0000000000
40
1.0000000000
10
139.2987660339
20
44.1358781504
30
0.0000000000
10
139.3233836067
20
44.1378396590
30
0.0000000000
10
139.3685249419
20
44.1414020277
30
0.0000000000
10
139.4136676225
20
44.1449034974
30
0.0000000000
10
139.4341911968
20
44.1464830672
30
0.0000000000
11
139.2987660339
21
44.1358781504
31
0.0000000000
11
139.3726214051
21
44.1417071591
31
0.0000000000
11
139.4341911968
21
44.1464830672
31
0.0000000000
0
SPLINE
5
3DF
100
AcDbEntity
8
0
100
AcDbSpline
62
7
6
CONTINUOUS
70
0
71
3
72
8
73
4
74
2
42
0.0000001000
43
0.0000001000
44
0.0000000001
40
0.0000000000
40
0.0000000000
40
0.0000000000
40
0.0000000000
40
1.0000000000
40
1.0000000000
40
1.0000000000
40
1.0000000000
10
139.4341911968
20
44.1464830672
30
0.0000000000
10
139.5207360527
20
44.1531438777
30
0.0000000000
10
139.6072867169
20
44.1595858692
30
0.0000000000
10
139.6938468338
20
44.1658301423
30
0.0000000000
11
139.4341911968
21
44.1464830672
31
0.0000000000
11
139.6938468338
21
44.1658301423
31
0.0000000000
0
SPLINE
5
3E0
100
AcDbEntity
8
0
100
AcDbSpline
62
7
6
CONTINUOUS
70
0
71
3
72
16
73
12
74
10
42
0.0000001000
43
0.0000001000
44
0.0000000001
40
0.0000000000
40
0.0000000000
40
0.0000000000
40
0.0000000000
40
0.0417538130
40
0.1329782243
40
0.2343851674
40
0.3458264291
40
0.4670264059
40
0.5975298600
40
0.7366370392
40
0.8833664504
40
1.0000000000
40
1.0000000000
40
1.0000000000
40
1.0000000000
10
139.6938468338
20
44.1658301423
30
0.0000000000
10
139.8081823299
20
44.1740780756
30
0.0000000000
10
140.1723724065
20
44.1992475819
30
0.0000000000
10
140.8147326658
20
44.2383130488
30
0.0000000000
10
141.6484828084
20
44.2809233091
30
0.0000000000
10
142.5648160983
20
44.3196026753
30
0.0000000000
10
143.5612752967
20
44.3533349163
30
0.0000000000
10
144.6339057401
20
44.3810530230
30
0.0000000000
10
145.7768009068
20
44.4016273763
30
0.0000000000
10
146.8817432137
20
44.4128619223
30
0.0000000000
10
147.6048139660
20
44.4151291264
30
0.0000000000
10
147.9250339696
20
44.4151283054
30
0.0000000000
11
139.6938468338
21
44.1658301423
31
0.0000000000
11
140.0369111972
21
44.1895876792
31
0.0000000000
11
140.7868835174
21
44.2354693364
31
0.0000000000
11
141.6210259356
21
44.2783411390
31
0.0000000000
11
142.5380924835
21
44.3172502105
31
0.0000000000
11
143.5357851429
21
44.3511888669
31
0.0000000000
11
144.6103214194
21
44.3790841922
31
0.0000000000
11
145.7558975393
21
44.3997949653
31
0.0000000000
11
146.9643788701
21
44.4121238374
31
0.0000000000
11
147.9250339696
21
44.4151283054
31
0.0000000000
0
SPLINE
5
3E1
100
AcDbEntity
8
0
100
AcDbSpline
62
7
6
CONTINUOUS
70
0
71
3
72
10
73
6
74
4
42
0.0000001000
43
0.0000001000
44
0.0000000001
40
0.0000000000
40
0.0000000000
40
0.0000000000
40
0.0000000000
40
0.0172667602
40
0.9274061385
40
1.0000000000
40
1.0000000000
40
1.0000000000
40
1.0000000000
10
165.6192853832
20
71.2410380947
30
0.0000000000
10
165.6191859914
20
71.2410565921
30
0.0000000000
10
165.6138475750
20
71.2420499102
30
0.0000000000
10
165.6080892839
20
71.2431101996
30
0.0000000000
10
165.6024284144
20
71.2441411895
30
0.0000000000
10
165.6020102388
20
71.2442172882
30
0.0000000000
11
165.6192853832
21
71.2410380947
31
0.0000000000
11
165.6189872059
21
71.2410935765
31
0.0000000000
11
165.6032647329
21
71.2439888124
31
0.0000000000
11
165.6020102388
21
71.2442172882
31
0.0000000000
0
SPLINE
5
3E2
100
AcDbEntity
8
0
100
AcDbSpline
62
7
6
CONTINUOUS
70
0
71
3
72
17
73
13
74
11
42
0.0000001000
43
0.0000001000
44
0.0000000001
40
0.0000000000
40
0.0000000000
40
0.0000000000
40
0.0000000000
40
0.0635145519
40
0.2145673803
40
0.3576810725
40
0.4915375474
40
0.6147305637
40
0.7268005931
40
0.8284451428
40
0.9129349784
40
0.9730807138
40
1.0000000000
40
1.0000000000
40
1.0000000000
40
1.0000000000
10
167.8446746246
20
68.7321778220
30
0.0000000000
10
167.8446800001
20
68.8098173781
30
0.0000000000
10
167.8325482875
20
69.0721907988
30
0.0000000000
10
167.7436154250
20
69.5024601622
30
0.0000000000
10
167.5298456080
20
69.9826200252
30
0.0000000000
10
167.2440590433
20
70.3817179424
30
0.0000000000
10
166.9167296367
20
70.6939290513
30
0.0000000000
10
166.5741467826
20
70.9236195597
30
0.0000000000
10
166.2436203856
20
71.0779349883
30
0.0000000000
10
165.9569093103
20
71.1688919664
30
0.0000000000
10
165.7529281505
20
71.2153502381
30
0.0000000000
10
165.6487402530
20
71.2355754087
30
0.0000000000
10
165.6164779963
20
71.2415644601
30
0.0000000000
11
167.8446746246
21
68.7321778220
31
0.0000000000
11
167.8338861009
21
68.9647754189
31
0.0000000000
11
167.7221883687
21
69.5057174298
31
0.0000000000
11
167.5093425471
21
69.9838004332
31
0.0000000000
11
167.2244117907
21
70.3817919640
31
0.0000000000
11
166.8984758886
21
70.6927535160
31
0.0000000000
11
166.5581658054
21
70.9210728052
31
0.0000000000
11
166.2215102771
21
71.0785885125
31
0.0000000000
11
165.9273423601
21
71.1730205134
31
0.0000000000
11
165.7131034320
21
71.2227482290
31
0.0000000000
11
165.6164779963
21
71.2415644601
31
0.0000000000
0
SPLINE
5
3E3
100
AcDbEntity
8
0
100
AcDbSpline
62
7
6
CONTINUOUS
70
0
71
3
72
9
73
5
74
3
42
0.0000001000
43
0.0000001000
44
0.0000000001
40
0.0000000000
40
0.0000000000
40
0.0000000000
40
0.0000000000
40
0.0795956957
40
1.0000000000
40
1.0000000000
40
1.0000000000
40
1.0000000000
10
58.3425588787
20
71.2442175353
30
0.0000000000
10
58.3421054313
20
71.2441350183
30
0.0000000000
10
58.3364087084
20
71.2430974313
30
0.0000000000
10
58.3307140170
20
71.2420487109
30
0.0000000000
10
58.3254743891
20
71.2410738298
30
0.0000000000
11
58.3425588787
21
71.2442175353
31
0.0000000000
11
58.3411985749
21
71.2439697728
31
0.0000000000
11
58.3254743891
21
71.2410738298
31
0.0000000000
0
SPLINE
5
3E4
100
AcDbEntity
8
0
100
AcDbSpline
62
7
6
CONTINUOUS
70
0
71
3
72
17
73
13
74
11
42
0.0000001000
43
0.0000001000
44
0.0000000001
40
0.0000000000
40
0.0000000000
40
0.0000000000
40
0.0000000000
40
0.0297211303
40
0.0907751248
40
0.1764997111
40
0.2778512860
40
0.3887880679
40
0.5101920282
40
0.6424472770
40
0.7845779592
40
0.9355062907
40
1.0000000000
40
1.0000000000
40
1.0000000000
40
1.0000000000
10
58.3283159813
20
71.2416068894
30
0.0000000000
10
58.2926925865
20
71.2349962576
30
0.0000000000
10
58.1840721546
20
71.2138221281
30
0.0000000000
10
57.9743315502
20
71.1653896557
30
0.0000000000
10
57.6859377747
20
71.0720948610
30
0.0000000000
10
57.3566585873
20
70.9156286623
30
0.0000000000
10
57.0186888150
20
70.6861442814
30
0.0000000000
10
56.6965642868
20
70.3765656429
30
0.0000000000
10
56.4144401208
20
69.9814892257
30
0.0000000000
10
56.2017566225
20
69.5044995546
30
0.0000000000
10
56.1122607921
20
69.0744827121
30
0.0000000000
10
56.0998902650
20
68.8110329438
30
0.0000000000
10
56.0998954098
20
68.7321879644
30
0.0000000000
11
58.3283159813
21
71.2416068894
31
0.0000000000
11
58.2216450081
21
71.2207304060
31
0.0000000000
11
58.0043104210
21
71.1695795209
31
0.0000000000
11
57.7063534370
21
71.0721158936
31
0.0000000000
11
57.3717058015
21
70.9127894439
31
0.0000000000
11
57.0361395285
21
70.6847940522
31
0.0000000000
11
56.7160699571
21
70.3771161742
31
0.0000000000
11
56.4350418263
21
69.9834866467
31
0.0000000000
11
56.2233725012
21
69.5087710718
31
0.0000000000
11
56.1110214387
21
68.9683861617
31
0.0000000000
11
56.0998954098
21
68.7321879644
31
0.0000000000
0
SPLINE
5
3E5
100
AcDbEntity
8
0
100
AcDbSpline
62
7
6
CONTINUOUS
70
0
71
3
72
10
73
6
74
4
42
0.0000001000
43
0.0000001000
44
0.0000000001
40
0.0000000000
40
0.0000000000
40
0.0000000000
40
0.0000000000
40
0.0172337816
40
0.9273720499
40
1.0000000000
40
1.0000000000
40
1.0000000000
40
1.0000000000
10
58.3252830563
20
47.1981393298
30
0.0000000000
10
58.3253822622
20
47.1981208670
30
0.0000000000
10
58.3307206968
20
47.1971275470
30
0.0000000000
10
58.3364792193
20
47.1960672173
30
0.0000000000
10
58.3421405064
20
47.1950361547
30
0.0000000000
10
58.3425588952
20
47.1949600175
30
0.0000000000
11
58.3252830563
21
47.1981393298
31
0.0000000000
11
58.3255806760
21
47.1980839518
31
0.0000000000
11
58.3413037615
21
47.1951886090
31
0.0000000000
11
58.3425588952
21
47.1949600175
31
0.0000000000
0
SPLINE
5
3E6
100
AcDbEntity
8
0
100
AcDbSpline
62
7
6
CONTINUOUS
70
0
71
3
72
17
73
13
74
11
42
0.0000001000
43
0.0000001000
44
0.0000000001
40
0.0000000000
40
0.0000000000
40
0.0000000000
40
0.0000000000
40
0.0635149741
40
0.2145695212
40
0.3576848603
40
0.4915427786
40
0.6147371049
40
0.7268083577
40
0.8284519450
40
0.9129284517
40
0.9730817247
40
1.0000000000
40
1.0000000000
40
1.0000000000
40
1.0000000000
10
56.0998939094
20
49.7069895983
30
0.0000000000
10
56.0998886384
20
49.6293494795
30
0.0000000000
10
56.1120209072
20
49.3669732995
30
0.0000000000
10
56.2009562646
20
48.9366993390
30
0.0000000000
10
56.4147320666
20
48.4565352119
30
0.0000000000
10
56.7005262107
20
48.0574356064
30
0.0000000000
10
57.0278637255
20
47.7452254804
30
0.0000000000
10
57.3704522533
20
47.5155393746
30
0.0000000000
10
57.7009671079
20
47.3612367946
30
0.0000000000
10
57.9876701714
20
47.2702820896
30
0.0000000000
10
58.1916435536
20
47.2238261848
30
0.0000000000
10
58.2958393928
20
47.2035998749
30
0.0000000000
10
58.3281004720
20
47.1976111369
30
0.0000000000
11
56.0998939094
21
49.7069895983
31
0.0000000000
11
56.1106828985
21
49.4743903341
31
0.0000000000
11
56.2223839059
21
48.9334422689
31
0.0000000000
11
56.4352356958
21
48.4553550129
31
0.0000000000
11
56.7201738996
21
48.0573619889
31
0.0000000000
11
57.0461177565
21
47.7464014728
31
0.0000000000
11
57.3864355587
21
47.5180852521
31
0.0000000000
11
57.7230906905
21
47.3605765142
31
0.0000000000
11
58.0172125962
21
47.2661600831
31
0.0000000000
11
58.2314785399
21
47.2164263144
31
0.0000000000
11
58.3281004720
21
47.1976111369
31
0.0000000000
0
SPLINE
5
3E7
100
AcDbEntity
8
0
100
AcDbSpline
62
7
6
CONTINUOUS
70
0
71
3
72
9
73
5
74
3
42
0.0000001000
43
0.0000001000
44
0.0000000001
40
0.0000000000
40
0.0000000000
40
0.0000000000
40
0.0000000000
40
0.0795644815
40
1.0000000000
40
1.0000000000
40
1.0000000000
40
1.0000000000
10
165.6020102554
20
47.1949602707
30
0.0000000000
10
165.6024634919
20
47.1950427497
30
0.0000000000
10
165.6081597993
20
47.1960802644
30
0.0000000000
10
165.6138540755
20
47.1971289106
30
0.0000000000
10
165.6190934993
20
47.1981037549
30
0.0000000000
11
165.6020102554
21
47.1949602707
31
0.0000000000
11
165.6033699265
21
47.1952079188
31
0.0000000000
11
165.6190934993
21
47.1981037549
31
0.0000000000
0
SPLINE
5
3E8
100
AcDbEntity
8
0
100
AcDbSpline
62
7
6
CONTINUOUS
70
0
71
3
72
17
73
13
74
11
42
0.0000001000
43
0.0000001000
44
0.0000000001
40
0.0000000000
40
0.0000000000
40
0.0000000000
40
0.0000000000
40
0.0297223509
40
0.0907733200
40
0.1765017705
40
0.2778536840
40
0.3887903765
40
0.5101942812
40
0.6424493573
40
0.7845795783
40
0.9355071788
40
1.0000000000
40
1.0000000000
40
1.0000000000
40
1.0000000000
10
165.6162591042
20
47.1975719052
30
0.0000000000
10
165.6518839029
20
47.2041828416
30
0.0000000000
10
165.7605019744
20
47.2253567483
30
0.0000000000
10
165.9702445138
20
47.2737904935
30
0.0000000000
10
166.2586392483
20
47.3670857636
30
0.0000000000
10
166.5879215013
20
47.5235560916
30
0.0000000000
10
166.9258895603
20
47.7530423051
30
0.0000000000
10
167.2480115895
20
48.0626220292
30
0.0000000000
10
167.5301329164
20
48.4576985300
30
0.0000000000
10
167.7428135772
20
48.9346867449
30
0.0000000000
10
167.8323077388
20
49.3647006229
30
0.0000000000
10
167.8446778947
20
49.6281480163
30
0.0000000000
10
167.8446727266
20
49.7069917919
30
0.0000000000
11
165.6162591042
21
47.1975719052
31
0.0000000000
11
165.7229342561
21
47.2184494511
31
0.0000000000
11
165.9402576286
21
47.2695982699
31
0.0000000000
11
166.2382274268
21
47.3670667053
31
0.0000000000
11
166.5728747463
21
47.5263954415
31
0.0000000000
11
166.9084388602
21
47.7543923765
31
0.0000000000
11
167.2285060977
21
48.0620714541
31
0.0000000000
11
167.5095315342
21
48.4557012621
31
0.0000000000
11
167.7211980476
21
48.9304154141
31
0.0000000000
11
167.8335471013
21
49.4707971887
31
0.0000000000
11
167.8446727266
21
49.7069917919
31
0.0000000000
0
ENDSEC
0
SECTION
2
OBJECTS
0
DICTIONARY
5
3E9
100
AcDbDictionary
3
ACAD_GROUP
350
3EA
3
ACAD_MLINESTYLE
350
3EB
0
DICTIONARY
5
3EA
102
{ACAD_REACTORS
330
3E9
102
}
100
AcDbDictionary
0
DICTIONARY
5
3EB
102
{ACAD_REACTORS
330
3E9
102
}
100
AcDbDictionary
3
STANDARD
350
3EC
0
MLINESTYLE
5
3EC
102
{ACAD_REACTORS
330
3EB
102
}
100
AcDbMlineStyle
2
STANDARD
70
0
3

62
256
51
90.0
52
90.0
71
2
49
0.5
62
256
6
BYLAYER
49
-0.5
62
256
6
BYLAYER
0
ENDSEC
0
EOF
