999
DXF file: C:\Aktuell-Internet\CAD-Daten\2rs-m24.dxf
999
Pro/ENGINEER 2001400 by Parametric Technology Corporation
0
SECTION
2
HEADER
9
$ACADVER
1
AC1014
9
$EXTMAX
10
420.0000000000
20
297.0000000000
9
$EXTMIN
10
0.0000000000
20
0.0000000000
9
$LIMMIN
10
0.0000000000
20
0.0000000000
9
$LIMMAX
10
420.0000000000
20
297.0000000000
9
$VIEWCTR
10
210.0000000000
20
148.5000000000
9
$VIEWSIZE
40
297.0000000000
9
$CLAYER
8
0
9
$LTSCALE
40
23.1000000000
9
$CELTYPE
6
BYLAYER
9
$DIMSCALE
40
1
9
$DIMASZ
40
3.5000000000
9
$DIMEXO
40
2.6250000000
9
$DIMDLI
40
15.9600000000
9
$DIMEXE
40
7.5600000000
9
$DIMCEN
40
3.7800000000
9
$DIMLFAC
40
1.0000000000
9
$DIMTXT
40
3.5000000000
9
$DIMTOL
70
1
9
$DIMTFAC
40
0.6000000000
9
$DIMTP
40
0.0050000000
9
$DIMTM
40
0.0050000000
9
$HANDSEED
5
3B7
0
ENDSEC
0
SECTION
2
CLASSES
0
ENDSEC
0
SECTION
2
TABLES
0
TABLE
2
VPORT
5
8
100
AcDbSymbolTable
70
2
0
VPORT
5
1F4
100
AcDbSymbolTableRecord
100
AcDbViewportTableRecord
2
*ACTIVE
70
0
10
0.0
20
0.0
11
1.0
21
1.0
12
210.0000000000
22
148.5000000000
13
0.0
23
0.0
14
1.0
24
1.0
15
0.0
25
0.0
16
0.0
26
0.0
36
1.0
17
0.0
27
0.0
37
0.0
40
297.0000000000
41
1.4141414141
42
50.0
43
0.0
44
0.0
50
0.0
51
0.0
71
0
72
100
73
1
74
1
75
0
76
0
77
0
78
0
0
ENDTAB
0
TABLE
2
LTYPE
5
5
100
AcDbSymbolTable
70
6
0
LTYPE
5
14
100
AcDbSymbolTableRecord
100
AcDbLinetypeTableRecord
2
BYBLOCK
70
0
3

72
65
73
0
40
0.0
0
LTYPE
5
15
100
AcDbSymbolTableRecord
100
AcDbLinetypeTableRecord
2
BYLAYER
70
0
3

72
65
73
0
40
0.0
0
LTYPE
5
16
100
AcDbSymbolTableRecord
100
AcDbLinetypeTableRecord
2
CONTINUOUS
70
64
3
Solid line
72
65
73
0
40
0
0
LTYPE
5
1F5
100
AcDbSymbolTableRecord
100
AcDbLinetypeTableRecord
2
CENTER
70
64
3
____ _ ____ _ ____ _ ____ _ ____ _ ____ _ ____
72
65
73
4
40
0.6
49
0.375
74
0
49
-0.075
74
0
49
0.075
74
0
49
-0.075
74
0
0
LTYPE
5
1F6
100
AcDbSymbolTableRecord
100
AcDbLinetypeTableRecord
2
HIDDEN
70
64
3
- - - - - - - - - - - - - - - - - - - -
72
65
73
2
40
0.2
49
0.1
74
0
49
-0.1
74
0
0
LTYPE
5
1F7
100
AcDbSymbolTableRecord
100
AcDbLinetypeTableRecord
2
PHANTOM
70
64
3
_____ _ _ _____ _ _ _____ _ _ _____
72
65
73
6
40
0.8
49
0.45
74
0
49
-0.05
74
0
49
0.1
74
0
49
-0.05
74
0
49
0.1
74
0
49
-0.05
74
0
0
LTYPE
5
1F8
100
AcDbSymbolTableRecord
100
AcDbLinetypeTableRecord
2
DOT
70
64
3
. . . . . . . . . . . . . . . . . . . .
72
65
73
2
40
0.2
49
0.1
74
0
49
-0.1
74
0
0
LTYPE
5
1F9
100
AcDbSymbolTableRecord
100
AcDbLinetypeTableRecord
2
DASHED
70
64
3
- - - - - - - - - - - - - - - - - - - -
72
65
73
2
40
0.2
49
0.1
74
0
49
-0.1
74
0
0
ENDTAB
0
TABLE
2
LAYER
5
2
100
AcDbSymbolTable
70
36
0
LAYER
5
10
100
AcDbSymbolTableRecord
100
AcDbLayerTableRecord
2
0
70
0
62
7
6
CONTINUOUS
0
LAYER
5
1FA
100
AcDbSymbolTableRecord
100
AcDbLayerTableRecord
2
DEFAULT_1
70
0
62
7
6
CENTER
0
LAYER
5
1FB
100
AcDbSymbolTableRecord
100
AcDbLayerTableRecord
2
DEFAULT_2
70
0
62
8
6
HIDDEN
0
LAYER
5
1FC
100
AcDbSymbolTableRecord
100
AcDbLayerTableRecord
2
DEFAULT_3
70
0
62
7
6
PHANTOM
0
ENDTAB
0
TABLE
2
STYLE
5
3
100
AcDbSymbolTable
70
1
0
STYLE
5
11
100
AcDbSymbolTableRecord
100
AcDbTextStyleTableRecord
2
STANDARD
70
0
40
0.0
41
1.0
50
0.0
71
0
42
0.0
3
txt
4

0
STYLE
5
1FD
100
AcDbSymbolTableRecord
100
AcDbTextStyleTableRecord
2
TEXTSTYLE_0
70
0
40
0.0
41
0.80
50
0.0
71
0
42
0.2
3
txt
4

0
ENDTAB
0
TABLE
2
VIEW
5
6
100
AcDbSymbolTable
70
0
0
ENDTAB
0
TABLE
2
UCS
5
7
100
AcDbSymbolTable
70
0
0
ENDTAB
0
TABLE
2
APPID
5
9
100
AcDbSymbolTable
70
1
0
APPID
5
1FE
100
AcDbSymbolTableRecord
100
AcDbRegAppTableRecord
2
ACAD
70
0
0
ENDTAB
0
TABLE
2
DIMSTYLE
5
A
100
AcDbSymbolTable
70
1
0
DIMSTYLE
105
1FF
100
AcDbSymbolTableRecord
100
AcDbDimStyleTableRecord
2
STANDARD
70
0
3

4

5

6

7

40
1.0
41
0.18
42
0.0625
43
0.38
44
0.18
45
0.0
46
0.0
47
0.0050000000
48
0.0050000000
140
3.5000000000
141
0.09
142
0.0
143
25.4
144
1.0000000000
145
0.0
146
0.6000000000
147
0.09
71
1
72
0
73
1
74
1
75
0
76
0
77
0
78
0
170
0
171
2
172
0
173
0
174
0
175
0
176
0
177
0
178
0
270
2
271
3
272
4
273
2
274
2
340
11
275
0
280
0
281
0
282
0
283
1
284
0
285
0
286
0
287
3
288
0
0
ENDTAB
0
TABLE
2
BLOCK_RECORD
5
1
100
AcDbSymbolTable
70
0
0
BLOCK_RECORD
5
1B
100
AcDbSymbolTableRecord
100
AcDbBlockTableRecord
2
*MODEL_SPACE
0
BLOCK_RECORD
5
1C
100
AcDbSymbolTableRecord
100
AcDbBlockTableRecord
2
*PAPER_SPACE
0
ENDTAB
0
ENDSEC
0
SECTION
2
BLOCKS
0
BLOCK
5
1E
100
AcDbEntity
8
0
100
AcDbBlockBegin
2
*MODEL_SPACE
70
0
10
0.0
20
0.0
30
0.0
3
*MODEL_SPACE
1

0
ENDBLK
5
1F
100
AcDbEntity
8
0
100
AcDbBlockEnd
0
BLOCK
5
20
100
AcDbEntity
8
0
100
AcDbBlockBegin
2
*PAPER_SPACE
70
0
10
0.0
20
0.0
30
0.0
3
*PAPER_SPACE
1

0
ENDBLK
5
21
100
AcDbEntity
8
0
100
AcDbBlockEnd
0
ENDSEC
0
SECTION
2
ENTITIES
0
TEXT
5
200
100
AcDbEntity
8
0
100
AcDbText
62
2
6
CONTINUOUS
10
84.3770635399
20
92.8149407484
7
TEXTSTYLE_0
40
4.5000000000
1
RUD
72
5
11
95.5199206828
21
92.8149407484
100
AcDbText
0
TEXT
5
201
100
AcDbEntity
8
0
100
AcDbText
62
2
6
CONTINUOUS
10
80.2323303767
20
82.8325575686
7
TEXTSTYLE_0
40
4.5000000000
1
RS M24
72
5
11
101.7680446624
21
82.8325575686
100
AcDbText
0
TEXT
5
202
100
AcDbEntity
8
0
100
AcDbText
62
2
6
CONTINUOUS
10
292.2182843203
20
202.9043544950
7
TEXTSTYLE_0
40
4.5000000000
1
RUD
50
90.0000000000
72
5
11
292.2182843203
21
214.0472116379
100
AcDbText
0
TEXT
5
203
100
AcDbEntity
8
0
100
AcDbText
62
2
6
CONTINUOUS
10
302.8159721378
20
203.2207033851
7
TEXTSTYLE_0
40
4.5000000000
1
RS M24
50
90.0000000000
72
5
11
302.8159721378
21
224.7564176708
100
AcDbText
0
LINE
5
204
100
AcDbEntity
8
0
100
AcDbLine
62
7
6
CONTINUOUS
10
0.0000000000
20
0.0000000000
11
0.0000000000
21
297.0000000000
0
LINE
5
205
100
AcDbEntity
8
0
100
AcDbLine
62
7
6
CONTINUOUS
10
0.0000000000
20
0.0000000000
11
420.0000000000
21
0.0000000000
0
LINE
5
206
100
AcDbEntity
8
0
100
AcDbLine
62
7
6
CONTINUOUS
10
0.0000000000
20
297.0000000000
11
420.0000000000
21
297.0000000000
0
LINE
5
207
100
AcDbEntity
8
0
100
AcDbLine
62
7
6
CONTINUOUS
10
420.0000000000
20
0.0000000000
11
420.0000000000
21
297.0000000000
0
LINE
5
208
100
AcDbEntity
8
0
100
AcDbLine
62
7
6
CONTINUOUS
10
121.5188219115
20
149.6453046988
11
100.5188219115
21
149.6453046988
0
LINE
5
209
100
AcDbEntity
8
0
100
AcDbLine
62
7
6
CONTINUOUS
10
79.6387804575
20
263.6901305534
11
109.4880881820
21
276.0541186403
0
LINE
5
20A
100
AcDbEntity
8
0
100
AcDbLine
62
7
6
CONTINUOUS
10
123.0188219115
20
151.1453046988
11
99.0188219115
21
151.1453046988
0
LINE
5
20B
100
AcDbEntity
8
0
100
AcDbLine
62
7
6
CONTINUOUS
10
90.3318273589
20
264.9709844779
11
90.6394807860
21
265.2714452933
0
LINE
5
20C
100
AcDbEntity
8
0
100
AcDbLine
62
7
6
CONTINUOUS
10
90.4456903502
20
265.7737646293
11
89.9937021300
21
265.3899679374
0
LINE
5
20D
100
AcDbEntity
8
0
100
AcDbLine
62
7
6
CONTINUOUS
10
90.7343656584
20
265.9404325675
11
90.4456903502
21
265.7737646293
0
LINE
5
20E
100
AcDbEntity
8
0
100
AcDbLine
62
7
6
CONTINUOUS
10
90.6394807860
20
265.2714452933
11
90.9281541869
21
265.4381132315
0
LINE
5
20F
100
AcDbEntity
8
0
100
AcDbLine
62
7
6
CONTINUOUS
10
93.7047826811
20
266.7955198478
11
93.3439390227
21
266.5871839713
0
LINE
5
210
100
AcDbEntity
8
0
100
AcDbLine
62
7
6
CONTINUOUS
10
89.8760969206
20
264.0936651419
11
90.2369405791
21
264.3019972037
0
LINE
5
211
100
AcDbEntity
8
0
100
AcDbLine
62
7
6
CONTINUOUS
10
93.7694704100
20
265.8501424979
11
93.1921197936
21
265.5168104361
0
LINE
5
212
100
AcDbEntity
8
0
100
AcDbLine
62
7
6
CONTINUOUS
10
94.9241716429
20
266.5168104361
11
94.1303140685
21
266.0584745597
0
LINE
5
213
100
AcDbEntity
8
0
100
AcDbLine
62
7
6
CONTINUOUS
10
93.4048864409
20
265.1482877921
11
93.9822370574
21
265.4816198539
0
LINE
5
214
100
AcDbEntity
8
0
100
AcDbLine
62
7
6
CONTINUOUS
10
94.3430807158
20
265.6899557303
11
95.1369373366
21
266.1482877921
0
LINE
5
215
100
AcDbEntity
8
0
100
AcDbLine
62
7
6
CONTINUOUS
10
108.4554886385
20
269.4557295035
11
108.2254886195
21
269.3578596305
0
LINE
5
216
100
AcDbEntity
8
0
100
AcDbLine
62
7
6
CONTINUOUS
10
91.2205698058
20
266.0982999991
11
90.7343656584
21
265.9404325675
0
LINE
5
217
100
AcDbEntity
8
0
100
AcDbLine
62
7
6
CONTINUOUS
10
95.9957572981
20
263.3274336051
11
96.4819614455
21
263.4853048514
0
LINE
5
218
100
AcDbEntity
8
0
100
AcDbLine
62
7
6
CONTINUOUS
10
111.6754886076
20
267.4004125785
11
111.3688219055
21
267.3025388907
0
LINE
5
219
100
AcDbEntity
8
0
100
AcDbLine
62
7
6
CONTINUOUS
10
99.0188219115
20
151.1453046988
11
100.5188219115
21
149.6453046988
0
LINE
5
21A
100
AcDbEntity
8
0
100
AcDbLine
62
7
6
CONTINUOUS
10
64.9940917820
20
231.3589638104
11
65.1100079700
21
231.6760384283
0
LINE
5
21B
100
AcDbEntity
8
0
100
AcDbLine
62
7
6
CONTINUOUS
10
65.1100079700
20
231.6760384283
11
77.4739960570
21
261.5253461528
0
LINE
5
21C
100
AcDbEntity
8
0
100
AcDbLine
62
7
6
CONTINUOUS
10
74.0033571288
20
245.5482816886
11
73.7806398436
21
245.0235939215
0
LINE
5
21D
100
AcDbEntity
8
0
100
AcDbLine
62
7
6
CONTINUOUS
10
74.9684640929
20
247.8219289969
11
74.7457468077
21
247.2972402762
0
LINE
5
21E
100
AcDbEntity
8
0
100
AcDbLine
62
7
6
CONTINUOUS
10
70.9348146483
20
238.3192501258
11
70.3409044310
21
236.9200830649
0
LINE
5
21F
100
AcDbEntity
8
0
100
AcDbLine
62
7
6
CONTINUOUS
10
71.9989053771
20
240.8260917853
11
71.8751756712
21
240.5345983695
0
LINE
5
220
100
AcDbEntity
8
0
100
AcDbLine
62
7
6
CONTINUOUS
10
75.6861040160
20
249.5125894736
11
75.5871202513
21
249.2793951224
0
LINE
5
221
100
AcDbEntity
8
0
100
AcDbLine
62
7
6
CONTINUOUS
10
76.9976579710
20
252.6024179648
11
76.8491823241
21
252.2526254844
0
LINE
5
222
100
AcDbEntity
8
0
100
AcDbLine
62
7
6
CONTINUOUS
10
70.8614999815
20
237.1119198989
11
71.3316804930
21
238.2195940207
0
LINE
5
223
100
AcDbEntity
8
0
100
AcDbLine
62
7
6
CONTINUOUS
10
75.9344942137
20
249.0631418418
11
76.0334779784
21
249.2963361930
0
LINE
5
224
100
AcDbEntity
8
0
100
AcDbLine
62
7
6
CONTINUOUS
10
75.9090082213
20
249.8307905387
11
75.6861040160
21
249.5125894736
0
LINE
5
225
100
AcDbEntity
8
0
100
AcDbLine
62
7
6
CONTINUOUS
10
72.1970598265
20
241.0859937857
11
71.9989053771
21
240.8260917853
0
LINE
5
226
100
AcDbEntity
8
0
100
AcDbLine
62
7
6
CONTINUOUS
10
71.1329690978
20
238.5791521262
11
70.9348146483
21
238.3192501258
0
LINE
5
227
100
AcDbEntity
8
0
100
AcDbLine
62
7
6
CONTINUOUS
10
76.0334779784
20
249.2963361930
11
76.2316324278
21
249.5562372397
0
LINE
5
228
100
AcDbEntity
8
0
100
AcDbLine
62
7
6
CONTINUOUS
10
72.4701959654
20
240.6948442649
11
72.6188585326
21
240.8381490897
0
LINE
5
229
100
AcDbEntity
8
0
100
AcDbLine
62
7
6
CONTINUOUS
10
76.1568414732
20
250.0008020591
11
75.9090082213
21
249.8307905387
0
LINE
5
22A
100
AcDbEntity
8
0
100
AcDbLine
62
7
6
CONTINUOUS
10
108.5321552321
20
268.9663686942
11
108.8388218447
21
269.1621122550
0
LINE
5
22B
100
AcDbEntity
8
0
100
AcDbLine
62
7
6
CONTINUOUS
10
94.0509397551
20
262.6959562491
11
92.0302145049
21
261.5292902182
0
LINE
5
22C
100
AcDbEntity
8
0
100
AcDbLine
62
7
6
CONTINUOUS
10
91.7188226744
20
260.7353048514
11
94.3168985411
21
262.2353048514
0
LINE
5
22D
100
AcDbEntity
8
0
100
AcDbLine
62
7
6
CONTINUOUS
10
76.2316324278
20
249.5562372397
11
76.4547197386
21
249.6679525565
0
LINE
5
22E
100
AcDbEntity
8
0
100
AcDbLine
62
7
6
CONTINUOUS
10
115.3554884955
20
267.4004125785
11
115.0488221213
21
267.3025388907
0
LINE
5
22F
100
AcDbEntity
8
0
100
AcDbLine
62
7
6
CONTINUOUS
10
71.8751756712
20
240.5345983695
11
71.8506128356
21
240.2698135566
0
LINE
5
230
100
AcDbEntity
8
0
100
AcDbLine
62
7
6
CONTINUOUS
10
75.5871202513
20
249.2793951224
11
75.4883195921
21
248.8397131156
0
LINE
5
231
100
AcDbEntity
8
0
100
AcDbLine
62
7
6
CONTINUOUS
10
72.3217165038
20
240.3450527381
11
72.4701959654
21
240.6948442649
0
LINE
5
232
100
AcDbEntity
8
0
100
AcDbLine
62
7
6
CONTINUOUS
10
72.9907915160
20
240.8866806220
11
73.1392709776
21
241.2364731025
0
LINE
5
233
100
AcDbEntity
8
0
100
AcDbLine
62
7
6
CONTINUOUS
10
76.0098421141
20
247.9991159629
11
76.1335718199
21
248.2906084250
0
LINE
5
234
100
AcDbEntity
8
0
100
AcDbLine
62
7
6
CONTINUOUS
10
72.4480363890
20
237.7457285117
11
71.9778558775
21
236.6380543898
0
LINE
5
235
100
AcDbEntity
8
0
100
AcDbLine
62
7
6
CONTINUOUS
10
73.5121271178
20
240.2525701712
11
73.3636514708
21
239.9027776908
0
LINE
5
236
100
AcDbEntity
8
0
100
AcDbLine
62
7
6
CONTINUOUS
10
73.8101923033
20
239.7132320594
11
73.9586717650
21
240.0630235862
0
LINE
5
237
100
AcDbEntity
8
0
100
AcDbLine
62
7
6
CONTINUOUS
10
72.4244005248
20
236.4485082816
11
72.8450853392
21
237.4395852279
0
LINE
5
238
100
AcDbEntity
8
0
100
AcDbLine
62
7
6
CONTINUOUS
10
78.8586236998
20
251.3996668052
11
78.4379350707
21
250.4085912894
0
LINE
5
239
100
AcDbEntity
8
0
100
AcDbLine
62
7
6
CONTINUOUS
10
79.2545644804
20
252.3324461173
11
79.0071031615
21
251.7494592856
0
LINE
5
23A
100
AcDbEntity
8
0
100
AcDbLine
62
7
6
CONTINUOUS
10
78.7112543150
20
249.8109541129
11
79.3051664397
21
251.2101221274
0
LINE
5
23B
100
AcDbEntity
8
0
100
AcDbLine
62
7
6
CONTINUOUS
10
79.4536439940
20
251.5599127005
11
79.7011072203
21
252.1428995322
0
LINE
5
23C
100
AcDbEntity
8
0
100
AcDbLine
62
7
6
CONTINUOUS
10
74.1581193968
20
238.8775177192
11
74.0096437499
21
238.5277252387
0
LINE
5
23D
100
AcDbEntity
8
0
100
AcDbLine
62
7
6
CONTINUOUS
10
75.0750276610
20
239.5891580771
11
74.8770563170
21
239.1227693747
0
LINE
5
23E
100
AcDbEntity
8
0
100
AcDbLine
62
7
6
CONTINUOUS
10
79.1830999419
20
249.0602464866
11
78.4902040526
21
247.4278841208
0
LINE
5
23F
100
AcDbEntity
8
0
100
AcDbLine
62
7
6
CONTINUOUS
10
78.3179018065
20
245.9873590659
11
78.4663812682
21
246.3371496390
0
LINE
5
240
100
AcDbEntity
8
0
100
AcDbLine
62
7
6
CONTINUOUS
10
77.2785570189
20
243.5388155173
11
77.4270364806
21
243.8886079978
0
LINE
5
241
100
AcDbEntity
8
0
100
AcDbLine
62
7
6
CONTINUOUS
10
73.8388216063
20
235.4353046607
11
73.9873010680
21
235.7850966643
0
LINE
5
242
100
AcDbEntity
8
0
100
AcDbLine
62
7
6
CONTINUOUS
10
74.6059572264
20
237.2425627898
11
74.7791826293
21
237.6506529044
0
LINE
5
243
100
AcDbEntity
8
0
100
AcDbLine
62
7
6
CONTINUOUS
10
77.7734834715
20
244.7047882270
11
77.9714548155
21
245.1711778830
0
LINE
5
244
100
AcDbEntity
8
0
100
AcDbLine
62
7
6
CONTINUOUS
10
80.3470994994
20
250.7678480338
11
80.4955770537
21
251.1176386069
0
LINE
5
245
100
AcDbEntity
8
0
100
AcDbLine
62
7
6
CONTINUOUS
10
75.3236009642
20
238.9332227897
11
75.5215723082
21
239.3996124457
0
LINE
5
246
100
AcDbEntity
8
0
100
AcDbLine
62
7
6
CONTINUOUS
10
78.6643526122
20
246.8035402488
11
79.5552179381
21
248.9022913169
0
LINE
5
247
100
AcDbEntity
8
0
100
AcDbLine
62
7
6
CONTINUOUS
10
89.9937021300
20
265.3899679374
11
89.8114091918
21
265.0390424918
0
LINE
5
248
100
AcDbEntity
8
0
100
AcDbLine
62
7
6
CONTINUOUS
10
73.7102815672
20
240.5124721717
11
73.5121271178
21
240.2525701712
0
LINE
5
249
100
AcDbEntity
8
0
100
AcDbLine
62
7
6
CONTINUOUS
10
75.1254465148
20
238.6733207892
11
75.3236009642
21
238.9332227897
0
LINE
5
24A
100
AcDbEntity
8
0
100
AcDbLine
62
7
6
CONTINUOUS
10
73.9586717650
20
240.0630235862
11
74.1320802733
21
240.2646274756
0
LINE
5
24B
100
AcDbEntity
8
0
100
AcDbLine
62
7
6
CONTINUOUS
10
73.6367837950
20
239.5116281699
11
73.8101923033
21
239.7132320594
0
LINE
5
24C
100
AcDbEntity
8
0
100
AcDbLine
62
7
6
CONTINUOUS
10
74.8770563170
20
239.1227693747
11
74.7036478087
21
238.9211654853
0
LINE
5
24D
100
AcDbEntity
8
0
100
AcDbLine
62
7
6
CONTINUOUS
10
71.3316804930
20
238.2195940207
11
71.4803430602
21
238.3628988456
0
LINE
5
24E
100
AcDbEntity
8
0
100
AcDbLine
62
7
6
CONTINUOUS
10
73.3636514708
20
239.9027776908
11
73.2149889037
21
239.7594728659
0
LINE
5
24F
100
AcDbEntity
8
0
100
AcDbLine
62
7
6
CONTINUOUS
10
73.9581148192
20
240.6824846457
11
73.7102815672
21
240.5124721717
0
LINE
5
250
100
AcDbEntity
8
0
100
AcDbLine
62
7
6
CONTINUOUS
10
73.3889505431
20
239.3416156958
11
73.6367837950
21
239.5116281699
0
LINE
5
251
100
AcDbEntity
8
0
100
AcDbLine
62
7
6
CONTINUOUS
10
111.7521552607
20
266.8131780814
11
112.0588218733
21
267.0089216422
0
LINE
5
252
100
AcDbEntity
8
0
100
AcDbLine
62
7
6
CONTINUOUS
10
115.4321553275
20
266.8131780814
11
115.7388217017
21
267.0089216422
0
LINE
5
253
100
AcDbEntity
8
0
100
AcDbLine
62
7
6
CONTINUOUS
10
72.5193178221
20
241.2244157981
11
72.1970598265
21
241.0859937857
0
LINE
5
254
100
AcDbEntity
8
0
100
AcDbLine
62
7
6
CONTINUOUS
10
72.3219034239
20
240.1385660361
11
72.3217165038
21
240.3450527381
0
LINE
5
255
100
AcDbEntity
8
0
100
AcDbLine
62
7
6
CONTINUOUS
10
72.4478532835
20
237.9522152137
11
72.4480363890
21
237.7457285117
0
LINE
5
256
100
AcDbEntity
8
0
100
AcDbLine
62
7
6
CONTINUOUS
10
75.0995904967
20
239.8539438437
11
75.0750276610
21
239.5891580771
0
LINE
5
257
100
AcDbEntity
8
0
100
AcDbLine
62
7
6
CONTINUOUS
10
75.8851854369
20
248.7400560569
11
75.9344942137
21
249.0631418418
0
LINE
5
258
100
AcDbEntity
8
0
100
AcDbLine
62
7
6
CONTINUOUS
10
75.5215723082
20
239.3996124457
11
75.5708772704
21
239.7226963233
0
LINE
5
259
100
AcDbEntity
8
0
100
AcDbLine
62
7
6
CONTINUOUS
10
90.2217046782
20
264.6617231559
11
90.3318273589
21
264.9709844779
0
LINE
5
25A
100
AcDbEntity
8
0
100
AcDbLine
62
7
6
CONTINUOUS
10
108.6088218256
20
269.6514730643
11
108.4554886385
21
269.4557295035
0
LINE
5
25B
100
AcDbEntity
8
0
100
AcDbLine
62
7
6
CONTINUOUS
10
111.9054885670
20
267.5961561393
11
111.6754886076
21
267.4004125785
0
LINE
5
25C
100
AcDbEntity
8
0
100
AcDbLine
62
7
6
CONTINUOUS
10
115.5854885146
20
267.5961561393
11
115.3554884955
21
267.4004125785
0
LINE
5
25D
100
AcDbEntity
8
0
100
AcDbLine
62
7
6
CONTINUOUS
10
74.7784425780
20
238.4766006659
11
75.1254465148
21
238.6733207892
0
LINE
5
25E
100
AcDbEntity
8
0
100
AcDbLine
62
7
6
CONTINUOUS
10
74.1320802733
20
240.2646274756
11
74.3551675841
21
240.3763408850
0
LINE
5
25F
100
AcDbEntity
8
0
100
AcDbLine
62
7
6
CONTINUOUS
10
73.2149889037
20
239.7594728659
11
72.9919015929
21
239.6477594565
0
LINE
5
260
100
AcDbEntity
8
0
100
AcDbLine
62
7
6
CONTINUOUS
10
71.4552270934
20
238.7175741385
11
71.1329690978
21
238.5791521262
0
LINE
5
261
100
AcDbEntity
8
0
100
AcDbLine
62
7
6
CONTINUOUS
10
77.7244953862
20
198.1605043669
11
65.1100079700
21
228.6145709694
0
LINE
5
262
100
AcDbEntity
8
0
100
AcDbLine
62
7
6
CONTINUOUS
10
112.0588218733
20
267.0089216422
11
112.3654886052
21
267.4004125785
0
LINE
5
263
100
AcDbEntity
8
0
100
AcDbLine
62
7
6
CONTINUOUS
10
123.0188219115
20
177.6453046988
11
99.0188219115
21
177.6453046988
0
LINE
5
264
100
AcDbEntity
8
0
100
AcDbLine
62
7
6
CONTINUOUS
10
120.8188219115
20
179.8453046988
11
101.2188219115
21
179.8453046988
0
LINE
5
265
100
AcDbEntity
8
0
100
AcDbLine
62
7
6
CONTINUOUS
10
71.8506128356
20
240.2698135566
11
71.9004747435
21
239.9734363746
0
LINE
5
266
100
AcDbEntity
8
0
100
AcDbLine
62
7
6
CONTINUOUS
10
72.8447191283
20
237.8525591086
11
72.7948534056
21
238.1489353370
0
LINE
5
267
100
AcDbEntity
8
0
100
AcDbLine
62
7
6
CONTINUOUS
10
89.8114091918
20
265.0390424918
11
89.7355005309
21
264.5038519095
0
LINE
5
268
100
AcDbEntity
8
0
100
AcDbLine
62
7
6
CONTINUOUS
10
92.1438028380
20
264.6658811759
11
91.4528638884
21
261.1959562491
0
LINE
5
269
100
AcDbEntity
8
0
100
AcDbLine
62
7
6
CONTINUOUS
10
92.0302145049
20
261.5292902182
11
92.6642210051
21
264.5978231620
0
LINE
5
26A
100
AcDbEntity
8
0
100
AcDbLine
62
7
6
CONTINUOUS
10
108.8388218447
20
269.1621122550
11
109.0688218638
21
269.5536031913
0
LINE
5
26B
100
AcDbEntity
8
0
100
AcDbLine
62
7
6
CONTINUOUS
10
115.7388217017
20
267.0089216422
11
116.0454885527
21
267.4004125785
0
LINE
5
26C
100
AcDbEntity
8
0
100
AcDbLine
62
7
6
CONTINUOUS
10
86.0188219115
20
185.6453046988
11
136.0188219115
21
185.6453046988
0
LINE
5
26D
100
AcDbEntity
8
0
100
AcDbLine
62
7
6
CONTINUOUS
10
72.3965112731
20
239.9004879187
11
72.3219034239
21
240.1385660361
0
LINE
5
26E
100
AcDbEntity
8
0
100
AcDbLine
62
7
6
CONTINUOUS
10
75.0249788329
20
240.0920219611
11
75.0995904967
21
239.8539438437
0
LINE
5
26F
100
AcDbEntity
8
0
100
AcDbLine
62
7
6
CONTINUOUS
10
75.5708772704
20
239.7226963233
11
75.5210153624
21
240.0190735053
0
LINE
5
270
100
AcDbEntity
8
0
100
AcDbLine
62
7
6
CONTINUOUS
10
75.4883195921
20
248.8397131156
11
75.5381815001
21
248.5433359336
0
LINE
5
271
100
AcDbEntity
8
0
100
AcDbLine
62
7
6
CONTINUOUS
10
86.0188219115
20
185.6453046988
11
86.0188219115
21
191.2345295154
0
LINE
5
272
100
AcDbEntity
8
0
100
AcDbLine
62
7
6
CONTINUOUS
10
112.0588218733
20
267.8897733878
11
111.9054885670
21
267.5961561393
0
LINE
5
273
100
AcDbEntity
8
0
100
AcDbLine
62
7
6
CONTINUOUS
10
115.7388217017
20
267.8897733878
11
115.5854885146
21
267.5961561393
0
LINE
5
274
100
AcDbEntity
8
0
100
AcDbLine
62
7
6
CONTINUOUS
10
72.3484956786
20
238.1319947432
11
72.4478532835
21
237.9522152137
0
LINE
5
275
100
AcDbEntity
8
0
100
AcDbLine
62
7
6
CONTINUOUS
10
71.9004747435
20
239.9734363746
11
72.0991861388
21
239.6138782691
0
LINE
5
276
100
AcDbEntity
8
0
100
AcDbLine
62
7
6
CONTINUOUS
10
75.9597932860
20
248.5019788932
11
75.8851854369
21
248.7400560569
0
LINE
5
277
100
AcDbEntity
8
0
100
AcDbLine
62
7
6
CONTINUOUS
10
90.2369405791
20
264.3019972037
11
90.2217046782
21
264.6617231559
0
LINE
5
278
100
AcDbEntity
8
0
100
AcDbLine
62
7
6
CONTINUOUS
10
92.6642210051
20
264.5978231620
11
92.6489851042
21
264.9575491141
0
LINE
5
279
100
AcDbEntity
8
0
100
AcDbLine
62
7
6
CONTINUOUS
10
108.6854886576
20
269.9450903128
11
108.6088218256
21
269.6514730643
0
LINE
5
27A
100
AcDbEntity
8
0
100
AcDbLine
62
7
6
CONTINUOUS
10
109.0688218638
20
269.5536031913
11
109.1454885766
21
269.8472204398
0
LINE
5
27B
100
AcDbEntity
8
0
100
AcDbLine
62
7
6
CONTINUOUS
10
112.3654886052
20
267.4004125785
11
112.5188219115
21
267.7918997001
0
LINE
5
27C
100
AcDbEntity
8
0
100
AcDbLine
62
7
6
CONTINUOUS
10
116.0454885527
20
267.4004125785
11
116.1988217398
21
267.7918997001
0
LINE
5
27D
100
AcDbEntity
8
0
100
AcDbLine
62
7
6
CONTINUOUS
10
142.9273291380
20
197.2345295154
11
140.0461859860
21
197.2345295154
0
LINE
5
27E
100
AcDbEntity
8
0
100
AcDbLine
62
7
6
CONTINUOUS
10
81.9914578370
20
197.2345295154
11
79.1103146850
21
197.2345295154
0
LINE
5
27F
100
AcDbEntity
8
0
100
AcDbLine
62
7
6
CONTINUOUS
10
120.8188219115
20
179.8453046988
11
123.0188219115
21
177.6453046988
0
LINE
5
280
100
AcDbEntity
8
0
100
AcDbLine
62
7
6
CONTINUOUS
10
72.7948534056
20
238.1489353370
11
72.5713998839
21
238.4501953315
0
LINE
5
281
100
AcDbEntity
8
0
100
AcDbLine
62
7
6
CONTINUOUS
10
75.5210153624
20
240.0190735053
11
75.3223077818
21
240.3786316108
0
LINE
5
282
100
AcDbEntity
8
0
100
AcDbLine
62
7
6
CONTINUOUS
10
99.0188219115
20
177.6453046988
11
99.0188219115
21
151.1453046988
0
LINE
5
283
100
AcDbEntity
8
0
100
AcDbLine
62
7
6
CONTINUOUS
10
101.2188219115
20
185.6453046988
11
101.2188219115
21
179.8453046988
0
LINE
5
284
100
AcDbEntity
8
0
100
AcDbLine
62
7
6
CONTINUOUS
10
74.8512002989
20
240.3033924292
11
75.0249788329
21
240.0920219611
0
LINE
5
285
100
AcDbEntity
8
0
100
AcDbLine
62
7
6
CONTINUOUS
10
75.5381815001
20
248.5433359336
11
75.7368928954
21
248.1837778281
0
LINE
5
286
100
AcDbEntity
8
0
100
AcDbLine
62
7
6
CONTINUOUS
10
77.1245348021
20
249.3836317252
11
78.2922327086
21
246.9614954184
0
LINE
5
287
100
AcDbEntity
8
0
100
AcDbLine
62
7
6
CONTINUOUS
10
78.4902040526
20
247.4278841208
11
77.4715387389
21
249.5803518485
0
LINE
5
288
100
AcDbEntity
8
0
100
AcDbLine
62
7
6
CONTINUOUS
10
92.0753747984
20
265.1177358817
11
92.1438028380
21
264.6658811759
0
LINE
5
289
100
AcDbEntity
8
0
100
AcDbLine
62
7
6
CONTINUOUS
10
106.3088218733
20
271.3153028678
11
106.3088218733
21
266.7153043937
0
LINE
5
28A
100
AcDbEntity
8
0
100
AcDbLine
62
7
6
CONTINUOUS
10
112.5188219115
20
267.7918997001
11
112.5954886242
21
268.2812605094
0
LINE
5
28B
100
AcDbEntity
8
0
100
AcDbLine
62
7
6
CONTINUOUS
10
112.1354885861
20
268.2812605094
11
112.0588218733
21
267.8897733878
0
LINE
5
28C
100
AcDbEntity
8
0
100
AcDbLine
62
7
6
CONTINUOUS
10
115.8154885336
20
268.2812605094
11
115.7388217017
21
267.8897733878
0
LINE
5
28D
100
AcDbEntity
8
0
100
AcDbLine
62
7
6
CONTINUOUS
10
75.3223077818
20
240.3786316108
11
75.0741045043
21
240.6215934943
0
LINE
5
28E
100
AcDbEntity
8
0
100
AcDbLine
62
7
6
CONTINUOUS
10
76.1335718199
20
248.2906084250
11
75.9597932860
21
248.5019788932
0
LINE
5
28F
100
AcDbEntity
8
0
100
AcDbLine
62
7
6
CONTINUOUS
10
76.8491823241
20
252.2526254844
11
78.2647134825
21
250.0005006980
0
LINE
5
290
100
AcDbEntity
8
0
100
AcDbLine
62
7
6
CONTINUOUS
10
78.4379350707
20
250.4085912894
11
77.4445726439
21
251.9998979758
0
LINE
5
291
100
AcDbEntity
8
0
100
AcDbLine
62
7
6
CONTINUOUS
10
106.7688219115
20
266.7153043937
11
106.7688219115
21
268.7706251334
0
LINE
5
292
100
AcDbEntity
8
0
100
AcDbLine
62
7
6
CONTINUOUS
10
106.7688219115
20
269.3578596305
11
106.7688219115
21
270.8259420585
0
LINE
5
293
100
AcDbEntity
8
0
100
AcDbLine
62
7
6
CONTINUOUS
10
108.6854886576
20
270.2387075614
11
108.6854886576
21
269.9450903128
0
LINE
5
294
100
AcDbEntity
8
0
100
AcDbLine
62
7
6
CONTINUOUS
10
109.1454885766
20
269.8472204398
11
109.1454885766
21
270.2387075614
0
LINE
5
295
100
AcDbEntity
8
0
100
AcDbLine
62
7
6
CONTINUOUS
10
109.8354886338
20
271.3153028678
11
109.8354886338
21
268.2812605094
0
LINE
5
296
100
AcDbEntity
8
0
100
AcDbLine
62
7
6
CONTINUOUS
10
110.2954885527
20
268.2812605094
11
110.2954885527
21
271.3153028678
0
LINE
5
297
100
AcDbEntity
8
DEFAULT_1
100
AcDbLine
62
2
6
CENTER
10
111.0188219115
20
230.1453046988
11
111.0188219115
21
146.7495034052
0
LINE
5
298
100
AcDbEntity
8
DEFAULT_1
100
AcDbLine
62
2
6
CENTER
10
111.0188219115
20
230.1453046988
11
111.0188219115
21
258.1453046988
0
LINE
5
299
100
AcDbEntity
8
0
100
AcDbLine
62
7
6
CONTINUOUS
10
116.1988217398
20
267.7918997001
11
116.2754885718
21
268.2812605094
0
LINE
5
29A
100
AcDbEntity
8
0
100
AcDbLine
62
7
6
CONTINUOUS
10
72.0991861388
20
239.6138782691
11
72.3721353575
21
239.4292154502
0
LINE
5
29B
100
AcDbEntity
8
0
100
AcDbLine
62
7
6
CONTINUOUS
10
72.1499712035
20
238.2850666236
11
72.3484956786
21
238.1319947432
0
LINE
5
29C
100
AcDbEntity
8
0
100
AcDbLine
62
7
6
CONTINUOUS
10
72.5713998839
20
238.4501953315
11
72.3728754088
21
238.6032676886
0
LINE
5
29D
100
AcDbEntity
8
0
100
AcDbLine
62
7
6
CONTINUOUS
10
72.5950357481
20
239.7474155616
11
72.3965112731
21
239.9004879187
0
LINE
5
29E
100
AcDbEntity
8
0
100
AcDbLine
62
7
6
CONTINUOUS
10
77.4715387389
20
249.5803518485
11
77.2977563902
21
249.7917223166
0
LINE
5
29F
100
AcDbEntity
8
0
100
AcDbLine
62
7
6
CONTINUOUS
10
89.7355005309
20
264.5038519095
11
89.8760969206
21
264.0936651419
0
LINE
5
2A0
100
AcDbEntity
8
0
100
AcDbLine
62
7
6
CONTINUOUS
10
92.6489851042
20
264.9575491141
11
92.5083868071
21
265.3677358817
0
LINE
5
2A1
100
AcDbEntity
8
0
100
AcDbLine
62
7
6
CONTINUOUS
10
112.1354885861
20
271.3153028678
11
112.1354885861
21
268.2812605094
0
LINE
5
2A2
100
AcDbEntity
8
0
100
AcDbLine
62
7
6
CONTINUOUS
10
112.5954886242
20
268.2812605094
11
112.5954886242
21
271.3153028678
0
LINE
5
2A3
100
AcDbEntity
8
0
100
AcDbLine
62
7
6
CONTINUOUS
10
113.2088219687
20
271.3153028678
11
113.2088219687
21
266.7153043937
0
LINE
5
2A4
100
AcDbEntity
8
0
100
AcDbLine
62
7
6
CONTINUOUS
10
113.6688220068
20
267.3025388907
11
113.6688220068
21
270.7280721854
0
LINE
5
2A5
100
AcDbEntity
8
0
100
AcDbLine
62
7
6
CONTINUOUS
10
115.8154885336
20
269.7493467521
11
115.8154885336
21
268.2812605094
0
LINE
5
2A6
100
AcDbEntity
8
0
100
AcDbLine
62
7
6
CONTINUOUS
10
116.2754885718
20
268.2812605094
11
116.2754885718
21
269.7493467521
0
LINE
5
2A7
100
AcDbEntity
8
0
100
AcDbLine
62
7
6
CONTINUOUS
10
74.7457468077
20
247.2972402762
11
77.5003511473
21
245.0959387015
0
LINE
5
2A8
100
AcDbEntity
8
0
100
AcDbLine
62
7
6
CONTINUOUS
10
77.9714548155
20
245.1711778830
11
75.5642244383
21
247.1562261771
0
LINE
5
2A9
100
AcDbEntity
8
0
100
AcDbLine
62
7
6
CONTINUOUS
10
76.8763315245
20
249.6265936087
11
77.1245348021
21
249.3836317252
0
LINE
5
2AA
100
AcDbEntity
8
0
100
AcDbLine
62
7
6
CONTINUOUS
10
120.8188219115
20
185.6453046988
11
120.8188219115
21
179.8453046988
0
LINE
5
2AB
100
AcDbEntity
8
0
100
AcDbLine
62
7
6
CONTINUOUS
10
70.3409044310
20
236.9200830649
11
73.8388216063
21
235.4353046607
0
LINE
5
2AC
100
AcDbEntity
8
0
100
AcDbLine
62
7
6
CONTINUOUS
10
71.9778558775
20
236.6380543898
11
70.8614999815
21
237.1119198989
0
LINE
5
2AD
100
AcDbEntity
8
0
100
AcDbLine
62
7
6
CONTINUOUS
10
73.9873010680
20
235.7850966643
11
72.4244005248
21
236.4485082816
0
LINE
5
2AE
100
AcDbEntity
8
0
100
AcDbLine
62
7
6
CONTINUOUS
10
71.9267007872
20
238.3798399161
11
72.1499712035
21
238.2850666236
0
LINE
5
2AF
100
AcDbEntity
8
0
100
AcDbLine
62
7
6
CONTINUOUS
10
72.3728754088
20
238.6032676886
11
72.0751802489
21
238.7296314429
0
LINE
5
2B0
100
AcDbEntity
8
0
100
AcDbLine
62
7
6
CONTINUOUS
10
72.3721353575
20
239.4292154502
11
72.6698305174
21
239.3028507422
0
LINE
5
2B1
100
AcDbEntity
8
0
100
AcDbLine
62
7
6
CONTINUOUS
10
72.7438852355
20
239.6842336844
11
72.5950357481
21
239.7474155616
0
LINE
5
2B2
100
AcDbEntity
8
0
100
AcDbLine
62
7
6
CONTINUOUS
10
74.6279298827
20
240.3981657218
11
74.8512002989
21
240.3033924292
0
LINE
5
2B3
100
AcDbEntity
8
0
100
AcDbLine
62
7
6
CONTINUOUS
10
75.7368928954
20
248.1837778281
11
76.0098421141
21
247.9991159629
0
LINE
5
2B4
100
AcDbEntity
8
0
100
AcDbLine
62
7
6
CONTINUOUS
10
91.4528638884
20
261.1959562491
11
91.7188226744
21
260.7353048514
0
LINE
5
2B5
100
AcDbEntity
8
0
100
AcDbLine
62
7
6
CONTINUOUS
10
91.9689924284
20
265.3019972037
11
92.0753747984
21
265.1177358817
0
LINE
5
2B6
100
AcDbEntity
8
0
100
AcDbLine
62
7
6
CONTINUOUS
10
92.5083868071
20
265.3677358817
11
92.4020044371
21
265.5519972037
0
LINE
5
2B7
100
AcDbEntity
8
0
100
AcDbLine
62
7
6
CONTINUOUS
10
94.3168985411
20
262.2353048514
11
94.0509397551
21
262.6959562491
0
LINE
5
2B8
100
AcDbEntity
8
0
100
AcDbLine
62
7
6
CONTINUOUS
10
93.1921197936
20
265.5168104361
11
93.4048864409
21
265.1482877921
0
LINE
5
2B9
100
AcDbEntity
8
0
100
AcDbLine
62
7
6
CONTINUOUS
10
110.3721552655
20
267.8897733878
11
110.2954885527
21
268.2812605094
0
LINE
5
2BA
100
AcDbEntity
8
0
100
AcDbLine
62
7
6
CONTINUOUS
10
109.8354886338
20
268.2812605094
11
109.9121552273
21
267.7918997001
0
LINE
5
2BB
100
AcDbEntity
8
0
100
AcDbLine
62
7
6
CONTINUOUS
10
123.0188219115
20
177.6453046988
11
123.0188219115
21
151.1453046988
0
LINE
5
2BC
100
AcDbEntity
8
0
100
AcDbLine
62
7
6
CONTINUOUS
10
75.0741045043
20
240.6215934943
11
74.7019846007
21
240.7795486640
0
LINE
5
2BD
100
AcDbEntity
8
0
100
AcDbLine
62
7
6
CONTINUOUS
10
73.7806398436
20
245.0235939215
11
77.2785570189
21
243.5388155173
0
LINE
5
2BE
100
AcDbEntity
8
0
100
AcDbLine
62
7
6
CONTINUOUS
10
77.4270364806
20
243.8886079978
11
74.6733552977
21
245.0574760627
0
LINE
5
2BF
100
AcDbEntity
8
0
100
AcDbLine
62
7
6
CONTINUOUS
10
77.2977563902
20
249.7917223166
11
77.0248109862
21
249.9763860892
0
LINE
5
2C0
100
AcDbEntity
8
0
100
AcDbLine
62
7
6
CONTINUOUS
10
93.9822370574
20
265.4816198539
11
95.0460664794
21
263.6390142630
0
LINE
5
2C1
100
AcDbEntity
8
0
100
AcDbLine
62
7
6
CONTINUOUS
10
93.3439390227
20
266.5871839713
11
93.7694704100
21
265.8501424979
0
LINE
5
2C2
100
AcDbEntity
8
0
100
AcDbLine
62
7
6
CONTINUOUS
10
94.1303140685
20
266.0584745597
11
93.7047826811
21
266.7955198478
0
LINE
5
2C3
100
AcDbEntity
8
0
100
AcDbLine
62
7
6
CONTINUOUS
10
95.3005277678
20
264.0316076468
11
94.3430807158
21
265.6899557303
0
LINE
5
2C4
100
AcDbEntity
8
0
100
AcDbLine
62
7
6
CONTINUOUS
10
96.4819614455
20
263.4853048514
11
96.2691957518
21
263.8538274955
0
LINE
5
2C5
100
AcDbEntity
8
0
100
AcDbLine
62
7
6
CONTINUOUS
10
95.1369373366
20
266.1482877921
11
94.9241716429
21
266.5168104361
0
LINE
5
2C6
100
AcDbEntity
8
0
100
AcDbLine
62
7
6
CONTINUOUS
10
109.2221552893
20
266.7153043937
11
108.5321552321
21
268.9663686942
0
LINE
5
2C7
100
AcDbEntity
8
0
100
AcDbLine
62
7
6
CONTINUOUS
10
108.0721551939
20
268.7706251334
11
108.6854886576
21
266.7153043937
0
LINE
5
2C8
100
AcDbEntity
8
0
100
AcDbLine
62
7
6
CONTINUOUS
10
108.6088218256
20
270.5323248099
11
108.6854886576
21
270.2387075614
0
LINE
5
2C9
100
AcDbEntity
8
0
100
AcDbLine
62
7
6
CONTINUOUS
10
109.1454885766
20
270.2387075614
11
109.0688218638
21
270.5323248099
0
LINE
5
2CA
100
AcDbEntity
8
0
100
AcDbLine
62
7
6
CONTINUOUS
10
115.7388217017
20
270.1408376883
11
115.8154885336
21
269.7493467521
0
LINE
5
2CB
100
AcDbEntity
8
0
100
AcDbLine
62
7
6
CONTINUOUS
10
116.2754885718
20
269.7493467521
11
116.1988217398
21
270.2387075614
0
LINE
5
2CC
100
AcDbEntity
8
0
100
AcDbLine
62
7
6
CONTINUOUS
10
101.2188219115
20
179.8453046988
11
99.0188219115
21
177.6453046988
0
LINE
5
2CD
100
AcDbEntity
8
DEFAULT_1
100
AcDbLine
62
2
6
CENTER
10
111.0188219115
20
230.1453046988
11
83.0188219115
21
230.1453046988
0
LINE
5
2CE
100
AcDbEntity
8
DEFAULT_1
100
AcDbLine
62
2
6
CENTER
10
111.0188219115
20
230.1453046988
11
139.0188219115
21
230.1453046988
0
LINE
5
2CF
100
AcDbEntity
8
0
100
AcDbLine
62
7
6
CONTINUOUS
10
74.7791826293
20
237.6506529044
11
72.8447191283
21
237.8525591086
0
LINE
5
2D0
100
AcDbEntity
8
0
100
AcDbLine
62
7
6
CONTINUOUS
10
72.8450853392
20
237.4395852279
11
74.6059572264
21
237.2425627898
0
LINE
5
2D1
100
AcDbEntity
8
0
100
AcDbLine
62
7
6
CONTINUOUS
10
71.6786844298
20
238.4163141440
11
71.9267007872
21
238.3798399161
0
LINE
5
2D2
100
AcDbEntity
8
0
100
AcDbLine
62
7
6
CONTINUOUS
10
72.0751802489
20
238.7296314429
11
71.8271600768
21
238.7661056708
0
LINE
5
2D3
100
AcDbEntity
8
0
100
AcDbLine
62
7
6
CONTINUOUS
10
74.4061395689
20
238.8410425376
11
74.1581193968
21
238.8775177192
0
LINE
5
2D4
100
AcDbEntity
8
0
100
AcDbLine
62
7
6
CONTINUOUS
10
72.9919015929
20
239.6477594565
11
72.7438852355
21
239.6842336844
0
LINE
5
2D5
100
AcDbEntity
8
0
100
AcDbLine
62
7
6
CONTINUOUS
10
74.0096437499
20
238.5277252387
11
74.3320848509
21
238.4596595954
0
LINE
5
2D6
100
AcDbEntity
8
0
100
AcDbLine
62
7
6
CONTINUOUS
10
72.6698305174
20
239.3028507422
11
72.9922716185
21
239.2347850989
0
LINE
5
2D7
100
AcDbEntity
8
0
100
AcDbLine
62
7
6
CONTINUOUS
10
75.5642244383
20
247.1562261771
11
78.3179018065
21
245.9873590659
0
LINE
5
2D8
100
AcDbEntity
8
0
100
AcDbLine
62
7
6
CONTINUOUS
10
78.4663812682
20
246.3371496390
11
74.9684640929
21
247.8219289969
0
LINE
5
2D9
100
AcDbEntity
8
0
100
AcDbLine
62
7
6
CONTINUOUS
10
78.2922327086
20
246.9614954184
11
78.6643526122
21
246.8035402488
0
LINE
5
2DA
100
AcDbEntity
8
0
100
AcDbLine
62
7
6
CONTINUOUS
10
76.7274820372
20
249.6897764396
11
76.8763315245
21
249.6265936087
0
LINE
5
2DB
100
AcDbEntity
8
0
100
AcDbLine
62
7
6
CONTINUOUS
10
79.5552179381
20
248.9022913169
11
79.1830999419
21
249.0602464866
0
LINE
5
2DC
100
AcDbEntity
8
0
100
AcDbLine
62
7
6
CONTINUOUS
10
77.0248109862
20
249.9763860892
11
76.8759614989
21
250.0395670127
0
LINE
5
2DD
100
AcDbEntity
8
0
100
AcDbLine
62
7
6
CONTINUOUS
10
78.2647134825
20
250.0005006980
11
78.7112543150
21
249.8109541129
0
LINE
5
2DE
100
AcDbEntity
8
0
100
AcDbLine
62
7
6
CONTINUOUS
10
92.4020044371
20
265.5519972037
11
92.1170694396
21
265.8788519095
0
LINE
5
2DF
100
AcDbEntity
8
0
100
AcDbLine
62
7
6
CONTINUOUS
10
109.9121552273
20
267.7918997001
11
110.0654885932
21
267.4004125785
0
LINE
5
2E0
100
AcDbEntity
8
0
100
AcDbLine
62
7
6
CONTINUOUS
10
136.0188219115
20
185.6453046988
11
136.0188219115
21
191.2345295154
0
LINE
5
2E1
100
AcDbEntity
8
0
100
AcDbLine
62
7
6
CONTINUOUS
10
74.3320848509
20
238.4596595954
11
74.7784425780
21
238.4766006659
0
LINE
5
2E2
100
AcDbEntity
8
0
100
AcDbLine
62
7
6
CONTINUOUS
10
74.7019846007
20
240.7795486640
11
74.3547975585
21
240.7893152427
0
LINE
5
2E3
100
AcDbEntity
8
0
100
AcDbLine
62
7
6
CONTINUOUS
10
72.8171960875
20
240.8915643882
11
72.9907915160
21
240.8866806220
0
LINE
5
2E4
100
AcDbEntity
8
0
100
AcDbLine
62
7
6
CONTINUOUS
10
73.1392709776
20
241.2364731025
11
72.8912508055
21
241.2729473304
0
LINE
5
2E5
100
AcDbEntity
8
0
100
AcDbLine
62
7
6
CONTINUOUS
10
77.4445726439
20
251.9998979758
11
78.8586236998
21
251.3996668052
0
LINE
5
2E6
100
AcDbEntity
8
0
100
AcDbLine
62
7
6
CONTINUOUS
10
79.3051664397
20
251.2101221274
11
80.3470994994
21
250.7678480338
0
LINE
5
2E7
100
AcDbEntity
8
0
100
AcDbLine
62
7
6
CONTINUOUS
10
79.0071031615
20
251.7494592856
11
76.9976579710
21
252.6024179648
0
LINE
5
2E8
100
AcDbEntity
8
0
100
AcDbLine
62
7
6
CONTINUOUS
10
80.4955770537
20
251.1176386069
11
79.4536439940
21
251.5599127005
0
LINE
5
2E9
100
AcDbEntity
8
0
100
AcDbLine
62
7
6
CONTINUOUS
10
79.7011072203
20
252.1428995322
11
79.2545644804
21
252.3324461173
0
LINE
5
2EA
100
AcDbEntity
8
0
100
AcDbLine
62
7
6
CONTINUOUS
10
95.5322706267
20
263.7968855094
11
95.3005277678
21
264.0316076468
0
LINE
5
2EB
100
AcDbEntity
8
0
100
AcDbLine
62
7
6
CONTINUOUS
10
110.5254885718
20
267.5961561393
11
110.3721552655
21
267.8897733878
0
LINE
5
2EC
100
AcDbEntity
8
0
100
AcDbLine
62
7
6
CONTINUOUS
10
116.1988217398
20
270.2387075614
11
116.0454885527
21
270.6301984977
0
LINE
5
2ED
100
AcDbEntity
8
0
100
AcDbLine
62
7
6
CONTINUOUS
10
71.8271600768
20
238.7661056708
11
71.4552270934
21
238.7175741385
0
LINE
5
2EE
100
AcDbEntity
8
0
100
AcDbLine
62
7
6
CONTINUOUS
10
74.3551675841
20
240.3763408850
11
74.6279298827
21
240.3981657218
0
LINE
5
2EF
100
AcDbEntity
8
0
100
AcDbLine
62
7
6
CONTINUOUS
10
74.6733552977
20
245.0574760627
11
77.7734834715
21
244.7047882270
0
LINE
5
2F0
100
AcDbEntity
8
0
100
AcDbLine
62
7
6
CONTINUOUS
10
77.5003511473
20
245.0959387015
11
74.0033571288
21
245.5482816886
0
LINE
5
2F1
100
AcDbEntity
8
0
100
AcDbLine
62
7
6
CONTINUOUS
10
76.8759614989
20
250.0395670127
11
76.5535203978
21
250.1076326560
0
LINE
5
2F2
100
AcDbEntity
8
0
100
AcDbLine
62
7
6
CONTINUOUS
10
95.0460664794
20
263.6390142630
11
95.4031698271
21
263.3538274955
0
LINE
5
2F3
100
AcDbEntity
8
0
100
AcDbLine
62
7
6
CONTINUOUS
10
109.0688218638
20
270.5323248099
11
108.8388218447
21
270.9238157462
0
LINE
5
2F4
100
AcDbEntity
8
0
100
AcDbLine
62
7
6
CONTINUOUS
10
115.5854885146
20
270.4344549369
11
115.7388217017
21
270.1408376883
0
LINE
5
2F5
100
AcDbEntity
8
0
100
AcDbLine
62
7
6
CONTINUOUS
10
156.9276358529
20
228.6145709694
11
144.3131484368
21
198.1605043669
0
LINE
5
2F6
100
AcDbEntity
8
0
100
AcDbLine
62
7
6
CONTINUOUS
10
74.7036478087
20
238.9211654853
11
74.4061395689
21
238.8410425376
0
LINE
5
2F7
100
AcDbEntity
8
0
100
AcDbLine
62
7
6
CONTINUOUS
10
71.4803430602
20
238.3628988456
11
71.6786844298
21
238.4163141440
0
LINE
5
2F8
100
AcDbEntity
8
0
100
AcDbLine
62
7
6
CONTINUOUS
10
72.9922716185
20
239.2347850989
11
73.3889505431
21
239.3416156958
0
LINE
5
2F9
100
AcDbEntity
8
0
100
AcDbLine
62
7
6
CONTINUOUS
10
74.3547975585
20
240.7893152427
11
73.9581148192
21
240.6824846457
0
LINE
5
2FA
100
AcDbEntity
8
0
100
AcDbLine
62
7
6
CONTINUOUS
10
72.6188585326
20
240.8381490897
11
72.8171960875
21
240.8915643882
0
LINE
5
2FB
100
AcDbEntity
8
0
100
AcDbLine
62
7
6
CONTINUOUS
10
72.8912508055
20
241.2729473304
11
72.5193178221
21
241.2244157981
0
LINE
5
2FC
100
AcDbEntity
8
0
100
AcDbLine
62
7
6
CONTINUOUS
10
91.6650793120
20
265.4950552176
11
91.9689924284
21
265.3019972037
0
LINE
5
2FD
100
AcDbEntity
8
0
100
AcDbLine
62
7
6
CONTINUOUS
10
110.0654885932
20
267.4004125785
11
110.3721552655
21
267.0089216422
0
LINE
5
2FE
100
AcDbEntity
8
0
100
AcDbLine
62
7
6
CONTINUOUS
10
108.4554886385
20
270.7280721854
11
108.6088218256
21
270.5323248099
0
LINE
5
2FF
100
AcDbEntity
8
0
100
AcDbLine
62
7
6
CONTINUOUS
10
76.4547197386
20
249.6679525565
11
76.7274820372
21
249.6897764396
0
LINE
5
300
100
AcDbEntity
8
0
100
AcDbLine
62
7
6
CONTINUOUS
10
92.1170694396
20
265.8788519095
11
91.6156293913
21
266.0807066153
0
LINE
5
301
100
AcDbEntity
8
0
100
AcDbLine
62
7
6
CONTINUOUS
10
110.7554885909
20
267.4004125785
11
110.5254885718
21
267.5961561393
0
LINE
5
302
100
AcDbEntity
8
0
100
AcDbLine
62
7
6
CONTINUOUS
10
108.8388218447
20
270.9238157462
11
108.5321552321
21
271.2174329947
0
LINE
5
303
100
AcDbEntity
8
0
100
AcDbLine
62
7
6
CONTINUOUS
10
116.0454885527
20
270.6301984977
11
115.7388217017
21
271.0216894339
0
LINE
5
304
100
AcDbEntity
8
0
100
AcDbLine
62
7
6
CONTINUOUS
10
76.5535203978
20
250.1076326560
11
76.1568414732
21
250.0008020591
0
LINE
5
305
100
AcDbEntity
8
0
100
AcDbLine
62
7
6
CONTINUOUS
10
95.4031698271
20
263.3538274955
11
95.7260591551
21
263.2945661734
0
LINE
5
306
100
AcDbEntity
8
0
100
AcDbLine
62
7
6
CONTINUOUS
10
95.8551599547
20
263.7376241874
11
95.5322706267
21
263.7968855094
0
LINE
5
307
100
AcDbEntity
8
0
100
AcDbLine
62
7
6
CONTINUOUS
10
110.3721552655
20
267.0089216422
11
110.6788219079
21
266.8131780814
0
LINE
5
308
100
AcDbEntity
8
0
100
AcDbLine
62
7
6
CONTINUOUS
10
115.3554884955
20
270.6301984977
11
115.5854885146
21
270.4344549369
0
LINE
5
309
100
AcDbEntity
8
0
100
AcDbLine
62
7
6
CONTINUOUS
10
123.0188219115
20
151.1453046988
11
121.5188219115
21
149.6453046988
0
LINE
5
30A
100
AcDbEntity
8
0
100
AcDbLine
62
7
6
CONTINUOUS
10
96.2691957518
20
263.8538274955
11
95.8551599547
21
263.7376241874
0
LINE
5
30B
100
AcDbEntity
8
0
100
AcDbLine
62
7
6
CONTINUOUS
10
115.0488221213
20
266.7153043937
11
115.4321553275
21
266.8131780814
0
LINE
5
30C
100
AcDbEntity
8
0
100
AcDbLine
62
7
6
CONTINUOUS
10
111.3688219055
20
266.7153043937
11
111.7521552607
21
266.8131780814
0
LINE
5
30D
100
AcDbEntity
8
0
100
AcDbLine
62
7
6
CONTINUOUS
10
95.7260591551
20
263.2945661734
11
95.9957572981
21
263.3274336051
0
LINE
5
30E
100
AcDbEntity
8
0
100
AcDbLine
62
7
6
CONTINUOUS
10
91.6156293913
20
266.0807066153
11
91.2205698058
21
266.0982999991
0
LINE
5
30F
100
AcDbEntity
8
0
100
AcDbLine
62
7
6
CONTINUOUS
10
91.3421899840
20
265.5543165397
11
91.6650793120
21
265.4950552176
0
LINE
5
310
100
AcDbEntity
8
0
100
AcDbLine
62
7
6
CONTINUOUS
10
110.6788219079
20
266.8131780814
11
111.0621552445
21
266.7153043937
0
LINE
5
311
100
AcDbEntity
8
0
100
AcDbLine
62
7
6
CONTINUOUS
10
111.0621552445
20
267.3025388907
11
110.7554885909
21
267.4004125785
0
LINE
5
312
100
AcDbEntity
8
0
100
AcDbLine
62
7
6
CONTINUOUS
10
108.2254886195
20
270.8259420585
11
108.4554886385
21
270.7280721854
0
LINE
5
313
100
AcDbEntity
8
0
100
AcDbLine
62
7
6
CONTINUOUS
10
115.7388217017
20
271.0216894339
11
115.4321553275
21
271.2174329947
0
LINE
5
314
100
AcDbEntity
8
0
100
AcDbLine
62
7
6
CONTINUOUS
10
144.5636477660
20
261.5253461528
11
156.9276358529
21
231.6760384283
0
LINE
5
315
100
AcDbEntity
8
0
100
AcDbLine
62
7
6
CONTINUOUS
10
156.9276358529
20
231.6760384283
11
157.0435520409
21
231.3589638104
0
LINE
5
316
100
AcDbEntity
8
0
100
AcDbLine
62
7
6
CONTINUOUS
10
90.9281541869
20
265.4381132315
11
91.3421899840
21
265.5543165397
0
LINE
5
317
100
AcDbEntity
8
0
100
AcDbLine
62
7
6
CONTINUOUS
10
106.3088218733
20
266.7153043937
11
106.7688219115
21
266.7153043937
0
LINE
5
318
100
AcDbEntity
8
0
100
AcDbLine
62
7
6
CONTINUOUS
10
108.6854886576
20
266.7153043937
11
109.2221552893
21
266.7153043937
0
LINE
5
319
100
AcDbEntity
8
0
100
AcDbLine
62
7
6
CONTINUOUS
10
111.0621552445
20
266.7153043937
11
111.3688219055
21
266.7153043937
0
LINE
5
31A
100
AcDbEntity
8
0
100
AcDbLine
62
7
6
CONTINUOUS
10
113.2088219687
20
266.7153043937
11
115.0488221213
21
266.7153043937
0
LINE
5
31B
100
AcDbEntity
8
0
100
AcDbLine
62
7
6
CONTINUOUS
10
115.0488221213
20
267.3025388907
11
113.6688220068
21
267.3025388907
0
LINE
5
31C
100
AcDbEntity
8
0
100
AcDbLine
62
7
6
CONTINUOUS
10
111.3688219055
20
267.3025388907
11
111.0621552445
21
267.3025388907
0
LINE
5
31D
100
AcDbEntity
8
0
100
AcDbLine
62
7
6
CONTINUOUS
10
106.7688219115
20
268.7706251334
11
108.0721551939
21
268.7706251334
0
LINE
5
31E
100
AcDbEntity
8
0
100
AcDbLine
62
7
6
CONTINUOUS
10
108.2254886195
20
269.3578596305
11
106.7688219115
21
269.3578596305
0
LINE
5
31F
100
AcDbEntity
8
0
100
AcDbLine
62
7
6
CONTINUOUS
10
113.6688220068
20
270.7280721854
11
115.0488221213
21
270.7280721854
0
LINE
5
320
100
AcDbEntity
8
0
100
AcDbLine
62
7
6
CONTINUOUS
10
106.7688219115
20
270.8259420585
11
108.2254886195
21
270.8259420585
0
LINE
5
321
100
AcDbEntity
8
0
100
AcDbLine
62
7
6
CONTINUOUS
10
108.5321552321
20
271.2174329947
11
108.1488220259
21
271.3153028678
0
LINE
5
322
100
AcDbEntity
8
0
100
AcDbLine
62
7
6
CONTINUOUS
10
115.4321553275
20
271.2174329947
11
115.0488221213
21
271.3153028678
0
LINE
5
323
100
AcDbEntity
8
0
100
AcDbLine
62
7
6
CONTINUOUS
10
115.0488221213
20
270.7280721854
11
115.3554884955
21
270.6301984977
0
LINE
5
324
100
AcDbEntity
8
0
100
AcDbLine
62
7
6
CONTINUOUS
10
115.0488221213
20
271.3153028678
11
113.2088219687
21
271.3153028678
0
LINE
5
325
100
AcDbEntity
8
0
100
AcDbLine
62
7
6
CONTINUOUS
10
112.5954886242
20
271.3153028678
11
112.1354885861
21
271.3153028678
0
LINE
5
326
100
AcDbEntity
8
0
100
AcDbLine
62
7
6
CONTINUOUS
10
110.2954885527
20
271.3153028678
11
109.8354886338
21
271.3153028678
0
LINE
5
327
100
AcDbEntity
8
0
100
AcDbLine
62
7
6
CONTINUOUS
10
108.1488220259
20
271.3153028678
11
106.3088218733
21
271.3153028678
0
LINE
5
328
100
AcDbEntity
8
0
100
AcDbLine
62
7
6
CONTINUOUS
10
112.5495556409
20
276.0541186403
11
142.3988633654
21
263.6901305534
0
LINE
5
329
100
AcDbEntity
8
0
100
AcDbLine
62
7
6
CONTINUOUS
10
284.8771299405
20
149.6453046988
11
305.8771299405
21
149.6453046988
0
LINE
5
32A
100
AcDbEntity
8
0
100
AcDbLine
62
7
6
CONTINUOUS
10
283.3771299405
20
151.1453046988
11
307.3771299405
21
151.1453046988
0
LINE
5
32B
100
AcDbEntity
8
0
100
AcDbLine
62
7
6
CONTINUOUS
10
283.3771299405
20
151.1453046988
11
284.8771299405
21
149.6453046988
0
LINE
5
32C
100
AcDbEntity
8
0
100
AcDbLine
62
7
6
CONTINUOUS
10
283.3771299405
20
177.6453046988
11
307.3771299405
21
177.6453046988
0
LINE
5
32D
100
AcDbEntity
8
0
100
AcDbLine
62
7
6
CONTINUOUS
10
285.5771299405
20
179.8453046988
11
305.1771299405
21
179.8453046988
0
LINE
5
32E
100
AcDbEntity
8
0
100
AcDbLine
62
7
6
CONTINUOUS
10
270.3775669057
20
185.6453046988
11
320.3766929753
21
185.6453046988
0
LINE
5
32F
100
AcDbEntity
8
0
100
AcDbLine
62
7
6
CONTINUOUS
10
270.3771299405
20
185.6453046988
11
270.3771299405
21
197.6945513365
0
LINE
5
330
100
AcDbEntity
8
0
100
AcDbLine
62
7
6
CONTINUOUS
10
306.2588639423
20
197.2345295154
11
284.4953959387
21
197.2345295154
0
LINE
5
331
100
AcDbEntity
8
0
100
AcDbLine
62
7
6
CONTINUOUS
10
305.1771299405
20
179.8453046988
11
307.3771299405
21
177.6453046988
0
LINE
5
332
100
AcDbEntity
8
0
100
AcDbLine
62
7
6
CONTINUOUS
10
283.3771299405
20
177.6453046988
11
283.3771299405
21
151.1453046988
0
LINE
5
333
100
AcDbEntity
8
0
100
AcDbLine
62
7
6
CONTINUOUS
10
285.3771299405
20
274.8586004905
11
285.3771299405
21
230.9038416436
0
LINE
5
334
100
AcDbEntity
8
0
100
AcDbLine
62
7
6
CONTINUOUS
10
285.5771299405
20
185.6453046988
11
285.5771299405
21
179.8453046988
0
LINE
5
335
100
AcDbEntity
8
0
100
AcDbLine
62
7
6
CONTINUOUS
10
285.3196747570
20
229.3889468481
11
282.7488601057
21
195.5459456377
0
LINE
5
336
100
AcDbEntity
8
0
100
AcDbLine
62
7
6
CONTINUOUS
10
273.7513920803
20
201.6453046988
11
282.5541383521
21
203.0395227404
0
LINE
5
337
100
AcDbEntity
8
0
100
AcDbLine
62
7
6
CONTINUOUS
10
317.0028678007
20
201.6453046988
11
308.2008003555
21
203.0394152248
0
LINE
5
338
100
AcDbEntity
8
DEFAULT_1
100
AcDbLine
62
2
6
CENTER
10
295.3771299405
20
146.6453046988
11
295.3771299405
21
280.7109108967
0
LINE
5
339
100
AcDbEntity
8
0
100
AcDbLine
62
7
6
CONTINUOUS
10
308.0053997623
20
195.5459458085
11
305.4345851240
21
229.3889468481
0
LINE
5
33A
100
AcDbEntity
8
0
100
AcDbLine
62
7
6
CONTINUOUS
10
305.1771299405
20
185.6453046988
11
305.1771299405
21
179.8453046988
0
LINE
5
33B
100
AcDbEntity
8
0
100
AcDbLine
62
7
6
CONTINUOUS
10
305.3771299405
20
230.9038416436
11
305.3771299405
21
274.8586004905
0
LINE
5
33C
100
AcDbEntity
8
0
100
AcDbLine
62
7
6
CONTINUOUS
10
305.6771299405
20
271.3153028678
11
305.6771299405
21
260.7353048514
0
LINE
5
33D
100
AcDbEntity
8
0
100
AcDbLine
62
7
6
CONTINUOUS
10
305.6771299405
20
252.6024179648
11
305.6771299405
21
243.5388155173
0
LINE
5
33E
100
AcDbEntity
8
0
100
AcDbLine
62
7
6
CONTINUOUS
10
305.6771299405
20
241.2729473304
11
305.6771299405
21
235.4353046607
0
LINE
5
33F
100
AcDbEntity
8
0
100
AcDbLine
62
7
6
CONTINUOUS
10
307.3771299405
20
177.6453046988
11
307.3771299405
21
151.1453046988
0
LINE
5
340
100
AcDbEntity
8
0
100
AcDbLine
62
7
6
CONTINUOUS
10
285.5771299405
20
179.8453046988
11
283.3771299405
21
177.6453046988
0
LINE
5
341
100
AcDbEntity
8
0
100
AcDbLine
62
7
6
CONTINUOUS
10
305.3771299405
20
235.4353046607
11
305.6771299405
21
235.4353046607
0
LINE
5
342
100
AcDbEntity
8
0
100
AcDbLine
62
7
6
CONTINUOUS
10
320.3771299405
20
185.6453046988
11
320.3771299405
21
197.6945513365
0
LINE
5
343
100
AcDbEntity
8
0
100
AcDbLine
62
7
6
CONTINUOUS
10
305.3771299405
20
241.2729473304
11
305.6771299405
21
241.2729473304
0
LINE
5
344
100
AcDbEntity
8
0
100
AcDbLine
62
7
6
CONTINUOUS
10
305.3771299405
20
243.5388155173
11
305.6771299405
21
243.5388155173
0
LINE
5
345
100
AcDbEntity
8
0
100
AcDbLine
62
7
6
CONTINUOUS
10
305.3771299405
20
252.6024179648
11
305.6771299405
21
252.6024179648
0
LINE
5
346
100
AcDbEntity
8
0
100
AcDbLine
62
7
6
CONTINUOUS
10
305.3771299405
20
260.7353048514
11
305.6771299405
21
260.7353048514
0
LINE
5
347
100
AcDbEntity
8
0
100
AcDbLine
62
7
6
CONTINUOUS
10
307.3771299405
20
151.1453046988
11
305.8771299405
21
149.6453046988
0
LINE
5
348
100
AcDbEntity
8
0
100
AcDbLine
62
7
6
CONTINUOUS
10
305.3771299405
20
271.3153028678
11
305.6771299405
21
271.3153028678
0
LINE
5
349
100
AcDbEntity
8
0
100
AcDbLine
62
7
6
CONTINUOUS
10
303.8771299405
20
276.3586005102
11
286.8771299405
21
276.3586005102
0
LINE
5
34A
100
AcDbEntity
8
0
100
AcDbLine
62
7
6
CONTINUOUS
10
64.8055261001
20
81.9813721158
11
64.8055261001
21
99.0091217469
0
LINE
5
34B
100
AcDbEntity
8
0
100
AcDbLine
62
7
6
CONTINUOUS
10
70.3409044310
20
80.4952469310
11
70.3409044310
21
80.1952469310
0
LINE
5
34C
100
AcDbEntity
8
0
100
AcDbLine
62
7
6
CONTINUOUS
10
80.4955770537
20
80.4952469310
11
80.4955770537
21
80.1952469310
0
LINE
5
34D
100
AcDbEntity
8
0
100
AcDbLine
62
7
6
CONTINUOUS
10
89.7355005309
20
80.4952469310
11
89.7355005309
21
80.1952469310
0
LINE
5
34E
100
AcDbEntity
8
0
100
AcDbLine
62
7
6
CONTINUOUS
10
155.8766093123
20
80.4639412046
11
155.8756388458
21
80.4637429767
0
LINE
5
34F
100
AcDbEntity
8
0
100
AcDbLine
62
7
6
CONTINUOUS
10
155.8123904084
20
80.4514992749
11
143.1979029922
21
78.1381181381
0
LINE
5
350
100
AcDbEntity
8
0
100
AcDbLine
62
7
6
CONTINUOUS
10
78.8397408308
20
78.1381181381
11
66.2252534147
21
80.4514992748
0
LINE
5
351
100
AcDbEntity
8
0
100
AcDbLine
62
7
6
CONTINUOUS
10
66.1610294641
20
80.4639438891
11
66.1622700343
21
80.4636905849
0
LINE
5
352
100
AcDbEntity
8
0
100
AcDbLine
62
7
6
CONTINUOUS
10
96.4819614455
20
80.4952469310
11
96.4819614455
21
80.1952469310
0
LINE
5
353
100
AcDbEntity
8
0
100
AcDbLine
62
7
6
CONTINUOUS
10
142.9273291380
20
78.1135129291
11
140.0461859488
21
78.1135129291
0
LINE
5
354
100
AcDbEntity
8
0
100
AcDbLine
62
7
6
CONTINUOUS
10
81.9914578370
20
78.1135129291
11
79.1103146850
21
78.1135129291
0
LINE
5
355
100
AcDbEntity
8
0
100
AcDbLine
62
7
6
CONTINUOUS
10
116.2754885718
20
80.1952469310
11
113.2088219687
21
80.1952469310
0
LINE
5
356
100
AcDbEntity
8
0
100
AcDbLine
62
7
6
CONTINUOUS
10
112.5954886242
20
80.1952469310
11
109.8354886338
21
80.1952469310
0
LINE
5
357
100
AcDbEntity
8
0
100
AcDbLine
62
7
6
CONTINUOUS
10
109.2221552893
20
80.1952469310
11
106.3088218733
21
80.1952469310
0
LINE
5
358
100
AcDbEntity
8
0
100
AcDbLine
62
7
6
CONTINUOUS
10
96.4819614455
20
80.1952469310
11
89.7355005309
21
80.1952469310
0
LINE
5
359
100
AcDbEntity
8
0
100
AcDbLine
62
7
6
CONTINUOUS
10
80.4955770537
20
80.1952469310
11
70.3409044310
21
80.1952469310
0
LINE
5
35A
100
AcDbEntity
8
0
100
AcDbLine
62
7
6
CONTINUOUS
10
66.4233796513
20
80.4952469310
11
155.6142641717
21
80.4952469310
0
LINE
5
35B
100
AcDbEntity
8
0
100
AcDbLine
62
7
6
CONTINUOUS
10
106.3088218733
20
80.4952469310
11
106.3088218733
21
80.1952469310
0
LINE
5
35C
100
AcDbEntity
8
0
100
AcDbLine
62
7
6
CONTINUOUS
10
109.2221552893
20
80.4952469310
11
109.2221552893
21
80.1952469310
0
LINE
5
35D
100
AcDbEntity
8
0
100
AcDbLine
62
7
6
CONTINUOUS
10
109.8354886338
20
80.4952469310
11
109.8354886338
21
80.1952469310
0
LINE
5
35E
100
AcDbEntity
8
DEFAULT_1
100
AcDbLine
62
2
6
CENTER
10
111.0188219115
20
90.4952469310
11
111.0188219115
21
62.4952469310
0
LINE
5
35F
100
AcDbEntity
8
DEFAULT_1
100
AcDbLine
62
2
6
CENTER
10
111.0188219115
20
90.4952469310
11
111.0188219115
21
118.4952469310
0
LINE
5
360
100
AcDbEntity
8
DEFAULT_1
100
AcDbLine
62
2
6
CENTER
10
111.0188219115
20
90.4952469310
11
83.0188219115
21
90.4952469310
0
LINE
5
361
100
AcDbEntity
8
DEFAULT_1
100
AcDbLine
62
2
6
CENTER
10
111.0188219115
20
90.4952469310
11
139.0188219115
21
90.4952469310
0
LINE
5
362
100
AcDbEntity
8
0
100
AcDbLine
62
7
6
CONTINUOUS
10
112.5954886242
20
80.4952469310
11
112.5954886242
21
80.1952469310
0
LINE
5
363
100
AcDbEntity
8
0
100
AcDbLine
62
7
6
CONTINUOUS
10
113.2088219687
20
80.4952469310
11
113.2088219687
21
80.1952469310
0
LINE
5
364
100
AcDbEntity
8
0
100
AcDbLine
62
7
6
CONTINUOUS
10
116.2754885718
20
80.4952469310
11
116.2754885718
21
80.1952469310
0
LINE
5
365
100
AcDbEntity
8
0
100
AcDbLine
62
7
6
CONTINUOUS
10
155.6142641717
20
100.4952469310
11
66.4233796513
21
100.4952469310
0
LINE
5
366
100
AcDbEntity
8
0
100
AcDbLine
62
7
6
CONTINUOUS
10
79.1103146850
20
102.8769809328
11
81.9914578742
21
102.8769809328
0
LINE
5
367
100
AcDbEntity
8
0
100
AcDbLine
62
7
6
CONTINUOUS
10
140.0461859860
20
102.8769809328
11
142.9273291380
21
102.8769809328
0
LINE
5
368
100
AcDbEntity
8
0
100
AcDbLine
62
7
6
CONTINUOUS
10
66.2252534146
20
100.5389945871
11
78.8397408308
21
102.8523757238
0
LINE
5
369
100
AcDbEntity
8
0
100
AcDbLine
62
7
6
CONTINUOUS
10
143.1979029922
20
102.8523757238
11
155.8123904082
21
100.5389945871
0
LINE
5
36A
100
AcDbEntity
8
0
100
AcDbLine
62
7
6
CONTINUOUS
10
66.1610344956
20
100.5265526574
11
66.1620097409
21
100.5267518594
0
LINE
5
36B
100
AcDbEntity
8
0
100
AcDbLine
62
7
6
CONTINUOUS
10
155.8766141101
20
100.5265498729
11
155.8753782222
21
100.5268022279
0
LINE
5
36C
100
AcDbEntity
8
0
100
AcDbLine
62
7
6
CONTINUOUS
10
157.2321177229
20
81.9813721863
11
157.2321177229
21
99.0103251969
0
ARC
5
36D
100
AcDbEntity
8
0
100
AcDbCircle
62
7
6
CONTINUOUS
10
80.0188219115
20
191.2345295154
40
6.0000000000
100
AcDbArc
50
0.0000000000
51
90.0000000000
0
ARC
5
36E
100
AcDbEntity
8
0
100
AcDbCircle
62
7
6
CONTINUOUS
10
142.0188219115
20
191.2345295154
40
6.0000000000
100
AcDbArc
50
90.0000000000
51
180.0000000000
0
CIRCLE
5
36F
100
AcDbEntity
8
0
100
AcDbCircle
62
7
6
CONTINUOUS
10
111.0188219115
20
230.1453046988
40
25.0000000000
0
ARC
5
370
100
AcDbEntity
8
0
100
AcDbCircle
62
7
6
CONTINUOUS
10
140.8681296360
20
259.9946124233
40
4.0000000000
100
AcDbArc
50
22.5000000000
51
67.5000000000
0
ARC
5
371
100
AcDbEntity
8
0
100
AcDbCircle
62
7
6
CONTINUOUS
10
111.0188219115
20
272.3586005102
40
4.0000000000
100
AcDbArc
50
67.5000000000
51
112.5000000000
0
ARC
5
372
100
AcDbEntity
8
0
100
AcDbCircle
62
7
6
CONTINUOUS
10
81.1695141870
20
259.9946124233
40
4.0000000000
100
AcDbArc
50
112.5000000000
51
157.5000000000
0
ARC
5
373
100
AcDbEntity
8
0
100
AcDbCircle
62
7
6
CONTINUOUS
10
68.8055261001
20
230.1453046988
40
4.0000000000
100
AcDbArc
50
157.5000000000
51
202.5000000000
0
ARC
5
374
100
AcDbEntity
8
0
100
AcDbCircle
62
7
6
CONTINUOUS
10
79.1103146850
20
198.7345295154
40
1.5000000000
100
AcDbArc
50
202.5000000000
51
270.0000000000
0
ARC
5
375
100
AcDbEntity
8
0
100
AcDbCircle
62
7
6
CONTINUOUS
10
153.2321177229
20
230.1453046988
40
4.0000000000
100
AcDbArc
50
337.5000000000
51
22.5000000000
0
ARC
5
376
100
AcDbEntity
8
0
100
AcDbCircle
62
7
6
CONTINUOUS
10
142.9273291380
20
198.7345295154
40
1.5000000000
100
AcDbArc
50
270.0000000000
51
337.5000000000
0
ARC
5
377
100
AcDbEntity
8
DEFAULT_2
100
AcDbCircle
62
8
6
HIDDEN
10
295.3771299405
20
265.1453046988
40
10.0000000000
100
AcDbArc
50
180.0000000000
51
360.0000000000
0
ARC
5
378
100
AcDbEntity
8
0
100
AcDbCircle
62
7
6
CONTINUOUS
10
286.8771299405
20
274.8586005102
40
1.5000000000
100
AcDbArc
50
90.0000000000
51
180.0000000000
0
ARC
5
379
100
AcDbEntity
8
0
100
AcDbCircle
62
7
6
CONTINUOUS
10
303.8771299405
20
274.8586005102
40
1.5000000000
100
AcDbArc
50
0.0000000000
51
90.0000000000
0
ARC
5
37A
100
AcDbEntity
8
0
100
AcDbCircle
62
7
6
CONTINUOUS
10
274.3771299405
20
197.6945513365
40
4.0000000000
100
AcDbArc
50
99.0000000000
51
180.0000000000
0
ARC
5
37B
100
AcDbEntity
8
0
100
AcDbCircle
62
7
6
CONTINUOUS
10
316.3771299405
20
197.6945513365
40
4.0000000000
100
AcDbArc
50
0.0000000000
51
81.0000000000
0
ARC
5
37C
100
AcDbEntity
8
0
100
AcDbCircle
62
7
6
CONTINUOUS
10
325.3771299405
20
230.9038416436
40
20.0000000000
100
AcDbArc
50
180.0000000000
51
184.3440144758
0
ARC
5
37D
100
AcDbEntity
8
0
100
AcDbCircle
62
7
6
CONTINUOUS
10
265.3771299405
20
230.9038416436
40
20.0000000000
100
AcDbArc
50
355.6559855242
51
360.0000000000
0
ARC
5
37E
100
AcDbEntity
8
0
100
AcDbCircle
62
7
6
CONTINUOUS
10
306.2588639423
20
198.7345295154
40
1.5000000000
100
AcDbArc
50
270.0000000000
51
4.3440144758
0
ARC
5
37F
100
AcDbEntity
8
0
100
AcDbCircle
62
7
6
CONTINUOUS
10
284.4953959387
20
198.7345295154
40
1.5000000000
100
AcDbArc
50
175.6559855242
51
270.0000000010
0
ARC
5
380
100
AcDbEntity
8
0
100
AcDbCircle
62
7
6
CONTINUOUS
10
111.0188219115
20
90.4952469310
40
25.0000000000
100
AcDbArc
50
31.1980270084
51
148.8019729916
0
ARC
5
381
100
AcDbEntity
8
0
100
AcDbCircle
62
7
6
CONTINUOUS
10
111.0188219115
20
90.4952469310
40
25.0000000000
100
AcDbArc
50
211.1980270084
51
328.8019729916
0
SPLINE
5
382
100
AcDbEntity
8
0
100
AcDbSpline
62
7
6
CONTINUOUS
70
0
71
3
72
8
73
4
74
2
42
0.0000001000
43
0.0000001000
44
0.0000000001
40
0.0000000000
40
0.0000000000
40
0.0000000000
40
0.0000000000
40
1.0000000000
40
1.0000000000
40
1.0000000000
40
1.0000000000
10
283.3792872870
20
203.8400930321
30
0.0000000000
10
283.3789570327
20
203.8381002980
30
0.0000000000
10
283.3786058788
20
203.8360436569
30
0.0000000000
10
283.3782472010
20
203.8339840876
30
0.0000000000
11
283.3792872870
21
203.8400930321
31
0.0000000000
11
283.3782472010
21
203.8339840876
31
0.0000000000
0
SPLINE
5
383
100
AcDbEntity
8
0
100
AcDbSpline
62
7
6
CONTINUOUS
70
0
71
3
72
8
73
4
74
2
42
0.0000001000
43
0.0000001000
44
0.0000000001
40
0.0000000000
40
0.0000000000
40
0.0000000000
40
0.0000000000
40
1.0000000000
40
1.0000000000
40
1.0000000000
40
1.0000000000
10
283.3782472010
20
203.8339840876
30
0.0000000000
10
283.3778182250
20
203.8315208580
30
0.0000000000
10
283.3773784867
20
203.8290534398
30
0.0000000000
10
283.3769508686
20
203.8266861524
30
0.0000000000
11
283.3782472010
21
203.8339840876
31
0.0000000000
11
283.3769508686
21
203.8266861524
31
0.0000000000
0
SPLINE
5
384
100
AcDbEntity
8
0
100
AcDbSpline
62
7
6
CONTINUOUS
70
0
71
3
72
8
73
4
74
2
42
0.0000001000
43
0.0000001000
44
0.0000000001
40
0.0000000000
40
0.0000000000
40
0.0000000000
40
0.0000000000
40
1.0000000000
40
1.0000000000
40
1.0000000000
40
1.0000000000
10
283.3757740420
20
203.8187079174
30
0.0000000000
10
283.3635720673
20
203.7614697252
30
0.0000000000
10
283.3461888985
20
203.7050714531
30
0.0000000000
10
283.3240017350
20
203.6505273351
30
0.0000000000
11
283.3757740420
21
203.8187079174
31
0.0000000000
11
283.3240017350
21
203.6505273351
31
0.0000000000
0
SPLINE
5
385
100
AcDbEntity
8
0
100
AcDbSpline
62
7
6
CONTINUOUS
70
0
71
3
72
11
73
7
74
5
42
0.0000001000
43
0.0000001000
44
0.0000000001
40
0.0000000000
40
0.0000000000
40
0.0000000000
40
0.0000000000
40
0.1713173593
40
0.5145273725
40
0.8577786324
40
1.0000000000
40
1.0000000000
40
1.0000000000
40
1.0000000000
10
283.3240017350
20
203.6505273351
30
0.0000000000
10
283.3018837999
20
203.5961534058
30
0.0000000000
10
283.2211175019
20
203.4383830182
30
0.0000000000
10
283.0202988612
20
203.2181787881
30
0.0000000000
10
282.7649633444
20
203.0851401363
30
0.0000000000
10
282.6023283260
20
203.0472162032
30
0.0000000000
10
282.5541741608
20
203.0395997588
30
0.0000000000
11
283.3240017350
21
203.6505273351
31
0.0000000000
11
283.2436994217
21
203.4939381206
31
0.0000000000
11
283.0076092343
21
203.2346920124
31
0.0000000000
11
282.6964976394
21
203.0728703513
31
0.0000000000
11
282.5541741608
21
203.0395997588
31
0.0000000000
0
SPLINE
5
386
100
AcDbEntity
8
0
100
AcDbSpline
62
7
6
CONTINUOUS
70
0
71
3
72
10
73
6
74
4
42
0.0000001000
43
0.0000001000
44
0.0000000001
40
0.0000000000
40
0.0000000000
40
0.0000000000
40
0.0000000000
40
0.3601119125
40
0.8031276710
40
1.0000000000
40
1.0000000000
40
1.0000000000
40
1.0000000000
10
283.3808383372
20
203.8504595978
30
0.0000000000
10
283.3800430017
20
203.8442903207
30
0.0000000000
10
283.3765508570
20
203.8239750178
30
0.0000000000
10
283.3728558999
20
203.8049580014
30
0.0000000000
10
283.3742271266
20
203.8113470055
30
0.0000000000
10
283.3751457443
20
203.8157153463
30
0.0000000000
11
283.3808383372
21
203.8504595978
31
0.0000000000
11
283.3770168137
21
203.8270858305
31
0.0000000000
11
283.3737369710
21
203.8091722936
31
0.0000000000
11
283.3751457443
21
203.8157153463
31
0.0000000000
0
SPLINE
5
387
100
AcDbEntity
8
0
100
AcDbSpline
62
7
6
CONTINUOUS
70
0
71
3
72
11
73
7
74
5
42
0.0000001000
43
0.0000001000
44
0.0000000001
40
0.0000000000
40
0.0000000000
40
0.0000000000
40
0.0000000000
40
0.0054128040
40
0.3370127014
40
0.6685438143
40
1.0000000000
40
1.0000000000
40
1.0000000000
40
1.0000000000
10
308.2000471619
20
203.0395350682
30
0.0000000000
10
308.1984555850
20
203.0397866006
30
0.0000000000
10
308.0994012610
20
203.0556884639
30
0.0000000000
10
307.9080947174
20
203.1169910259
30
0.0000000000
10
307.6621693665
20
203.2872970131
30
0.0000000000
10
307.5385213379
20
203.4434968395
30
0.0000000000
10
307.4893957651
20
203.5290623521
30
0.0000000000
11
308.2000471619
21
203.0395350682
31
0.0000000000
11
308.1952744117
21
203.0403012739
31
0.0000000000
11
307.9145237204
21
203.1301859619
31
0.0000000000
11
307.6722242891
21
203.2979809122
31
0.0000000000
11
307.4893957651
21
203.5290623521
31
0.0000000000
0
SPLINE
5
388
100
AcDbEntity
8
0
100
AcDbSpline
62
7
6
CONTINUOUS
70
0
71
3
72
8
73
4
74
2
42
0.0000001000
43
0.0000001000
44
0.0000000001
40
0.0000000000
40
0.0000000000
40
0.0000000000
40
0.0000000000
40
1.0000000000
40
1.0000000000
40
1.0000000000
40
1.0000000000
10
307.4893957651
20
203.5290623521
30
0.0000000000
10
307.4402788556
20
203.6146127753
30
0.0000000000
10
307.4038489248
20
203.7076349882
30
0.0000000000
10
307.3818635399
20
203.8033452375
30
0.0000000000
11
307.4893957651
21
203.5290623521
31
0.0000000000
11
307.3818635399
21
203.8033452375
31
0.0000000000
0
SPLINE
5
389
100
AcDbEntity
8
0
100
AcDbSpline
62
7
6
CONTINUOUS
70
0
71
3
72
8
73
4
74
2
42
0.0000001000
43
0.0000001000
44
0.0000000001
40
0.0000000000
40
0.0000000000
40
0.0000000000
40
0.0000000000
40
1.0000000000
40
1.0000000000
40
1.0000000000
40
1.0000000000
10
307.3818635399
20
203.8033452375
30
0.0000000000
10
307.3814339377
20
203.8050950816
30
0.0000000000
10
307.3810248443
20
203.8068494910
30
0.0000000000
10
307.3806352693
20
203.8086080153
30
0.0000000000
11
307.3818635399
21
203.8033452375
31
0.0000000000
11
307.3806352693
21
203.8086080153
31
0.0000000000
0
SPLINE
5
38A
100
AcDbEntity
8
0
100
AcDbSpline
62
7
6
CONTINUOUS
70
0
71
3
72
8
73
4
74
2
42
0.0000001000
43
0.0000001000
44
0.0000000001
40
0.0000000000
40
0.0000000000
40
0.0000000000
40
0.0000000000
40
1.0000000000
40
1.0000000000
40
1.0000000000
40
1.0000000000
10
307.3786198406
20
203.8186699764
30
0.0000000000
10
307.3783931419
20
203.8199296284
30
0.0000000000
10
307.3781753503
20
203.8211909266
30
0.0000000000
10
307.3779661104
20
203.8224537095
30
0.0000000000
11
307.3786198406
21
203.8186699764
31
0.0000000000
11
307.3779661104
21
203.8224537095
31
0.0000000000
0
SPLINE
5
38B
100
AcDbEntity
8
0
100
AcDbSpline
62
7
6
CONTINUOUS
70
0
71
3
72
8
73
4
74
2
42
0.0000001000
43
0.0000001000
44
0.0000000001
40
0.0000000000
40
0.0000000000
40
0.0000000000
40
0.0000000000
40
1.0000000000
40
1.0000000000
40
1.0000000000
40
1.0000000000
10
307.3779661104
20
203.8224537095
30
0.0000000000
10
307.3777956712
20
203.8234823266
30
0.0000000000
10
307.3776309061
20
203.8245119287
30
0.0000000000
10
307.3774716231
20
203.8255424286
30
0.0000000000
11
307.3779661104
21
203.8224537095
31
0.0000000000
11
307.3774716231
21
203.8255424286
31
0.0000000000
0
SPLINE
5
38C
100
AcDbEntity
8
0
100
AcDbSpline
62
7
6
CONTINUOUS
70
0
71
3
72
9
73
5
74
3
42
0.0000001000
43
0.0000001000
44
0.0000000001
40
0.0000000000
40
0.0000000000
40
0.0000000000
40
0.0000000000
40
0.3853305444
40
1.0000000000
40
1.0000000000
40
1.0000000000
40
1.0000000000
10
307.3774716231
20
203.8255424286
30
0.0000000000
10
307.3773054909
20
203.8266172397
30
0.0000000000
10
307.3768898257
20
203.8294090965
30
0.0000000000
10
307.3765128569
20
203.8322068632
30
0.0000000000
10
307.3762948812
20
203.8339283955
30
0.0000000000
11
307.3774716231
21
203.8255424286
31
0.0000000000
11
307.3769908995
21
203.8287696926
31
0.0000000000
11
307.3762948812
21
203.8339283955
31
0.0000000000
0
SPLINE
5
38D
100
AcDbEntity
8
0
100
AcDbSpline
62
7
6
CONTINUOUS
70
0
71
3
72
8
73
4
74
2
42
0.0000001000
43
0.0000001000
44
0.0000000001
40
0.0000000000
40
0.0000000000
40
0.0000000000
40
0.0000000000
40
1.0000000000
40
1.0000000000
40
1.0000000000
40
1.0000000000
10
307.3762948812
20
203.8339283955
30
0.0000000000
10
307.3760731842
20
203.8356793177
30
0.0000000000
10
307.3758656956
20
203.8374321336
30
0.0000000000
10
307.3756714845
20
203.8391864199
30
0.0000000000
11
307.3762948812
21
203.8339283955
31
0.0000000000
11
307.3756714845
21
203.8391864199
31
0.0000000000
0
SPLINE
5
38E
100
AcDbEntity
8
0
100
AcDbSpline
62
7
6
CONTINUOUS
70
0
71
3
72
10
73
6
74
4
42
0.0000001000
43
0.0000001000
44
0.0000000001
40
0.0000000000
40
0.0000000000
40
0.0000000000
40
0.0000000000
40
0.2149767354
40
0.4362782585
40
1.0000000000
40
1.0000000000
40
1.0000000000
40
1.0000000000
10
307.3818635399
20
203.8033452375
30
0.0000000000
10
307.3810613955
20
203.8067107665
30
0.0000000000
10
307.3795521545
20
203.8135686906
30
0.0000000000
10
307.3766481834
20
203.8294000331
30
0.0000000000
10
307.3751580541
20
203.8419612424
30
0.0000000000
10
307.3745017797
20
203.8510169465
30
0.0000000000
11
307.3818635399
21
203.8033452375
31
0.0000000000
11
307.3796328659
21
203.8134811547
31
0.0000000000
11
307.3777053079
21
203.8239896497
31
0.0000000000
11
307.3745017797
21
203.8510169465
31
0.0000000000
0
SPLINE
5
38F
100
AcDbEntity
8
0
100
AcDbSpline
62
7
6
CONTINUOUS
70
0
71
3
72
10
73
6
74
4
42
0.0000001000
43
0.0000001000
44
0.0000000001
40
0.0000000000
40
0.0000000000
40
0.0000000000
40
0.0000000000
40
0.3813632370
40
0.7939632238
40
1.0000000000
40
1.0000000000
40
1.0000000000
40
1.0000000000
10
133.0421945380
20
103.1477411996
30
0.0000000000
10
132.9467140316
20
103.1580406120
30
0.0000000000
10
132.7513153860
20
103.2082940193
30
0.0000000000
10
132.5343801776
20
103.3414811432
30
0.0000000000
10
132.4237785617
20
103.4521138820
30
0.0000000000
10
132.3900269922
20
103.4915172201
30
0.0000000000
11
133.0421945380
21
103.1477411996
31
0.0000000000
11
132.7643463072
21
103.2191198389
31
0.0000000000
11
132.5000682636
21
103.3815537353
31
0.0000000000
11
132.3900269922
21
103.4915172201
31
0.0000000000
0
SPLINE
5
390
100
AcDbEntity
8
0
100
AcDbSpline
62
7
6
CONTINUOUS
70
0
71
3
72
8
73
4
74
2
42
0.0000001000
43
0.0000001000
44
0.0000000001
40
0.0000000000
40
0.0000000000
40
0.0000000000
40
0.0000000000
40
1.0000000000
40
1.0000000000
40
1.0000000000
40
1.0000000000
10
132.3900269922
20
103.4915172201
30
0.0000000000
10
132.3614235516
20
103.5249103646
30
0.0000000000
10
132.3350352454
20
103.5601400606
30
0.0000000000
10
132.3111458460
20
103.5968562629
30
0.0000000000
11
132.3900269922
21
103.4915172201
31
0.0000000000
11
132.3111458460
21
103.5968562629
31
0.0000000000
0
SPLINE
5
391
100
AcDbEntity
8
0
100
AcDbSpline
62
7
6
CONTINUOUS
70
0
71
3
72
8
73
4
74
2
42
0.0000001000
43
0.0000001000
44
0.0000000001
40
0.0000000000
40
0.0000000000
40
0.0000000000
40
0.0000000000
40
1.0000000000
40
1.0000000000
40
1.0000000000
40
1.0000000000
10
132.3111458460
20
103.5968562629
30
0.0000000000
10
132.3067873371
20
103.6035549618
30
0.0000000000
10
132.3025120076
20
103.6103031410
30
0.0000000000
10
132.2983215807
20
103.6170986747
30
0.0000000000
11
132.3111458460
21
103.5968562629
31
0.0000000000
11
132.2983215807
21
103.6170986747
31
0.0000000000
0
SPLINE
5
392
100
AcDbEntity
8
0
100
AcDbSpline
62
7
6
CONTINUOUS
70
0
71
3
72
8
73
4
74
2
42
0.0000001000
43
0.0000001000
44
0.0000000001
40
0.0000000000
40
0.0000000000
40
0.0000000000
40
0.0000000000
40
1.0000000000
40
1.0000000000
40
1.0000000000
40
1.0000000000
10
89.7393221806
20
103.6170986118
30
0.0000000000
10
89.6850601915
20
103.5291029623
30
0.0000000000
10
89.6165618678
20
103.4490476056
30
0.0000000000
10
89.5375690682
20
103.3815481779
30
0.0000000000
11
89.7393221806
21
103.6170986118
31
0.0000000000
11
89.5375690682
21
103.3815481779
31
0.0000000000
0
SPLINE
5
393
100
AcDbEntity
8
0
100
AcDbSpline
62
7
6
CONTINUOUS
70
0
71
3
72
9
73
5
74
3
42
0.0000001000
43
0.0000001000
44
0.0000000001
40
0.0000000000
40
0.0000000000
40
0.0000000000
40
0.0000000000
40
0.5196729585
40
1.0000000000
40
1.0000000000
40
1.0000000000
40
1.0000000000
10
89.5375690682
20
103.3815481779
30
0.0000000000
10
89.4585608312
20
103.3140355591
30
0.0000000000
10
89.2863240163
20
103.2082925509
30
0.0000000000
10
89.0909280647
20
103.1580403591
30
0.0000000000
10
88.9954492145
20
103.1477411231
30
0.0000000000
11
89.5375690682
21
103.3815481779
31
0.0000000000
11
89.2732928448
21
103.2191178442
31
0.0000000000
11
88.9954492145
21
103.1477411231
31
0.0000000000
0
SPLINE
5
394
100
AcDbEntity
8
0
100
AcDbSpline
62
7
6
CONTINUOUS
70
0
71
3
72
10
73
6
74
4
42
0.0000001000
43
0.0000001000
44
0.0000000001
40
0.0000000000
40
0.0000000000
40
0.0000000000
40
0.0000000000
40
0.3813632370
40
0.7939632238
40
1.0000000000
40
1.0000000000
40
1.0000000000
40
1.0000000000
10
88.9954492850
20
77.8427526623
30
0.0000000000
10
89.0909297913
20
77.8324532499
30
0.0000000000
10
89.2863284369
20
77.7821998426
30
0.0000000000
10
89.5032636454
20
77.6490127187
30
0.0000000000
10
89.6138652613
20
77.5383799800
30
0.0000000000
10
89.6476168308
20
77.4989766419
30
0.0000000000
11
88.9954492850
21
77.8427526623
31
0.0000000000
11
89.2732975158
21
77.7713740230
31
0.0000000000
11
89.5375755593
21
77.6089401266
31
0.0000000000
11
89.6476168308
21
77.4989766419
31
0.0000000000
0
SPLINE
5
395
100
AcDbEntity
8
0
100
AcDbSpline
62
7
6
CONTINUOUS
70
0
71
3
72
8
73
4
74
2
42
0.0000001000
43
0.0000001000
44
0.0000000001
40
0.0000000000
40
0.0000000000
40
0.0000000000
40
0.0000000000
40
1.0000000000
40
1.0000000000
40
1.0000000000
40
1.0000000000
10
89.6476168308
20
77.4989766419
30
0.0000000000
10
89.6762202713
20
77.4655834973
30
0.0000000000
10
89.7026085776
20
77.4303538013
30
0.0000000000
10
89.7264979770
20
77.3936375990
30
0.0000000000
11
89.6476168308
21
77.4989766419
31
0.0000000000
11
89.7264979770
21
77.3936375990
31
0.0000000000
0
SPLINE
5
396
100
AcDbEntity
8
0
100
AcDbSpline
62
7
6
CONTINUOUS
70
0
71
3
72
8
73
4
74
2
42
0.0000001000
43
0.0000001000
44
0.0000000001
40
0.0000000000
40
0.0000000000
40
0.0000000000
40
0.0000000000
40
1.0000000000
40
1.0000000000
40
1.0000000000
40
1.0000000000
10
89.7264979770
20
77.3936375990
30
0.0000000000
10
89.7308564859
20
77.3869389001
30
0.0000000000
10
89.7351318154
20
77.3801907209
30
0.0000000000
10
89.7393222422
20
77.3733951872
30
0.0000000000
11
89.7264979770
21
77.3936375990
31
0.0000000000
11
89.7393222422
21
77.3733951872
31
0.0000000000
0
SPLINE
5
397
100
AcDbEntity
8
0
100
AcDbSpline
62
7
6
CONTINUOUS
70
0
71
3
72
8
73
4
74
2
42
0.0000001000
43
0.0000001000
44
0.0000000001
40
0.0000000000
40
0.0000000000
40
0.0000000000
40
0.0000000000
40
1.0000000000
40
1.0000000000
40
1.0000000000
40
1.0000000000
10
132.2983216423
20
77.3733952501
30
0.0000000000
10
132.3525836315
20
77.4613908997
30
0.0000000000
10
132.4210819551
20
77.5414462563
30
0.0000000000
10
132.5000747548
20
77.6089456840
30
0.0000000000
11
132.2983216423
21
77.3733952501
31
0.0000000000
11
132.5000747548
21
77.6089456840
31
0.0000000000
0
SPLINE
5
398
100
AcDbEntity
8
0
100
AcDbSpline
62
7
6
CONTINUOUS
70
0
71
3
72
9
73
5
74
3
42
0.0000001000
43
0.0000001000
44
0.0000000001
40
0.0000000000
40
0.0000000000
40
0.0000000000
40
0.0000000000
40
0.5196729585
40
1.0000000000
40
1.0000000000
40
1.0000000000
40
1.0000000000
10
132.5000747548
20
77.6089456840
30
0.0000000000
10
132.5790829917
20
77.6764583028
30
0.0000000000
10
132.7513198067
20
77.7822013110
30
0.0000000000
10
132.9467157582
20
77.8324535029
30
0.0000000000
10
133.0421946084
20
77.8427527388
30
0.0000000000
11
132.5000747548
21
77.6089456840
31
0.0000000000
11
132.7643509782
21
77.7713760177
31
0.0000000000
11
133.0421946084
21
77.8427527388
31
0.0000000000
0
SPLINE
5
399
100
AcDbEntity
8
0
100
AcDbSpline
62
7
6
CONTINUOUS
70
0
71
3
72
18
73
14
74
12
42
0.0000001000
43
0.0000001000
44
0.0000000001
40
0.0000000000
40
0.0000000000
40
0.0000000000
40
0.0000000000
40
0.0923307812
40
0.2151238878
40
0.3338049340
40
0.4472008174
40
0.5543155936
40
0.6542810257
40
0.7463513963
40
0.8299980254
40
0.9048098804
40
0.9705577706
40
1.0000000000
40
1.0000000000
40
1.0000000000
40
1.0000000000
10
81.9914578345
20
78.1135161876
30
0.0000000000
10
82.1976428971
20
78.1135203182
30
0.0000000000
10
82.6780398278
20
78.1121975675
30
0.0000000000
10
83.4234372879
20
78.1053072935
30
0.0000000000
10
84.2157985955
20
78.0921504882
30
0.0000000000
10
84.9730404891
20
78.0740022619
30
0.0000000000
10
85.6883460708
20
78.0513313160
30
0.0000000000
10
86.3558670229
20
78.0248727333
30
0.0000000000
10
86.9707828710
20
77.9952021004
30
0.0000000000
10
87.5293451657
20
77.9630725414
30
0.0000000000
10
88.0288288093
20
77.9292454058
30
0.0000000000
10
88.4074310733
20
77.8990963764
30
0.0000000000
10
88.6189381698
20
77.8801514024
30
0.0000000000
10
88.6843800674
20
77.8740239511
30
0.0000000000
11
81.9914578345
21
78.1135161876
31
0.0000000000
11
82.6100105267
21
78.1118105489
31
0.0000000000
11
83.4326064185
21
78.1041962797
31
0.0000000000
11
84.2275792878
21
78.0909574130
31
0.0000000000
11
84.9870349909
21
78.0726610480
31
0.0000000000
11
85.7042690436
21
78.0498446320
31
0.0000000000
11
86.3734389352
21
78.0231763451
31
0.0000000000
11
86.9895244725
21
77.9933006950
31
0.0000000000
11
87.5489654198
21
77.9609403634
31
0.0000000000
11
88.0489919532
21
77.9268238896
31
0.0000000000
11
88.4880537458
21
77.8916733301
31
0.0000000000
11
88.6843800674
21
77.8740239511
31
0.0000000000
0
SPLINE
5
39A
100
AcDbEntity
8
0
100
AcDbSpline
62
7
6
CONTINUOUS
70
0
71
3
72
8
73
4
74
2
42
0.0000001000
43
0.0000001000
44
0.0000000001
40
0.0000000000
40
0.0000000000
40
0.0000000000
40
0.0000000000
40
1.0000000000
40
1.0000000000
40
1.0000000000
40
1.0000000000
10
88.6843800674
20
77.8740239511
30
0.0000000000
10
88.7446188770
20
77.8683836750
30
0.0000000000
10
88.8048771054
20
77.8625165020
30
0.0000000000
10
88.8652088679
20
77.8563675384
30
0.0000000000
11
88.6843800674
21
77.8740239511
31
0.0000000000
11
88.8652088679
21
77.8563675384
31
0.0000000000
0
SPLINE
5
39B
100
AcDbEntity
8
0
100
AcDbSpline
62
7
6
CONTINUOUS
70
0
71
3
72
8
73
4
74
2
42
0.0000001000
43
0.0000001000
44
0.0000000001
40
0.0000000000
40
0.0000000000
40
0.0000000000
40
0.0000000000
40
1.0000000000
40
1.0000000000
40
1.0000000000
40
1.0000000000
10
88.8652088679
20
77.8563675384
30
0.0000000000
10
88.9086239575
20
77.8519427082
30
0.0000000000
10
88.9520771255
20
77.8473719576
30
0.0000000000
10
88.9954582419
20
77.8426699831
30
0.0000000000
11
88.8652088679
21
77.8563675384
31
0.0000000000
11
88.9954582419
21
77.8426699831
31
0.0000000000
0
SPLINE
5
39C
100
AcDbEntity
8
0
100
AcDbSpline
62
7
6
CONTINUOUS
70
0
71
3
72
9
73
5
74
3
42
0.0000001000
43
0.0000001000
44
0.0000000001
40
0.0000000000
40
0.0000000000
40
0.0000000000
40
0.0000000000
40
0.0434173911
40
1.0000000000
40
1.0000000000
40
1.0000000000
40
1.0000000000
10
78.8394630862
20
78.1381648460
30
0.0000000000
10
78.8433384476
20
78.1374547027
30
0.0000000000
10
78.9326662229
20
78.1214515561
30
0.0000000000
10
79.0235386617
20
78.1135983736
30
0.0000000000
10
79.1103147025
20
78.1135721950
30
0.0000000000
11
78.8394630862
21
78.1381648460
31
0.0000000000
11
78.8510981173
21
78.1360804362
31
0.0000000000
11
79.1103147025
21
78.1135721950
31
0.0000000000
0
SPLINE
5
39D
100
AcDbEntity
8
0
100
AcDbSpline
62
7
6
CONTINUOUS
70
0
71
3
72
8
73
4
74
2
42
0.0000001000
43
0.0000001000
44
0.0000000001
40
0.0000000000
40
0.0000000000
40
0.0000000000
40
0.0000000000
40
1.0000000000
40
1.0000000000
40
1.0000000000
40
1.0000000000
10
79.1103146850
20
102.8769809328
30
0.0000000000
10
79.0185185251
20
102.8769809328
30
0.0000000000
10
78.9263478963
20
102.8684217985
30
0.0000000000
10
78.8356435378
20
102.8515420422
30
0.0000000000
11
79.1103146850
21
102.8769809328
31
0.0000000000
11
78.8356435378
21
102.8515420422
31
0.0000000000
0
SPLINE
5
39E
100
AcDbEntity
8
0
100
AcDbSpline
62
7
6
CONTINUOUS
70
0
71
3
72
9
73
5
74
3
42
0.0000001000
43
0.0000001000
44
0.0000000001
40
0.0000000000
40
0.0000000000
40
0.0000000000
40
0.0000000000
40
0.0984795564
40
1.0000000000
40
1.0000000000
40
1.0000000000
40
1.0000000000
10
88.9954776957
20
103.1477683335
30
0.0000000000
10
88.9895924848
20
103.1471271131
30
0.0000000000
10
88.9298444235
20
103.1406484915
30
0.0000000000
10
88.8702991524
20
103.1345166064
30
0.0000000000
10
88.8166744039
20
103.1292039814
30
0.0000000000
11
88.9954776957
21
103.1477683335
31
0.0000000000
11
88.9778265263
21
103.1458544523
31
0.0000000000
11
88.8166744039
21
103.1292039814
31
0.0000000000
0
SPLINE
5
39F
100
AcDbEntity
8
0
100
AcDbSpline
62
7
6
CONTINUOUS
70
0
71
3
72
8
73
4
74
2
42
0.0000001000
43
0.0000001000
44
0.0000000001
40
0.0000000000
40
0.0000000000
40
0.0000000000
40
0.0000000000
40
1.0000000000
40
1.0000000000
40
1.0000000000
40
1.0000000000
10
88.8166744039
20
103.1292039814
30
0.0000000000
10
88.7584560188
20
103.1234362631
30
0.0000000000
10
88.7003042643
20
103.1179224229
30
0.0000000000
10
88.6420805755
20
103.1125774788
30
0.0000000000
11
88.8166744039
21
103.1292039814
31
0.0000000000
11
88.6420805755
21
103.1125774788
31
0.0000000000
0
SPLINE
5
3A0
100
AcDbEntity
8
0
100
AcDbSpline
62
7
6
CONTINUOUS
70
0
71
3
72
18
73
14
74
12
42
0.0000001000
43
0.0000001000
44
0.0000000001
40
0.0000000000
40
0.0000000000
40
0.0000000000
40
0.0000000000
40
0.0588926181
40
0.1260735720
40
0.2013934103
40
0.2845757594
40
0.3752118543
40
0.4727833383
40
0.5765793385
40
0.6858171784
40
0.7995981728
40
0.9168636075
40
1.0000000000
40
1.0000000000
40
1.0000000000
40
1.0000000000
10
88.6420805755
20
103.1125774788
30
0.0000000000
10
88.5121124581
20
103.1006463844
30
0.0000000000
10
88.2331176622
20
103.0769066507
30
0.0000000000
10
87.7875390867
20
103.0443218301
30
0.0000000000
10
87.2877082597
20
103.0129520498
30
0.0000000000
10
86.7356887756
20
102.9833827931
30
0.0000000000
10
86.1340978921
20
102.9563135355
30
0.0000000000
10
85.4866089420
20
102.9322922963
30
0.0000000000
10
84.7977002227
20
102.9118741840
30
0.0000000000
10
84.0727039599
20
102.8956367952
30
0.0000000000
10
83.3177283985
20
102.8839694428
30
0.0000000000
10
82.6206050289
20
102.8780688036
30
0.0000000000
10
82.1759302394
20
102.8769740330
30
0.0000000000
10
81.9914578793
20
102.8769776834
30
0.0000000000
11
88.6420805755
21
103.1125774788
31
0.0000000000
11
88.2514723888
21
103.0791964804
31
0.0000000000
11
87.8054743755
21
103.0463607221
31
0.0000000000
11
87.3050870324
21
103.0147719749
31
0.0000000000
11
86.7521648299
21
102.9850215287
31
0.0000000000
11
86.1494411384
21
102.9577682407
31
0.0000000000
11
85.5003849709
21
102.9335857053
31
0.0000000000
11
84.8097490005
21
102.9130437365
31
0.0000000000
11
84.0827667746
21
102.8966863351
31
0.0000000000
11
83.3254488331
21
102.8849577637
31
0.0000000000
11
82.5448731555
21
102.8783416865
31
0.0000000000
11
81.9914578793
21
102.8769776834
31
0.0000000000
0
SPLINE
5
3A1
100
AcDbEntity
8
0
100
AcDbSpline
62
7
6
CONTINUOUS
70
0
71
3
72
18
73
14
74
12
42
0.0000001000
43
0.0000001000
44
0.0000000001
40
0.0000000000
40
0.0000000000
40
0.0000000000
40
0.0000000000
40
0.0923307812
40
0.2151238878
40
0.3338049340
40
0.4472008174
40
0.5543155936
40
0.6542810257
40
0.7463513963
40
0.8299980254
40
0.9048098804
40
0.9705577706
40
1.0000000000
40
1.0000000000
40
1.0000000000
40
1.0000000000
10
140.0461859885
20
102.8769776743
30
0.0000000000
10
139.8400009259
20
102.8769735437
30
0.0000000000
10
139.3596039951
20
102.8782962944
30
0.0000000000
10
138.6142065350
20
102.8851865684
30
0.0000000000
10
137.8218452274
20
102.8983433737
30
0.0000000000
10
137.0646033339
20
102.9164916000
30
0.0000000000
10
136.3492977521
20
102.9391625460
30
0.0000000000
10
135.6817768000
20
102.9656211286
30
0.0000000000
10
135.0668609520
20
102.9952917615
30
0.0000000000
10
134.5082986572
20
103.0274213206
30
0.0000000000
10
134.0088150137
20
103.0612484561
30
0.0000000000
10
133.6302127496
20
103.0913974855
30
0.0000000000
10
133.4187056532
20
103.1103424595
30
0.0000000000
10
133.3532637555
20
103.1164699108
30
0.0000000000
11
140.0461859885
21
102.8769776743
31
0.0000000000
11
139.4276332963
21
102.8786833130
31
0.0000000000
11
138.6050374044
21
102.8862975822
31
0.0000000000
11
137.8100645351
21
102.8995364489
31
0.0000000000
11
137.0506088320
21
102.9178328140
31
0.0000000000
11
136.3333747794
21
102.9406492299
31
0.0000000000
11
135.6642048878
21
102.9673175168
31
0.0000000000
11
135.0481193505
21
102.9971931670
31
0.0000000000
11
134.4886784032
21
103.0295534985
31
0.0000000000
11
133.9886518698
21
103.0636699723
31
0.0000000000
11
133.5495900771
21
103.0988205318
31
0.0000000000
11
133.3532637555
21
103.1164699108
31
0.0000000000
0
SPLINE
5
3A2
100
AcDbEntity
8
0
100
AcDbSpline
62
7
6
CONTINUOUS
70
0
71
3
72
8
73
4
74
2
42
0.0000001000
43
0.0000001000
44
0.0000000001
40
0.0000000000
40
0.0000000000
40
0.0000000000
40
0.0000000000
40
1.0000000000
40
1.0000000000
40
1.0000000000
40
1.0000000000
10
133.3532637555
20
103.1164699108
30
0.0000000000
10
133.2930249460
20
103.1221101870
30
0.0000000000
10
133.2327667176
20
103.1279773599
30
0.0000000000
10
133.1724349550
20
103.1341263235
30
0.0000000000
11
133.3532637555
21
103.1164699108
31
0.0000000000
11
133.1724349550
21
103.1341263235
31
0.0000000000
0
SPLINE
5
3A3
100
AcDbEntity
8
0
100
AcDbSpline
62
7
6
CONTINUOUS
70
0
71
3
72
8
73
4
74
2
42
0.0000001000
43
0.0000001000
44
0.0000000001
40
0.0000000000
40
0.0000000000
40
0.0000000000
40
0.0000000000
40
1.0000000000
40
1.0000000000
40
1.0000000000
40
1.0000000000
10
133.1724349550
20
103.1341263235
30
0.0000000000
10
133.1290198654
20
103.1385511537
30
0.0000000000
10
133.0855666974
20
103.1431219043
30
0.0000000000
10
133.0421855811
20
103.1478238789
30
0.0000000000
11
133.1724349550
21
103.1341263235
31
0.0000000000
11
133.0421855811
21
103.1478238789
31
0.0000000000
0
SPLINE
5
3A4
100
AcDbEntity
8
0
100
AcDbSpline
62
7
6
CONTINUOUS
70
0
71
3
72
9
73
5
74
3
42
0.0000001000
43
0.0000001000
44
0.0000000001
40
0.0000000000
40
0.0000000000
40
0.0000000000
40
0.0000000000
40
0.0434173911
40
1.0000000000
40
1.0000000000
40
1.0000000000
40
1.0000000000
10
143.1981807368
20
102.8523290159
30
0.0000000000
10
143.1943053754
20
102.8530391592
30
0.0000000000
10
143.1049776001
20
102.8690423058
30
0.0000000000
10
143.0141051612
20
102.8768954883
30
0.0000000000
10
142.9273291204
20
102.8769216669
30
0.0000000000
11
143.1981807368
21
102.8523290159
31
0.0000000000
11
143.1865457057
21
102.8544134257
31
0.0000000000
11
142.9273291204
21
102.8769216669
31
0.0000000000
0
SPLINE
5
3A5
100
AcDbEntity
8
0
100
AcDbSpline
62
7
6
CONTINUOUS
70
0
71
3
72
8
73
4
74
2
42
0.0000001000
43
0.0000001000
44
0.0000000001
40
0.0000000000
40
0.0000000000
40
0.0000000000
40
0.0000000000
40
1.0000000000
40
1.0000000000
40
1.0000000000
40
1.0000000000
10
142.9273291380
20
78.1135129291
30
0.0000000000
10
143.0191252979
20
78.1135129291
30
0.0000000000
10
143.1112959267
20
78.1220720634
30
0.0000000000
10
143.2020002851
20
78.1389518197
30
0.0000000000
11
142.9273291380
21
78.1135129291
31
0.0000000000
11
143.2020002851
21
78.1389518197
31
0.0000000000
0
SPLINE
5
3A6
100
AcDbEntity
8
0
100
AcDbSpline
62
7
6
CONTINUOUS
70
0
71
3
72
9
73
5
74
3
42
0.0000001000
43
0.0000001000
44
0.0000000001
40
0.0000000000
40
0.0000000000
40
0.0000000000
40
0.0000000000
40
0.0984809339
40
1.0000000000
40
1.0000000000
40
1.0000000000
40
1.0000000000
10
133.0421661273
20
77.8427255281
30
0.0000000000
10
133.0480514293
20
77.8433667585
30
0.0000000000
10
133.1077995788
20
77.8498453893
30
0.0000000000
10
133.1673449371
20
77.8559772827
30
0.0000000000
10
133.2209696822
20
77.8612899067
30
0.0000000000
11
133.0421661273
21
77.8427255281
31
0.0000000000
11
133.0598175696
21
77.8446394389
31
0.0000000000
11
133.2209696822
21
77.8612899067
31
0.0000000000
0
SPLINE
5
3A7
100
AcDbEntity
8
0
100
AcDbSpline
62
7
6
CONTINUOUS
70
0
71
3
72
8
73
4
74
2
42
0.0000001000
43
0.0000001000
44
0.0000000001
40
0.0000000000
40
0.0000000000
40
0.0000000000
40
0.0000000000
40
1.0000000000
40
1.0000000000
40
1.0000000000
40
1.0000000000
10
133.2209696822
20
77.8612899067
30
0.0000000000
10
133.2791880615
20
77.8670576237
30
0.0000000000
10
133.3373398101
20
77.8725714627
30
0.0000000000
10
133.3955634931
20
77.8779164057
30
0.0000000000
11
133.2209696822
21
77.8612899067
31
0.0000000000
11
133.3955634931
21
77.8779164057
31
0.0000000000
0
SPLINE
5
3A8
100
AcDbEntity
8
0
100
AcDbSpline
62
7
6
CONTINUOUS
70
0
71
3
72
18
73
14
74
12
42
0.0000001000
43
0.0000001000
44
0.0000000001
40
0.0000000000
40
0.0000000000
40
0.0000000000
40
0.0000000000
40
0.0588926111
40
0.1260735562
40
0.2013933852
40
0.2845757254
40
0.3752118127
40
0.4727832914
40
0.5765792897
40
0.6858171323
40
0.7995981348
40
0.9168635839
40
1.0000000000
40
1.0000000000
40
1.0000000000
40
1.0000000000
10
133.3955634931
20
77.8779164057
30
0.0000000000
10
133.5255315900
20
77.8898474970
30
0.0000000000
10
133.8045263409
20
77.9135872252
30
0.0000000000
10
134.2501048443
20
77.9461720388
30
0.0000000000
10
134.7499355932
20
77.9775418136
30
0.0000000000
10
135.3019549997
20
78.0071110662
30
0.0000000000
10
135.9035458124
20
78.0341803214
30
0.0000000000
10
136.5510347058
20
78.0582015597
30
0.0000000000
10
137.2399433896
20
78.0786196724
30
0.0000000000
10
137.9649396454
20
78.0948570627
30
0.0000000000
10
138.7199152345
20
78.1065244169
30
0.0000000000
10
139.4170386807
20
78.1124250579
30
0.0000000000
10
139.8617135380
20
78.1135198289
30
0.0000000000
10
140.0461859436
20
78.1135161785
30
0.0000000000
11
133.3955634931
21
77.8779164057
31
0.0000000000
11
133.7861716186
21
77.9112973962
31
0.0000000000
11
134.2321695573
21
77.9441331473
31
0.0000000000
11
134.7325568202
21
77.9757218888
31
0.0000000000
11
135.2854789430
21
78.0054723308
31
0.0000000000
11
135.8882025616
21
78.0327256162
31
0.0000000000
11
136.5372586697
21
78.0569081505
31
0.0000000000
11
137.2278946022
21
78.0774501197
31
0.0000000000
11
137.9548768189
21
78.0938075224
31
0.0000000000
11
138.7121947864
21
78.1055360958
31
0.0000000000
11
139.4927705308
21
78.1121521747
31
0.0000000000
11
140.0461859436
21
78.1135161785
31
0.0000000000
0
SPLINE
5
3A9
100
AcDbEntity
8
0
100
AcDbSpline
62
7
6
CONTINUOUS
70
0
71
3
72
9
73
5
74
3
42
0.0000001000
43
0.0000001000
44
0.0000000001
40
0.0000000000
40
0.0000000000
40
0.0000000000
40
0.0000000000
40
0.8202964775
40
1.0000000000
40
1.0000000000
40
1.0000000000
40
1.0000000000
10
155.8766143984
20
100.5265516248
30
0.0000000000
10
155.8590987350
20
100.5301362472
30
0.0000000000
10
155.8377066478
20
100.5343135956
30
0.0000000000
10
155.8162754482
20
100.5382820356
30
0.0000000000
10
155.8124229771
20
100.5389885966
30
0.0000000000
11
155.8766143984
21
100.5265516248
31
0.0000000000
11
155.8239767093
21
100.5368490039
31
0.0000000000
11
155.8124229771
21
100.5389885966
31
0.0000000000
0
SPLINE
5
3AA
100
AcDbEntity
8
0
100
AcDbSpline
62
7
6
CONTINUOUS
70
0
71
3
72
16
73
12
74
10
42
0.0000001000
43
0.0000001000
44
0.0000000001
40
0.0000000000
40
0.0000000000
40
0.0000000000
40
0.0000000000
40
0.0826335877
40
0.2668049507
40
0.4334018897
40
0.5834308343
40
0.7167913913
40
0.8279099951
40
0.9089508404
40
0.9741756331
40
1.0000000000
40
1.0000000000
40
1.0000000000
40
1.0000000000
10
157.2320424623
20
99.0086221612
30
0.0000000000
10
157.2320509864
20
99.0699488470
30
0.0000000000
10
157.2200552896
20
99.2680643540
30
0.0000000000
10
157.1371030251
20
99.5811335802
30
0.0000000000
10
156.9522085537
20
99.9058768321
30
0.0000000000
10
156.7235849149
20
100.1508149892
30
0.0000000000
10
156.4836415375
20
100.3193774270
30
0.0000000000
10
156.2648711751
20
100.4214580170
30
0.0000000000
10
156.0835004809
20
100.4793401803
30
0.0000000000
10
155.9598682586
20
100.5090753309
30
0.0000000000
10
155.8940675180
20
100.5229855463
30
0.0000000000
10
155.8753789208
20
100.5268056455
30
0.0000000000
11
157.2320424623
21
99.0086221612
31
0.0000000000
11
157.2208727254
21
99.1921508262
31
0.0000000000
11
157.1165459425
21
99.5866823746
31
0.0000000000
11
156.9339189016
21
99.9074927215
31
0.0000000000
11
156.7071623650
21
100.1505910130
31
0.0000000000
11
156.4654685251
21
100.3206109575
31
0.0000000000
11
156.2425619481
21
100.4251902934
31
0.0000000000
11
156.0717381285
21
100.4805576957
31
0.0000000000
11
155.9313624427
21
100.5149482336
31
0.0000000000
11
155.8753789208
21
100.5268056455
31
0.0000000000
0
SPLINE
5
3AB
100
AcDbEntity
8
0
100
AcDbSpline
62
7
6
CONTINUOUS
70
0
71
3
72
9
73
5
74
3
42
0.0000001000
43
0.0000001000
44
0.0000000001
40
0.0000000000
40
0.0000000000
40
0.0000000000
40
0.0000000000
40
0.1880285521
40
1.0000000000
40
1.0000000000
40
1.0000000000
40
1.0000000000
10
66.2252143861
20
100.5389874215
30
0.0000000000
10
66.2211841675
20
100.5382482541
30
0.0000000000
10
66.1997571288
20
100.5342787981
30
0.0000000000
10
66.1783692863
20
100.5301002434
30
0.0000000000
10
66.1610344939
20
100.5265526659
30
0.0000000000
11
66.2252143861
21
100.5389874215
31
0.0000000000
11
66.2131277631
21
100.5367481193
31
0.0000000000
11
66.1610344939
21
100.5265526659
31
0.0000000000
0
SPLINE
5
3AC
100
AcDbEntity
8
0
100
AcDbSpline
62
7
6
CONTINUOUS
70
0
71
3
72
8
73
4
74
2
42
0.0000001000
43
0.0000001000
44
0.0000000001
40
0.0000000000
40
0.0000000000
40
0.0000000000
40
0.0000000000
40
1.0000000000
40
1.0000000000
40
1.0000000000
40
1.0000000000
10
66.1620082738
20
100.5267587274
30
0.0000000000
10
66.1344315960
20
100.5211223342
30
0.0000000000
10
66.1069110688
20
100.5152106707
30
0.0000000000
10
66.0794684521
20
100.5089473497
30
0.0000000000
11
66.1620082738
21
100.5267587274
31
0.0000000000
11
66.0794684521
21
100.5089473497
31
0.0000000000
0
SPLINE
5
3AD
100
AcDbEntity
8
0
100
AcDbSpline
62
7
6
CONTINUOUS
70
0
71
3
72
16
73
12
74
10
42
0.0000001000
43
0.0000001000
44
0.0000000001
40
0.0000000000
40
0.0000000000
40
0.0000000000
40
0.0000000000
40
0.0688332393
40
0.1503319958
40
0.2557294244
40
0.3783854750
40
0.5131286749
40
0.6573371644
40
0.8076326970
40
0.9635586010
40
1.0000000000
40
1.0000000000
40
1.0000000000
40
1.0000000000
10
66.0794684521
20
100.5089473497
30
0.0000000000
10
66.0317586561
20
100.4980583821
30
0.0000000000
10
65.9280746187
20
100.4719555138
30
0.0000000000
10
65.7554978345
20
100.4139591380
30
0.0000000000
10
65.5562268715
20
100.3188569698
30
0.0000000000
10
65.3427549422
20
100.1718914481
30
0.0000000000
10
65.1393855852
20
99.9690730890
30
0.0000000000
10
64.9686117621
20
99.7136328196
30
0.0000000000
10
64.8488642689
20
99.4140134132
30
0.0000000000
10
64.8090610405
20
99.1717713341
30
0.0000000000
10
64.8055396210
20
99.0346249809
30
0.0000000000
10
64.8055448104
20
99.0086443263
30
0.0000000000
11
66.0794684521
21
100.5089473497
31
0.0000000000
11
65.9372783445
21
100.4724794578
31
0.0000000000
11
65.7727309689
21
100.4165204483
31
0.0000000000
11
65.5700322220
21
100.3193921562
31
0.0000000000
11
65.3546609265
21
100.1709473811
31
0.0000000000
11
65.1512432862
21
99.9679907684
31
0.0000000000
11
64.9803540322
21
99.7123053644
31
0.0000000000
11
64.8614033715
21
99.4146785782
31
0.0000000000
11
64.8075493031
21
99.0865446260
31
0.0000000000
11
64.8055448104
21
99.0086443263
31
0.0000000000
0
SPLINE
5
3AE
100
AcDbEntity
8
0
100
AcDbSpline
62
7
6
CONTINUOUS
70
0
71
3
72
9
73
5
74
3
42
0.0000001000
43
0.0000001000
44
0.0000000001
40
0.0000000000
40
0.0000000000
40
0.0000000000
40
0.0000000000
40
0.8201779345
40
1.0000000000
40
1.0000000000
40
1.0000000000
40
1.0000000000
10
66.1610291969
20
80.4639422794
30
0.0000000000
10
66.1785425189
20
80.4603581313
30
0.0000000000
10
66.1999348330
20
80.4561807033
30
0.0000000000
10
66.2213662636
20
80.4522122057
30
0.0000000000
10
66.2252213184
20
80.4515051730
30
0.0000000000
11
66.1610291969
21
80.4639422794
31
0.0000000000
11
66.2136598402
21
80.4536462085
31
0.0000000000
11
66.2252213184
21
80.4515051730
31
0.0000000000
0
SPLINE
5
3AF
100
AcDbEntity
8
0
100
AcDbSpline
62
7
6
CONTINUOUS
70
0
71
3
72
16
73
12
74
10
42
0.0000001000
43
0.0000001000
44
0.0000000001
40
0.0000000000
40
0.0000000000
40
0.0000000000
40
0.0000000000
40
0.0826512767
40
0.2668228891
40
0.4334116365
40
0.5834351111
40
0.7167916540
40
0.8278977744
40
0.9089278759
40
0.9741684743
40
1.0000000000
40
1.0000000000
40
1.0000000000
40
1.0000000000
10
64.8056044679
20
81.9818553454
30
0.0000000000
10
64.8055961950
20
81.9205157742
30
0.0000000000
10
64.8175958925
20
81.7223877375
30
0.0000000000
10
64.9005585468
20
81.4093154100
30
0.0000000000
10
65.0854548835
20
81.0845871000
30
0.0000000000
10
65.3140728383
20
80.8396640097
30
0.0000000000
10
65.5540042327
20
80.6711152429
30
0.0000000000
10
65.7727555239
20
80.5690453347
30
0.0000000000
10
65.9541181774
20
80.5111592835
30
0.0000000000
10
66.0777585524
20
80.4814216317
30
0.0000000000
10
66.1435756200
20
80.4675081731
30
0.0000000000
10
66.1622693250
20
80.4636871146
30
0.0000000000
11
64.8056044679
21
81.9818553454
31
0.0000000000
11
64.8167795751
21
81.7982883583
31
0.0000000000
11
64.9211174411
21
81.4037611861
31
0.0000000000
11
65.1037425334
21
81.0829726459
31
0.0000000000
11
65.3304941524
21
80.8398885148
31
0.0000000000
11
65.5721820830
21
80.6698780835
31
0.0000000000
11
65.7950627428
21
80.5653114003
31
0.0000000000
11
65.9658617905
21
80.5099475642
31
0.0000000000
11
66.1062705153
21
80.4755476049
31
0.0000000000
11
66.1622693250
21
80.4636871146
31
0.0000000000
0
SPLINE
5
3B0
100
AcDbEntity
8
0
100
AcDbSpline
62
7
6
CONTINUOUS
70
0
71
3
72
9
73
5
74
3
42
0.0000001000
43
0.0000001000
44
0.0000000001
40
0.0000000000
40
0.0000000000
40
0.0000000000
40
0.0000000000
40
0.1880709483
40
1.0000000000
40
1.0000000000
40
1.0000000000
40
1.0000000000
10
155.8124298845
20
80.4515065281
30
0.0000000000
10
155.8164609825
20
80.4522458590
30
0.0000000000
10
155.8378878634
20
80.4562153049
30
0.0000000000
10
155.8592755508
20
80.4603938339
30
0.0000000000
10
155.8766093138
20
80.4639411971
30
0.0000000000
11
155.8124298845
21
80.4515065281
31
0.0000000000
11
155.8245191438
21
80.4537463293
31
0.0000000000
11
155.8766093138
21
80.4639411971
31
0.0000000000
0
SPLINE
5
3B1
100
AcDbEntity
8
0
100
AcDbSpline
62
7
6
CONTINUOUS
70
0
71
3
72
8
73
4
74
2
42
0.0000001000
43
0.0000001000
44
0.0000000001
40
0.0000000000
40
0.0000000000
40
0.0000000000
40
0.0000000000
40
1.0000000000
40
1.0000000000
40
1.0000000000
40
1.0000000000
10
155.8756403241
20
80.4637360409
30
0.0000000000
10
155.9032176977
20
80.4693726235
30
0.0000000000
10
155.9307389140
20
80.4752845058
30
0.0000000000
10
155.9581822097
20
80.4815480797
30
0.0000000000
11
155.8756403241
21
80.4637360409
31
0.0000000000
11
155.9581822097
21
80.4815480797
31
0.0000000000
0
SPLINE
5
3B2
100
AcDbEntity
8
0
100
AcDbSpline
62
7
6
CONTINUOUS
70
0
71
3
72
16
73
12
74
10
42
0.0000001000
43
0.0000001000
44
0.0000000001
40
0.0000000000
40
0.0000000000
40
0.0000000000
40
0.0000000000
40
0.0688308915
40
0.1503312956
40
0.2557304999
40
0.3783865496
40
0.5131289136
40
0.6573364498
40
0.8076322406
40
0.9635583803
40
1.0000000000
40
1.0000000000
40
1.0000000000
40
1.0000000000
10
155.9581822097
20
80.4815480797
30
0.0000000000
10
156.0058902145
20
80.4924368089
30
0.0000000000
10
156.1095733909
20
80.5185398616
30
0.0000000000
10
156.2821504876
20
80.5765362404
30
0.0000000000
10
156.4814226950
20
80.6716402392
30
0.0000000000
10
156.6948937992
20
80.8186068956
30
0.0000000000
10
156.8982608863
20
81.0214245941
30
0.0000000000
10
157.0690332433
20
81.2768634858
30
0.0000000000
10
157.1887802412
20
81.5764818218
30
0.0000000000
10
157.2285834094
20
81.8187237732
30
0.0000000000
10
157.2321048015
20
81.9558700918
30
0.0000000000
10
157.2320996043
20
81.9818508352
30
0.0000000000
11
155.9581822097
21
80.4815480797
31
0.0000000000
11
156.1003669995
21
80.5180149978
31
0.0000000000
11
156.2649172282
21
80.5739751097
31
0.0000000000
11
156.4676184377
21
80.6711056574
31
0.0000000000
11
156.6829883600
21
80.8195512086
31
0.0000000000
11
156.8864034103
21
81.0225068230
31
0.0000000000
11
157.0572906870
21
81.2781901298
31
0.0000000000
11
157.1762411594
21
81.5758166760
31
0.0000000000
11
157.2300951198
21
81.9039502686
31
0.0000000000
11
157.2320996043
21
81.9818508352
31
0.0000000000
0
ENDSEC
0
SECTION
2
OBJECTS
0
DICTIONARY
5
3B3
100
AcDbDictionary
3
ACAD_GROUP
350
3B4
3
ACAD_MLINESTYLE
350
3B5
0
DICTIONARY
5
3B4
102
{ACAD_REACTORS
330
3B3
102
}
100
AcDbDictionary
0
DICTIONARY
5
3B5
102
{ACAD_REACTORS
330
3B3
102
}
100
AcDbDictionary
3
STANDARD
350
3B6
0
MLINESTYLE
5
3B6
102
{ACAD_REACTORS
330
3B5
102
}
100
AcDbMlineStyle
2
STANDARD
70
0
3

62
256
51
90.0
52
90.0
71
2
49
0.5
62
256
6
BYLAYER
49
-0.5
62
256
6
BYLAYER
0
ENDSEC
0
EOF
