999
DXF file: C:\Aktuell-Internet\CAD-Daten\2rs-m22.dxf
999
Pro/ENGINEER 2001400 by Parametric Technology Corporation
0
SECTION
2
HEADER
9
$ACADVER
1
AC1014
9
$EXTMAX
10
420.0000000000
20
297.0000000000
9
$EXTMIN
10
0.0000000000
20
0.0000000000
9
$LIMMIN
10
0.0000000000
20
0.0000000000
9
$LIMMAX
10
420.0000000000
20
297.0000000000
9
$VIEWCTR
10
210.0000000000
20
148.5000000000
9
$VIEWSIZE
40
297.0000000000
9
$CLAYER
8
0
9
$LTSCALE
40
23.1000000000
9
$CELTYPE
6
BYLAYER
9
$DIMSCALE
40
1
9
$DIMASZ
40
3.5000000000
9
$DIMEXO
40
2.6250000000
9
$DIMDLI
40
15.9600000000
9
$DIMEXE
40
7.5600000000
9
$DIMCEN
40
3.7800000000
9
$DIMLFAC
40
1.0000000000
9
$DIMTXT
40
3.5000000000
9
$DIMTOL
70
1
9
$DIMTFAC
40
0.6000000000
9
$DIMTP
40
0.0050000000
9
$DIMTM
40
0.0050000000
9
$HANDSEED
5
407
0
ENDSEC
0
SECTION
2
CLASSES
0
ENDSEC
0
SECTION
2
TABLES
0
TABLE
2
VPORT
5
8
100
AcDbSymbolTable
70
2
0
VPORT
5
1F4
100
AcDbSymbolTableRecord
100
AcDbViewportTableRecord
2
*ACTIVE
70
0
10
0.0
20
0.0
11
1.0
21
1.0
12
210.0000000000
22
148.5000000000
13
0.0
23
0.0
14
1.0
24
1.0
15
0.0
25
0.0
16
0.0
26
0.0
36
1.0
17
0.0
27
0.0
37
0.0
40
297.0000000000
41
1.4141414141
42
50.0
43
0.0
44
0.0
50
0.0
51
0.0
71
0
72
100
73
1
74
1
75
0
76
0
77
0
78
0
0
ENDTAB
0
TABLE
2
LTYPE
5
5
100
AcDbSymbolTable
70
6
0
LTYPE
5
14
100
AcDbSymbolTableRecord
100
AcDbLinetypeTableRecord
2
BYBLOCK
70
0
3

72
65
73
0
40
0.0
0
LTYPE
5
15
100
AcDbSymbolTableRecord
100
AcDbLinetypeTableRecord
2
BYLAYER
70
0
3

72
65
73
0
40
0.0
0
LTYPE
5
16
100
AcDbSymbolTableRecord
100
AcDbLinetypeTableRecord
2
CONTINUOUS
70
64
3
Solid line
72
65
73
0
40
0
0
LTYPE
5
1F5
100
AcDbSymbolTableRecord
100
AcDbLinetypeTableRecord
2
CENTER
70
64
3
____ _ ____ _ ____ _ ____ _ ____ _ ____ _ ____
72
65
73
4
40
0.6
49
0.375
74
0
49
-0.075
74
0
49
0.075
74
0
49
-0.075
74
0
0
LTYPE
5
1F6
100
AcDbSymbolTableRecord
100
AcDbLinetypeTableRecord
2
HIDDEN
70
64
3
- - - - - - - - - - - - - - - - - - - -
72
65
73
2
40
0.2
49
0.1
74
0
49
-0.1
74
0
0
LTYPE
5
1F7
100
AcDbSymbolTableRecord
100
AcDbLinetypeTableRecord
2
PHANTOM
70
64
3
_____ _ _ _____ _ _ _____ _ _ _____
72
65
73
6
40
0.8
49
0.45
74
0
49
-0.05
74
0
49
0.1
74
0
49
-0.05
74
0
49
0.1
74
0
49
-0.05
74
0
0
LTYPE
5
1F8
100
AcDbSymbolTableRecord
100
AcDbLinetypeTableRecord
2
DOT
70
64
3
. . . . . . . . . . . . . . . . . . . .
72
65
73
2
40
0.2
49
0.1
74
0
49
-0.1
74
0
0
LTYPE
5
1F9
100
AcDbSymbolTableRecord
100
AcDbLinetypeTableRecord
2
DASHED
70
64
3
- - - - - - - - - - - - - - - - - - - -
72
65
73
2
40
0.2
49
0.1
74
0
49
-0.1
74
0
0
ENDTAB
0
TABLE
2
LAYER
5
2
100
AcDbSymbolTable
70
36
0
LAYER
5
10
100
AcDbSymbolTableRecord
100
AcDbLayerTableRecord
2
0
70
0
62
7
6
CONTINUOUS
0
LAYER
5
1FA
100
AcDbSymbolTableRecord
100
AcDbLayerTableRecord
2
DEFAULT_1
70
0
62
7
6
CENTER
0
LAYER
5
1FB
100
AcDbSymbolTableRecord
100
AcDbLayerTableRecord
2
DEFAULT_2
70
0
62
8
6
HIDDEN
0
LAYER
5
1FC
100
AcDbSymbolTableRecord
100
AcDbLayerTableRecord
2
DEFAULT_3
70
0
62
7
6
PHANTOM
0
ENDTAB
0
TABLE
2
STYLE
5
3
100
AcDbSymbolTable
70
1
0
STYLE
5
11
100
AcDbSymbolTableRecord
100
AcDbTextStyleTableRecord
2
STANDARD
70
0
40
0.0
41
1.0
50
0.0
71
0
42
0.0
3
txt
4

0
STYLE
5
1FD
100
AcDbSymbolTableRecord
100
AcDbTextStyleTableRecord
2
TEXTSTYLE_0
70
0
40
0.0
41
0.80
50
0.0
71
0
42
0.2
3
txt
4

0
ENDTAB
0
TABLE
2
VIEW
5
6
100
AcDbSymbolTable
70
0
0
ENDTAB
0
TABLE
2
UCS
5
7
100
AcDbSymbolTable
70
0
0
ENDTAB
0
TABLE
2
APPID
5
9
100
AcDbSymbolTable
70
1
0
APPID
5
1FE
100
AcDbSymbolTableRecord
100
AcDbRegAppTableRecord
2
ACAD
70
0
0
ENDTAB
0
TABLE
2
DIMSTYLE
5
A
100
AcDbSymbolTable
70
1
0
DIMSTYLE
105
1FF
100
AcDbSymbolTableRecord
100
AcDbDimStyleTableRecord
2
STANDARD
70
0
3

4

5

6

7

40
1.0
41
0.18
42
0.0625
43
0.38
44
0.18
45
0.0
46
0.0
47
0.0050000000
48
0.0050000000
140
3.5000000000
141
0.09
142
0.0
143
25.4
144
1.0000000000
145
0.0
146
0.6000000000
147
0.09
71
1
72
0
73
1
74
1
75
0
76
0
77
0
78
0
170
0
171
2
172
0
173
0
174
0
175
0
176
0
177
0
178
0
270
2
271
3
272
4
273
2
274
2
340
11
275
0
280
0
281
0
282
0
283
1
284
0
285
0
286
0
287
3
288
0
0
ENDTAB
0
TABLE
2
BLOCK_RECORD
5
1
100
AcDbSymbolTable
70
0
0
BLOCK_RECORD
5
1B
100
AcDbSymbolTableRecord
100
AcDbBlockTableRecord
2
*MODEL_SPACE
0
BLOCK_RECORD
5
1C
100
AcDbSymbolTableRecord
100
AcDbBlockTableRecord
2
*PAPER_SPACE
0
ENDTAB
0
ENDSEC
0
SECTION
2
BLOCKS
0
BLOCK
5
1E
100
AcDbEntity
8
0
100
AcDbBlockBegin
2
*MODEL_SPACE
70
0
10
0.0
20
0.0
30
0.0
3
*MODEL_SPACE
1

0
ENDBLK
5
1F
100
AcDbEntity
8
0
100
AcDbBlockEnd
0
BLOCK
5
20
100
AcDbEntity
8
0
100
AcDbBlockBegin
2
*PAPER_SPACE
70
0
10
0.0
20
0.0
30
0.0
3
*PAPER_SPACE
1

0
ENDBLK
5
21
100
AcDbEntity
8
0
100
AcDbBlockEnd
0
ENDSEC
0
SECTION
2
ENTITIES
0
TEXT
5
200
100
AcDbEntity
8
0
100
AcDbText
62
2
6
CONTINUOUS
10
84.3770635399
20
92.8149407484
7
TEXTSTYLE_0
40
4.5000000000
1
RUD
72
5
11
95.5199206828
21
92.8149407484
100
AcDbText
0
TEXT
5
201
100
AcDbEntity
8
0
100
AcDbText
62
2
6
CONTINUOUS
10
80.2323303767
20
82.8325575686
7
TEXTSTYLE_0
40
4.5000000000
1
RS M22
72
5
11
101.7680446624
21
82.8325575686
100
AcDbText
0
TEXT
5
202
100
AcDbEntity
8
0
100
AcDbText
62
2
6
CONTINUOUS
10
292.2182843203
20
202.9043544950
7
TEXTSTYLE_0
40
4.5000000000
1
RUD
50
90.0000000000
72
5
11
292.2182843203
21
214.0472116379
100
AcDbText
0
TEXT
5
203
100
AcDbEntity
8
0
100
AcDbText
62
2
6
CONTINUOUS
10
302.8159721378
20
203.2207033565
7
TEXTSTYLE_0
40
4.5000000000
1
RS M22
50
90.0000000000
72
5
11
302.8159721378
21
224.7564176422
100
AcDbText
0
LINE
5
204
100
AcDbEntity
8
0
100
AcDbLine
62
7
6
CONTINUOUS
10
0.0000000000
20
0.0000000000
11
0.0000000000
21
297.0000000000
0
LINE
5
205
100
AcDbEntity
8
0
100
AcDbLine
62
7
6
CONTINUOUS
10
0.0000000000
20
0.0000000000
11
420.0000000000
21
0.0000000000
0
LINE
5
206
100
AcDbEntity
8
0
100
AcDbLine
62
7
6
CONTINUOUS
10
0.0000000000
20
297.0000000000
11
420.0000000000
21
297.0000000000
0
LINE
5
207
100
AcDbEntity
8
0
100
AcDbLine
62
7
6
CONTINUOUS
10
420.0000000000
20
0.0000000000
11
420.0000000000
21
297.0000000000
0
LINE
5
208
100
AcDbEntity
8
0
100
AcDbLine
62
7
6
CONTINUOUS
10
120.5188219115
20
149.6453046988
11
101.5188219115
21
149.6453046988
0
LINE
5
209
100
AcDbEntity
8
0
100
AcDbLine
62
7
6
CONTINUOUS
10
79.6387804575
20
263.6901305534
11
109.4880881820
21
276.0541186403
0
LINE
5
20A
100
AcDbEntity
8
0
100
AcDbLine
62
7
6
CONTINUOUS
10
122.0188219115
20
151.1453046988
11
100.0188219115
21
151.1453046988
0
LINE
5
20B
100
AcDbEntity
8
0
100
AcDbLine
62
7
6
CONTINUOUS
10
77.2456771289
20
252.5659429102
11
76.9978441453
21
252.3959299498
0
LINE
5
20C
100
AcDbEntity
8
0
100
AcDbLine
62
7
6
CONTINUOUS
10
94.4871432555
20
268.1070984639
11
92.0334044738
21
266.6904317178
0
LINE
5
20D
100
AcDbEntity
8
0
100
AcDbLine
62
7
6
CONTINUOUS
10
90.0848473153
20
265.5654317178
11
89.6518346134
21
265.3154317178
0
LINE
5
20E
100
AcDbEntity
8
0
100
AcDbLine
62
7
6
CONTINUOUS
10
92.6602058760
20
266.4381133352
11
94.7531006706
21
267.6464467083
0
LINE
5
20F
100
AcDbEntity
8
0
100
AcDbLine
62
7
6
CONTINUOUS
10
96.5193655229
20
268.4205192599
11
96.1585217423
21
268.2121860060
0
LINE
5
210
100
AcDbEntity
8
0
100
AcDbLine
62
7
6
CONTINUOUS
10
97.7387544315
20
268.1418096851
11
96.9448975361
21
267.6834761928
0
LINE
5
211
100
AcDbEntity
8
0
100
AcDbLine
62
7
6
CONTINUOUS
10
96.5840537555
20
267.4751429390
11
96.0067032110
21
267.1418094467
0
LINE
5
212
100
AcDbEntity
8
0
100
AcDbLine
62
7
6
CONTINUOUS
10
94.4532042908
20
265.9992154906
11
94.0201915889
21
265.7492154906
0
LINE
5
213
100
AcDbEntity
8
0
100
AcDbLine
62
7
6
CONTINUOUS
10
96.2194691431
20
266.7732880422
11
96.7968196876
21
267.1066215345
0
LINE
5
214
100
AcDbEntity
8
0
100
AcDbLine
62
7
6
CONTINUOUS
10
97.1576634682
20
267.3149547883
11
97.9515203636
21
267.7732882806
0
LINE
5
215
100
AcDbEntity
8
0
100
AcDbLine
62
7
6
CONTINUOUS
10
94.2861490040
20
265.2885637350
11
94.7191617059
21
265.5385637350
0
LINE
5
216
100
AcDbEntity
8
0
100
AcDbLine
62
7
6
CONTINUOUS
10
93.4163831813
20
264.2950423305
11
93.9215645980
21
264.5867089574
0
LINE
5
217
100
AcDbEntity
8
0
100
AcDbLine
62
7
6
CONTINUOUS
10
94.3281193049
20
263.7158690413
11
93.8951066030
21
263.4658690413
0
LINE
5
218
100
AcDbEntity
8
0
100
AcDbLine
62
7
6
CONTINUOUS
10
108.4554885050
20
269.4557301782
11
108.2254885050
21
269.3578578495
0
LINE
5
219
100
AcDbEntity
8
0
100
AcDbLine
62
7
6
CONTINUOUS
10
98.8103400050
20
264.9524350580
11
99.2965441946
21
265.1103046988
0
LINE
5
21A
100
AcDbEntity
8
0
100
AcDbLine
62
7
6
CONTINUOUS
10
111.6754887244
20
267.4004110687
11
111.3688219115
21
267.3025387399
0
LINE
5
21B
100
AcDbEntity
8
0
100
AcDbLine
62
7
6
CONTINUOUS
10
64.9940917820
20
231.3589638104
11
65.1100079700
21
231.6760384283
0
LINE
5
21C
100
AcDbEntity
8
0
100
AcDbLine
62
7
6
CONTINUOUS
10
65.1100079700
20
231.6760384283
11
77.4739960570
21
261.5253461528
0
LINE
5
21D
100
AcDbEntity
8
0
100
AcDbLine
62
7
6
CONTINUOUS
10
76.7749425287
20
252.0777291292
11
76.6759576871
21
251.8445354558
0
LINE
5
21E
100
AcDbEntity
8
0
100
AcDbLine
62
7
6
CONTINUOUS
10
75.6861053061
20
249.5125893823
11
75.5871198981
21
249.2793943747
0
LINE
5
21F
100
AcDbEntity
8
0
100
AcDbLine
62
7
6
CONTINUOUS
10
74.9684623724
20
247.8219285791
11
74.7457456291
21
247.2972408126
0
LINE
5
220
100
AcDbEntity
8
0
100
AcDbLine
62
7
6
CONTINUOUS
10
74.0033564850
20
245.5482815911
11
73.7806397418
21
245.0235938246
0
LINE
5
221
100
AcDbEntity
8
0
100
AcDbLine
62
7
6
CONTINUOUS
10
71.9989059374
20
240.8260920264
11
71.8751743190
21
240.5345986005
0
LINE
5
222
100
AcDbEntity
8
0
100
AcDbLine
62
7
6
CONTINUOUS
10
70.9348147837
20
238.3192503643
11
70.3409034684
21
236.9200829871
0
LINE
5
223
100
AcDbEntity
8
0
100
AcDbLine
62
7
6
CONTINUOUS
10
70.8615002361
20
237.1119197132
11
71.3316800038
21
238.2195938312
0
LINE
5
224
100
AcDbEntity
8
0
100
AcDbLine
62
7
6
CONTINUOUS
10
75.9344929098
20
249.0631415053
11
76.0334777514
21
249.2963351786
0
LINE
5
225
100
AcDbEntity
8
0
100
AcDbLine
62
7
6
CONTINUOUS
10
77.0233301324
20
251.6282812521
11
77.1223155404
21
251.8614762598
0
LINE
5
226
100
AcDbEntity
8
0
100
AcDbLine
62
7
6
CONTINUOUS
10
76.9978441453
20
252.3959299498
11
76.7749425287
21
252.0777291292
0
LINE
5
227
100
AcDbEntity
8
0
100
AcDbLine
62
7
6
CONTINUOUS
10
75.9090069227
20
249.8307902030
11
75.6861053061
21
249.5125893823
0
LINE
5
228
100
AcDbEntity
8
0
100
AcDbLine
62
7
6
CONTINUOUS
10
77.1223155404
20
251.8614762598
11
77.3204706634
21
252.1213779950
0
LINE
5
229
100
AcDbEntity
8
0
100
AcDbLine
62
7
6
CONTINUOUS
10
76.0334777514
20
249.2963351786
11
76.2316334409
21
249.5562382481
0
LINE
5
22A
100
AcDbEntity
8
0
100
AcDbLine
62
7
6
CONTINUOUS
10
72.1970612021
20
241.0859940952
11
71.9989059374
21
240.8260920264
0
LINE
5
22B
100
AcDbEntity
8
0
100
AcDbLine
62
7
6
CONTINUOUS
10
71.1329701191
20
238.5791525999
11
70.9348147837
21
238.3192503643
0
LINE
5
22C
100
AcDbEntity
8
0
100
AcDbLine
62
7
6
CONTINUOUS
10
94.0506652148
20
265.0297666377
11
94.2861490040
21
265.2885637350
0
LINE
5
22D
100
AcDbEntity
8
0
100
AcDbLine
62
7
6
CONTINUOUS
10
94.0201915889
20
265.7492154906
11
93.7125392913
21
265.4487518856
0
LINE
5
22E
100
AcDbEntity
8
0
100
AcDbLine
62
7
6
CONTINUOUS
10
96.0489489304
20
263.2353046988
11
96.3566012233
21
263.5357683119
0
LINE
5
22F
100
AcDbEntity
8
0
100
AcDbLine
62
7
6
CONTINUOUS
10
72.4701948746
20
240.6948443029
11
72.6188575768
21
240.8381492014
0
LINE
5
230
100
AcDbEntity
8
0
100
AcDbLine
62
7
6
CONTINUOUS
10
76.1568399063
20
250.0008031634
11
75.9090069227
21
249.8307902030
0
LINE
5
231
100
AcDbEntity
8
0
100
AcDbLine
62
7
6
CONTINUOUS
10
108.5321553179
20
268.9663685345
11
108.8388219115
21
269.1621131920
0
LINE
5
232
100
AcDbEntity
8
0
100
AcDbLine
62
7
6
CONTINUOUS
10
95.7829914780
20
263.6959565190
11
95.3499787762
21
263.4459565190
0
LINE
5
233
100
AcDbEntity
8
0
100
AcDbLine
62
7
6
CONTINUOUS
10
93.6900966834
20
262.4876231459
11
93.3292529028
21
262.2792898920
0
LINE
5
234
100
AcDbEntity
8
0
100
AcDbLine
62
7
6
CONTINUOUS
10
92.1518346134
20
260.9853046988
11
92.5848473153
21
261.2353046988
0
LINE
5
235
100
AcDbEntity
8
0
100
AcDbLine
62
7
6
CONTINUOUS
10
95.6159362285
20
262.9853046988
11
96.0489489304
21
263.2353046988
0
LINE
5
236
100
AcDbEntity
8
0
100
AcDbLine
62
7
6
CONTINUOUS
10
93.4813464854
20
261.0158558410
11
93.8421903692
21
261.2241891545
0
LINE
5
237
100
AcDbEntity
8
0
100
AcDbLine
62
7
6
CONTINUOUS
10
77.3204706634
20
252.1213779950
11
77.5435571534
21
252.2330918698
0
LINE
5
238
100
AcDbEntity
8
0
100
AcDbLine
62
7
6
CONTINUOUS
10
76.2316334409
20
249.5562382481
11
76.4547199308
21
249.6679521230
0
LINE
5
239
100
AcDbEntity
8
0
100
AcDbLine
62
7
6
CONTINUOUS
10
115.3554882857
20
267.4004110687
11
115.0488219115
21
267.3025387399
0
LINE
5
23A
100
AcDbEntity
8
0
100
AcDbLine
62
7
6
CONTINUOUS
10
100.0188219115
20
151.1453046988
11
101.5188219115
21
149.6453046988
0
LINE
5
23B
100
AcDbEntity
8
0
100
AcDbLine
62
7
6
CONTINUOUS
10
71.8751743190
20
240.5345986005
11
71.8506129820
21
240.2698132363
0
LINE
5
23C
100
AcDbEntity
8
0
100
AcDbLine
62
7
6
CONTINUOUS
10
75.5871198981
20
249.2793943747
11
75.4883199298
21
248.8397137556
0
LINE
5
23D
100
AcDbEntity
8
0
100
AcDbLine
62
7
6
CONTINUOUS
10
76.6759576871
20
251.8445354558
11
76.5771571524
21
251.4048535024
0
LINE
5
23E
100
AcDbEntity
8
0
100
AcDbLine
62
7
6
CONTINUOUS
10
72.3217170458
20
240.3450524586
11
72.4701948746
21
240.6948443029
0
LINE
5
23F
100
AcDbEntity
8
0
100
AcDbLine
62
7
6
CONTINUOUS
10
72.9907916424
20
240.8866810290
11
73.1392694712
21
241.2364728733
0
LINE
5
240
100
AcDbEntity
8
0
100
AcDbLine
62
7
6
CONTINUOUS
10
76.0098410645
20
247.9991157526
11
76.1335723997
21
248.2906085115
0
LINE
5
241
100
AcDbEntity
8
0
100
AcDbLine
62
7
6
CONTINUOUS
10
77.0986782871
20
250.5642554995
11
77.2224096223
21
250.8557482583
0
LINE
5
242
100
AcDbEntity
8
0
100
AcDbLine
62
7
6
CONTINUOUS
10
73.5121281121
20
240.2525698834
11
73.3636502833
21
239.9027780391
0
LINE
5
243
100
AcDbEntity
8
0
100
AcDbLine
62
7
6
CONTINUOUS
10
72.4480370292
20
237.7457283881
11
71.9778572615
21
236.6380542700
0
LINE
5
244
100
AcDbEntity
8
0
100
AcDbLine
62
7
6
CONTINUOUS
10
72.4243999882
20
236.4485081282
11
72.8450871581
21
237.4395849926
0
LINE
5
245
100
AcDbEntity
8
0
100
AcDbLine
62
7
6
CONTINUOUS
10
73.8101930101
20
239.7132318972
11
73.9586708389
21
240.0630237415
0
LINE
5
246
100
AcDbEntity
8
0
100
AcDbLine
62
7
6
CONTINUOUS
10
74.1581204630
20
238.8775174790
11
74.0096425634
21
238.5277254679
0
LINE
5
247
100
AcDbEntity
8
0
100
AcDbLine
62
7
6
CONTINUOUS
10
75.0750278121
20
239.5891583205
11
74.8770574209
21
239.1227693059
0
LINE
5
248
100
AcDbEntity
8
0
100
AcDbLine
62
7
6
CONTINUOUS
10
80.2719365528
20
251.6253855920
11
79.5790403959
21
249.9930245415
0
LINE
5
249
100
AcDbEntity
8
0
100
AcDbLine
62
7
6
CONTINUOUS
10
79.1830993302
20
249.0602458452
11
78.4902026069
21
247.4278834603
0
LINE
5
24A
100
AcDbEntity
8
0
100
AcDbLine
62
7
6
CONTINUOUS
10
73.8388219115
20
235.4353046988
11
73.9872997403
21
235.7850965431
0
LINE
5
24B
100
AcDbEntity
8
0
100
AcDbLine
62
7
6
CONTINUOUS
10
74.6059573368
20
237.2425625055
11
74.7791815176
21
237.6506531017
0
LINE
5
24C
100
AcDbEntity
8
0
100
AcDbLine
62
7
6
CONTINUOUS
10
75.3236001997
20
238.9332231420
11
75.5215705910
21
239.3996121565
0
LINE
5
24D
100
AcDbEntity
8
0
100
AcDbLine
62
7
6
CONTINUOUS
10
77.2785581849
20
243.5388155363
11
77.4270360137
21
243.8886073806
0
LINE
5
24E
100
AcDbEntity
8
0
100
AcDbLine
62
7
6
CONTINUOUS
10
77.7734843754
20
244.7047885731
11
77.9714549082
21
245.1711779212
0
LINE
5
24F
100
AcDbEntity
8
0
100
AcDbLine
62
7
6
CONTINUOUS
10
78.3179029867
20
245.9873584465
11
78.4663808155
21
246.3371502908
0
LINE
5
250
100
AcDbEntity
8
0
100
AcDbLine
62
7
6
CONTINUOUS
10
78.6643513483
20
246.8035396390
11
79.5552183213
21
248.9022907048
0
LINE
5
251
100
AcDbEntity
8
0
100
AcDbLine
62
7
6
CONTINUOUS
10
79.7531885709
20
249.3686793858
11
80.6440555439
21
251.4674304517
0
LINE
5
252
100
AcDbEntity
8
0
100
AcDbLine
62
7
6
CONTINUOUS
10
73.7102835184
20
240.5124722857
11
73.5121281121
21
240.2525698834
0
LINE
5
253
100
AcDbEntity
8
0
100
AcDbLine
62
7
6
CONTINUOUS
10
75.1254449286
20
238.6733210760
11
75.3236001997
21
238.9332231420
0
LINE
5
254
100
AcDbEntity
8
0
100
AcDbLine
62
7
6
CONTINUOUS
10
73.9586708389
20
240.0630237415
11
74.1320798931
21
240.2646273920
0
LINE
5
255
100
AcDbEntity
8
0
100
AcDbLine
62
7
6
CONTINUOUS
10
73.6367840975
20
239.5116285804
11
73.8101930101
21
239.7132318972
0
LINE
5
256
100
AcDbEntity
8
0
100
AcDbLine
62
7
6
CONTINUOUS
10
74.8770574209
20
239.1227693059
11
74.7036483667
21
238.9211656555
0
LINE
5
257
100
AcDbEntity
8
0
100
AcDbLine
62
7
6
CONTINUOUS
10
96.0184752673
20
263.9547536162
11
95.7829914780
21
263.6959565190
0
LINE
5
258
100
AcDbEntity
8
0
100
AcDbLine
62
7
6
CONTINUOUS
10
71.3316800038
20
238.2195938312
11
71.4803427060
21
238.3628987298
0
LINE
5
259
100
AcDbEntity
8
0
100
AcDbLine
62
7
6
CONTINUOUS
10
73.3636502833
20
239.9027780391
11
73.2149875811
21
239.7594731406
0
LINE
5
25A
100
AcDbEntity
8
0
100
AcDbLine
62
7
6
CONTINUOUS
10
73.9581162188
20
240.6824845789
11
73.7102835184
21
240.5124722857
0
LINE
5
25B
100
AcDbEntity
8
0
100
AcDbLine
62
7
6
CONTINUOUS
10
73.3889512555
20
239.3416159536
11
73.6367840975
21
239.5116285804
0
LINE
5
25C
100
AcDbEntity
8
0
100
AcDbLine
62
7
6
CONTINUOUS
10
111.7521550986
20
266.8131770362
11
112.0588219115
21
267.0089217194
0
LINE
5
25D
100
AcDbEntity
8
0
100
AcDbLine
62
7
6
CONTINUOUS
10
115.4321555373
20
266.8131770362
11
115.7388219115
21
267.0089217194
0
LINE
5
25E
100
AcDbEntity
8
0
100
AcDbLine
62
7
6
CONTINUOUS
10
72.5193178318
20
241.2244156983
11
72.1970612021
21
241.0859940952
0
LINE
5
25F
100
AcDbEntity
8
0
100
AcDbLine
62
7
6
CONTINUOUS
10
72.3219019191
20
240.1385655128
11
72.3217170458
21
240.3450524586
0
LINE
5
260
100
AcDbEntity
8
0
100
AcDbLine
62
7
6
CONTINUOUS
10
72.4478521558
20
237.9522153339
11
72.4480370292
21
237.7457283881
0
LINE
5
261
100
AcDbEntity
8
0
100
AcDbLine
62
7
6
CONTINUOUS
10
75.0995892907
20
239.8539440182
11
75.0750278121
21
239.5891583205
0
LINE
5
262
100
AcDbEntity
8
0
100
AcDbLine
62
7
6
CONTINUOUS
10
75.8851847960
20
248.7400563885
11
75.9344929098
21
249.0631415053
0
LINE
5
263
100
AcDbEntity
8
0
100
AcDbLine
62
7
6
CONTINUOUS
10
76.9740225850
20
251.3051974697
11
77.0233301324
21
251.6282812521
0
LINE
5
264
100
AcDbEntity
8
0
100
AcDbLine
62
7
6
CONTINUOUS
10
75.5215705910
20
239.3996121565
11
75.5708784151
21
239.7226966089
0
LINE
5
265
100
AcDbEntity
8
0
100
AcDbLine
62
7
6
CONTINUOUS
10
93.7125392913
20
265.4487518856
11
93.5112697533
21
264.9640274592
0
LINE
5
266
100
AcDbEntity
8
0
100
AcDbLine
62
7
6
CONTINUOUS
10
108.6088219115
20
269.6514748358
11
108.4554885050
21
269.4557301782
0
LINE
5
267
100
AcDbEntity
8
0
100
AcDbLine
62
7
6
CONTINUOUS
10
111.9054887244
20
267.5961557947
11
111.6754887244
21
267.4004110687
0
LINE
5
268
100
AcDbEntity
8
0
100
AcDbLine
62
7
6
CONTINUOUS
10
115.5854882857
20
267.5961557947
11
115.3554882857
21
267.4004110687
0
LINE
5
269
100
AcDbEntity
8
0
100
AcDbLine
62
7
6
CONTINUOUS
10
74.7784419273
20
238.4766007292
11
75.1254449286
21
238.6733210760
0
LINE
5
26A
100
AcDbEntity
8
0
100
AcDbLine
62
7
6
CONTINUOUS
10
74.1320798931
20
240.2646273920
11
74.3551663831
21
240.3763412668
0
LINE
5
26B
100
AcDbEntity
8
0
100
AcDbLine
62
7
6
CONTINUOUS
10
73.2149875811
20
239.7594731406
11
72.9919010911
21
239.6477592657
0
LINE
5
26C
100
AcDbEntity
8
0
100
AcDbLine
62
7
6
CONTINUOUS
10
71.4552266781
20
238.7175740362
11
71.1329701191
21
238.5791525999
0
LINE
5
26D
100
AcDbEntity
8
0
100
AcDbLine
62
7
6
CONTINUOUS
10
77.7244953862
20
198.1605043669
11
65.1100079700
21
228.6145709694
0
LINE
5
26E
100
AcDbEntity
8
0
100
AcDbLine
62
7
6
CONTINUOUS
10
93.9215645980
20
264.5867089574
11
94.0506652148
21
265.0297666377
0
LINE
5
26F
100
AcDbEntity
8
0
100
AcDbLine
62
7
6
CONTINUOUS
10
96.1285986522
20
264.2640143185
11
96.0184752673
21
263.9547536162
0
LINE
5
270
100
AcDbEntity
8
0
100
AcDbLine
62
7
6
CONTINUOUS
10
96.3566012233
20
263.5357683119
11
96.5578709538
21
264.0204928817
0
LINE
5
271
100
AcDbEntity
8
0
100
AcDbLine
62
7
6
CONTINUOUS
10
112.0588219115
20
267.0089217194
11
112.3654887244
21
267.4004110687
0
LINE
5
272
100
AcDbEntity
8
0
100
AcDbLine
62
7
6
CONTINUOUS
10
122.0188219115
20
178.6453046988
11
100.0188219115
21
178.6453046988
0
LINE
5
273
100
AcDbEntity
8
0
100
AcDbLine
62
7
6
CONTINUOUS
10
120.2188219115
20
180.4453046988
11
101.8188219115
21
180.4453046988
0
LINE
5
274
100
AcDbEntity
8
0
100
AcDbLine
62
7
6
CONTINUOUS
10
71.8506129820
20
240.2698132363
11
71.9004752912
21
239.9734365150
0
LINE
5
275
100
AcDbEntity
8
0
100
AcDbLine
62
7
6
CONTINUOUS
10
72.8447174467
20
237.8525589676
11
72.7948550668
21
238.1489355221
0
LINE
5
276
100
AcDbEntity
8
0
100
AcDbLine
62
7
6
CONTINUOUS
10
108.8388219115
20
269.1621131920
11
109.0688219115
21
269.5536025070
0
LINE
5
277
100
AcDbEntity
8
0
100
AcDbLine
62
7
6
CONTINUOUS
10
115.7388219115
20
267.0089217194
11
116.0454882857
21
267.4004110687
0
LINE
5
278
100
AcDbEntity
8
0
100
AcDbLine
62
7
6
CONTINUOUS
10
86.0188219115
20
185.6453046988
11
136.0188219115
21
185.6453046988
0
LINE
5
279
100
AcDbEntity
8
0
100
AcDbLine
62
7
6
CONTINUOUS
10
72.3965105803
20
239.9004875433
11
72.3219019191
21
240.1385655128
0
LINE
5
27A
100
AcDbEntity
8
0
100
AcDbLine
62
7
6
CONTINUOUS
10
75.0249805774
20
240.0920220098
11
75.0995892907
21
239.8539440182
0
LINE
5
27B
100
AcDbEntity
8
0
100
AcDbLine
62
7
6
CONTINUOUS
10
75.5708784151
20
239.7226966089
11
75.5210159448
21
240.0190730050
0
LINE
5
27C
100
AcDbEntity
8
0
100
AcDbLine
62
7
6
CONTINUOUS
10
75.4883199298
20
248.8397137556
11
75.5381820974
21
248.5433367006
0
LINE
5
27D
100
AcDbEntity
8
0
100
AcDbLine
62
7
6
CONTINUOUS
10
76.5771571524
20
251.4048535024
11
76.6270193200
21
251.1084764474
0
LINE
5
27E
100
AcDbEntity
8
0
100
AcDbLine
62
7
6
CONTINUOUS
10
86.0188219115
20
185.6453046988
11
86.0188219115
21
191.2345295154
0
LINE
5
27F
100
AcDbEntity
8
0
100
AcDbLine
62
7
6
CONTINUOUS
10
89.6518346134
20
265.3154317178
11
89.5911622926
21
264.4205192599
0
LINE
5
280
100
AcDbEntity
8
0
100
AcDbLine
62
7
6
CONTINUOUS
10
90.0166943058
20
263.6834761928
11
90.0773664775
21
264.5783889088
0
LINE
5
281
100
AcDbEntity
8
0
100
AcDbLine
62
7
6
CONTINUOUS
10
112.0588219115
20
267.8897727810
11
111.9054887244
21
267.5961557947
0
LINE
5
282
100
AcDbEntity
8
0
100
AcDbLine
62
7
6
CONTINUOUS
10
115.7388219115
20
267.8897727810
11
115.5854882857
21
267.5961557947
0
LINE
5
283
100
AcDbEntity
8
0
100
AcDbLine
62
7
6
CONTINUOUS
10
72.3484972134
20
238.1319947182
11
72.4478521558
21
237.9522153339
0
LINE
5
284
100
AcDbEntity
8
0
100
AcDbLine
62
7
6
CONTINUOUS
10
71.9004752912
20
239.9734365150
11
72.0991851759
21
239.6138777463
0
LINE
5
285
100
AcDbEntity
8
0
100
AcDbLine
62
7
6
CONTINUOUS
10
75.9597934572
20
248.5019784190
11
75.8851847960
21
248.7400563885
0
LINE
5
286
100
AcDbEntity
8
0
100
AcDbLine
62
7
6
CONTINUOUS
10
77.0486312461
20
251.0671195002
11
76.9740225850
21
251.3051974697
0
LINE
5
287
100
AcDbEntity
8
0
100
AcDbLine
62
7
6
CONTINUOUS
10
108.6854885050
20
269.9450918220
11
108.6088219115
21
269.6514748358
0
LINE
5
288
100
AcDbEntity
8
0
100
AcDbLine
62
7
6
CONTINUOUS
10
109.0688219115
20
269.5536025070
11
109.1454885050
21
269.8472194933
0
LINE
5
289
100
AcDbEntity
8
0
100
AcDbLine
62
7
6
CONTINUOUS
10
112.3654887244
20
267.4004110687
11
112.5188219115
21
267.7919004523
0
LINE
5
28A
100
AcDbEntity
8
0
100
AcDbLine
62
7
6
CONTINUOUS
10
116.0454882857
20
267.4004110687
11
116.1988219115
21
267.7919004523
0
LINE
5
28B
100
AcDbEntity
8
0
100
AcDbLine
62
7
6
CONTINUOUS
10
142.9273291380
20
197.2345295154
11
140.0461859860
21
197.2345295154
0
LINE
5
28C
100
AcDbEntity
8
0
100
AcDbLine
62
7
6
CONTINUOUS
10
81.9914578370
20
197.2345295154
11
79.1103146850
21
197.2345295154
0
LINE
5
28D
100
AcDbEntity
8
0
100
AcDbLine
62
7
6
CONTINUOUS
10
120.2188219115
20
180.4453046988
11
122.0188219115
21
178.6453046988
0
LINE
5
28E
100
AcDbEntity
8
0
100
AcDbLine
62
7
6
CONTINUOUS
10
72.7948550668
20
238.1489355221
11
72.5713988300
21
238.4501955389
0
LINE
5
28F
100
AcDbEntity
8
0
100
AcDbLine
62
7
6
CONTINUOUS
10
75.5210159448
20
240.0190730050
11
75.3223060340
21
240.3786317847
0
LINE
5
290
100
AcDbEntity
8
0
100
AcDbLine
62
7
6
CONTINUOUS
10
96.1133615955
20
264.6237386902
11
96.1285986522
21
264.2640143185
0
LINE
5
291
100
AcDbEntity
8
0
100
AcDbLine
62
7
6
CONTINUOUS
10
100.0188219115
20
178.6453046988
11
100.0188219115
21
151.1453046988
0
LINE
5
292
100
AcDbEntity
8
0
100
AcDbLine
62
7
6
CONTINUOUS
10
96.5578709538
20
264.0204928817
11
96.5616113541
21
264.5140143185
0
LINE
5
293
100
AcDbEntity
8
0
100
AcDbLine
62
7
6
CONTINUOUS
10
74.8512017765
20
240.3033922509
11
75.0249805774
21
240.0920220098
0
LINE
5
294
100
AcDbEntity
8
0
100
AcDbLine
62
7
6
CONTINUOUS
10
75.5381820974
20
248.5433367006
11
75.7368918405
21
248.1837775984
0
LINE
5
295
100
AcDbEntity
8
0
100
AcDbLine
62
7
6
CONTINUOUS
10
76.6270193200
20
251.1084764474
11
76.8257296295
21
250.7489186796
0
LINE
5
296
100
AcDbEntity
8
0
100
AcDbLine
62
7
6
CONTINUOUS
10
77.1245342294
20
249.3836328217
11
78.2922323572
21
246.9614947793
0
LINE
5
297
100
AcDbEntity
8
0
100
AcDbLine
62
7
6
CONTINUOUS
10
78.2133714520
20
251.9487725685
11
79.3810695798
21
249.5266345262
0
LINE
5
298
100
AcDbEntity
8
0
100
AcDbLine
62
7
6
CONTINUOUS
10
78.4902026069
20
247.4278834603
11
77.4715369280
21
249.5803525096
0
LINE
5
299
100
AcDbEntity
8
0
100
AcDbLine
62
7
6
CONTINUOUS
10
79.5790403959
20
249.9930245415
11
78.5603741506
21
252.1454922564
0
LINE
5
29A
100
AcDbEntity
8
0
100
AcDbLine
62
7
6
CONTINUOUS
10
93.3292529028
20
262.2792898920
11
93.4813464854
21
261.0158558410
0
LINE
5
29B
100
AcDbEntity
8
0
100
AcDbLine
62
7
6
CONTINUOUS
10
93.8421903692
20
261.2241891545
11
93.6900966834
21
262.4876231459
0
LINE
5
29C
100
AcDbEntity
8
0
100
AcDbLine
62
7
6
CONTINUOUS
10
101.8188219115
20
185.6453046988
11
101.8188219115
21
180.4453046988
0
LINE
5
29D
100
AcDbEntity
8
0
100
AcDbLine
62
7
6
CONTINUOUS
10
106.3088219115
20
271.3153046988
11
106.3088219115
21
266.7153046988
0
LINE
5
29E
100
AcDbEntity
8
0
100
AcDbLine
62
7
6
CONTINUOUS
10
112.5188219115
20
267.7919004523
11
112.5954887244
21
268.2812620961
0
LINE
5
29F
100
AcDbEntity
8
0
100
AcDbLine
62
7
6
CONTINUOUS
10
112.1354887244
20
268.2812620961
11
112.0588219115
21
267.8897727810
0
LINE
5
2A0
100
AcDbEntity
8
0
100
AcDbLine
62
7
6
CONTINUOUS
10
115.8154882857
20
268.2812620961
11
115.7388219115
21
267.8897727810
0
LINE
5
2A1
100
AcDbEntity
8
0
100
AcDbLine
62
7
6
CONTINUOUS
10
75.3223060340
20
240.3786317847
11
75.0741033931
21
240.6215930716
0
LINE
5
2A2
100
AcDbEntity
8
0
100
AcDbLine
62
7
6
CONTINUOUS
10
76.1335723997
20
248.2906085115
11
75.9597934572
21
248.5019784190
0
LINE
5
2A3
100
AcDbEntity
8
0
100
AcDbLine
62
7
6
CONTINUOUS
10
106.7688219115
20
266.7153046988
11
106.7688219115
21
268.7706238769
0
LINE
5
2A4
100
AcDbEntity
8
0
100
AcDbLine
62
7
6
CONTINUOUS
10
106.7688219115
20
269.3578578495
11
106.7688219115
21
270.8259430550
0
LINE
5
2A5
100
AcDbEntity
8
0
100
AcDbLine
62
7
6
CONTINUOUS
10
108.6854885050
20
270.2387090825
11
108.6854885050
21
269.9450918220
0
LINE
5
2A6
100
AcDbEntity
8
0
100
AcDbLine
62
7
6
CONTINUOUS
10
109.1454885050
20
269.8472194933
11
109.1454885050
21
270.2387090825
0
LINE
5
2A7
100
AcDbEntity
8
0
100
AcDbLine
62
7
6
CONTINUOUS
10
109.8354885050
20
271.3153046988
11
109.8354885050
21
268.2812620961
0
LINE
5
2A8
100
AcDbEntity
8
0
100
AcDbLine
62
7
6
CONTINUOUS
10
110.2954887244
20
268.2812620961
11
110.2954887244
21
271.3153046988
0
LINE
5
2A9
100
AcDbEntity
8
DEFAULT_1
100
AcDbLine
62
2
6
CENTER
10
111.0188219115
20
230.1453046988
11
111.0188219115
21
146.7495034052
0
LINE
5
2AA
100
AcDbEntity
8
DEFAULT_1
100
AcDbLine
62
2
6
CENTER
10
111.0188219115
20
230.1453046988
11
111.0188219115
21
258.1453046988
0
LINE
5
2AB
100
AcDbEntity
8
0
100
AcDbLine
62
7
6
CONTINUOUS
10
116.1988219115
20
267.7919004523
11
116.2754882857
21
268.2812620961
0
LINE
5
2AC
100
AcDbEntity
8
0
100
AcDbLine
62
7
6
CONTINUOUS
10
72.0991851759
20
239.6138777463
11
72.3721341167
21
239.4292152334
0
LINE
5
2AD
100
AcDbEntity
8
0
100
AcDbLine
62
7
6
CONTINUOUS
10
72.1499721312
20
238.2850663743
11
72.3484972134
21
238.1319947182
0
LINE
5
2AE
100
AcDbEntity
8
0
100
AcDbLine
62
7
6
CONTINUOUS
10
72.5713988300
20
238.4501955389
11
72.3728737479
21
238.6032671949
0
LINE
5
2AF
100
AcDbEntity
8
0
100
AcDbLine
62
7
6
CONTINUOUS
10
72.5950359418
20
239.7474159656
11
72.3965105803
21
239.9004875433
0
LINE
5
2B0
100
AcDbEntity
8
0
100
AcDbLine
62
7
6
CONTINUOUS
10
77.4715369280
20
249.5803525096
11
77.2977579855
21
249.7917224172
0
LINE
5
2B1
100
AcDbEntity
8
0
100
AcDbLine
62
7
6
CONTINUOUS
10
77.2224096223
20
250.8557482583
11
77.0486312461
21
251.0671195002
0
LINE
5
2B2
100
AcDbEntity
8
0
100
AcDbLine
62
7
6
CONTINUOUS
10
78.5603741506
20
252.1454922564
11
78.3865957745
21
252.3568634983
0
LINE
5
2B3
100
AcDbEntity
8
0
100
AcDbLine
62
7
6
CONTINUOUS
10
96.0259560677
20
264.9417964897
11
96.1133615955
21
264.6237386902
0
LINE
5
2B4
100
AcDbEntity
8
0
100
AcDbLine
62
7
6
CONTINUOUS
10
96.5616113541
20
264.5140143185
11
96.4399913314
21
265.0579993925
0
LINE
5
2B5
100
AcDbEntity
8
0
100
AcDbLine
62
7
6
CONTINUOUS
10
112.1354887244
20
271.3153046988
11
112.1354887244
21
268.2812620961
0
LINE
5
2B6
100
AcDbEntity
8
0
100
AcDbLine
62
7
6
CONTINUOUS
10
112.5954887244
20
268.2812620961
11
112.5954887244
21
271.3153046988
0
LINE
5
2B7
100
AcDbEntity
8
0
100
AcDbLine
62
7
6
CONTINUOUS
10
113.2088219115
20
271.3153046988
11
113.2088219115
21
266.7153046988
0
LINE
5
2B8
100
AcDbEntity
8
0
100
AcDbLine
62
7
6
CONTINUOUS
10
113.6688219115
20
267.3025387399
11
113.6688219115
21
270.7280707263
0
LINE
5
2B9
100
AcDbEntity
8
0
100
AcDbLine
62
7
6
CONTINUOUS
10
115.8154882857
20
269.7493471645
11
115.8154882857
21
268.2812620961
0
LINE
5
2BA
100
AcDbEntity
8
0
100
AcDbLine
62
7
6
CONTINUOUS
10
116.2754882857
20
268.2812620961
11
116.2754882857
21
269.7493471645
0
LINE
5
2BB
100
AcDbEntity
8
0
100
AcDbLine
62
7
6
CONTINUOUS
10
74.7457456291
20
247.2972408126
11
77.5003505091
21
245.0959380539
0
LINE
5
2BC
100
AcDbEntity
8
0
100
AcDbLine
62
7
6
CONTINUOUS
10
77.9714549082
20
245.1711779212
11
75.5642224214
21
247.1562264983
0
LINE
5
2BD
100
AcDbEntity
8
0
100
AcDbLine
62
7
6
CONTINUOUS
10
76.8763314991
20
249.6265937529
11
77.1245342294
21
249.3836328217
0
LINE
5
2BE
100
AcDbEntity
8
0
100
AcDbLine
62
7
6
CONTINUOUS
10
77.9651687217
20
252.1917334998
11
78.2133714520
21
251.9487725685
0
LINE
5
2BF
100
AcDbEntity
8
0
100
AcDbLine
62
7
6
CONTINUOUS
10
120.2188219115
20
185.6453046988
11
120.2188219115
21
180.4453046988
0
LINE
5
2C0
100
AcDbEntity
8
0
100
AcDbLine
62
7
6
CONTINUOUS
10
122.0188219115
20
178.6453046988
11
122.0188219115
21
151.1453046988
0
LINE
5
2C1
100
AcDbEntity
8
0
100
AcDbLine
62
7
6
CONTINUOUS
10
70.3409034684
20
236.9200829871
11
73.8388219115
21
235.4353046988
0
LINE
5
2C2
100
AcDbEntity
8
0
100
AcDbLine
62
7
6
CONTINUOUS
10
73.9872997403
20
235.7850965431
11
72.4243999882
21
236.4485081282
0
LINE
5
2C3
100
AcDbEntity
8
0
100
AcDbLine
62
7
6
CONTINUOUS
10
71.9778572615
20
236.6380542700
11
70.8615002361
21
237.1119197132
0
LINE
5
2C4
100
AcDbEntity
8
0
100
AcDbLine
62
7
6
CONTINUOUS
10
71.9267005594
20
238.3798395337
11
72.1499721312
21
238.2850663743
0
LINE
5
2C5
100
AcDbEntity
8
0
100
AcDbLine
62
7
6
CONTINUOUS
10
72.3728737479
20
238.6032671949
11
72.0751783882
21
238.7296313780
0
LINE
5
2C6
100
AcDbEntity
8
0
100
AcDbLine
62
7
6
CONTINUOUS
10
72.3721341167
20
239.4292152334
11
72.6698294763
21
239.3028510503
0
LINE
5
2C7
100
AcDbEntity
8
0
100
AcDbLine
62
7
6
CONTINUOUS
10
72.7438835174
20
239.6842339183
11
72.5950359418
21
239.7474159656
0
LINE
5
2C8
100
AcDbEntity
8
0
100
AcDbLine
62
7
6
CONTINUOUS
10
74.6279304131
20
240.3981653219
11
74.8512017765
21
240.3033922509
0
LINE
5
2C9
100
AcDbEntity
8
0
100
AcDbLine
62
7
6
CONTINUOUS
10
75.7368918405
20
248.1837775984
11
76.0098410645
21
247.9991157526
0
LINE
5
2CA
100
AcDbEntity
8
0
100
AcDbLine
62
7
6
CONTINUOUS
10
89.5911622926
20
264.4205192599
11
90.0166943058
21
263.6834761928
0
LINE
5
2CB
100
AcDbEntity
8
0
100
AcDbLine
62
7
6
CONTINUOUS
10
90.0773664775
20
264.5783889088
11
92.1518346134
21
260.9853046988
0
LINE
5
2CC
100
AcDbEntity
8
0
100
AcDbLine
62
7
6
CONTINUOUS
10
92.5848473153
20
261.2353046988
11
90.0848473153
21
265.5654317178
0
LINE
5
2CD
100
AcDbEntity
8
0
100
AcDbLine
62
7
6
CONTINUOUS
10
92.0334044738
20
266.6904317178
11
93.4163831813
21
264.2950423305
0
LINE
5
2CE
100
AcDbEntity
8
0
100
AcDbLine
62
7
6
CONTINUOUS
10
93.5112697533
20
264.9640274592
11
92.6602058760
21
266.4381133352
0
LINE
5
2CF
100
AcDbEntity
8
0
100
AcDbLine
62
7
6
CONTINUOUS
10
110.3721550986
20
267.8897727810
11
110.2954887244
21
268.2812620961
0
LINE
5
2D0
100
AcDbEntity
8
0
100
AcDbLine
62
7
6
CONTINUOUS
10
109.8354885050
20
268.2812620961
11
109.9121553179
21
267.7919004523
0
LINE
5
2D1
100
AcDbEntity
8
0
100
AcDbLine
62
7
6
CONTINUOUS
10
75.0741033931
20
240.6215930716
11
74.7019844542
21
240.7795481898
0
LINE
5
2D2
100
AcDbEntity
8
0
100
AcDbLine
62
7
6
CONTINUOUS
10
73.7806397418
20
245.0235938246
11
77.2785581849
21
243.5388155363
0
LINE
5
2D3
100
AcDbEntity
8
0
100
AcDbLine
62
7
6
CONTINUOUS
10
77.4270360137
20
243.8886073806
11
74.6733554485
21
245.0574754325
0
LINE
5
2D4
100
AcDbEntity
8
0
100
AcDbLine
62
7
6
CONTINUOUS
10
77.2977579855
20
249.7917224172
11
77.0248093279
21
249.9763855972
0
LINE
5
2D5
100
AcDbEntity
8
0
100
AcDbLine
62
7
6
CONTINUOUS
10
76.8257296295
20
250.7489186796
11
77.0986782871
21
250.5642554995
0
LINE
5
2D6
100
AcDbEntity
8
0
100
AcDbLine
62
7
6
CONTINUOUS
10
78.3865957745
20
252.3568634983
11
78.1136465505
21
252.5415253441
0
LINE
5
2D7
100
AcDbEntity
8
0
100
AcDbLine
62
7
6
CONTINUOUS
10
95.9195731017
20
265.1260571920
11
96.0259560677
21
264.9417964897
0
LINE
5
2D8
100
AcDbEntity
8
0
100
AcDbLine
62
7
6
CONTINUOUS
10
94.7531006706
20
267.6464467083
11
94.4871432555
21
268.1070984639
0
LINE
5
2D9
100
AcDbEntity
8
0
100
AcDbLine
62
7
6
CONTINUOUS
10
96.4399913314
20
265.0579993925
11
96.2272253993
21
265.4265207970
0
LINE
5
2DA
100
AcDbEntity
8
0
100
AcDbLine
62
7
6
CONTINUOUS
10
96.0067032110
20
267.1418094467
11
96.2194691431
21
266.7732880422
0
LINE
5
2DB
100
AcDbEntity
8
0
100
AcDbLine
62
7
6
CONTINUOUS
10
96.1585217423
20
268.2121860060
11
96.5840537555
21
267.4751429390
0
LINE
5
2DC
100
AcDbEntity
8
0
100
AcDbLine
62
7
6
CONTINUOUS
10
96.7968196876
20
267.1066215345
11
97.8606494597
21
265.2640143185
0
LINE
5
2DD
100
AcDbEntity
8
0
100
AcDbLine
62
7
6
CONTINUOUS
10
98.1151102370
20
265.6566083391
11
97.1576634682
21
267.3149547883
0
LINE
5
2DE
100
AcDbEntity
8
0
100
AcDbLine
62
7
6
CONTINUOUS
10
96.9448975361
20
267.6834761928
11
96.5193655229
21
268.4205192599
0
LINE
5
2DF
100
AcDbEntity
8
0
100
AcDbLine
62
7
6
CONTINUOUS
10
99.2965441946
20
265.1103046988
11
99.0837782439
21
265.4788261356
0
LINE
5
2E0
100
AcDbEntity
8
0
100
AcDbLine
62
7
6
CONTINUOUS
10
97.9515203636
20
267.7732882806
11
97.7387544315
21
268.1418096851
0
LINE
5
2E1
100
AcDbEntity
8
0
100
AcDbLine
62
7
6
CONTINUOUS
10
109.2221553179
20
266.7153046988
11
108.5321553179
21
268.9663685345
0
LINE
5
2E2
100
AcDbEntity
8
0
100
AcDbLine
62
7
6
CONTINUOUS
10
108.0721552083
20
268.7706238769
11
108.6854885050
21
266.7153046988
0
LINE
5
2E3
100
AcDbEntity
8
0
100
AcDbLine
62
7
6
CONTINUOUS
10
108.6088219115
20
270.5323260688
11
108.6854885050
21
270.2387090825
0
LINE
5
2E4
100
AcDbEntity
8
0
100
AcDbLine
62
7
6
CONTINUOUS
10
109.1454885050
20
270.2387090825
11
109.0688219115
21
270.5323260688
0
LINE
5
2E5
100
AcDbEntity
8
0
100
AcDbLine
62
7
6
CONTINUOUS
10
115.7388219115
20
270.1408364796
11
115.8154882857
21
269.7493471645
0
LINE
5
2E6
100
AcDbEntity
8
0
100
AcDbLine
62
7
6
CONTINUOUS
10
116.2754882857
20
269.7493471645
11
116.1988219115
21
270.2387090825
0
LINE
5
2E7
100
AcDbEntity
8
0
100
AcDbLine
62
7
6
CONTINUOUS
10
101.8188219115
20
180.4453046988
11
100.0188219115
21
178.6453046988
0
LINE
5
2E8
100
AcDbEntity
8
DEFAULT_1
100
AcDbLine
62
2
6
CENTER
10
111.0188219115
20
230.1453046988
11
83.0188219115
21
230.1453046988
0
LINE
5
2E9
100
AcDbEntity
8
DEFAULT_1
100
AcDbLine
62
2
6
CENTER
10
111.0188219115
20
230.1453046988
11
139.0188219115
21
230.1453046988
0
LINE
5
2EA
100
AcDbEntity
8
0
100
AcDbLine
62
7
6
CONTINUOUS
10
74.7791815176
20
237.6506531017
11
72.8447174467
21
237.8525589676
0
LINE
5
2EB
100
AcDbEntity
8
0
100
AcDbLine
62
7
6
CONTINUOUS
10
72.8450871581
20
237.4395849926
11
74.6059573368
21
237.2425625055
0
LINE
5
2EC
100
AcDbEntity
8
0
100
AcDbLine
62
7
6
CONTINUOUS
10
71.6786829148
20
238.4163140195
11
71.9267005594
21
238.3798395337
0
LINE
5
2ED
100
AcDbEntity
8
0
100
AcDbLine
62
7
6
CONTINUOUS
10
72.0751783882
20
238.7296313780
11
71.8271607436
21
238.7661058638
0
LINE
5
2EE
100
AcDbEntity
8
0
100
AcDbLine
62
7
6
CONTINUOUS
10
74.4061380368
20
238.8410428264
11
74.1581204630
21
238.8775174790
0
LINE
5
2EF
100
AcDbEntity
8
0
100
AcDbLine
62
7
6
CONTINUOUS
10
72.9919010911
20
239.6477592657
11
72.7438835174
21
239.6842339183
0
LINE
5
2F0
100
AcDbEntity
8
0
100
AcDbLine
62
7
6
CONTINUOUS
10
74.0096425634
20
238.5277254679
11
74.3320840665
21
238.4596601253
0
LINE
5
2F1
100
AcDbEntity
8
0
100
AcDbLine
62
7
6
CONTINUOUS
10
72.6698294763
20
239.3028510503
11
72.9922708379
21
239.2347853741
0
LINE
5
2F2
100
AcDbEntity
8
0
100
AcDbLine
62
7
6
CONTINUOUS
10
75.5642224214
20
247.1562264983
11
78.3179029867
21
245.9873584465
0
LINE
5
2F3
100
AcDbEntity
8
0
100
AcDbLine
62
7
6
CONTINUOUS
10
78.4663808155
20
246.3371502908
11
74.9684623724
21
247.8219285791
0
LINE
5
2F4
100
AcDbEntity
8
0
100
AcDbLine
62
7
6
CONTINUOUS
10
78.2922323572
20
246.9614947793
11
78.6643513483
21
246.8035396390
0
LINE
5
2F5
100
AcDbEntity
8
0
100
AcDbLine
62
7
6
CONTINUOUS
10
76.7274837150
20
249.6897758887
11
76.8763314991
21
249.6265937529
0
LINE
5
2F6
100
AcDbEntity
8
0
100
AcDbLine
62
7
6
CONTINUOUS
10
79.5552183213
20
248.9022907048
11
79.1830993302
21
249.0602458452
0
LINE
5
2F7
100
AcDbEntity
8
0
100
AcDbLine
62
7
6
CONTINUOUS
10
77.0248093279
20
249.9763855972
11
76.8759615438
21
250.0395677330
0
LINE
5
2F8
100
AcDbEntity
8
0
100
AcDbLine
62
7
6
CONTINUOUS
10
79.3810695798
20
249.5266345262
11
79.7531885709
21
249.3686793858
0
LINE
5
2F9
100
AcDbEntity
8
0
100
AcDbLine
62
7
6
CONTINUOUS
10
109.9121553179
20
267.7919004523
11
110.0654887244
21
267.4004110687
0
LINE
5
2FA
100
AcDbEntity
8
0
100
AcDbLine
62
7
6
CONTINUOUS
10
136.0188219115
20
185.6453046988
11
136.0188219115
21
191.2345295154
0
LINE
5
2FB
100
AcDbEntity
8
0
100
AcDbLine
62
7
6
CONTINUOUS
10
74.3320840665
20
238.4596601253
11
74.7784419273
21
238.4766007292
0
LINE
5
2FC
100
AcDbEntity
8
0
100
AcDbLine
62
7
6
CONTINUOUS
10
74.7019844542
20
240.7795481898
11
74.3547966363
21
240.7893151584
0
LINE
5
2FD
100
AcDbEntity
8
0
100
AcDbLine
62
7
6
CONTINUOUS
10
72.8171978564
20
240.8915646580
11
72.9907916424
21
240.8866810290
0
LINE
5
2FE
100
AcDbEntity
8
0
100
AcDbLine
62
7
6
CONTINUOUS
10
73.1392694712
20
241.2364728733
11
72.8912518974
21
241.2729475259
0
LINE
5
2FF
100
AcDbEntity
8
0
100
AcDbLine
62
7
6
CONTINUOUS
10
77.8163209376
20
252.2549156355
11
77.9651687217
21
252.1917334998
0
LINE
5
300
100
AcDbEntity
8
0
100
AcDbLine
62
7
6
CONTINUOUS
10
80.6440555439
20
251.4674304517
11
80.2719365528
21
251.6253855920
0
LINE
5
301
100
AcDbEntity
8
0
100
AcDbLine
62
7
6
CONTINUOUS
10
78.1136465505
20
252.5415253441
11
77.9647987664
21
252.6047074799
0
LINE
5
302
100
AcDbEntity
8
0
100
AcDbLine
62
7
6
CONTINUOUS
10
95.6878296568
20
265.3607816282
11
95.9195731017
21
265.1260571920
0
LINE
5
303
100
AcDbEntity
8
0
100
AcDbLine
62
7
6
CONTINUOUS
10
110.5254887244
20
267.5961557947
11
110.3721550986
21
267.8897727810
0
LINE
5
304
100
AcDbEntity
8
0
100
AcDbLine
62
7
6
CONTINUOUS
10
116.1988219115
20
270.2387090825
11
116.0454882857
21
270.6301983975
0
LINE
5
305
100
AcDbEntity
8
0
100
AcDbLine
62
7
6
CONTINUOUS
10
71.8271607436
20
238.7661058638
11
71.4552266781
21
238.7175740362
0
LINE
5
306
100
AcDbEntity
8
0
100
AcDbLine
62
7
6
CONTINUOUS
10
74.3551663831
20
240.3763412668
11
74.6279304131
21
240.3981653219
0
LINE
5
307
100
AcDbEntity
8
0
100
AcDbLine
62
7
6
CONTINUOUS
10
74.6733554485
20
245.0574754325
11
77.7734843754
21
244.7047885731
0
LINE
5
308
100
AcDbEntity
8
0
100
AcDbLine
62
7
6
CONTINUOUS
10
77.5003505091
20
245.0959380539
11
74.0033564850
21
245.5482815911
0
LINE
5
309
100
AcDbEntity
8
0
100
AcDbLine
62
7
6
CONTINUOUS
10
76.8759615438
20
250.0395677330
11
76.5535198991
21
250.1076327421
0
LINE
5
30A
100
AcDbEntity
8
0
100
AcDbLine
62
7
6
CONTINUOUS
10
77.9647987664
20
252.6047074799
11
77.6423576881
21
252.6727738233
0
LINE
5
30B
100
AcDbEntity
8
0
100
AcDbLine
62
7
6
CONTINUOUS
10
93.8951066030
20
263.4658690413
11
94.2522102085
21
263.1806809454
0
LINE
5
30C
100
AcDbEntity
8
0
100
AcDbLine
62
7
6
CONTINUOUS
10
94.6852229104
20
263.4306809454
11
94.3281193049
21
263.7158690413
0
LINE
5
30D
100
AcDbEntity
8
0
100
AcDbLine
62
7
6
CONTINUOUS
10
96.2272253993
20
265.4265207970
11
95.8169304800
21
265.8038394277
0
LINE
5
30E
100
AcDbEntity
8
0
100
AcDbLine
62
7
6
CONTINUOUS
10
98.3468532317
20
265.4218837289
11
98.1151102370
21
265.6566083391
0
LINE
5
30F
100
AcDbEntity
8
0
100
AcDbLine
62
7
6
CONTINUOUS
10
109.0688219115
20
270.5323260688
11
108.8388219115
21
270.9238153838
0
LINE
5
310
100
AcDbEntity
8
0
100
AcDbLine
62
7
6
CONTINUOUS
10
115.5854882857
20
270.4344537400
11
115.7388219115
21
270.1408364796
0
LINE
5
311
100
AcDbEntity
8
0
100
AcDbLine
62
7
6
CONTINUOUS
10
156.9276358529
20
228.6145709694
11
144.3131484368
21
198.1605043669
0
LINE
5
312
100
AcDbEntity
8
0
100
AcDbLine
62
7
6
CONTINUOUS
10
74.7036483667
20
238.9211656555
11
74.4061380368
21
238.8410428264
0
LINE
5
313
100
AcDbEntity
8
0
100
AcDbLine
62
7
6
CONTINUOUS
10
71.4803427060
20
238.3628987298
11
71.6786829148
21
238.4163140195
0
LINE
5
314
100
AcDbEntity
8
0
100
AcDbLine
62
7
6
CONTINUOUS
10
72.9922708379
20
239.2347853741
11
73.3889512555
21
239.3416159536
0
LINE
5
315
100
AcDbEntity
8
0
100
AcDbLine
62
7
6
CONTINUOUS
10
74.3547966363
20
240.7893151584
11
73.9581162188
21
240.6824845789
0
LINE
5
316
100
AcDbEntity
8
0
100
AcDbLine
62
7
6
CONTINUOUS
10
72.6188575768
20
240.8381492014
11
72.8171978564
21
240.8915646580
0
LINE
5
317
100
AcDbEntity
8
0
100
AcDbLine
62
7
6
CONTINUOUS
10
72.8912518974
20
241.2729475259
11
72.5193178318
21
241.2244156983
0
LINE
5
318
100
AcDbEntity
8
0
100
AcDbLine
62
7
6
CONTINUOUS
10
94.2522102085
20
263.1806809454
11
94.6814825101
21
262.9371595087
0
LINE
5
319
100
AcDbEntity
8
0
100
AcDbLine
62
7
6
CONTINUOUS
10
95.3839177781
20
265.5538394277
11
95.6878296568
21
265.3607816282
0
LINE
5
31A
100
AcDbEntity
8
0
100
AcDbLine
62
7
6
CONTINUOUS
10
97.8606494597
20
265.2640143185
11
98.2177528401
21
264.9788261356
0
LINE
5
31B
100
AcDbEntity
8
0
100
AcDbLine
62
7
6
CONTINUOUS
10
110.0654887244
20
267.4004110687
11
110.3721550986
21
267.0089217194
0
LINE
5
31C
100
AcDbEntity
8
0
100
AcDbLine
62
7
6
CONTINUOUS
10
108.4554885050
20
270.7280707263
11
108.6088219115
21
270.5323260688
0
LINE
5
31D
100
AcDbEntity
8
0
100
AcDbLine
62
7
6
CONTINUOUS
10
76.4547199308
20
249.6679521230
11
76.7274837150
21
249.6897758887
0
LINE
5
31E
100
AcDbEntity
8
0
100
AcDbLine
62
7
6
CONTINUOUS
10
77.5435571534
20
252.2330918698
11
77.8163209376
21
252.2549156355
0
LINE
5
31F
100
AcDbEntity
8
0
100
AcDbLine
62
7
6
CONTINUOUS
10
95.8169304800
20
265.8038394277
11
95.3876581970
21
266.0473608322
0
LINE
5
320
100
AcDbEntity
8
0
100
AcDbLine
62
7
6
CONTINUOUS
10
110.7554887244
20
267.4004110687
11
110.5254887244
21
267.5961557947
0
LINE
5
321
100
AcDbEntity
8
0
100
AcDbLine
62
7
6
CONTINUOUS
10
108.8388219115
20
270.9238153838
11
108.5321553179
21
271.2174323701
0
LINE
5
322
100
AcDbEntity
8
0
100
AcDbLine
62
7
6
CONTINUOUS
10
116.0454882857
20
270.6301983975
11
115.7388219115
21
271.0216877126
0
LINE
5
323
100
AcDbEntity
8
0
100
AcDbLine
62
7
6
CONTINUOUS
10
76.5535198991
20
250.1076327421
11
76.1568399063
21
250.0008031634
0
LINE
5
324
100
AcDbEntity
8
0
100
AcDbLine
62
7
6
CONTINUOUS
10
77.6423576881
20
252.6727738233
11
77.2456771289
21
252.5659429102
0
LINE
5
325
100
AcDbEntity
8
0
100
AcDbLine
62
7
6
CONTINUOUS
10
94.6814825101
20
262.9371595087
11
95.2019009602
21
262.8691018042
0
LINE
5
326
100
AcDbEntity
8
0
100
AcDbLine
62
7
6
CONTINUOUS
10
95.0081120209
20
263.3714201239
11
94.6852229104
21
263.4306809454
0
LINE
5
327
100
AcDbEntity
8
0
100
AcDbLine
62
7
6
CONTINUOUS
10
110.3721550986
20
267.0089217194
11
110.6788219115
21
266.8131770362
0
LINE
5
328
100
AcDbEntity
8
0
100
AcDbLine
62
7
6
CONTINUOUS
10
115.3554882857
20
270.6301983975
11
115.5854882857
21
270.4344537400
0
LINE
5
329
100
AcDbEntity
8
0
100
AcDbLine
62
7
6
CONTINUOUS
10
122.0188219115
20
151.1453046988
11
120.5188219115
21
149.6453046988
0
LINE
5
32A
100
AcDbEntity
8
0
100
AcDbLine
62
7
6
CONTINUOUS
10
95.2019009602
20
262.8691018042
11
95.6159362285
21
262.9853046988
0
LINE
5
32B
100
AcDbEntity
8
0
100
AcDbLine
62
7
6
CONTINUOUS
10
115.0488219115
20
266.7153046988
11
115.4321555373
21
266.8131770362
0
LINE
5
32C
100
AcDbEntity
8
0
100
AcDbLine
62
7
6
CONTINUOUS
10
111.3688219115
20
266.7153046988
11
111.7521550986
21
266.8131770362
0
LINE
5
32D
100
AcDbEntity
8
0
100
AcDbLine
62
7
6
CONTINUOUS
10
95.3499787762
20
263.4459565190
11
95.0081120209
21
263.3714201239
0
LINE
5
32E
100
AcDbEntity
8
0
100
AcDbLine
62
7
6
CONTINUOUS
10
95.3876581970
20
266.0473608322
11
94.8672395544
21
266.1154183933
0
LINE
5
32F
100
AcDbEntity
8
0
100
AcDbLine
62
7
6
CONTINUOUS
10
98.2177528401
20
264.9788261356
11
98.5406421664
21
264.9195654172
0
LINE
5
330
100
AcDbEntity
8
0
100
AcDbLine
62
7
6
CONTINUOUS
10
95.0610284611
20
265.6131001300
11
95.3839177781
21
265.5538394277
0
LINE
5
331
100
AcDbEntity
8
0
100
AcDbLine
62
7
6
CONTINUOUS
10
98.6697425487
20
265.3626230267
11
98.3468532317
21
265.4218837289
0
LINE
5
332
100
AcDbEntity
8
0
100
AcDbLine
62
7
6
CONTINUOUS
10
110.6788219115
20
266.8131770362
11
111.0621550986
21
266.7153046988
0
LINE
5
333
100
AcDbEntity
8
0
100
AcDbLine
62
7
6
CONTINUOUS
10
111.0621550986
20
267.3025387399
11
110.7554887244
21
267.4004110687
0
LINE
5
334
100
AcDbEntity
8
0
100
AcDbLine
62
7
6
CONTINUOUS
10
108.2254885050
20
270.8259430550
11
108.4554885050
21
270.7280707263
0
LINE
5
335
100
AcDbEntity
8
0
100
AcDbLine
62
7
6
CONTINUOUS
10
115.7388219115
20
271.0216877126
11
115.4321555373
21
271.2174323701
0
LINE
5
336
100
AcDbEntity
8
0
100
AcDbLine
62
7
6
CONTINUOUS
10
144.5636477660
20
261.5253461528
11
156.9276358529
21
231.6760384283
0
LINE
5
337
100
AcDbEntity
8
0
100
AcDbLine
62
7
6
CONTINUOUS
10
156.9276358529
20
231.6760384283
11
157.0435520409
21
231.3589638104
0
LINE
5
338
100
AcDbEntity
8
0
100
AcDbLine
62
7
6
CONTINUOUS
10
99.0837782439
20
265.4788261356
11
98.6697425487
21
265.3626230267
0
LINE
5
339
100
AcDbEntity
8
0
100
AcDbLine
62
7
6
CONTINUOUS
10
94.8672395544
20
266.1154183933
11
94.4532042908
21
265.9992154906
0
LINE
5
33A
100
AcDbEntity
8
0
100
AcDbLine
62
7
6
CONTINUOUS
10
94.7191617059
20
265.5385637350
11
95.0610284611
21
265.6131001300
0
LINE
5
33B
100
AcDbEntity
8
0
100
AcDbLine
62
7
6
CONTINUOUS
10
98.5406421664
20
264.9195654172
11
98.8103400050
21
264.9524350580
0
LINE
5
33C
100
AcDbEntity
8
0
100
AcDbLine
62
7
6
CONTINUOUS
10
106.3088219115
20
266.7153046988
11
106.7688219115
21
266.7153046988
0
LINE
5
33D
100
AcDbEntity
8
0
100
AcDbLine
62
7
6
CONTINUOUS
10
108.6854885050
20
266.7153046988
11
109.2221553179
21
266.7153046988
0
LINE
5
33E
100
AcDbEntity
8
0
100
AcDbLine
62
7
6
CONTINUOUS
10
111.0621550986
20
266.7153046988
11
111.3688219115
21
266.7153046988
0
LINE
5
33F
100
AcDbEntity
8
0
100
AcDbLine
62
7
6
CONTINUOUS
10
113.2088219115
20
266.7153046988
11
115.0488219115
21
266.7153046988
0
LINE
5
340
100
AcDbEntity
8
0
100
AcDbLine
62
7
6
CONTINUOUS
10
115.0488219115
20
267.3025387399
11
113.6688219115
21
267.3025387399
0
LINE
5
341
100
AcDbEntity
8
0
100
AcDbLine
62
7
6
CONTINUOUS
10
111.3688219115
20
267.3025387399
11
111.0621550986
21
267.3025387399
0
LINE
5
342
100
AcDbEntity
8
0
100
AcDbLine
62
7
6
CONTINUOUS
10
106.7688219115
20
268.7706238769
11
108.0721552083
21
268.7706238769
0
LINE
5
343
100
AcDbEntity
8
0
100
AcDbLine
62
7
6
CONTINUOUS
10
108.2254885050
20
269.3578578495
11
106.7688219115
21
269.3578578495
0
LINE
5
344
100
AcDbEntity
8
0
100
AcDbLine
62
7
6
CONTINUOUS
10
113.6688219115
20
270.7280707263
11
115.0488219115
21
270.7280707263
0
LINE
5
345
100
AcDbEntity
8
0
100
AcDbLine
62
7
6
CONTINUOUS
10
106.7688219115
20
270.8259430550
11
108.2254885050
21
270.8259430550
0
LINE
5
346
100
AcDbEntity
8
0
100
AcDbLine
62
7
6
CONTINUOUS
10
108.5321553179
20
271.2174323701
11
108.1488219115
21
271.3153046988
0
LINE
5
347
100
AcDbEntity
8
0
100
AcDbLine
62
7
6
CONTINUOUS
10
115.4321555373
20
271.2174323701
11
115.0488219115
21
271.3153046988
0
LINE
5
348
100
AcDbEntity
8
0
100
AcDbLine
62
7
6
CONTINUOUS
10
115.0488219115
20
270.7280707263
11
115.3554882857
21
270.6301983975
0
LINE
5
349
100
AcDbEntity
8
0
100
AcDbLine
62
7
6
CONTINUOUS
10
115.0488219115
20
271.3153046988
11
113.2088219115
21
271.3153046988
0
LINE
5
34A
100
AcDbEntity
8
0
100
AcDbLine
62
7
6
CONTINUOUS
10
112.5954887244
20
271.3153046988
11
112.1354887244
21
271.3153046988
0
LINE
5
34B
100
AcDbEntity
8
0
100
AcDbLine
62
7
6
CONTINUOUS
10
110.2954887244
20
271.3153046988
11
109.8354885050
21
271.3153046988
0
LINE
5
34C
100
AcDbEntity
8
0
100
AcDbLine
62
7
6
CONTINUOUS
10
108.1488219115
20
271.3153046988
11
106.3088219115
21
271.3153046988
0
LINE
5
34D
100
AcDbEntity
8
0
100
AcDbLine
62
7
6
CONTINUOUS
10
112.5495556409
20
276.0541186403
11
142.3988633654
21
263.6901305534
0
LINE
5
34E
100
AcDbEntity
8
0
100
AcDbLine
62
7
6
CONTINUOUS
10
285.8771299405
20
149.6453046988
11
304.8771299405
21
149.6453046988
0
LINE
5
34F
100
AcDbEntity
8
0
100
AcDbLine
62
7
6
CONTINUOUS
10
284.3771299405
20
151.1453046988
11
306.3771299405
21
151.1453046988
0
LINE
5
350
100
AcDbEntity
8
0
100
AcDbLine
62
7
6
CONTINUOUS
10
284.3771299405
20
151.1453046988
11
285.8771299405
21
149.6453046988
0
LINE
5
351
100
AcDbEntity
8
0
100
AcDbLine
62
7
6
CONTINUOUS
10
284.3771299405
20
178.6453046988
11
306.3771299405
21
178.6453046988
0
LINE
5
352
100
AcDbEntity
8
0
100
AcDbLine
62
7
6
CONTINUOUS
10
286.1771299405
20
180.4453046988
11
304.5771299405
21
180.4453046988
0
LINE
5
353
100
AcDbEntity
8
0
100
AcDbLine
62
7
6
CONTINUOUS
10
270.3775669057
20
185.6453046988
11
320.3766929753
21
185.6453046988
0
LINE
5
354
100
AcDbEntity
8
0
100
AcDbLine
62
7
6
CONTINUOUS
10
270.3771299405
20
185.6453046988
11
270.3771299405
21
197.6945513365
0
LINE
5
355
100
AcDbEntity
8
0
100
AcDbLine
62
7
6
CONTINUOUS
10
306.2588639423
20
197.2345295154
11
284.4953959387
21
197.2345295154
0
LINE
5
356
100
AcDbEntity
8
0
100
AcDbLine
62
7
6
CONTINUOUS
10
304.5771299405
20
180.4453046988
11
306.3771299405
21
178.6453046988
0
LINE
5
357
100
AcDbEntity
8
0
100
AcDbLine
62
7
6
CONTINUOUS
10
284.3771299405
20
178.6453046988
11
284.3771299405
21
151.1453046988
0
LINE
5
358
100
AcDbEntity
8
0
100
AcDbLine
62
7
6
CONTINUOUS
10
285.3771299405
20
274.8586004905
11
285.3771299405
21
230.9038416436
0
LINE
5
359
100
AcDbEntity
8
0
100
AcDbLine
62
7
6
CONTINUOUS
10
286.1771299405
20
185.6453046988
11
286.1771299405
21
180.4453046988
0
LINE
5
35A
100
AcDbEntity
8
0
100
AcDbLine
62
7
6
CONTINUOUS
10
285.3196747570
20
229.3889468481
11
282.7488601057
21
195.5459456377
0
LINE
5
35B
100
AcDbEntity
8
0
100
AcDbLine
62
7
6
CONTINUOUS
10
273.7513920803
20
201.6453046988
11
282.5541383521
21
203.0395227404
0
LINE
5
35C
100
AcDbEntity
8
0
100
AcDbLine
62
7
6
CONTINUOUS
10
317.0028678007
20
201.6453046988
11
308.2008003555
21
203.0394152248
0
LINE
5
35D
100
AcDbEntity
8
DEFAULT_1
100
AcDbLine
62
2
6
CENTER
10
295.3771299405
20
146.6453046988
11
295.3771299405
21
280.7109108967
0
LINE
5
35E
100
AcDbEntity
8
0
100
AcDbLine
62
7
6
CONTINUOUS
10
304.5771299405
20
185.6453046988
11
304.5771299405
21
180.4453046988
0
LINE
5
35F
100
AcDbEntity
8
0
100
AcDbLine
62
7
6
CONTINUOUS
10
308.0053997623
20
195.5459458085
11
305.4345851240
21
229.3889468481
0
LINE
5
360
100
AcDbEntity
8
0
100
AcDbLine
62
7
6
CONTINUOUS
10
305.3771299405
20
230.9038416436
11
305.3771299405
21
274.8586004905
0
LINE
5
361
100
AcDbEntity
8
0
100
AcDbLine
62
7
6
CONTINUOUS
10
305.6771299405
20
271.3153046988
11
305.6771299405
21
260.9853046988
0
LINE
5
362
100
AcDbEntity
8
0
100
AcDbLine
62
7
6
CONTINUOUS
10
305.6771299405
20
252.6727738233
11
305.6771299405
21
243.5388155363
0
LINE
5
363
100
AcDbEntity
8
0
100
AcDbLine
62
7
6
CONTINUOUS
10
305.6771299405
20
241.2729475259
11
305.6771299405
21
235.4353046988
0
LINE
5
364
100
AcDbEntity
8
0
100
AcDbLine
62
7
6
CONTINUOUS
10
306.3771299405
20
178.6453046988
11
306.3771299405
21
151.1453046988
0
LINE
5
365
100
AcDbEntity
8
0
100
AcDbLine
62
7
6
CONTINUOUS
10
286.1771299405
20
180.4453046988
11
284.3771299405
21
178.6453046988
0
LINE
5
366
100
AcDbEntity
8
0
100
AcDbLine
62
7
6
CONTINUOUS
10
305.3771299405
20
235.4353046988
11
305.6771299405
21
235.4353046988
0
LINE
5
367
100
AcDbEntity
8
0
100
AcDbLine
62
7
6
CONTINUOUS
10
320.3771299405
20
185.6453046988
11
320.3771299405
21
197.6945513365
0
LINE
5
368
100
AcDbEntity
8
0
100
AcDbLine
62
7
6
CONTINUOUS
10
305.3771299405
20
241.2729475259
11
305.6771299405
21
241.2729475259
0
LINE
5
369
100
AcDbEntity
8
0
100
AcDbLine
62
7
6
CONTINUOUS
10
305.3771299405
20
243.5388155363
11
305.6771299405
21
243.5388155363
0
LINE
5
36A
100
AcDbEntity
8
0
100
AcDbLine
62
7
6
CONTINUOUS
10
305.3771299405
20
250.5642554995
11
305.6771299405
21
250.5642554995
0
LINE
5
36B
100
AcDbEntity
8
0
100
AcDbLine
62
7
6
CONTINUOUS
10
305.3771299405
20
250.7489186796
11
305.6771299405
21
250.7489186796
0
LINE
5
36C
100
AcDbEntity
8
0
100
AcDbLine
62
7
6
CONTINUOUS
10
305.3771299405
20
251.1084764474
11
305.6771299405
21
251.1084764474
0
LINE
5
36D
100
AcDbEntity
8
0
100
AcDbLine
62
7
6
CONTINUOUS
10
305.3771299405
20
251.4048535024
11
305.6771299405
21
251.4048535024
0
LINE
5
36E
100
AcDbEntity
8
0
100
AcDbLine
62
7
6
CONTINUOUS
10
305.3771299405
20
251.8445354558
11
305.6771299405
21
251.8445354558
0
LINE
5
36F
100
AcDbEntity
8
0
100
AcDbLine
62
7
6
CONTINUOUS
10
305.3771299405
20
252.0777291292
11
305.6771299405
21
252.0777291292
0
LINE
5
370
100
AcDbEntity
8
0
100
AcDbLine
62
7
6
CONTINUOUS
10
305.3771299405
20
252.3959299498
11
305.6771299405
21
252.3959299498
0
LINE
5
371
100
AcDbEntity
8
0
100
AcDbLine
62
7
6
CONTINUOUS
10
305.3771299405
20
252.5659429102
11
305.6771299405
21
252.5659429102
0
LINE
5
372
100
AcDbEntity
8
0
100
AcDbLine
62
7
6
CONTINUOUS
10
305.3771299405
20
252.6727738233
11
305.6771299405
21
252.6727738233
0
LINE
5
373
100
AcDbEntity
8
0
100
AcDbLine
62
7
6
CONTINUOUS
10
305.3771299405
20
260.9853046988
11
305.6771299405
21
260.9853046988
0
LINE
5
374
100
AcDbEntity
8
0
100
AcDbLine
62
7
6
CONTINUOUS
10
306.3771299405
20
151.1453046988
11
304.8771299405
21
149.6453046988
0
LINE
5
375
100
AcDbEntity
8
0
100
AcDbLine
62
7
6
CONTINUOUS
10
305.3771299405
20
264.4205192599
11
305.6771299405
21
264.4205192599
0
LINE
5
376
100
AcDbEntity
8
0
100
AcDbLine
62
7
6
CONTINUOUS
10
305.3771299405
20
265.3154317178
11
305.6771299405
21
265.3154317178
0
LINE
5
377
100
AcDbEntity
8
0
100
AcDbLine
62
7
6
CONTINUOUS
10
305.3771299405
20
266.6904317178
11
305.6771299405
21
266.6904317178
0
LINE
5
378
100
AcDbEntity
8
0
100
AcDbLine
62
7
6
CONTINUOUS
10
305.3771299405
20
268.1070984639
11
305.6771299405
21
268.1070984639
0
LINE
5
379
100
AcDbEntity
8
0
100
AcDbLine
62
7
6
CONTINUOUS
10
305.3771299405
20
268.2121860060
11
305.6771299405
21
268.2121860060
0
LINE
5
37A
100
AcDbEntity
8
0
100
AcDbLine
62
7
6
CONTINUOUS
10
305.3771299405
20
268.4205192599
11
305.6771299405
21
268.4205192599
0
LINE
5
37B
100
AcDbEntity
8
0
100
AcDbLine
62
7
6
CONTINUOUS
10
305.3771299405
20
271.3153046988
11
305.6771299405
21
271.3153046988
0
LINE
5
37C
100
AcDbEntity
8
0
100
AcDbLine
62
7
6
CONTINUOUS
10
303.8771299405
20
276.3586005102
11
286.8771299405
21
276.3586005102
0
LINE
5
37D
100
AcDbEntity
8
0
100
AcDbLine
62
7
6
CONTINUOUS
10
64.8055261001
20
81.9813721158
11
64.8055261001
21
99.0091217469
0
LINE
5
37E
100
AcDbEntity
8
0
100
AcDbLine
62
7
6
CONTINUOUS
10
70.3409034684
20
80.4952469310
11
70.3409034684
21
80.1952469310
0
LINE
5
37F
100
AcDbEntity
8
0
100
AcDbLine
62
7
6
CONTINUOUS
10
76.5771571524
20
80.4952469310
11
76.5771571524
21
80.1952469310
0
LINE
5
380
100
AcDbEntity
8
0
100
AcDbLine
62
7
6
CONTINUOUS
10
76.6759576871
20
80.4952469310
11
76.6759576871
21
80.1952469310
0
LINE
5
381
100
AcDbEntity
8
0
100
AcDbLine
62
7
6
CONTINUOUS
10
76.7749425287
20
80.4952469310
11
76.7749425287
21
80.1952469310
0
LINE
5
382
100
AcDbEntity
8
0
100
AcDbLine
62
7
6
CONTINUOUS
10
76.9978441453
20
80.4952469310
11
76.9978441453
21
80.1952469310
0
LINE
5
383
100
AcDbEntity
8
0
100
AcDbLine
62
7
6
CONTINUOUS
10
77.2456771289
20
80.4952469310
11
77.2456771289
21
80.1952469310
0
LINE
5
384
100
AcDbEntity
8
0
100
AcDbLine
62
7
6
CONTINUOUS
10
77.6423576881
20
80.4952469310
11
77.6423576881
21
80.1952469310
0
LINE
5
385
100
AcDbEntity
8
0
100
AcDbLine
62
7
6
CONTINUOUS
10
77.9647987664
20
80.4952469310
11
77.9647987664
21
80.1952469310
0
LINE
5
386
100
AcDbEntity
8
0
100
AcDbLine
62
7
6
CONTINUOUS
10
78.1136465505
20
80.4952469310
11
78.1136465505
21
80.1952469310
0
LINE
5
387
100
AcDbEntity
8
0
100
AcDbLine
62
7
6
CONTINUOUS
10
78.3865957745
20
80.4952469310
11
78.3865957745
21
80.1952469310
0
LINE
5
388
100
AcDbEntity
8
0
100
AcDbLine
62
7
6
CONTINUOUS
10
78.5603741506
20
80.4952469310
11
78.5603741506
21
80.1952469310
0
LINE
5
389
100
AcDbEntity
8
0
100
AcDbLine
62
7
6
CONTINUOUS
10
79.5790403959
20
80.4952469310
11
79.5790403959
21
80.1952469310
0
LINE
5
38A
100
AcDbEntity
8
0
100
AcDbLine
62
7
6
CONTINUOUS
10
80.2719365528
20
80.4952469310
11
80.2719365528
21
80.1952469310
0
LINE
5
38B
100
AcDbEntity
8
0
100
AcDbLine
62
7
6
CONTINUOUS
10
80.6440555439
20
80.4952469310
11
80.6440555439
21
80.1952469310
0
LINE
5
38C
100
AcDbEntity
8
0
100
AcDbLine
62
7
6
CONTINUOUS
10
89.6518346134
20
80.4952469310
11
89.6518346134
21
80.1952469310
0
LINE
5
38D
100
AcDbEntity
8
0
100
AcDbLine
62
7
6
CONTINUOUS
10
90.0848473153
20
80.4952469310
11
90.0848473153
21
80.1952469310
0
LINE
5
38E
100
AcDbEntity
8
0
100
AcDbLine
62
7
6
CONTINUOUS
10
92.0334044738
20
80.4952469310
11
92.0334044738
21
80.1952469310
0
LINE
5
38F
100
AcDbEntity
8
0
100
AcDbLine
62
7
6
CONTINUOUS
10
155.8766093123
20
80.4639412046
11
155.8756388459
21
80.4637429768
0
LINE
5
390
100
AcDbEntity
8
0
100
AcDbLine
62
7
6
CONTINUOUS
10
155.8123904084
20
80.4514992749
11
143.1979029922
21
78.1381181381
0
LINE
5
391
100
AcDbEntity
8
0
100
AcDbLine
62
7
6
CONTINUOUS
10
78.8397408308
20
78.1381181381
11
66.2252534147
21
80.4514992748
0
LINE
5
392
100
AcDbEntity
8
0
100
AcDbLine
62
7
6
CONTINUOUS
10
66.1610294641
20
80.4639438891
11
66.1622700342
21
80.4636905849
0
LINE
5
393
100
AcDbEntity
8
0
100
AcDbLine
62
7
6
CONTINUOUS
10
94.4871432555
20
80.4952469310
11
94.4871432555
21
80.1952469310
0
LINE
5
394
100
AcDbEntity
8
0
100
AcDbLine
62
7
6
CONTINUOUS
10
94.7531006706
20
80.4952469310
11
94.7531006706
21
80.1952469310
0
LINE
5
395
100
AcDbEntity
8
0
100
AcDbLine
62
7
6
CONTINUOUS
10
94.8672395544
20
80.4952469310
11
94.8672395544
21
80.1952469310
0
LINE
5
396
100
AcDbEntity
8
0
100
AcDbLine
62
7
6
CONTINUOUS
10
95.3876581970
20
80.4952469310
11
95.3876581970
21
80.1952469310
0
LINE
5
397
100
AcDbEntity
8
0
100
AcDbLine
62
7
6
CONTINUOUS
10
95.8169304800
20
80.4952469310
11
95.8169304800
21
80.1952469310
0
LINE
5
398
100
AcDbEntity
8
0
100
AcDbLine
62
7
6
CONTINUOUS
10
96.0067032110
20
80.4952469310
11
96.0067032110
21
80.1952469310
0
LINE
5
399
100
AcDbEntity
8
0
100
AcDbLine
62
7
6
CONTINUOUS
10
96.1585217423
20
80.4952469310
11
96.1585217423
21
80.1952469310
0
LINE
5
39A
100
AcDbEntity
8
0
100
AcDbLine
62
7
6
CONTINUOUS
10
96.5193655229
20
80.4952469310
11
96.5193655229
21
80.1952469310
0
LINE
5
39B
100
AcDbEntity
8
0
100
AcDbLine
62
7
6
CONTINUOUS
10
96.9448975361
20
80.4952469310
11
96.9448975361
21
80.1952469310
0
LINE
5
39C
100
AcDbEntity
8
0
100
AcDbLine
62
7
6
CONTINUOUS
10
97.7387544315
20
80.4952469310
11
97.7387544315
21
80.1952469310
0
LINE
5
39D
100
AcDbEntity
8
0
100
AcDbLine
62
7
6
CONTINUOUS
10
97.9515203636
20
80.4952469310
11
97.9515203636
21
80.1952469310
0
LINE
5
39E
100
AcDbEntity
8
0
100
AcDbLine
62
7
6
CONTINUOUS
10
98.1151102370
20
80.4952469310
11
98.1151102370
21
80.1952469310
0
LINE
5
39F
100
AcDbEntity
8
0
100
AcDbLine
62
7
6
CONTINUOUS
10
98.3468532317
20
80.4952469310
11
98.3468532317
21
80.1952469310
0
LINE
5
3A0
100
AcDbEntity
8
0
100
AcDbLine
62
7
6
CONTINUOUS
10
98.6697425487
20
80.4952469310
11
98.6697425487
21
80.1952469310
0
LINE
5
3A1
100
AcDbEntity
8
0
100
AcDbLine
62
7
6
CONTINUOUS
10
99.0837782439
20
80.4952469310
11
99.0837782439
21
80.1952469310
0
LINE
5
3A2
100
AcDbEntity
8
0
100
AcDbLine
62
7
6
CONTINUOUS
10
99.2965441946
20
80.4952469310
11
99.2965441946
21
80.1952469310
0
LINE
5
3A3
100
AcDbEntity
8
0
100
AcDbLine
62
7
6
CONTINUOUS
10
142.9273291380
20
78.1135129291
11
140.0461859488
21
78.1135129291
0
LINE
5
3A4
100
AcDbEntity
8
0
100
AcDbLine
62
7
6
CONTINUOUS
10
81.9914578370
20
78.1135129291
11
79.1103146850
21
78.1135129291
0
LINE
5
3A5
100
AcDbEntity
8
0
100
AcDbLine
62
7
6
CONTINUOUS
10
116.2754882857
20
80.1952469310
11
113.2088219115
21
80.1952469310
0
LINE
5
3A6
100
AcDbEntity
8
0
100
AcDbLine
62
7
6
CONTINUOUS
10
112.5954887244
20
80.1952469310
11
109.8354885050
21
80.1952469310
0
LINE
5
3A7
100
AcDbEntity
8
0
100
AcDbLine
62
7
6
CONTINUOUS
10
109.2221553179
20
80.1952469310
11
106.3088219115
21
80.1952469310
0
LINE
5
3A8
100
AcDbEntity
8
0
100
AcDbLine
62
7
6
CONTINUOUS
10
99.2965441946
20
80.1952469310
11
89.5911622926
21
80.1952469310
0
LINE
5
3A9
100
AcDbEntity
8
0
100
AcDbLine
62
7
6
CONTINUOUS
10
80.6440555439
20
80.1952469310
11
70.3409034684
21
80.1952469310
0
LINE
5
3AA
100
AcDbEntity
8
0
100
AcDbLine
62
7
6
CONTINUOUS
10
66.4233796513
20
80.4952469310
11
155.6142641717
21
80.4952469310
0
LINE
5
3AB
100
AcDbEntity
8
0
100
AcDbLine
62
7
6
CONTINUOUS
10
106.3088219115
20
80.4952469310
11
106.3088219115
21
80.1952469310
0
LINE
5
3AC
100
AcDbEntity
8
0
100
AcDbLine
62
7
6
CONTINUOUS
10
109.2221553179
20
80.4952469310
11
109.2221553179
21
80.1952469310
0
LINE
5
3AD
100
AcDbEntity
8
0
100
AcDbLine
62
7
6
CONTINUOUS
10
109.8354885050
20
80.4952469310
11
109.8354885050
21
80.1952469310
0
LINE
5
3AE
100
AcDbEntity
8
DEFAULT_1
100
AcDbLine
62
2
6
CENTER
10
111.0188219115
20
90.4952469310
11
111.0188219115
21
62.4952469310
0
LINE
5
3AF
100
AcDbEntity
8
DEFAULT_1
100
AcDbLine
62
2
6
CENTER
10
111.0188219115
20
90.4952469310
11
111.0188219115
21
118.4952469310
0
LINE
5
3B0
100
AcDbEntity
8
DEFAULT_1
100
AcDbLine
62
2
6
CENTER
10
111.0188219115
20
90.4952469310
11
83.0188219115
21
90.4952469310
0
LINE
5
3B1
100
AcDbEntity
8
DEFAULT_1
100
AcDbLine
62
2
6
CENTER
10
111.0188219115
20
90.4952469310
11
139.0188219115
21
90.4952469310
0
LINE
5
3B2
100
AcDbEntity
8
0
100
AcDbLine
62
7
6
CONTINUOUS
10
112.5954887244
20
80.4952469310
11
112.5954887244
21
80.1952469310
0
LINE
5
3B3
100
AcDbEntity
8
0
100
AcDbLine
62
7
6
CONTINUOUS
10
113.2088219115
20
80.4952469310
11
113.2088219115
21
80.1952469310
0
LINE
5
3B4
100
AcDbEntity
8
0
100
AcDbLine
62
7
6
CONTINUOUS
10
116.2754882857
20
80.4952469310
11
116.2754882857
21
80.1952469310
0
LINE
5
3B5
100
AcDbEntity
8
0
100
AcDbLine
62
7
6
CONTINUOUS
10
155.6142641717
20
100.4952469310
11
66.4233796513
21
100.4952469310
0
LINE
5
3B6
100
AcDbEntity
8
0
100
AcDbLine
62
7
6
CONTINUOUS
10
79.1103146850
20
102.8769809328
11
81.9914578742
21
102.8769809328
0
LINE
5
3B7
100
AcDbEntity
8
0
100
AcDbLine
62
7
6
CONTINUOUS
10
140.0461859860
20
102.8769809328
11
142.9273291380
21
102.8769809328
0
LINE
5
3B8
100
AcDbEntity
8
0
100
AcDbLine
62
7
6
CONTINUOUS
10
66.2252534146
20
100.5389945871
11
78.8397408308
21
102.8523757238
0
LINE
5
3B9
100
AcDbEntity
8
0
100
AcDbLine
62
7
6
CONTINUOUS
10
143.1979029922
20
102.8523757238
11
155.8123904082
21
100.5389945871
0
LINE
5
3BA
100
AcDbEntity
8
0
100
AcDbLine
62
7
6
CONTINUOUS
10
66.1610344956
20
100.5265526574
11
66.1620097408
21
100.5267518594
0
LINE
5
3BB
100
AcDbEntity
8
0
100
AcDbLine
62
7
6
CONTINUOUS
10
155.8766141101
20
100.5265498729
11
155.8753782222
21
100.5268022279
0
LINE
5
3BC
100
AcDbEntity
8
0
100
AcDbLine
62
7
6
CONTINUOUS
10
157.2321177229
20
81.9813721863
11
157.2321177229
21
99.0103251969
0
ARC
5
3BD
100
AcDbEntity
8
0
100
AcDbCircle
62
7
6
CONTINUOUS
10
80.0188219115
20
191.2345295154
40
6.0000000000
100
AcDbArc
50
0.0000000000
51
90.0000000000
0
ARC
5
3BE
100
AcDbEntity
8
0
100
AcDbCircle
62
7
6
CONTINUOUS
10
142.0188219115
20
191.2345295154
40
6.0000000000
100
AcDbArc
50
90.0000000000
51
180.0000000000
0
CIRCLE
5
3BF
100
AcDbEntity
8
0
100
AcDbCircle
62
7
6
CONTINUOUS
10
111.0188219115
20
230.1453046988
40
25.0000000000
0
ARC
5
3C0
100
AcDbEntity
8
0
100
AcDbCircle
62
7
6
CONTINUOUS
10
140.8681296360
20
259.9946124233
40
4.0000000000
100
AcDbArc
50
22.5000000000
51
67.5000000000
0
ARC
5
3C1
100
AcDbEntity
8
0
100
AcDbCircle
62
7
6
CONTINUOUS
10
111.0188219115
20
272.3586005102
40
4.0000000000
100
AcDbArc
50
67.5000000000
51
112.5000000000
0
ARC
5
3C2
100
AcDbEntity
8
0
100
AcDbCircle
62
7
6
CONTINUOUS
10
81.1695141870
20
259.9946124233
40
4.0000000000
100
AcDbArc
50
112.5000000000
51
157.5000000000
0
ARC
5
3C3
100
AcDbEntity
8
0
100
AcDbCircle
62
7
6
CONTINUOUS
10
68.8055261001
20
230.1453046988
40
4.0000000000
100
AcDbArc
50
157.5000000000
51
202.5000000000
0
ARC
5
3C4
100
AcDbEntity
8
0
100
AcDbCircle
62
7
6
CONTINUOUS
10
79.1103146850
20
198.7345295154
40
1.5000000000
100
AcDbArc
50
202.5000000000
51
270.0000000000
0
ARC
5
3C5
100
AcDbEntity
8
0
100
AcDbCircle
62
7
6
CONTINUOUS
10
153.2321177229
20
230.1453046988
40
4.0000000000
100
AcDbArc
50
337.5000000000
51
22.5000000000
0
ARC
5
3C6
100
AcDbEntity
8
0
100
AcDbCircle
62
7
6
CONTINUOUS
10
142.9273291380
20
198.7345295154
40
1.5000000000
100
AcDbArc
50
270.0000000000
51
337.5000000000
0
ARC
5
3C7
100
AcDbEntity
8
DEFAULT_2
100
AcDbCircle
62
8
6
HIDDEN
10
295.3771299405
20
265.1453046988
40
10.0000000000
100
AcDbArc
50
180.0000000000
51
360.0000000000
0
ARC
5
3C8
100
AcDbEntity
8
0
100
AcDbCircle
62
7
6
CONTINUOUS
10
286.8771299405
20
274.8586005102
40
1.5000000000
100
AcDbArc
50
90.0000000000
51
180.0000000000
0
ARC
5
3C9
100
AcDbEntity
8
0
100
AcDbCircle
62
7
6
CONTINUOUS
10
303.8771299405
20
274.8586005102
40
1.5000000000
100
AcDbArc
50
0.0000000000
51
90.0000000000
0
ARC
5
3CA
100
AcDbEntity
8
0
100
AcDbCircle
62
7
6
CONTINUOUS
10
274.3771299405
20
197.6945513365
40
4.0000000000
100
AcDbArc
50
99.0000000000
51
180.0000000000
0
ARC
5
3CB
100
AcDbEntity
8
0
100
AcDbCircle
62
7
6
CONTINUOUS
10
316.3771299405
20
197.6945513365
40
4.0000000000
100
AcDbArc
50
0.0000000000
51
81.0000000000
0
ARC
5
3CC
100
AcDbEntity
8
0
100
AcDbCircle
62
7
6
CONTINUOUS
10
325.3771299405
20
230.9038416436
40
20.0000000000
100
AcDbArc
50
180.0000000000
51
184.3440144758
0
ARC
5
3CD
100
AcDbEntity
8
0
100
AcDbCircle
62
7
6
CONTINUOUS
10
265.3771299405
20
230.9038416436
40
20.0000000000
100
AcDbArc
50
355.6559855242
51
360.0000000000
0
ARC
5
3CE
100
AcDbEntity
8
0
100
AcDbCircle
62
7
6
CONTINUOUS
10
306.2588639423
20
198.7345295154
40
1.5000000000
100
AcDbArc
50
270.0000000000
51
4.3440144758
0
ARC
5
3CF
100
AcDbEntity
8
0
100
AcDbCircle
62
7
6
CONTINUOUS
10
284.4953940548
20
198.7345047153
40
1.4999950400
100
AcDbArc
50
175.6550355013
51
270.0000719604
0
ARC
5
3D0
100
AcDbEntity
8
0
100
AcDbCircle
62
7
6
CONTINUOUS
10
111.0188219115
20
90.4952469310
40
25.0000000000
100
AcDbArc
50
31.1980270084
51
148.8019729916
0
ARC
5
3D1
100
AcDbEntity
8
0
100
AcDbCircle
62
7
6
CONTINUOUS
10
111.0188219115
20
90.4952469310
40
25.0000000000
100
AcDbArc
50
211.1980270084
51
328.8019729916
0
SPLINE
5
3D2
100
AcDbEntity
8
0
100
AcDbSpline
62
7
6
CONTINUOUS
70
0
71
3
72
8
73
4
74
2
42
0.0000001000
43
0.0000001000
44
0.0000000001
40
0.0000000000
40
0.0000000000
40
0.0000000000
40
0.0000000000
40
1.0000000000
40
1.0000000000
40
1.0000000000
40
1.0000000000
10
283.3792872870
20
203.8400930321
30
0.0000000000
10
283.3789570327
20
203.8381002980
30
0.0000000000
10
283.3786058788
20
203.8360436569
30
0.0000000000
10
283.3782472010
20
203.8339840876
30
0.0000000000
11
283.3792872870
21
203.8400930321
31
0.0000000000
11
283.3782472010
21
203.8339840876
31
0.0000000000
0
SPLINE
5
3D3
100
AcDbEntity
8
0
100
AcDbSpline
62
7
6
CONTINUOUS
70
0
71
3
72
8
73
4
74
2
42
0.0000001000
43
0.0000001000
44
0.0000000001
40
0.0000000000
40
0.0000000000
40
0.0000000000
40
0.0000000000
40
1.0000000000
40
1.0000000000
40
1.0000000000
40
1.0000000000
10
283.3782472010
20
203.8339840876
30
0.0000000000
10
283.3778182250
20
203.8315208580
30
0.0000000000
10
283.3773784867
20
203.8290534398
30
0.0000000000
10
283.3769508686
20
203.8266861524
30
0.0000000000
11
283.3782472010
21
203.8339840876
31
0.0000000000
11
283.3769508686
21
203.8266861524
31
0.0000000000
0
SPLINE
5
3D4
100
AcDbEntity
8
0
100
AcDbSpline
62
7
6
CONTINUOUS
70
0
71
3
72
8
73
4
74
2
42
0.0000001000
43
0.0000001000
44
0.0000000001
40
0.0000000000
40
0.0000000000
40
0.0000000000
40
0.0000000000
40
1.0000000000
40
1.0000000000
40
1.0000000000
40
1.0000000000
10
283.3757740420
20
203.8187079174
30
0.0000000000
10
283.3635720673
20
203.7614697252
30
0.0000000000
10
283.3461888985
20
203.7050714531
30
0.0000000000
10
283.3240017350
20
203.6505273351
30
0.0000000000
11
283.3757740420
21
203.8187079174
31
0.0000000000
11
283.3240017350
21
203.6505273351
31
0.0000000000
0
SPLINE
5
3D5
100
AcDbEntity
8
0
100
AcDbSpline
62
7
6
CONTINUOUS
70
0
71
3
72
11
73
7
74
5
42
0.0000001000
43
0.0000001000
44
0.0000000001
40
0.0000000000
40
0.0000000000
40
0.0000000000
40
0.0000000000
40
0.1713173593
40
0.5145273725
40
0.8577786324
40
1.0000000000
40
1.0000000000
40
1.0000000000
40
1.0000000000
10
283.3240017350
20
203.6505273351
30
0.0000000000
10
283.3018837999
20
203.5961534058
30
0.0000000000
10
283.2211175019
20
203.4383830182
30
0.0000000000
10
283.0202988612
20
203.2181787881
30
0.0000000000
10
282.7649633444
20
203.0851401363
30
0.0000000000
10
282.6023283260
20
203.0472162032
30
0.0000000000
10
282.5541741608
20
203.0395997588
30
0.0000000000
11
283.3240017350
21
203.6505273351
31
0.0000000000
11
283.2436994217
21
203.4939381206
31
0.0000000000
11
283.0076092343
21
203.2346920124
31
0.0000000000
11
282.6964976394
21
203.0728703513
31
0.0000000000
11
282.5541741608
21
203.0395997588
31
0.0000000000
0
SPLINE
5
3D6
100
AcDbEntity
8
0
100
AcDbSpline
62
7
6
CONTINUOUS
70
0
71
3
72
10
73
6
74
4
42
0.0000001000
43
0.0000001000
44
0.0000000001
40
0.0000000000
40
0.0000000000
40
0.0000000000
40
0.0000000000
40
0.3601119125
40
0.8031276710
40
1.0000000000
40
1.0000000000
40
1.0000000000
40
1.0000000000
10
283.3808383372
20
203.8504595978
30
0.0000000000
10
283.3800430017
20
203.8442903207
30
0.0000000000
10
283.3765508570
20
203.8239750178
30
0.0000000000
10
283.3728558999
20
203.8049580014
30
0.0000000000
10
283.3742271266
20
203.8113470055
30
0.0000000000
10
283.3751457443
20
203.8157153463
30
0.0000000000
11
283.3808383372
21
203.8504595978
31
0.0000000000
11
283.3770168137
21
203.8270858305
31
0.0000000000
11
283.3737369710
21
203.8091722936
31
0.0000000000
11
283.3751457443
21
203.8157153463
31
0.0000000000
0
SPLINE
5
3D7
100
AcDbEntity
8
0
100
AcDbSpline
62
7
6
CONTINUOUS
70
0
71
3
72
11
73
7
74
5
42
0.0000001000
43
0.0000001000
44
0.0000000001
40
0.0000000000
40
0.0000000000
40
0.0000000000
40
0.0000000000
40
0.0054128040
40
0.3370127014
40
0.6685438143
40
1.0000000000
40
1.0000000000
40
1.0000000000
40
1.0000000000
10
308.2000471619
20
203.0395350682
30
0.0000000000
10
308.1984555850
20
203.0397866006
30
0.0000000000
10
308.0994012610
20
203.0556884639
30
0.0000000000
10
307.9080947174
20
203.1169910259
30
0.0000000000
10
307.6621693665
20
203.2872970131
30
0.0000000000
10
307.5385213379
20
203.4434968395
30
0.0000000000
10
307.4893957651
20
203.5290623521
30
0.0000000000
11
308.2000471619
21
203.0395350682
31
0.0000000000
11
308.1952744117
21
203.0403012739
31
0.0000000000
11
307.9145237204
21
203.1301859619
31
0.0000000000
11
307.6722242891
21
203.2979809122
31
0.0000000000
11
307.4893957651
21
203.5290623521
31
0.0000000000
0
SPLINE
5
3D8
100
AcDbEntity
8
0
100
AcDbSpline
62
7
6
CONTINUOUS
70
0
71
3
72
8
73
4
74
2
42
0.0000001000
43
0.0000001000
44
0.0000000001
40
0.0000000000
40
0.0000000000
40
0.0000000000
40
0.0000000000
40
1.0000000000
40
1.0000000000
40
1.0000000000
40
1.0000000000
10
307.4893957651
20
203.5290623521
30
0.0000000000
10
307.4402788556
20
203.6146127753
30
0.0000000000
10
307.4038489248
20
203.7076349882
30
0.0000000000
10
307.3818635399
20
203.8033452375
30
0.0000000000
11
307.4893957651
21
203.5290623521
31
0.0000000000
11
307.3818635399
21
203.8033452375
31
0.0000000000
0
SPLINE
5
3D9
100
AcDbEntity
8
0
100
AcDbSpline
62
7
6
CONTINUOUS
70
0
71
3
72
8
73
4
74
2
42
0.0000001000
43
0.0000001000
44
0.0000000001
40
0.0000000000
40
0.0000000000
40
0.0000000000
40
0.0000000000
40
1.0000000000
40
1.0000000000
40
1.0000000000
40
1.0000000000
10
307.3818635399
20
203.8033452375
30
0.0000000000
10
307.3814339377
20
203.8050950816
30
0.0000000000
10
307.3810248443
20
203.8068494910
30
0.0000000000
10
307.3806352693
20
203.8086080153
30
0.0000000000
11
307.3818635399
21
203.8033452375
31
0.0000000000
11
307.3806352693
21
203.8086080153
31
0.0000000000
0
SPLINE
5
3DA
100
AcDbEntity
8
0
100
AcDbSpline
62
7
6
CONTINUOUS
70
0
71
3
72
8
73
4
74
2
42
0.0000001000
43
0.0000001000
44
0.0000000001
40
0.0000000000
40
0.0000000000
40
0.0000000000
40
0.0000000000
40
1.0000000000
40
1.0000000000
40
1.0000000000
40
1.0000000000
10
307.3786198406
20
203.8186699764
30
0.0000000000
10
307.3783931419
20
203.8199296284
30
0.0000000000
10
307.3781753503
20
203.8211909266
30
0.0000000000
10
307.3779661104
20
203.8224537095
30
0.0000000000
11
307.3786198406
21
203.8186699764
31
0.0000000000
11
307.3779661104
21
203.8224537095
31
0.0000000000
0
SPLINE
5
3DB
100
AcDbEntity
8
0
100
AcDbSpline
62
7
6
CONTINUOUS
70
0
71
3
72
8
73
4
74
2
42
0.0000001000
43
0.0000001000
44
0.0000000001
40
0.0000000000
40
0.0000000000
40
0.0000000000
40
0.0000000000
40
1.0000000000
40
1.0000000000
40
1.0000000000
40
1.0000000000
10
307.3779661104
20
203.8224537095
30
0.0000000000
10
307.3777956712
20
203.8234823266
30
0.0000000000
10
307.3776309061
20
203.8245119287
30
0.0000000000
10
307.3774716231
20
203.8255424286
30
0.0000000000
11
307.3779661104
21
203.8224537095
31
0.0000000000
11
307.3774716231
21
203.8255424286
31
0.0000000000
0
SPLINE
5
3DC
100
AcDbEntity
8
0
100
AcDbSpline
62
7
6
CONTINUOUS
70
0
71
3
72
9
73
5
74
3
42
0.0000001000
43
0.0000001000
44
0.0000000001
40
0.0000000000
40
0.0000000000
40
0.0000000000
40
0.0000000000
40
0.3853305444
40
1.0000000000
40
1.0000000000
40
1.0000000000
40
1.0000000000
10
307.3774716231
20
203.8255424286
30
0.0000000000
10
307.3773054909
20
203.8266172397
30
0.0000000000
10
307.3768898257
20
203.8294090965
30
0.0000000000
10
307.3765128569
20
203.8322068632
30
0.0000000000
10
307.3762948812
20
203.8339283955
30
0.0000000000
11
307.3774716231
21
203.8255424286
31
0.0000000000
11
307.3769908995
21
203.8287696926
31
0.0000000000
11
307.3762948812
21
203.8339283955
31
0.0000000000
0
SPLINE
5
3DD
100
AcDbEntity
8
0
100
AcDbSpline
62
7
6
CONTINUOUS
70
0
71
3
72
8
73
4
74
2
42
0.0000001000
43
0.0000001000
44
0.0000000001
40
0.0000000000
40
0.0000000000
40
0.0000000000
40
0.0000000000
40
1.0000000000
40
1.0000000000
40
1.0000000000
40
1.0000000000
10
307.3762948812
20
203.8339283955
30
0.0000000000
10
307.3760731842
20
203.8356793177
30
0.0000000000
10
307.3758656956
20
203.8374321336
30
0.0000000000
10
307.3756714845
20
203.8391864199
30
0.0000000000
11
307.3762948812
21
203.8339283955
31
0.0000000000
11
307.3756714845
21
203.8391864199
31
0.0000000000
0
SPLINE
5
3DE
100
AcDbEntity
8
0
100
AcDbSpline
62
7
6
CONTINUOUS
70
0
71
3
72
10
73
6
74
4
42
0.0000001000
43
0.0000001000
44
0.0000000001
40
0.0000000000
40
0.0000000000
40
0.0000000000
40
0.0000000000
40
0.2149767354
40
0.4362782585
40
1.0000000000
40
1.0000000000
40
1.0000000000
40
1.0000000000
10
307.3818635399
20
203.8033452375
30
0.0000000000
10
307.3810613955
20
203.8067107665
30
0.0000000000
10
307.3795521545
20
203.8135686906
30
0.0000000000
10
307.3766481834
20
203.8294000331
30
0.0000000000
10
307.3751580541
20
203.8419612424
30
0.0000000000
10
307.3745017797
20
203.8510169465
30
0.0000000000
11
307.3818635399
21
203.8033452375
31
0.0000000000
11
307.3796328659
21
203.8134811547
31
0.0000000000
11
307.3777053079
21
203.8239896497
31
0.0000000000
11
307.3745017797
21
203.8510169465
31
0.0000000000
0
SPLINE
5
3DF
100
AcDbEntity
8
0
100
AcDbSpline
62
7
6
CONTINUOUS
70
0
71
3
72
10
73
6
74
4
42
0.0000001000
43
0.0000001000
44
0.0000000001
40
0.0000000000
40
0.0000000000
40
0.0000000000
40
0.0000000000
40
0.3813632370
40
0.7939632238
40
1.0000000000
40
1.0000000000
40
1.0000000000
40
1.0000000000
10
133.0421945380
20
103.1477411996
30
0.0000000000
10
132.9467140316
20
103.1580406120
30
0.0000000000
10
132.7513153860
20
103.2082940193
30
0.0000000000
10
132.5343801776
20
103.3414811432
30
0.0000000000
10
132.4237785617
20
103.4521138820
30
0.0000000000
10
132.3900269922
20
103.4915172201
30
0.0000000000
11
133.0421945380
21
103.1477411996
31
0.0000000000
11
132.7643463072
21
103.2191198389
31
0.0000000000
11
132.5000682636
21
103.3815537353
31
0.0000000000
11
132.3900269922
21
103.4915172201
31
0.0000000000
0
SPLINE
5
3E0
100
AcDbEntity
8
0
100
AcDbSpline
62
7
6
CONTINUOUS
70
0
71
3
72
8
73
4
74
2
42
0.0000001000
43
0.0000001000
44
0.0000000001
40
0.0000000000
40
0.0000000000
40
0.0000000000
40
0.0000000000
40
1.0000000000
40
1.0000000000
40
1.0000000000
40
1.0000000000
10
132.3900269922
20
103.4915172201
30
0.0000000000
10
132.3614235516
20
103.5249103646
30
0.0000000000
10
132.3350352454
20
103.5601400606
30
0.0000000000
10
132.3111458460
20
103.5968562629
30
0.0000000000
11
132.3900269922
21
103.4915172201
31
0.0000000000
11
132.3111458460
21
103.5968562629
31
0.0000000000
0
SPLINE
5
3E1
100
AcDbEntity
8
0
100
AcDbSpline
62
7
6
CONTINUOUS
70
0
71
3
72
8
73
4
74
2
42
0.0000001000
43
0.0000001000
44
0.0000000001
40
0.0000000000
40
0.0000000000
40
0.0000000000
40
0.0000000000
40
1.0000000000
40
1.0000000000
40
1.0000000000
40
1.0000000000
10
132.3111458460
20
103.5968562629
30
0.0000000000
10
132.3067873371
20
103.6035549618
30
0.0000000000
10
132.3025120076
20
103.6103031410
30
0.0000000000
10
132.2983215807
20
103.6170986747
30
0.0000000000
11
132.3111458460
21
103.5968562629
31
0.0000000000
11
132.2983215807
21
103.6170986747
31
0.0000000000
0
SPLINE
5
3E2
100
AcDbEntity
8
0
100
AcDbSpline
62
7
6
CONTINUOUS
70
0
71
3
72
8
73
4
74
2
42
0.0000001000
43
0.0000001000
44
0.0000000001
40
0.0000000000
40
0.0000000000
40
0.0000000000
40
0.0000000000
40
1.0000000000
40
1.0000000000
40
1.0000000000
40
1.0000000000
10
89.7393221806
20
103.6170986118
30
0.0000000000
10
89.6850601915
20
103.5291029623
30
0.0000000000
10
89.6165618678
20
103.4490476056
30
0.0000000000
10
89.5375690682
20
103.3815481779
30
0.0000000000
11
89.7393221806
21
103.6170986118
31
0.0000000000
11
89.5375690682
21
103.3815481779
31
0.0000000000
0
SPLINE
5
3E3
100
AcDbEntity
8
0
100
AcDbSpline
62
7
6
CONTINUOUS
70
0
71
3
72
9
73
5
74
3
42
0.0000001000
43
0.0000001000
44
0.0000000001
40
0.0000000000
40
0.0000000000
40
0.0000000000
40
0.0000000000
40
0.5196729585
40
1.0000000000
40
1.0000000000
40
1.0000000000
40
1.0000000000
10
89.5375690682
20
103.3815481779
30
0.0000000000
10
89.4585608312
20
103.3140355591
30
0.0000000000
10
89.2863240163
20
103.2082925509
30
0.0000000000
10
89.0909280647
20
103.1580403591
30
0.0000000000
10
88.9954492145
20
103.1477411231
30
0.0000000000
11
89.5375690682
21
103.3815481779
31
0.0000000000
11
89.2732928448
21
103.2191178442
31
0.0000000000
11
88.9954492145
21
103.1477411231
31
0.0000000000
0
SPLINE
5
3E4
100
AcDbEntity
8
0
100
AcDbSpline
62
7
6
CONTINUOUS
70
0
71
3
72
10
73
6
74
4
42
0.0000001000
43
0.0000001000
44
0.0000000001
40
0.0000000000
40
0.0000000000
40
0.0000000000
40
0.0000000000
40
0.3813632370
40
0.7939632238
40
1.0000000000
40
1.0000000000
40
1.0000000000
40
1.0000000000
10
88.9954492850
20
77.8427526623
30
0.0000000000
10
89.0909297913
20
77.8324532499
30
0.0000000000
10
89.2863284369
20
77.7821998426
30
0.0000000000
10
89.5032636454
20
77.6490127187
30
0.0000000000
10
89.6138652613
20
77.5383799800
30
0.0000000000
10
89.6476168308
20
77.4989766419
30
0.0000000000
11
88.9954492850
21
77.8427526623
31
0.0000000000
11
89.2732975158
21
77.7713740230
31
0.0000000000
11
89.5375755593
21
77.6089401266
31
0.0000000000
11
89.6476168308
21
77.4989766419
31
0.0000000000
0
SPLINE
5
3E5
100
AcDbEntity
8
0
100
AcDbSpline
62
7
6
CONTINUOUS
70
0
71
3
72
8
73
4
74
2
42
0.0000001000
43
0.0000001000
44
0.0000000001
40
0.0000000000
40
0.0000000000
40
0.0000000000
40
0.0000000000
40
1.0000000000
40
1.0000000000
40
1.0000000000
40
1.0000000000
10
89.6476168308
20
77.4989766419
30
0.0000000000
10
89.6762202713
20
77.4655834973
30
0.0000000000
10
89.7026085776
20
77.4303538013
30
0.0000000000
10
89.7264979770
20
77.3936375990
30
0.0000000000
11
89.6476168308
21
77.4989766419
31
0.0000000000
11
89.7264979770
21
77.3936375990
31
0.0000000000
0
SPLINE
5
3E6
100
AcDbEntity
8
0
100
AcDbSpline
62
7
6
CONTINUOUS
70
0
71
3
72
8
73
4
74
2
42
0.0000001000
43
0.0000001000
44
0.0000000001
40
0.0000000000
40
0.0000000000
40
0.0000000000
40
0.0000000000
40
1.0000000000
40
1.0000000000
40
1.0000000000
40
1.0000000000
10
89.7264979770
20
77.3936375990
30
0.0000000000
10
89.7308564859
20
77.3869389001
30
0.0000000000
10
89.7351318154
20
77.3801907209
30
0.0000000000
10
89.7393222422
20
77.3733951872
30
0.0000000000
11
89.7264979770
21
77.3936375990
31
0.0000000000
11
89.7393222422
21
77.3733951872
31
0.0000000000
0
SPLINE
5
3E7
100
AcDbEntity
8
0
100
AcDbSpline
62
7
6
CONTINUOUS
70
0
71
3
72
8
73
4
74
2
42
0.0000001000
43
0.0000001000
44
0.0000000001
40
0.0000000000
40
0.0000000000
40
0.0000000000
40
0.0000000000
40
1.0000000000
40
1.0000000000
40
1.0000000000
40
1.0000000000
10
132.2983216423
20
77.3733952501
30
0.0000000000
10
132.3525836315
20
77.4613908997
30
0.0000000000
10
132.4210819551
20
77.5414462563
30
0.0000000000
10
132.5000747548
20
77.6089456840
30
0.0000000000
11
132.2983216423
21
77.3733952501
31
0.0000000000
11
132.5000747548
21
77.6089456840
31
0.0000000000
0
SPLINE
5
3E8
100
AcDbEntity
8
0
100
AcDbSpline
62
7
6
CONTINUOUS
70
0
71
3
72
9
73
5
74
3
42
0.0000001000
43
0.0000001000
44
0.0000000001
40
0.0000000000
40
0.0000000000
40
0.0000000000
40
0.0000000000
40
0.5196729585
40
1.0000000000
40
1.0000000000
40
1.0000000000
40
1.0000000000
10
132.5000747548
20
77.6089456840
30
0.0000000000
10
132.5790829917
20
77.6764583028
30
0.0000000000
10
132.7513198067
20
77.7822013110
30
0.0000000000
10
132.9467157582
20
77.8324535029
30
0.0000000000
10
133.0421946084
20
77.8427527388
30
0.0000000000
11
132.5000747548
21
77.6089456840
31
0.0000000000
11
132.7643509782
21
77.7713760177
31
0.0000000000
11
133.0421946084
21
77.8427527388
31
0.0000000000
0
SPLINE
5
3E9
100
AcDbEntity
8
0
100
AcDbSpline
62
7
6
CONTINUOUS
70
0
71
3
72
18
73
14
74
12
42
0.0000001000
43
0.0000001000
44
0.0000000001
40
0.0000000000
40
0.0000000000
40
0.0000000000
40
0.0000000000
40
0.0923307812
40
0.2151238878
40
0.3338049340
40
0.4472008174
40
0.5543155936
40
0.6542810257
40
0.7463513963
40
0.8299980254
40
0.9048098804
40
0.9705577706
40
1.0000000000
40
1.0000000000
40
1.0000000000
40
1.0000000000
10
81.9914578345
20
78.1135161876
30
0.0000000000
10
82.1976428971
20
78.1135203182
30
0.0000000000
10
82.6780398278
20
78.1121975675
30
0.0000000000
10
83.4234372879
20
78.1053072935
30
0.0000000000
10
84.2157985955
20
78.0921504882
30
0.0000000000
10
84.9730404891
20
78.0740022619
30
0.0000000000
10
85.6883460708
20
78.0513313160
30
0.0000000000
10
86.3558670229
20
78.0248727333
30
0.0000000000
10
86.9707828710
20
77.9952021004
30
0.0000000000
10
87.5293451657
20
77.9630725414
30
0.0000000000
10
88.0288288093
20
77.9292454058
30
0.0000000000
10
88.4074310733
20
77.8990963764
30
0.0000000000
10
88.6189381698
20
77.8801514024
30
0.0000000000
10
88.6843800674
20
77.8740239511
30
0.0000000000
11
81.9914578345
21
78.1135161876
31
0.0000000000
11
82.6100105267
21
78.1118105489
31
0.0000000000
11
83.4326064185
21
78.1041962797
31
0.0000000000
11
84.2275792878
21
78.0909574130
31
0.0000000000
11
84.9870349909
21
78.0726610480
31
0.0000000000
11
85.7042690436
21
78.0498446320
31
0.0000000000
11
86.3734389352
21
78.0231763451
31
0.0000000000
11
86.9895244725
21
77.9933006950
31
0.0000000000
11
87.5489654198
21
77.9609403634
31
0.0000000000
11
88.0489919532
21
77.9268238896
31
0.0000000000
11
88.4880537458
21
77.8916733301
31
0.0000000000
11
88.6843800674
21
77.8740239511
31
0.0000000000
0
SPLINE
5
3EA
100
AcDbEntity
8
0
100
AcDbSpline
62
7
6
CONTINUOUS
70
0
71
3
72
8
73
4
74
2
42
0.0000001000
43
0.0000001000
44
0.0000000001
40
0.0000000000
40
0.0000000000
40
0.0000000000
40
0.0000000000
40
1.0000000000
40
1.0000000000
40
1.0000000000
40
1.0000000000
10
88.6843800674
20
77.8740239511
30
0.0000000000
10
88.7446188770
20
77.8683836750
30
0.0000000000
10
88.8048771054
20
77.8625165020
30
0.0000000000
10
88.8652088679
20
77.8563675384
30
0.0000000000
11
88.6843800674
21
77.8740239511
31
0.0000000000
11
88.8652088679
21
77.8563675384
31
0.0000000000
0
SPLINE
5
3EB
100
AcDbEntity
8
0
100
AcDbSpline
62
7
6
CONTINUOUS
70
0
71
3
72
8
73
4
74
2
42
0.0000001000
43
0.0000001000
44
0.0000000001
40
0.0000000000
40
0.0000000000
40
0.0000000000
40
0.0000000000
40
1.0000000000
40
1.0000000000
40
1.0000000000
40
1.0000000000
10
88.8652088679
20
77.8563675384
30
0.0000000000
10
88.9086239575
20
77.8519427082
30
0.0000000000
10
88.9520771255
20
77.8473719576
30
0.0000000000
10
88.9954582419
20
77.8426699831
30
0.0000000000
11
88.8652088679
21
77.8563675384
31
0.0000000000
11
88.9954582419
21
77.8426699831
31
0.0000000000
0
SPLINE
5
3EC
100
AcDbEntity
8
0
100
AcDbSpline
62
7
6
CONTINUOUS
70
0
71
3
72
9
73
5
74
3
42
0.0000001000
43
0.0000001000
44
0.0000000001
40
0.0000000000
40
0.0000000000
40
0.0000000000
40
0.0000000000
40
0.0434173911
40
1.0000000000
40
1.0000000000
40
1.0000000000
40
1.0000000000
10
78.8394630862
20
78.1381648460
30
0.0000000000
10
78.8433384476
20
78.1374547027
30
0.0000000000
10
78.9326662229
20
78.1214515561
30
0.0000000000
10
79.0235386617
20
78.1135983736
30
0.0000000000
10
79.1103147025
20
78.1135721950
30
0.0000000000
11
78.8394630862
21
78.1381648460
31
0.0000000000
11
78.8510981173
21
78.1360804362
31
0.0000000000
11
79.1103147025
21
78.1135721950
31
0.0000000000
0
SPLINE
5
3ED
100
AcDbEntity
8
0
100
AcDbSpline
62
7
6
CONTINUOUS
70
0
71
3
72
8
73
4
74
2
42
0.0000001000
43
0.0000001000
44
0.0000000001
40
0.0000000000
40
0.0000000000
40
0.0000000000
40
0.0000000000
40
1.0000000000
40
1.0000000000
40
1.0000000000
40
1.0000000000
10
79.1103146850
20
102.8769809328
30
0.0000000000
10
79.0185185251
20
102.8769809328
30
0.0000000000
10
78.9263478963
20
102.8684217985
30
0.0000000000
10
78.8356435378
20
102.8515420422
30
0.0000000000
11
79.1103146850
21
102.8769809328
31
0.0000000000
11
78.8356435378
21
102.8515420422
31
0.0000000000
0
SPLINE
5
3EE
100
AcDbEntity
8
0
100
AcDbSpline
62
7
6
CONTINUOUS
70
0
71
3
72
9
73
5
74
3
42
0.0000001000
43
0.0000001000
44
0.0000000001
40
0.0000000000
40
0.0000000000
40
0.0000000000
40
0.0000000000
40
0.0984788368
40
1.0000000000
40
1.0000000000
40
1.0000000000
40
1.0000000000
10
88.9954776957
20
103.1477683334
30
0.0000000000
10
88.9895925323
20
103.1471271181
30
0.0000000000
10
88.9298445171
20
103.1406485014
30
0.0000000000
10
88.8702992917
20
103.1345166205
30
0.0000000000
10
88.8166745413
20
103.1292039951
30
0.0000000000
11
88.9954776957
21
103.1477683334
31
0.0000000000
11
88.9778266689
21
103.1458544675
31
0.0000000000
11
88.8166745413
21
103.1292039951
31
0.0000000000
0
SPLINE
5
3EF
100
AcDbEntity
8
0
100
AcDbSpline
62
7
6
CONTINUOUS
70
0
71
3
72
8
73
4
74
2
42
0.0000001000
43
0.0000001000
44
0.0000000001
40
0.0000000000
40
0.0000000000
40
0.0000000000
40
0.0000000000
40
1.0000000000
40
1.0000000000
40
1.0000000000
40
1.0000000000
10
88.8166745413
20
103.1292039951
30
0.0000000000
10
88.7584561533
20
103.1234362762
30
0.0000000000
10
88.7003043957
20
103.1179224353
30
0.0000000000
10
88.6420807038
20
103.1125774906
30
0.0000000000
11
88.8166745413
21
103.1292039951
31
0.0000000000
11
88.6420807038
21
103.1125774906
31
0.0000000000
0
SPLINE
5
3F0
100
AcDbEntity
8
0
100
AcDbSpline
62
7
6
CONTINUOUS
70
0
71
3
72
18
73
14
74
12
42
0.0000001000
43
0.0000001000
44
0.0000000001
40
0.0000000000
40
0.0000000000
40
0.0000000000
40
0.0000000000
40
0.0588926218
40
0.1260735803
40
0.2013934235
40
0.2845757772
40
0.3752118760
40
0.4727833628
40
0.5765793640
40
0.6858172025
40
0.7995981927
40
0.9168636199
40
1.0000000000
40
1.0000000000
40
1.0000000000
40
1.0000000000
10
88.6420807038
20
103.1125774906
30
0.0000000000
10
88.5121125757
20
103.1006463946
30
0.0000000000
10
88.2331177564
20
103.0769066579
30
0.0000000000
10
87.7875391432
20
103.0443218338
30
0.0000000000
10
87.2877082753
20
103.0129520506
30
0.0000000000
10
86.7356887506
20
102.9833827918
30
0.0000000000
10
86.1340978303
20
102.9563135329
30
0.0000000000
10
85.4866088505
20
102.9322922932
30
0.0000000000
10
84.7977001127
20
102.9118741811
30
0.0000000000
10
84.0727038461
20
102.8956367930
30
0.0000000000
10
83.3177282994
20
102.8839694417
30
0.0000000000
10
82.6206049696
20
102.8780688034
30
0.0000000000
10
82.1759302156
20
102.8769740330
30
0.0000000000
10
81.9914578793
20
102.8769776834
30
0.0000000000
11
88.6420807038
21
103.1125774906
31
0.0000000000
11
88.2514724852
21
103.0791964881
31
0.0000000000
11
87.8054744329
21
103.0463607260
31
0.0000000000
11
87.3050870480
21
103.0147719758
31
0.0000000000
11
86.7521648038
21
102.9850215274
31
0.0000000000
11
86.1494410742
21
102.9577682380
31
0.0000000000
11
85.5003848756
21
102.9335857021
31
0.0000000000
11
84.8097488855
21
102.9130437335
31
0.0000000000
11
84.0827666548
21
102.8966863329
31
0.0000000000
11
83.3254487268
21
102.8849577624
31
0.0000000000
11
82.5448730841
21
102.8783416862
31
0.0000000000
11
81.9914578793
21
102.8769776834
31
0.0000000000
0
SPLINE
5
3F1
100
AcDbEntity
8
0
100
AcDbSpline
62
7
6
CONTINUOUS
70
0
71
3
72
18
73
14
74
12
42
0.0000001000
43
0.0000001000
44
0.0000000001
40
0.0000000000
40
0.0000000000
40
0.0000000000
40
0.0000000000
40
0.0923307812
40
0.2151238878
40
0.3338049340
40
0.4472008174
40
0.5543155936
40
0.6542810257
40
0.7463513963
40
0.8299980254
40
0.9048098804
40
0.9705577706
40
1.0000000000
40
1.0000000000
40
1.0000000000
40
1.0000000000
10
140.0461859885
20
102.8769776743
30
0.0000000000
10
139.8400009259
20
102.8769735437
30
0.0000000000
10
139.3596039951
20
102.8782962944
30
0.0000000000
10
138.6142065350
20
102.8851865684
30
0.0000000000
10
137.8218452274
20
102.8983433737
30
0.0000000000
10
137.0646033339
20
102.9164916000
30
0.0000000000
10
136.3492977521
20
102.9391625460
30
0.0000000000
10
135.6817768000
20
102.9656211286
30
0.0000000000
10
135.0668609520
20
102.9952917615
30
0.0000000000
10
134.5082986572
20
103.0274213206
30
0.0000000000
10
134.0088150137
20
103.0612484561
30
0.0000000000
10
133.6302127496
20
103.0913974855
30
0.0000000000
10
133.4187056532
20
103.1103424595
30
0.0000000000
10
133.3532637555
20
103.1164699108
30
0.0000000000
11
140.0461859885
21
102.8769776743
31
0.0000000000
11
139.4276332963
21
102.8786833130
31
0.0000000000
11
138.6050374044
21
102.8862975822
31
0.0000000000
11
137.8100645351
21
102.8995364489
31
0.0000000000
11
137.0506088320
21
102.9178328140
31
0.0000000000
11
136.3333747794
21
102.9406492299
31
0.0000000000
11
135.6642048878
21
102.9673175168
31
0.0000000000
11
135.0481193505
21
102.9971931670
31
0.0000000000
11
134.4886784032
21
103.0295534985
31
0.0000000000
11
133.9886518698
21
103.0636699723
31
0.0000000000
11
133.5495900771
21
103.0988205318
31
0.0000000000
11
133.3532637555
21
103.1164699108
31
0.0000000000
0
SPLINE
5
3F2
100
AcDbEntity
8
0
100
AcDbSpline
62
7
6
CONTINUOUS
70
0
71
3
72
8
73
4
74
2
42
0.0000001000
43
0.0000001000
44
0.0000000001
40
0.0000000000
40
0.0000000000
40
0.0000000000
40
0.0000000000
40
1.0000000000
40
1.0000000000
40
1.0000000000
40
1.0000000000
10
133.3532637555
20
103.1164699108
30
0.0000000000
10
133.2930249460
20
103.1221101870
30
0.0000000000
10
133.2327667176
20
103.1279773599
30
0.0000000000
10
133.1724349550
20
103.1341263235
30
0.0000000000
11
133.3532637555
21
103.1164699108
31
0.0000000000
11
133.1724349550
21
103.1341263235
31
0.0000000000
0
SPLINE
5
3F3
100
AcDbEntity
8
0
100
AcDbSpline
62
7
6
CONTINUOUS
70
0
71
3
72
8
73
4
74
2
42
0.0000001000
43
0.0000001000
44
0.0000000001
40
0.0000000000
40
0.0000000000
40
0.0000000000
40
0.0000000000
40
1.0000000000
40
1.0000000000
40
1.0000000000
40
1.0000000000
10
133.1724349550
20
103.1341263235
30
0.0000000000
10
133.1290198654
20
103.1385511537
30
0.0000000000
10
133.0855666974
20
103.1431219043
30
0.0000000000
10
133.0421855811
20
103.1478238789
30
0.0000000000
11
133.1724349550
21
103.1341263235
31
0.0000000000
11
133.0421855811
21
103.1478238789
31
0.0000000000
0
SPLINE
5
3F4
100
AcDbEntity
8
0
100
AcDbSpline
62
7
6
CONTINUOUS
70
0
71
3
72
9
73
5
74
3
42
0.0000001000
43
0.0000001000
44
0.0000000001
40
0.0000000000
40
0.0000000000
40
0.0000000000
40
0.0000000000
40
0.0434173911
40
1.0000000000
40
1.0000000000
40
1.0000000000
40
1.0000000000
10
143.1981807368
20
102.8523290159
30
0.0000000000
10
143.1943053754
20
102.8530391592
30
0.0000000000
10
143.1049776001
20
102.8690423058
30
0.0000000000
10
143.0141051612
20
102.8768954883
30
0.0000000000
10
142.9273291204
20
102.8769216669
30
0.0000000000
11
143.1981807368
21
102.8523290159
31
0.0000000000
11
143.1865457057
21
102.8544134257
31
0.0000000000
11
142.9273291204
21
102.8769216669
31
0.0000000000
0
SPLINE
5
3F5
100
AcDbEntity
8
0
100
AcDbSpline
62
7
6
CONTINUOUS
70
0
71
3
72
8
73
4
74
2
42
0.0000001000
43
0.0000001000
44
0.0000000001
40
0.0000000000
40
0.0000000000
40
0.0000000000
40
0.0000000000
40
1.0000000000
40
1.0000000000
40
1.0000000000
40
1.0000000000
10
142.9273291380
20
78.1135129291
30
0.0000000000
10
143.0191252979
20
78.1135129291
30
0.0000000000
10
143.1112959267
20
78.1220720634
30
0.0000000000
10
143.2020002851
20
78.1389518197
30
0.0000000000
11
142.9273291380
21
78.1135129291
31
0.0000000000
11
143.2020002851
21
78.1389518197
31
0.0000000000
0
SPLINE
5
3F6
100
AcDbEntity
8
0
100
AcDbSpline
62
7
6
CONTINUOUS
70
0
71
3
72
9
73
5
74
3
42
0.0000001000
43
0.0000001000
44
0.0000000001
40
0.0000000000
40
0.0000000000
40
0.0000000000
40
0.0000000000
40
0.0984809339
40
1.0000000000
40
1.0000000000
40
1.0000000000
40
1.0000000000
10
133.0421661273
20
77.8427255281
30
0.0000000000
10
133.0480514293
20
77.8433667585
30
0.0000000000
10
133.1077995788
20
77.8498453893
30
0.0000000000
10
133.1673449371
20
77.8559772827
30
0.0000000000
10
133.2209696822
20
77.8612899067
30
0.0000000000
11
133.0421661273
21
77.8427255281
31
0.0000000000
11
133.0598175696
21
77.8446394389
31
0.0000000000
11
133.2209696822
21
77.8612899067
31
0.0000000000
0
SPLINE
5
3F7
100
AcDbEntity
8
0
100
AcDbSpline
62
7
6
CONTINUOUS
70
0
71
3
72
8
73
4
74
2
42
0.0000001000
43
0.0000001000
44
0.0000000001
40
0.0000000000
40
0.0000000000
40
0.0000000000
40
0.0000000000
40
1.0000000000
40
1.0000000000
40
1.0000000000
40
1.0000000000
10
133.2209696822
20
77.8612899067
30
0.0000000000
10
133.2791880615
20
77.8670576237
30
0.0000000000
10
133.3373398101
20
77.8725714627
30
0.0000000000
10
133.3955634931
20
77.8779164057
30
0.0000000000
11
133.2209696822
21
77.8612899067
31
0.0000000000
11
133.3955634931
21
77.8779164057
31
0.0000000000
0
SPLINE
5
3F8
100
AcDbEntity
8
0
100
AcDbSpline
62
7
6
CONTINUOUS
70
0
71
3
72
18
73
14
74
12
42
0.0000001000
43
0.0000001000
44
0.0000000001
40
0.0000000000
40
0.0000000000
40
0.0000000000
40
0.0000000000
40
0.0588926111
40
0.1260735562
40
0.2013933852
40
0.2845757254
40
0.3752118127
40
0.4727832914
40
0.5765792897
40
0.6858171323
40
0.7995981348
40
0.9168635839
40
1.0000000000
40
1.0000000000
40
1.0000000000
40
1.0000000000
10
133.3955634931
20
77.8779164057
30
0.0000000000
10
133.5255315900
20
77.8898474970
30
0.0000000000
10
133.8045263409
20
77.9135872252
30
0.0000000000
10
134.2501048443
20
77.9461720388
30
0.0000000000
10
134.7499355932
20
77.9775418136
30
0.0000000000
10
135.3019549997
20
78.0071110662
30
0.0000000000
10
135.9035458124
20
78.0341803214
30
0.0000000000
10
136.5510347058
20
78.0582015597
30
0.0000000000
10
137.2399433896
20
78.0786196724
30
0.0000000000
10
137.9649396454
20
78.0948570627
30
0.0000000000
10
138.7199152345
20
78.1065244169
30
0.0000000000
10
139.4170386807
20
78.1124250579
30
0.0000000000
10
139.8617135380
20
78.1135198289
30
0.0000000000
10
140.0461859436
20
78.1135161785
30
0.0000000000
11
133.3955634931
21
77.8779164057
31
0.0000000000
11
133.7861716186
21
77.9112973962
31
0.0000000000
11
134.2321695573
21
77.9441331473
31
0.0000000000
11
134.7325568202
21
77.9757218888
31
0.0000000000
11
135.2854789430
21
78.0054723308
31
0.0000000000
11
135.8882025616
21
78.0327256162
31
0.0000000000
11
136.5372586697
21
78.0569081505
31
0.0000000000
11
137.2278946022
21
78.0774501197
31
0.0000000000
11
137.9548768189
21
78.0938075224
31
0.0000000000
11
138.7121947864
21
78.1055360958
31
0.0000000000
11
139.4927705308
21
78.1121521747
31
0.0000000000
11
140.0461859436
21
78.1135161785
31
0.0000000000
0
SPLINE
5
3F9
100
AcDbEntity
8
0
100
AcDbSpline
62
7
6
CONTINUOUS
70
0
71
3
72
9
73
5
74
3
42
0.0000001000
43
0.0000001000
44
0.0000000001
40
0.0000000000
40
0.0000000000
40
0.0000000000
40
0.0000000000
40
0.8202964775
40
1.0000000000
40
1.0000000000
40
1.0000000000
40
1.0000000000
10
155.8766143984
20
100.5265516248
30
0.0000000000
10
155.8590987350
20
100.5301362472
30
0.0000000000
10
155.8377066478
20
100.5343135956
30
0.0000000000
10
155.8162754482
20
100.5382820356
30
0.0000000000
10
155.8124229771
20
100.5389885966
30
0.0000000000
11
155.8766143984
21
100.5265516248
31
0.0000000000
11
155.8239767093
21
100.5368490039
31
0.0000000000
11
155.8124229771
21
100.5389885966
31
0.0000000000
0
SPLINE
5
3FA
100
AcDbEntity
8
0
100
AcDbSpline
62
7
6
CONTINUOUS
70
0
71
3
72
16
73
12
74
10
42
0.0000001000
43
0.0000001000
44
0.0000000001
40
0.0000000000
40
0.0000000000
40
0.0000000000
40
0.0000000000
40
0.0826335877
40
0.2668049507
40
0.4334018897
40
0.5834308343
40
0.7167913913
40
0.8279099951
40
0.9089508404
40
0.9741756331
40
1.0000000000
40
1.0000000000
40
1.0000000000
40
1.0000000000
10
157.2320424623
20
99.0086221612
30
0.0000000000
10
157.2320509864
20
99.0699488470
30
0.0000000000
10
157.2200552896
20
99.2680643540
30
0.0000000000
10
157.1371030251
20
99.5811335802
30
0.0000000000
10
156.9522085537
20
99.9058768321
30
0.0000000000
10
156.7235849149
20
100.1508149892
30
0.0000000000
10
156.4836415375
20
100.3193774270
30
0.0000000000
10
156.2648711751
20
100.4214580170
30
0.0000000000
10
156.0835004809
20
100.4793401803
30
0.0000000000
10
155.9598682586
20
100.5090753309
30
0.0000000000
10
155.8940675180
20
100.5229855463
30
0.0000000000
10
155.8753789208
20
100.5268056455
30
0.0000000000
11
157.2320424623
21
99.0086221612
31
0.0000000000
11
157.2208727254
21
99.1921508262
31
0.0000000000
11
157.1165459425
21
99.5866823746
31
0.0000000000
11
156.9339189016
21
99.9074927215
31
0.0000000000
11
156.7071623650
21
100.1505910130
31
0.0000000000
11
156.4654685251
21
100.3206109575
31
0.0000000000
11
156.2425619481
21
100.4251902934
31
0.0000000000
11
156.0717381285
21
100.4805576957
31
0.0000000000
11
155.9313624427
21
100.5149482336
31
0.0000000000
11
155.8753789208
21
100.5268056455
31
0.0000000000
0
SPLINE
5
3FB
100
AcDbEntity
8
0
100
AcDbSpline
62
7
6
CONTINUOUS
70
0
71
3
72
9
73
5
74
3
42
0.0000001000
43
0.0000001000
44
0.0000000001
40
0.0000000000
40
0.0000000000
40
0.0000000000
40
0.0000000000
40
0.1880285521
40
1.0000000000
40
1.0000000000
40
1.0000000000
40
1.0000000000
10
66.2252143861
20
100.5389874215
30
0.0000000000
10
66.2211841675
20
100.5382482541
30
0.0000000000
10
66.1997571288
20
100.5342787981
30
0.0000000000
10
66.1783692863
20
100.5301002434
30
0.0000000000
10
66.1610344939
20
100.5265526659
30
0.0000000000
11
66.2252143861
21
100.5389874215
31
0.0000000000
11
66.2131277631
21
100.5367481193
31
0.0000000000
11
66.1610344939
21
100.5265526659
31
0.0000000000
0
SPLINE
5
3FC
100
AcDbEntity
8
0
100
AcDbSpline
62
7
6
CONTINUOUS
70
0
71
3
72
8
73
4
74
2
42
0.0000001000
43
0.0000001000
44
0.0000000001
40
0.0000000000
40
0.0000000000
40
0.0000000000
40
0.0000000000
40
1.0000000000
40
1.0000000000
40
1.0000000000
40
1.0000000000
10
66.1620082736
20
100.5267587273
30
0.0000000000
10
66.1344315962
20
100.5211223342
30
0.0000000000
10
66.1069110693
20
100.5152106708
30
0.0000000000
10
66.0794684530
20
100.5089473499
30
0.0000000000
11
66.1620082736
21
100.5267587273
31
0.0000000000
11
66.0794684530
21
100.5089473499
31
0.0000000000
0
SPLINE
5
3FD
100
AcDbEntity
8
0
100
AcDbSpline
62
7
6
CONTINUOUS
70
0
71
3
72
16
73
12
74
10
42
0.0000001000
43
0.0000001000
44
0.0000000001
40
0.0000000000
40
0.0000000000
40
0.0000000000
40
0.0000000000
40
0.0688332380
40
0.1503319926
40
0.2557294214
40
0.3783854732
40
0.5131286753
40
0.6573371667
40
0.8076326995
40
0.9635586027
40
1.0000000000
40
1.0000000000
40
1.0000000000
40
1.0000000000
10
66.0794684530
20
100.5089473499
30
0.0000000000
10
66.0317586579
20
100.4980583825
30
0.0000000000
10
65.9280746227
20
100.4719555148
30
0.0000000000
10
65.7554978402
20
100.4139591403
30
0.0000000000
10
65.5562268770
20
100.3188569731
30
0.0000000000
10
65.3427549448
20
100.1718914507
30
0.0000000000
10
65.1393855848
20
99.9690730890
30
0.0000000000
10
64.9686117604
20
99.7136328167
30
0.0000000000
10
64.8488642677
20
99.4140134089
30
0.0000000000
10
64.8090610403
20
99.1717713312
30
0.0000000000
10
64.8055396210
20
99.0346249797
30
0.0000000000
10
64.8055448104
20
99.0086443263
30
0.0000000000
11
66.0794684530
21
100.5089473499
31
0.0000000000
11
65.9372783480
21
100.4724794588
31
0.0000000000
11
65.7727309761
21
100.4165204511
31
0.0000000000
11
65.5700322281
21
100.3193921596
31
0.0000000000
11
65.3546609299
21
100.1709473839
31
0.0000000000
11
65.1512432859
21
99.9679907680
31
0.0000000000
11
64.9803540301
21
99.7123053603
31
0.0000000000
11
64.8614033701
21
99.4146785733
31
0.0000000000
11
64.8075493029
21
99.0865446223
31
0.0000000000
11
64.8055448104
21
99.0086443263
31
0.0000000000
0
SPLINE
5
3FE
100
AcDbEntity
8
0
100
AcDbSpline
62
7
6
CONTINUOUS
70
0
71
3
72
9
73
5
74
3
42
0.0000001000
43
0.0000001000
44
0.0000000001
40
0.0000000000
40
0.0000000000
40
0.0000000000
40
0.0000000000
40
0.8201779345
40
1.0000000000
40
1.0000000000
40
1.0000000000
40
1.0000000000
10
66.1610291969
20
80.4639422794
30
0.0000000000
10
66.1785425189
20
80.4603581313
30
0.0000000000
10
66.1999348330
20
80.4561807033
30
0.0000000000
10
66.2213662636
20
80.4522122057
30
0.0000000000
10
66.2252213184
20
80.4515051730
30
0.0000000000
11
66.1610291969
21
80.4639422794
31
0.0000000000
11
66.2136598402
21
80.4536462085
31
0.0000000000
11
66.2252213184
21
80.4515051730
31
0.0000000000
0
SPLINE
5
3FF
100
AcDbEntity
8
0
100
AcDbSpline
62
7
6
CONTINUOUS
70
0
71
3
72
16
73
12
74
10
42
0.0000001000
43
0.0000001000
44
0.0000000001
40
0.0000000000
40
0.0000000000
40
0.0000000000
40
0.0000000000
40
0.0826512772
40
0.2668228896
40
0.4334116375
40
0.5834351141
40
0.7167916580
40
0.8278977794
40
0.9089278785
40
0.9741684763
40
1.0000000000
40
1.0000000000
40
1.0000000000
40
1.0000000000
10
64.8056044679
20
81.9818553454
30
0.0000000000
10
64.8055961950
20
81.9205157737
30
0.0000000000
10
64.8175958926
20
81.7223877367
30
0.0000000000
10
64.9005585473
20
81.4093154086
30
0.0000000000
10
65.0854548852
20
81.0845870972
30
0.0000000000
10
65.3140728426
20
80.8396640057
30
0.0000000000
10
65.5540042403
20
80.6711152384
30
0.0000000000
10
65.7727555318
20
80.5690453317
30
0.0000000000
10
65.9541181842
20
80.5111592817
30
0.0000000000
10
66.0777585556
20
80.4814216310
30
0.0000000000
10
66.1435756214
20
80.4675081728
30
0.0000000000
10
66.1622693249
20
80.4636871146
30
0.0000000000
11
64.8056044679
21
81.9818553454
31
0.0000000000
11
64.8167795753
21
81.7982883570
31
0.0000000000
11
64.9211174416
21
81.4037611850
31
0.0000000000
11
65.1037425346
21
81.0829726443
31
0.0000000000
11
65.3304941574
21
80.8398885105
31
0.0000000000
11
65.5721820907
21
80.6698780792
31
0.0000000000
11
65.7950627530
21
80.5653113965
31
0.0000000000
11
65.9658617959
21
80.5099475627
31
0.0000000000
11
66.1062705196
21
80.4755476040
31
0.0000000000
11
66.1622693249
21
80.4636871146
31
0.0000000000
0
SPLINE
5
400
100
AcDbEntity
8
0
100
AcDbSpline
62
7
6
CONTINUOUS
70
0
71
3
72
9
73
5
74
3
42
0.0000001000
43
0.0000001000
44
0.0000000001
40
0.0000000000
40
0.0000000000
40
0.0000000000
40
0.0000000000
40
0.1880709483
40
1.0000000000
40
1.0000000000
40
1.0000000000
40
1.0000000000
10
155.8124298845
20
80.4515065281
30
0.0000000000
10
155.8164609825
20
80.4522458590
30
0.0000000000
10
155.8378878634
20
80.4562153049
30
0.0000000000
10
155.8592755508
20
80.4603938339
30
0.0000000000
10
155.8766093138
20
80.4639411971
30
0.0000000000
11
155.8124298845
21
80.4515065281
31
0.0000000000
11
155.8245191438
21
80.4537463293
31
0.0000000000
11
155.8766093138
21
80.4639411971
31
0.0000000000
0
SPLINE
5
401
100
AcDbEntity
8
0
100
AcDbSpline
62
7
6
CONTINUOUS
70
0
71
3
72
8
73
4
74
2
42
0.0000001000
43
0.0000001000
44
0.0000000001
40
0.0000000000
40
0.0000000000
40
0.0000000000
40
0.0000000000
40
1.0000000000
40
1.0000000000
40
1.0000000000
40
1.0000000000
10
155.8756403242
20
80.4637360409
30
0.0000000000
10
155.9032176975
20
80.4693726235
30
0.0000000000
10
155.9307389136
20
80.4752845057
30
0.0000000000
10
155.9581822090
20
80.4815480796
30
0.0000000000
11
155.8756403242
21
80.4637360409
31
0.0000000000
11
155.9581822090
21
80.4815480796
31
0.0000000000
0
SPLINE
5
402
100
AcDbEntity
8
0
100
AcDbSpline
62
7
6
CONTINUOUS
70
0
71
3
72
16
73
12
74
10
42
0.0000001000
43
0.0000001000
44
0.0000000001
40
0.0000000000
40
0.0000000000
40
0.0000000000
40
0.0000000000
40
0.0688308904
40
0.1503312928
40
0.2557304974
40
0.3783865480
40
0.5131289140
40
0.6573364518
40
0.8076322427
40
0.9635583817
40
1.0000000000
40
1.0000000000
40
1.0000000000
40
1.0000000000
10
155.9581822090
20
80.4815480796
30
0.0000000000
10
156.0058902130
20
80.4924368086
30
0.0000000000
10
156.1095733876
20
80.5185398607
30
0.0000000000
10
156.2821504828
20
80.5765362385
30
0.0000000000
10
156.4814226903
20
80.6716402364
30
0.0000000000
10
156.6948937969
20
80.8186068935
30
0.0000000000
10
156.8982608867
20
81.0214245941
30
0.0000000000
10
157.0690332448
20
81.2768634883
30
0.0000000000
10
157.1887802422
20
81.5764818255
30
0.0000000000
10
157.2285834096
20
81.8187237756
30
0.0000000000
10
157.2321048015
20
81.9558700928
30
0.0000000000
10
157.2320996043
20
81.9818508352
30
0.0000000000
11
155.9581822090
21
80.4815480796
31
0.0000000000
11
156.1003669966
21
80.5180149969
31
0.0000000000
11
156.2649172221
21
80.5739751073
31
0.0000000000
11
156.4676184325
21
80.6711056545
31
0.0000000000
11
156.6829883571
21
80.8195512062
31
0.0000000000
11
156.8864034105
21
81.0225068234
31
0.0000000000
11
157.0572906889
21
81.2781901332
31
0.0000000000
11
157.1762411606
21
81.5758166801
31
0.0000000000
11
157.2300951200
21
81.9039502716
31
0.0000000000
11
157.2320996043
21
81.9818508352
31
0.0000000000
0
ENDSEC
0
SECTION
2
OBJECTS
0
DICTIONARY
5
403
100
AcDbDictionary
3
ACAD_GROUP
350
404
3
ACAD_MLINESTYLE
350
405
0
DICTIONARY
5
404
102
{ACAD_REACTORS
330
403
102
}
100
AcDbDictionary
0
DICTIONARY
5
405
102
{ACAD_REACTORS
330
403
102
}
100
AcDbDictionary
3
STANDARD
350
406
0
MLINESTYLE
5
406
102
{ACAD_REACTORS
330
405
102
}
100
AcDbMlineStyle
2
STANDARD
70
0
3

62
256
51
90.0
52
90.0
71
2
49
0.5
62
256
6
BYLAYER
49
-0.5
62
256
6
BYLAYER
0
ENDSEC
0
EOF
