999
DXF file: C:\Aktuell-Internet\CAD-Daten\2rs-m18.dxf
999
Pro/ENGINEER 2001400 by Parametric Technology Corporation
0
SECTION
2
HEADER
9
$ACADVER
1
AC1014
9
$EXTMAX
10
420.0000000000
20
297.0000000000
9
$EXTMIN
10
0.0000000000
20
0.0000000000
9
$LIMMIN
10
0.0000000000
20
0.0000000000
9
$LIMMAX
10
420.0000000000
20
297.0000000000
9
$VIEWCTR
10
210.0000000000
20
148.5000000000
9
$VIEWSIZE
40
297.0000000000
9
$CLAYER
8
0
9
$LTSCALE
40
23.1000000000
9
$CELTYPE
6
BYLAYER
9
$DIMSCALE
40
1
9
$DIMASZ
40
3.5000000000
9
$DIMEXO
40
2.6250000000
9
$DIMDLI
40
15.9600000000
9
$DIMEXE
40
7.5600000000
9
$DIMCEN
40
3.7800000000
9
$DIMLFAC
40
1.0000000000
9
$DIMTXT
40
3.5000000000
9
$DIMTOL
70
1
9
$DIMTFAC
40
0.6000000000
9
$DIMTP
40
0.0050000000
9
$DIMTM
40
0.0050000000
9
$HANDSEED
5
419
0
ENDSEC
0
SECTION
2
CLASSES
0
ENDSEC
0
SECTION
2
TABLES
0
TABLE
2
VPORT
5
8
100
AcDbSymbolTable
70
2
0
VPORT
5
1F4
100
AcDbSymbolTableRecord
100
AcDbViewportTableRecord
2
*ACTIVE
70
0
10
0.0
20
0.0
11
1.0
21
1.0
12
210.0000000000
22
148.5000000000
13
0.0
23
0.0
14
1.0
24
1.0
15
0.0
25
0.0
16
0.0
26
0.0
36
1.0
17
0.0
27
0.0
37
0.0
40
297.0000000000
41
1.4141414141
42
50.0
43
0.0
44
0.0
50
0.0
51
0.0
71
0
72
100
73
1
74
1
75
0
76
0
77
0
78
0
0
ENDTAB
0
TABLE
2
LTYPE
5
5
100
AcDbSymbolTable
70
6
0
LTYPE
5
14
100
AcDbSymbolTableRecord
100
AcDbLinetypeTableRecord
2
BYBLOCK
70
0
3

72
65
73
0
40
0.0
0
LTYPE
5
15
100
AcDbSymbolTableRecord
100
AcDbLinetypeTableRecord
2
BYLAYER
70
0
3

72
65
73
0
40
0.0
0
LTYPE
5
16
100
AcDbSymbolTableRecord
100
AcDbLinetypeTableRecord
2
CONTINUOUS
70
64
3
Solid line
72
65
73
0
40
0
0
LTYPE
5
1F5
100
AcDbSymbolTableRecord
100
AcDbLinetypeTableRecord
2
CENTER
70
64
3
____ _ ____ _ ____ _ ____ _ ____ _ ____ _ ____
72
65
73
4
40
0.6
49
0.375
74
0
49
-0.075
74
0
49
0.075
74
0
49
-0.075
74
0
0
LTYPE
5
1F6
100
AcDbSymbolTableRecord
100
AcDbLinetypeTableRecord
2
HIDDEN
70
64
3
- - - - - - - - - - - - - - - - - - - -
72
65
73
2
40
0.2
49
0.1
74
0
49
-0.1
74
0
0
LTYPE
5
1F7
100
AcDbSymbolTableRecord
100
AcDbLinetypeTableRecord
2
PHANTOM
70
64
3
_____ _ _ _____ _ _ _____ _ _ _____
72
65
73
6
40
0.8
49
0.45
74
0
49
-0.05
74
0
49
0.1
74
0
49
-0.05
74
0
49
0.1
74
0
49
-0.05
74
0
0
LTYPE
5
1F8
100
AcDbSymbolTableRecord
100
AcDbLinetypeTableRecord
2
DOT
70
64
3
. . . . . . . . . . . . . . . . . . . .
72
65
73
2
40
0.2
49
0.1
74
0
49
-0.1
74
0
0
LTYPE
5
1F9
100
AcDbSymbolTableRecord
100
AcDbLinetypeTableRecord
2
DASHED
70
64
3
- - - - - - - - - - - - - - - - - - - -
72
65
73
2
40
0.2
49
0.1
74
0
49
-0.1
74
0
0
ENDTAB
0
TABLE
2
LAYER
5
2
100
AcDbSymbolTable
70
36
0
LAYER
5
10
100
AcDbSymbolTableRecord
100
AcDbLayerTableRecord
2
0
70
0
62
7
6
CONTINUOUS
0
LAYER
5
1FA
100
AcDbSymbolTableRecord
100
AcDbLayerTableRecord
2
DEFAULT_1
70
0
62
7
6
CENTER
0
LAYER
5
1FB
100
AcDbSymbolTableRecord
100
AcDbLayerTableRecord
2
DEFAULT_2
70
0
62
8
6
HIDDEN
0
LAYER
5
1FC
100
AcDbSymbolTableRecord
100
AcDbLayerTableRecord
2
DEFAULT_3
70
0
62
7
6
PHANTOM
0
ENDTAB
0
TABLE
2
STYLE
5
3
100
AcDbSymbolTable
70
1
0
STYLE
5
11
100
AcDbSymbolTableRecord
100
AcDbTextStyleTableRecord
2
STANDARD
70
0
40
0.0
41
1.0
50
0.0
71
0
42
0.0
3
txt
4

0
STYLE
5
1FD
100
AcDbSymbolTableRecord
100
AcDbTextStyleTableRecord
2
TEXTSTYLE_0
70
0
40
0.0
41
0.80
50
0.0
71
0
42
0.2
3
txt
4

0
ENDTAB
0
TABLE
2
VIEW
5
6
100
AcDbSymbolTable
70
0
0
ENDTAB
0
TABLE
2
UCS
5
7
100
AcDbSymbolTable
70
0
0
ENDTAB
0
TABLE
2
APPID
5
9
100
AcDbSymbolTable
70
1
0
APPID
5
1FE
100
AcDbSymbolTableRecord
100
AcDbRegAppTableRecord
2
ACAD
70
0
0
ENDTAB
0
TABLE
2
DIMSTYLE
5
A
100
AcDbSymbolTable
70
1
0
DIMSTYLE
105
1FF
100
AcDbSymbolTableRecord
100
AcDbDimStyleTableRecord
2
STANDARD
70
0
3

4

5

6

7

40
1.0
41
0.18
42
0.0625
43
0.38
44
0.18
45
0.0
46
0.0
47
0.0050000000
48
0.0050000000
140
3.5000000000
141
0.09
142
0.0
143
25.4
144
1.0000000000
145
0.0
146
0.6000000000
147
0.09
71
1
72
0
73
1
74
1
75
0
76
0
77
0
78
0
170
0
171
2
172
0
173
0
174
0
175
0
176
0
177
0
178
0
270
2
271
3
272
4
273
2
274
2
340
11
275
0
280
0
281
0
282
0
283
1
284
0
285
0
286
0
287
3
288
0
0
ENDTAB
0
TABLE
2
BLOCK_RECORD
5
1
100
AcDbSymbolTable
70
0
0
BLOCK_RECORD
5
1B
100
AcDbSymbolTableRecord
100
AcDbBlockTableRecord
2
*MODEL_SPACE
0
BLOCK_RECORD
5
1C
100
AcDbSymbolTableRecord
100
AcDbBlockTableRecord
2
*PAPER_SPACE
0
ENDTAB
0
ENDSEC
0
SECTION
2
BLOCKS
0
BLOCK
5
1E
100
AcDbEntity
8
0
100
AcDbBlockBegin
2
*MODEL_SPACE
70
0
10
0.0
20
0.0
30
0.0
3
*MODEL_SPACE
1

0
ENDBLK
5
1F
100
AcDbEntity
8
0
100
AcDbBlockEnd
0
BLOCK
5
20
100
AcDbEntity
8
0
100
AcDbBlockBegin
2
*PAPER_SPACE
70
0
10
0.0
20
0.0
30
0.0
3
*PAPER_SPACE
1

0
ENDBLK
5
21
100
AcDbEntity
8
0
100
AcDbBlockEnd
0
ENDSEC
0
SECTION
2
ENTITIES
0
TEXT
5
200
100
AcDbEntity
8
0
100
AcDbText
62
2
6
CONTINUOUS
10
99.9135145910
20
114.7005128195
7
TEXTSTYLE_0
40
3.5000000000
1
RUD
72
5
11
108.5801812577
21
114.7005128195
100
AcDbText
0
TEXT
5
201
100
AcDbEntity
8
0
100
AcDbText
62
2
6
CONTINUOUS
10
92.7467937902
20
106.5990023490
7
TEXTSTYLE_0
40
3.5000000000
1
RS M18
72
5
11
108.7467937902
21
106.5990023490
100
AcDbText
0
TEXT
5
202
100
AcDbEntity
8
0
100
AcDbText
62
2
6
CONTINUOUS
10
292.4801865441
20
204.9077159432
7
TEXTSTYLE_0
40
3.5000000000
1
RUD
50
90.0000000000
72
5
11
292.4801865441
21
213.5743826098
100
AcDbText
0
TEXT
5
203
100
AcDbEntity
8
0
100
AcDbText
62
2
6
CONTINUOUS
10
301.3606884060
20
204.7519177316
7
TEXTSTYLE_0
40
3.5000000000
1
RS M18
50
90.0000000000
72
5
11
301.3606884060
21
220.7519177316
100
AcDbText
0
LINE
5
204
100
AcDbEntity
8
0
100
AcDbLine
62
7
6
CONTINUOUS
10
0.0000000000
20
0.0000000000
11
0.0000000000
21
297.0000000000
0
LINE
5
205
100
AcDbEntity
8
0
100
AcDbLine
62
7
6
CONTINUOUS
10
0.0000000000
20
0.0000000000
11
420.0000000000
21
0.0000000000
0
LINE
5
206
100
AcDbEntity
8
0
100
AcDbLine
62
7
6
CONTINUOUS
10
0.0000000000
20
297.0000000000
11
420.0000000000
21
297.0000000000
0
LINE
5
207
100
AcDbEntity
8
0
100
AcDbLine
62
7
6
CONTINUOUS
10
420.0000000000
20
0.0000000000
11
420.0000000000
21
297.0000000000
0
LINE
5
208
100
AcDbEntity
8
0
100
AcDbLine
62
7
6
CONTINUOUS
10
118.5188168800
20
161.7248735000
11
103.5188168800
21
161.7248735000
0
LINE
5
209
100
AcDbEntity
8
0
100
AcDbLine
62
7
6
CONTINUOUS
10
85.7617103439
20
254.1467644367
11
109.4880831506
21
263.9745498391
0
LINE
5
20A
100
AcDbEntity
8
0
100
AcDbLine
62
7
6
CONTINUOUS
10
120.0188168800
20
163.2248735000
11
102.0188168800
21
163.2248735000
0
LINE
5
20B
100
AcDbEntity
8
0
100
AcDbLine
62
7
6
CONTINUOUS
10
95.3619782774
20
255.6656417182
11
95.0003864956
21
255.3586042312
0
LINE
5
20C
100
AcDbEntity
8
0
100
AcDbLine
62
7
6
CONTINUOUS
10
95.5929184952
20
255.7989751151
11
95.3619782774
21
255.6656417182
0
LINE
5
20D
100
AcDbEntity
8
0
100
AcDbLine
62
7
6
CONTINUOUS
10
92.8216372031
20
254.1989751151
11
92.4752270415
21
253.9989751151
0
LINE
5
20E
100
AcDbEntity
8
0
100
AcDbLine
62
7
6
CONTINUOUS
10
95.5170094028
20
255.2637871076
11
95.7479492902
21
255.3971203137
0
LINE
5
20F
100
AcDbEntity
8
0
100
AcDbLine
62
7
6
CONTINUOUS
10
97.9692517692
20
256.4830451489
11
97.6805767447
21
256.3163785458
0
LINE
5
210
100
AcDbEntity
8
0
100
AcDbLine
62
7
6
CONTINUOUS
10
94.9063029523
20
254.3215613268
11
95.1949781420
21
254.4882280253
0
LINE
5
211
100
AcDbEntity
8
0
100
AcDbLine
62
7
6
CONTINUOUS
10
98.9447628961
20
256.2600774890
11
98.3096773797
21
255.8934106952
0
LINE
5
212
100
AcDbEntity
8
0
100
AcDbLine
62
7
6
CONTINUOUS
10
98.0210023552
20
255.7267440921
11
97.5591219196
21
255.4600772983
0
LINE
5
213
100
AcDbEntity
8
0
100
AcDbLine
62
7
6
CONTINUOUS
10
97.7293346653
20
255.1652601747
11
98.1912151009
21
255.4319269685
0
LINE
5
214
100
AcDbEntity
8
0
100
AcDbLine
62
7
6
CONTINUOUS
10
98.4798901254
20
255.5985935716
11
99.1149756417
21
255.9652603654
0
LINE
5
215
100
AcDbEntity
8
0
100
AcDbLine
62
7
6
CONTINUOUS
10
84.2514380763
20
246.1164542250
11
83.9044353777
21
245.9197345371
0
LINE
5
216
100
AcDbEntity
8
0
100
AcDbLine
62
7
6
CONTINUOUS
10
108.3554834783
20
258.3465755786
11
108.1404834783
21
258.2550862278
0
LINE
5
217
100
AcDbEntity
8
0
100
AcDbLine
62
7
6
CONTINUOUS
10
95.9818818431
20
255.9252708342
11
95.5929184952
21
255.7989751151
0
LINE
5
218
100
AcDbEntity
8
0
100
AcDbLine
62
7
6
CONTINUOUS
10
99.8020313549
20
253.7085777874
11
100.1909947065
21
253.8348735000
0
LINE
5
219
100
AcDbEntity
8
0
100
AcDbLine
62
7
6
CONTINUOUS
10
73.7691405409
20
228.2556072295
11
83.5969259433
21
251.9819800361
0
LINE
5
21A
100
AcDbEntity
8
0
100
AcDbLine
62
7
6
CONTINUOUS
10
83.7062802547
20
245.6598328019
11
83.6072948467
21
245.4266377943
0
LINE
5
21B
100
AcDbEntity
8
0
100
AcDbLine
62
7
6
CONTINUOUS
10
83.0133835314
20
244.0274704170
11
82.8649057026
21
243.6776785727
0
LINE
5
21C
100
AcDbEntity
8
0
100
AcDbLine
62
7
6
CONTINUOUS
10
82.5184573409
20
242.8614973803
11
82.2957405977
21
242.3368096138
0
LINE
5
21D
100
AcDbEntity
8
0
100
AcDbLine
62
7
6
CONTINUOUS
10
81.5533514535
20
240.5878503922
11
81.3306347103
21
240.0631626258
0
LINE
5
21E
100
AcDbEntity
8
0
100
AcDbLine
62
7
6
CONTINUOUS
10
79.5489009060
20
235.8656608276
11
79.4251692876
21
235.5741674016
0
LINE
5
21F
100
AcDbEntity
8
0
100
AcDbLine
62
7
6
CONTINUOUS
10
78.4848097522
20
233.3588191655
11
77.8908984369
21
231.9596517883
0
LINE
5
220
100
AcDbEntity
8
0
100
AcDbLine
62
7
6
CONTINUOUS
10
83.9044353777
20
245.9197345371
11
83.7062802547
21
245.6598328019
0
LINE
5
221
100
AcDbEntity
8
0
100
AcDbLine
62
7
6
CONTINUOUS
10
79.7470561706
20
236.1255628964
11
79.5489009060
21
235.8656608276
0
LINE
5
222
100
AcDbEntity
8
0
100
AcDbLine
62
7
6
CONTINUOUS
10
78.6829650876
20
233.6187214011
11
78.4848097522
21
233.3588191655
0
LINE
5
223
100
AcDbEntity
8
0
100
AcDbLine
62
7
6
CONTINUOUS
10
86.8823116667
20
243.6236586881
11
87.0804667962
21
243.8835604205
0
LINE
5
224
100
AcDbEntity
8
0
100
AcDbLine
62
7
6
CONTINUOUS
10
84.0783991937
20
245.5018776837
11
84.2518078231
21
245.7034803334
0
LINE
5
225
100
AcDbEntity
8
0
100
AcDbLine
62
7
6
CONTINUOUS
10
85.1701945988
20
244.7632262092
11
84.9967854030
21
244.5616222252
0
LINE
5
226
100
AcDbEntity
8
0
100
AcDbLine
62
7
6
CONTINUOUS
10
85.5668751580
20
244.8700571223
11
85.7402837874
21
245.0716597720
0
LINE
5
227
100
AcDbEntity
8
0
100
AcDbLine
62
7
6
CONTINUOUS
10
86.7330942988
20
244.0998146464
11
86.5596851029
21
243.8982106623
0
LINE
5
228
100
AcDbEntity
8
0
100
AcDbLine
62
7
6
CONTINUOUS
10
95.2708872344
20
255.0234160328
11
95.5170094028
21
255.2637871076
0
LINE
5
229
100
AcDbEntity
8
0
100
AcDbLine
62
7
6
CONTINUOUS
10
80.0201898431
20
235.7344131041
11
80.1688525453
21
235.8777180026
0
LINE
5
22A
100
AcDbEntity
8
0
100
AcDbLine
62
7
6
CONTINUOUS
10
85.7399140406
20
245.4846336636
11
85.6159978320
21
245.3996278506
0
LINE
5
22B
100
AcDbEntity
8
0
100
AcDbLine
62
7
6
CONTINUOUS
10
85.7402837874
20
245.0716597720
11
85.9881167710
21
245.2416727324
0
LINE
5
22C
100
AcDbEntity
8
0
100
AcDbLine
62
7
6
CONTINUOUS
10
84.9971551497
20
244.1486483336
11
85.1210719247
21
244.2336554810
0
LINE
5
22D
100
AcDbEntity
8
0
100
AcDbLine
62
7
6
CONTINUOUS
10
86.5596851029
20
243.8982106623
11
86.3118526857
21
243.7281990363
0
LINE
5
22E
100
AcDbEntity
8
0
100
AcDbLine
62
7
6
CONTINUOUS
10
108.4271502817
20
257.8891288246
11
108.7138168800
21
258.0721075262
0
LINE
5
22F
100
AcDbEntity
8
0
100
AcDbLine
62
7
6
CONTINUOUS
10
98.2461779371
20
253.2033949561
11
96.6295972384
21
252.2700616546
0
LINE
5
230
100
AcDbEntity
8
0
100
AcDbLine
62
7
6
CONTINUOUS
10
95.7058366976
20
251.7367282577
11
95.4171616731
21
251.5700616546
0
LINE
5
231
100
AcDbEntity
8
0
100
AcDbLine
62
7
6
CONTINUOUS
10
94.4752270415
20
250.5348735000
11
94.8216372031
21
250.7348735000
0
LINE
5
232
100
AcDbEntity
8
0
100
AcDbLine
62
7
6
CONTINUOUS
10
96.3804829299
20
251.6348735000
11
98.4589438989
21
252.8348735000
0
LINE
5
233
100
AcDbEntity
8
0
100
AcDbLine
62
7
6
CONTINUOUS
10
95.5388365392
20
250.5593144138
11
95.8275116462
21
250.7259810645
0
LINE
5
234
100
AcDbEntity
8
0
100
AcDbLine
62
7
6
CONTINUOUS
10
86.5353089486
20
243.4269390085
11
86.8823116667
21
243.6236586881
0
LINE
5
235
100
AcDbEntity
8
0
100
AcDbLine
62
7
6
CONTINUOUS
10
84.2518078231
20
245.7034803334
11
84.5740645945
21
245.8419022701
0
LINE
5
236
100
AcDbEntity
8
0
100
AcDbLine
62
7
6
CONTINUOUS
10
86.0621708120
20
245.6230556003
11
85.7399140406
21
245.4846336636
0
LINE
5
237
100
AcDbEntity
8
0
100
AcDbLine
62
7
6
CONTINUOUS
10
84.9967854030
20
244.5616222252
11
84.6745291980
21
244.4232016229
0
LINE
5
238
100
AcDbEntity
8
0
100
AcDbLine
62
7
6
CONTINUOUS
10
111.3654836834
20
256.4252990196
11
111.0788168800
21
256.3338096689
0
LINE
5
239
100
AcDbEntity
8
0
100
AcDbLine
62
7
6
CONTINUOUS
10
114.8054832733
20
256.4252990196
11
114.5188168800
21
256.3338096689
0
LINE
5
23A
100
AcDbEntity
8
0
100
AcDbLine
62
7
6
CONTINUOUS
10
102.0188168800
20
163.2248735000
11
103.5188168800
21
161.7248735000
0
LINE
5
23B
100
AcDbEntity
8
0
100
AcDbLine
62
7
6
CONTINUOUS
10
79.4251692876
20
235.5741674016
11
79.4006079505
21
235.3093820375
0
LINE
5
23C
100
AcDbEntity
8
0
100
AcDbLine
62
7
6
CONTINUOUS
10
78.4114952047
20
232.1514885144
11
78.8816749724
21
233.2591626324
0
LINE
5
23D
100
AcDbEntity
8
0
100
AcDbLine
62
7
6
CONTINUOUS
10
83.9794137857
20
245.2686826760
11
84.0783991937
21
245.5018776837
0
LINE
5
23E
100
AcDbEntity
8
0
100
AcDbLine
62
7
6
CONTINUOUS
10
79.8717120143
20
235.3846212598
11
80.0201898431
21
235.7344131041
0
LINE
5
23F
100
AcDbEntity
8
0
100
AcDbLine
62
7
6
CONTINUOUS
10
80.5407866109
20
235.9262498302
11
80.6892644397
21
236.2760416745
0
LINE
5
240
100
AcDbEntity
8
0
100
AcDbLine
62
7
6
CONTINUOUS
10
81.0621230807
20
235.2921386846
11
80.9136452519
21
234.9423468402
0
LINE
5
241
100
AcDbEntity
8
0
100
AcDbLine
62
7
6
CONTINUOUS
10
79.9980319977
20
232.7852971893
11
79.5278522300
21
231.6776230712
0
LINE
5
242
100
AcDbEntity
8
0
100
AcDbLine
62
7
6
CONTINUOUS
10
85.2691800068
20
244.9964212169
11
85.1701945988
21
244.7632262092
0
LINE
5
243
100
AcDbEntity
8
0
100
AcDbLine
62
7
6
CONTINUOUS
10
85.4678897500
20
244.6368621147
11
85.5668751580
21
244.8700571223
0
LINE
5
244
100
AcDbEntity
8
0
100
AcDbLine
62
7
6
CONTINUOUS
10
79.9743949568
20
231.4880769293
11
80.3950821266
21
232.4791537938
0
LINE
5
245
100
AcDbEntity
8
0
100
AcDbLine
62
7
6
CONTINUOUS
10
81.3601879786
20
234.7528006984
11
81.5086658074
21
235.1025925427
0
LINE
5
246
100
AcDbEntity
8
0
100
AcDbLine
62
7
6
CONTINUOUS
10
81.7081154315
20
233.9170862802
11
81.5596375319
21
233.5672942691
0
LINE
5
247
100
AcDbEntity
8
0
100
AcDbLine
62
7
6
CONTINUOUS
10
82.6250227807
20
234.6287271217
11
82.4270523894
21
234.1623381071
0
LINE
5
248
100
AcDbEntity
8
0
100
AcDbLine
62
7
6
CONTINUOUS
10
86.8320797068
20
244.3330096540
11
86.7330942988
21
244.0998146464
0
LINE
5
249
100
AcDbEntity
8
0
100
AcDbLine
62
7
6
CONTINUOUS
10
81.3888168800
20
230.4748735000
11
81.5372947089
21
230.8246653443
0
LINE
5
24A
100
AcDbEntity
8
0
100
AcDbLine
62
7
6
CONTINUOUS
10
82.1559523054
20
232.2821313067
11
82.3291764862
21
232.6902219029
0
LINE
5
24B
100
AcDbEntity
8
0
100
AcDbLine
62
7
6
CONTINUOUS
10
82.8735951683
20
233.9727919431
11
83.0715655595
21
234.4391809577
0
LINE
5
24C
100
AcDbEntity
8
0
100
AcDbLine
62
7
6
CONTINUOUS
10
84.8285531534
20
238.5783843375
11
84.9770309823
21
238.9281761818
0
LINE
5
24D
100
AcDbEntity
8
0
100
AcDbLine
62
7
6
CONTINUOUS
10
85.3234793439
20
239.7443573743
11
85.5214498767
21
240.2107467224
0
LINE
5
24E
100
AcDbEntity
8
0
100
AcDbLine
62
7
6
CONTINUOUS
10
85.8678979552
20
241.0269272477
11
86.0163757840
21
241.3767190920
0
LINE
5
24F
100
AcDbEntity
8
0
100
AcDbLine
62
7
6
CONTINUOUS
10
86.3628241457
20
242.1929002845
11
86.5113019745
21
242.5426921288
0
LINE
5
250
100
AcDbEntity
8
0
100
AcDbLine
62
7
6
CONTINUOUS
10
87.0804667962
20
243.8835604205
11
87.2289446250
21
244.2333522648
0
LINE
5
251
100
AcDbEntity
8
0
100
AcDbLine
62
7
6
CONTINUOUS
10
95.0003864956
20
255.3586042312
11
94.8545526506
21
255.0778622724
0
LINE
5
252
100
AcDbEntity
8
0
100
AcDbLine
62
7
6
CONTINUOUS
10
81.2602784869
20
235.5520410869
11
81.0621230807
21
235.2921386846
0
LINE
5
253
100
AcDbEntity
8
0
100
AcDbLine
62
7
6
CONTINUOUS
10
82.6754398972
20
233.7128898771
11
82.8735951683
21
233.9727919431
0
LINE
5
254
100
AcDbEntity
8
0
100
AcDbLine
62
7
6
CONTINUOUS
10
81.5086658074
20
235.1025925427
11
81.6820748616
21
235.3041961931
0
LINE
5
255
100
AcDbEntity
8
0
100
AcDbLine
62
7
6
CONTINUOUS
10
81.1867790660
20
234.5511973815
11
81.3601879786
21
234.7528006984
0
LINE
5
256
100
AcDbEntity
8
0
100
AcDbLine
62
7
6
CONTINUOUS
10
82.4270523894
20
234.1623381071
11
82.2536433352
21
233.9607344567
0
LINE
5
257
100
AcDbEntity
8
0
100
AcDbLine
62
7
6
CONTINUOUS
10
78.8816749724
20
233.2591626324
11
79.0303376746
21
233.4024675309
0
LINE
5
258
100
AcDbEntity
8
0
100
AcDbLine
62
7
6
CONTINUOUS
10
80.9136452519
20
234.9423468402
11
80.7649825497
21
234.7990419417
0
LINE
5
259
100
AcDbEntity
8
0
100
AcDbLine
62
7
6
CONTINUOUS
10
81.5081111873
20
235.7220533801
11
81.2602784869
21
235.5520410869
0
LINE
5
25A
100
AcDbEntity
8
0
100
AcDbLine
62
7
6
CONTINUOUS
10
80.9389462240
20
234.3811847548
11
81.1867790660
21
234.5511973815
0
LINE
5
25B
100
AcDbEntity
8
0
100
AcDbLine
62
7
6
CONTINUOUS
10
111.4371500767
20
255.8763628588
11
111.7238168800
21
256.0593415844
0
LINE
5
25C
100
AcDbEntity
8
0
100
AcDbLine
62
7
6
CONTINUOUS
10
114.8771504867
20
255.8763628588
11
115.1638168800
21
256.0593415844
0
LINE
5
25D
100
AcDbEntity
8
0
100
AcDbLine
62
7
6
CONTINUOUS
10
80.0693128004
20
236.2639844995
11
79.7470561706
21
236.1255628964
0
LINE
5
25E
100
AcDbEntity
8
0
100
AcDbLine
62
7
6
CONTINUOUS
10
79.8718968877
20
235.1781343140
11
79.8717120143
21
235.3846212598
0
LINE
5
25F
100
AcDbEntity
8
0
100
AcDbLine
62
7
6
CONTINUOUS
10
79.9978471243
20
232.9917841351
11
79.9980319977
21
232.7852971893
0
LINE
5
260
100
AcDbEntity
8
0
100
AcDbLine
62
7
6
CONTINUOUS
10
82.6495842593
20
234.8935128194
11
82.6250227807
21
234.6287271217
0
LINE
5
261
100
AcDbEntity
8
0
100
AcDbLine
62
7
6
CONTINUOUS
10
83.9548521654
20
245.0038966447
11
83.9794137857
21
245.2686826760
0
LINE
5
262
100
AcDbEntity
8
0
100
AcDbLine
62
7
6
CONTINUOUS
10
83.6072948467
20
245.4266377943
11
83.5579872993
21
245.1035540118
0
LINE
5
263
100
AcDbEntity
8
0
100
AcDbLine
62
7
6
CONTINUOUS
10
83.0715655595
20
234.4391809577
11
83.1208733836
21
234.7622654101
0
LINE
5
264
100
AcDbEntity
8
0
100
AcDbLine
62
7
6
CONTINUOUS
10
108.4988168800
20
258.5295542802
11
108.3554834783
21
258.3465755786
0
LINE
5
265
100
AcDbEntity
8
0
100
AcDbLine
62
7
6
CONTINUOUS
10
111.5804836834
20
256.6082777853
11
111.3654836834
21
256.4252990196
0
LINE
5
266
100
AcDbEntity
8
0
100
AcDbLine
62
7
6
CONTINUOUS
10
115.0204832733
20
256.6082777853
11
114.8054832733
21
256.4252990196
0
LINE
5
267
100
AcDbEntity
8
0
100
AcDbLine
62
7
6
CONTINUOUS
10
82.3284368958
20
233.5161695304
11
82.6754398972
21
233.7128898771
0
LINE
5
268
100
AcDbEntity
8
0
100
AcDbLine
62
7
6
CONTINUOUS
10
81.6820748616
20
235.3041961931
11
81.9051613516
21
235.4159100680
0
LINE
5
269
100
AcDbEntity
8
0
100
AcDbLine
62
7
6
CONTINUOUS
10
80.7649825497
20
234.7990419417
11
80.5418960597
21
234.6873280669
0
LINE
5
26A
100
AcDbEntity
8
0
100
AcDbLine
62
7
6
CONTINUOUS
10
79.0052216466
20
233.7571428374
11
78.6829650876
21
233.6187214011
0
LINE
5
26B
100
AcDbEntity
8
0
100
AcDbLine
62
7
6
CONTINUOUS
10
120.0188168800
20
183.7248735000
11
102.0188168800
21
183.7248735000
0
LINE
5
26C
100
AcDbEntity
8
0
100
AcDbLine
62
7
6
CONTINUOUS
10
83.8474252726
20
200.8630080859
11
73.7691405409
21
225.1941397705
0
LINE
5
26D
100
AcDbEntity
8
0
100
AcDbLine
62
7
6
CONTINUOUS
10
85.2937410606
20
245.2612059139
11
85.2691800068
21
244.9964212169
0
LINE
5
26E
100
AcDbEntity
8
0
100
AcDbLine
62
7
6
CONTINUOUS
10
85.4433281297
20
244.3720760834
11
85.4678897500
21
244.6368621147
0
LINE
5
26F
100
AcDbEntity
8
0
100
AcDbLine
62
7
6
CONTINUOUS
10
86.8566407606
20
244.5977943510
11
86.8320797068
21
244.3330096540
0
LINE
5
270
100
AcDbEntity
8
0
100
AcDbLine
62
7
6
CONTINUOUS
10
87.2289446250
20
244.2333522648
11
87.2782527324
21
244.5564373844
0
LINE
5
271
100
AcDbEntity
8
0
100
AcDbLine
62
7
6
CONTINUOUS
10
95.1827886916
20
254.7760075664
11
95.2708872344
21
255.0234160328
0
LINE
5
272
100
AcDbEntity
8
0
100
AcDbLine
62
7
6
CONTINUOUS
10
111.7238168800
20
256.0593415844
11
112.0104836834
21
256.4252990196
0
LINE
5
273
100
AcDbEntity
8
0
100
AcDbLine
62
7
6
CONTINUOUS
10
118.2188168800
20
185.5248735000
11
103.8188168800
21
185.5248735000
0
LINE
5
274
100
AcDbEntity
8
0
100
AcDbLine
62
7
6
CONTINUOUS
10
79.4006079505
20
235.3093820375
11
79.4504702597
21
235.0130053161
0
LINE
5
275
100
AcDbEntity
8
0
100
AcDbLine
62
7
6
CONTINUOUS
10
80.3947124153
20
232.8921277687
11
80.3448500353
21
233.1885043233
0
LINE
5
276
100
AcDbEntity
8
0
100
AcDbLine
62
7
6
CONTINUOUS
10
92.4752270415
20
253.9989751151
11
92.4266891849
21
253.2830451489
0
LINE
5
277
100
AcDbEntity
8
0
100
AcDbLine
62
7
6
CONTINUOUS
10
92.7671147955
20
252.6934106952
11
92.8156525329
21
253.4093408680
0
LINE
5
278
100
AcDbEntity
8
0
100
AcDbLine
62
7
6
CONTINUOUS
10
94.8545526506
20
255.0778622724
11
94.7938253437
21
254.6497118473
0
LINE
5
279
100
AcDbEntity
8
0
100
AcDbLine
62
7
6
CONTINUOUS
10
96.7204680820
20
254.7793355303
11
96.1677169680
21
252.0033949561
0
LINE
5
27A
100
AcDbEntity
8
0
100
AcDbLine
62
7
6
CONTINUOUS
10
96.6295972384
20
252.2700616546
11
97.1368026657
21
254.7248892907
0
LINE
5
27B
100
AcDbEntity
8
0
100
AcDbLine
62
7
6
CONTINUOUS
10
108.7138168800
20
258.0721075262
11
108.9288168800
21
258.4380649294
0
LINE
5
27C
100
AcDbEntity
8
0
100
AcDbLine
62
7
6
CONTINUOUS
10
115.1638168800
20
256.0593415844
11
115.4504832733
21
256.4252990196
0
LINE
5
27D
100
AcDbEntity
8
0
100
AcDbLine
62
7
6
CONTINUOUS
10
91.0188168800
20
191.7248735000
11
131.0188168800
21
191.7248735000
0
LINE
5
27E
100
AcDbEntity
8
0
100
AcDbLine
62
7
6
CONTINUOUS
10
79.9465055489
20
234.9400563445
11
79.8718968877
21
235.1781343140
0
LINE
5
27F
100
AcDbEntity
8
0
100
AcDbLine
62
7
6
CONTINUOUS
10
83.1208733836
20
234.7622654101
11
83.0710109133
21
235.0586418061
0
LINE
5
280
100
AcDbEntity
8
0
100
AcDbLine
62
7
6
CONTINUOUS
10
91.0188168800
20
191.7248735000
11
91.0188168800
21
194.9370332344
0
LINE
5
281
100
AcDbEntity
8
0
100
AcDbLine
62
7
6
CONTINUOUS
10
111.7238168800
20
256.8827458377
11
111.5804836834
21
256.6082777853
0
LINE
5
282
100
AcDbEntity
8
0
100
AcDbLine
62
7
6
CONTINUOUS
10
115.1638168800
20
256.8827458377
11
115.0204832733
21
256.6082777853
0
LINE
5
283
100
AcDbEntity
8
0
100
AcDbLine
62
7
6
CONTINUOUS
10
79.8984921820
20
233.1715635194
11
79.9978471243
21
232.9917841351
0
LINE
5
284
100
AcDbEntity
8
0
100
AcDbLine
62
7
6
CONTINUOUS
10
79.4504702597
20
235.0130053161
11
79.6491801445
21
234.6534465475
0
LINE
5
285
100
AcDbEntity
8
0
100
AcDbLine
62
7
6
CONTINUOUS
10
82.5749755460
20
235.1315908109
11
82.6495842593
21
234.8935128194
0
LINE
5
286
100
AcDbEntity
8
0
100
AcDbLine
62
7
6
CONTINUOUS
10
83.5579872993
20
245.1035540118
11
83.6575267610
21
244.7172868477
0
LINE
5
287
100
AcDbEntity
8
0
100
AcDbLine
62
7
6
CONTINUOUS
10
85.1210719247
20
244.2336554810
11
85.1460027253
21
244.0854662863
0
LINE
5
288
100
AcDbEntity
8
0
100
AcDbLine
62
7
6
CONTINUOUS
10
85.4931908637
20
244.0757003628
11
85.4433281297
21
244.3720760834
0
LINE
5
289
100
AcDbEntity
8
0
100
AcDbLine
62
7
6
CONTINUOUS
10
85.6159978320
20
245.3996278506
11
85.5910664650
21
245.5478157109
0
LINE
5
28A
100
AcDbEntity
8
0
100
AcDbLine
62
7
6
CONTINUOUS
10
86.8067785930
20
244.8941714059
11
86.8566407606
21
244.5977943510
0
LINE
5
28B
100
AcDbEntity
8
0
100
AcDbLine
62
7
6
CONTINUOUS
10
95.1949781420
20
254.4882280253
11
95.1827886916
21
254.7760075664
0
LINE
5
28C
100
AcDbEntity
8
0
100
AcDbLine
62
7
6
CONTINUOUS
10
108.5704834783
20
258.8040223326
11
108.4988168800
21
258.5295542802
0
LINE
5
28D
100
AcDbEntity
8
0
100
AcDbLine
62
7
6
CONTINUOUS
10
108.9288168800
20
258.4380649294
11
109.0004834783
21
258.7125329818
0
LINE
5
28E
100
AcDbEntity
8
0
100
AcDbLine
62
7
6
CONTINUOUS
10
112.0104836834
20
256.4252990196
11
112.1538168800
21
256.7912564869
0
LINE
5
28F
100
AcDbEntity
8
0
100
AcDbLine
62
7
6
CONTINUOUS
10
136.8043891887
20
199.9370332344
11
134.5711273182
21
199.9370332344
0
LINE
5
290
100
AcDbEntity
8
0
100
AcDbLine
62
7
6
CONTINUOUS
10
87.4665064418
20
199.9370332344
11
85.2332445713
21
199.9370332344
0
LINE
5
291
100
AcDbEntity
8
0
100
AcDbLine
62
7
6
CONTINUOUS
10
118.2188168800
20
185.5248735000
11
120.0188168800
21
183.7248735000
0
LINE
5
292
100
AcDbEntity
8
0
100
AcDbLine
62
7
6
CONTINUOUS
10
80.3448500353
20
233.1885043233
11
80.1213937986
21
233.4897643400
0
LINE
5
293
100
AcDbEntity
8
0
100
AcDbLine
62
7
6
CONTINUOUS
10
83.0710109133
20
235.0586418061
11
82.8723010025
21
235.4182005858
0
LINE
5
294
100
AcDbEntity
8
0
100
AcDbLine
62
7
6
CONTINUOUS
10
84.0791386872
20
244.6759299005
11
83.9548521654
21
245.0038966447
0
LINE
5
295
100
AcDbEntity
8
0
100
AcDbLine
62
7
6
CONTINUOUS
10
85.1460027253
20
244.0854662863
11
85.2702892471
21
243.7574995421
0
LINE
5
296
100
AcDbEntity
8
0
100
AcDbLine
62
7
6
CONTINUOUS
10
85.1694551053
20
245.5891739924
11
85.2937410606
21
245.2612059139
0
LINE
5
297
100
AcDbEntity
8
0
100
AcDbLine
62
7
6
CONTINUOUS
10
87.2782527324
20
244.5564373844
11
87.1787126847
21
244.9427032224
0
LINE
5
298
100
AcDbEntity
8
0
100
AcDbLine
62
7
6
CONTINUOUS
10
97.1368026657
20
254.7248892907
11
97.1246130502
21
255.0126687365
0
LINE
5
299
100
AcDbEntity
8
0
100
AcDbLine
62
7
6
CONTINUOUS
10
102.0188168800
20
183.7248735000
11
102.0188168800
21
163.2248735000
0
LINE
5
29A
100
AcDbEntity
8
0
100
AcDbLine
62
7
6
CONTINUOUS
10
115.4504832733
20
256.4252990196
11
115.5938168800
21
256.7912564869
0
LINE
5
29B
100
AcDbEntity
8
0
100
AcDbLine
62
7
6
CONTINUOUS
10
82.4011967450
20
235.3429610521
11
82.5749755460
21
235.1315908109
0
LINE
5
29C
100
AcDbEntity
8
0
100
AcDbLine
62
7
6
CONTINUOUS
10
83.6575267610
20
244.7172868477
11
83.8065592100
21
244.4476178546
0
LINE
5
29D
100
AcDbEntity
8
0
100
AcDbLine
62
7
6
CONTINUOUS
10
95.4171616731
20
251.5700616546
11
95.5388365392
21
250.5593144138
0
LINE
5
29E
100
AcDbEntity
8
0
100
AcDbLine
62
7
6
CONTINUOUS
10
95.8275116462
20
250.7259810645
11
95.7058366976
21
251.7367282577
0
LINE
5
29F
100
AcDbEntity
8
0
100
AcDbLine
62
7
6
CONTINUOUS
10
103.8188168800
20
191.7248735000
11
103.8188168800
21
185.5248735000
0
LINE
5
2A0
100
AcDbEntity
8
0
100
AcDbLine
62
7
6
CONTINUOUS
10
106.3488168800
20
260.0848735000
11
106.3488168800
21
255.7848735000
0
LINE
5
2A1
100
AcDbEntity
8
0
100
AcDbLine
62
7
6
CONTINUOUS
10
106.7788168800
20
255.7848735000
11
106.7788168800
21
257.7061501230
0
LINE
5
2A2
100
AcDbEntity
8
0
100
AcDbLine
62
7
6
CONTINUOUS
10
106.7788168800
20
258.2550862278
11
106.7788168800
21
259.6274267460
0
LINE
5
2A3
100
AcDbEntity
8
0
100
AcDbLine
62
7
6
CONTINUOUS
10
112.1538168800
20
256.7912564869
11
112.2254836834
21
257.2487032409
0
LINE
5
2A4
100
AcDbEntity
8
0
100
AcDbLine
62
7
6
CONTINUOUS
10
111.7954836834
20
257.2487032409
11
111.7238168800
21
256.8827458377
0
LINE
5
2A5
100
AcDbEntity
8
0
100
AcDbLine
62
7
6
CONTINUOUS
10
115.2354832733
20
257.2487032409
11
115.1638168800
21
256.8827458377
0
LINE
5
2A6
100
AcDbEntity
8
0
100
AcDbLine
62
7
6
CONTINUOUS
10
82.8723010025
20
235.4182005858
11
82.6240983616
21
235.6611618728
0
LINE
5
2A7
100
AcDbEntity
8
0
100
AcDbLine
62
7
6
CONTINUOUS
10
82.8649057026
20
243.6776785727
11
83.2373943883
21
243.1067495629
0
LINE
5
2A8
100
AcDbEntity
8
0
100
AcDbLine
62
7
6
CONTINUOUS
10
83.8327848991
20
242.8540212852
11
83.4602960049
21
243.4249503836
0
LINE
5
2A9
100
AcDbEntity
8
0
100
AcDbLine
62
7
6
CONTINUOUS
10
85.5910664650
20
245.5478157109
11
85.4420340161
21
245.8174847040
0
LINE
5
2AA
100
AcDbEntity
8
0
100
AcDbLine
62
7
6
CONTINUOUS
10
87.1787126847
20
244.9427032224
11
87.0296802096
21
245.2123722266
0
LINE
5
2AB
100
AcDbEntity
8
0
100
AcDbLine
62
7
6
CONTINUOUS
10
96.6657252801
20
255.1408192570
11
96.7204680820
21
254.7793355303
0
LINE
5
2AC
100
AcDbEntity
8
0
100
AcDbLine
62
7
6
CONTINUOUS
10
108.5704834783
20
259.0784906412
11
108.5704834783
21
258.8040223326
0
LINE
5
2AD
100
AcDbEntity
8
0
100
AcDbLine
62
7
6
CONTINUOUS
10
109.0004834783
20
258.7125329818
11
109.0004834783
21
259.0784906412
0
LINE
5
2AE
100
AcDbEntity
8
0
100
AcDbLine
62
7
6
CONTINUOUS
10
109.6454834783
20
260.0848735000
11
109.6454834783
21
257.2487032409
0
LINE
5
2AF
100
AcDbEntity
8
0
100
AcDbLine
62
7
6
CONTINUOUS
10
110.0754836834
20
257.2487032409
11
110.0754836834
21
260.0848735000
0
LINE
5
2B0
100
AcDbEntity
8
DEFAULT_1
100
AcDbLine
62
2
6
CENTER
10
111.0188168800
20
226.7248735000
11
111.0188168800
21
159.6212400681
0
LINE
5
2B1
100
AcDbEntity
8
DEFAULT_1
100
AcDbLine
62
2
6
CENTER
10
111.0188168800
20
226.7248735000
11
111.0188168800
21
249.7248735000
0
LINE
5
2B2
100
AcDbEntity
8
0
100
AcDbLine
62
7
6
CONTINUOUS
10
115.5938168800
20
256.7912564869
11
115.6654832733
21
257.2487032409
0
LINE
5
2B3
100
AcDbEntity
8
0
100
AcDbLine
62
7
6
CONTINUOUS
10
79.6491801445
20
234.6534465475
11
79.9221290852
21
234.4687840346
0
LINE
5
2B4
100
AcDbEntity
8
0
100
AcDbLine
62
7
6
CONTINUOUS
10
79.6999670998
20
233.3246351754
11
79.8984921820
21
233.1715635194
0
LINE
5
2B5
100
AcDbEntity
8
0
100
AcDbLine
62
7
6
CONTINUOUS
10
80.1213937986
20
233.4897643400
11
79.9228687164
21
233.6428359961
0
LINE
5
2B6
100
AcDbEntity
8
0
100
AcDbLine
62
7
6
CONTINUOUS
10
80.1450309103
20
234.7869847668
11
79.9465055489
21
234.9400563445
0
LINE
5
2B7
100
AcDbEntity
8
0
100
AcDbLine
62
7
6
CONTINUOUS
10
84.2529172718
20
244.4645585701
11
84.0791386872
21
244.6759299005
0
LINE
5
2B8
100
AcDbEntity
8
0
100
AcDbLine
62
7
6
CONTINUOUS
10
85.7166472047
20
243.7744403018
11
85.4931908637
21
244.0757003628
0
LINE
5
2B9
100
AcDbEntity
8
0
100
AcDbLine
62
7
6
CONTINUOUS
10
86.5833223042
20
245.1954314448
11
86.8067785930
21
244.8941714059
0
LINE
5
2BA
100
AcDbEntity
8
0
100
AcDbLine
62
7
6
CONTINUOUS
10
94.7938253437
20
254.6497118473
11
94.9063029523
21
254.3215613268
0
LINE
5
2BB
100
AcDbEntity
8
0
100
AcDbLine
62
7
6
CONTINUOUS
10
97.1246130502
20
255.0126687365
11
97.0121354416
21
255.3408192570
0
LINE
5
2BC
100
AcDbEntity
8
0
100
AcDbLine
62
7
6
CONTINUOUS
10
111.7954836834
20
260.0848735000
11
111.7954836834
21
257.2487032409
0
LINE
5
2BD
100
AcDbEntity
8
0
100
AcDbLine
62
7
6
CONTINUOUS
10
112.2254836834
20
257.2487032409
11
112.2254836834
21
260.0848735000
0
LINE
5
2BE
100
AcDbEntity
8
0
100
AcDbLine
62
7
6
CONTINUOUS
10
112.7988168800
20
260.0848735000
11
112.7988168800
21
255.7848735000
0
LINE
5
2BF
100
AcDbEntity
8
0
100
AcDbLine
62
7
6
CONTINUOUS
10
113.2288168800
20
256.3338096689
11
113.2288168800
21
259.5359373952
0
LINE
5
2C0
100
AcDbEntity
8
0
100
AcDbLine
62
7
6
CONTINUOUS
10
115.2354832733
20
258.6210436310
11
115.2354832733
21
257.2487032409
0
LINE
5
2C1
100
AcDbEntity
8
0
100
AcDbLine
62
7
6
CONTINUOUS
10
115.6654832733
20
257.2487032409
11
115.6654832733
21
258.6210436310
0
LINE
5
2C2
100
AcDbEntity
8
0
100
AcDbLine
62
7
6
CONTINUOUS
10
77.8908984369
20
231.9596517883
11
81.3888168800
21
230.4748735000
0
LINE
5
2C3
100
AcDbEntity
8
0
100
AcDbLine
62
7
6
CONTINUOUS
10
85.5214498767
20
240.2107467224
11
83.1142173900
21
242.1957952995
0
LINE
5
2C4
100
AcDbEntity
8
0
100
AcDbLine
62
7
6
CONTINUOUS
10
84.9956761627
20
245.8005439000
11
85.1694551053
21
245.5891739924
0
LINE
5
2C5
100
AcDbEntity
8
0
100
AcDbLine
62
7
6
CONTINUOUS
10
92.4266891849
20
253.2830451489
11
92.7671147955
21
252.6934106952
0
LINE
5
2C6
100
AcDbEntity
8
0
100
AcDbLine
62
7
6
CONTINUOUS
10
92.8156525329
20
253.4093408680
11
94.4752270415
21
250.5348735000
0
LINE
5
2C7
100
AcDbEntity
8
0
100
AcDbLine
62
7
6
CONTINUOUS
10
118.2188168800
20
191.7248735000
11
118.2188168800
21
185.5248735000
0
LINE
5
2C8
100
AcDbEntity
8
0
100
AcDbLine
62
7
6
CONTINUOUS
10
120.0188168800
20
183.7248735000
11
120.0188168800
21
163.2248735000
0
LINE
5
2C9
100
AcDbEntity
8
0
100
AcDbLine
62
7
6
CONTINUOUS
10
81.5372947089
20
230.8246653443
11
79.9743949568
21
231.4880769293
0
LINE
5
2CA
100
AcDbEntity
8
0
100
AcDbLine
62
7
6
CONTINUOUS
10
79.5278522300
20
231.6776230712
11
78.4114952047
21
232.1514885144
0
LINE
5
2CB
100
AcDbEntity
8
0
100
AcDbLine
62
7
6
CONTINUOUS
10
79.4766955279
20
233.4194083349
11
79.6999670998
21
233.3246351754
0
LINE
5
2CC
100
AcDbEntity
8
0
100
AcDbLine
62
7
6
CONTINUOUS
10
79.9228687164
20
233.6428359961
11
79.6251733568
21
233.7692001792
0
LINE
5
2CD
100
AcDbEntity
8
0
100
AcDbLine
62
7
6
CONTINUOUS
10
79.9221290852
20
234.4687840346
11
80.2198244449
21
234.3424198515
0
LINE
5
2CE
100
AcDbEntity
8
0
100
AcDbLine
62
7
6
CONTINUOUS
10
80.2938784859
20
234.7238027195
11
80.1450309103
21
234.7869847668
0
LINE
5
2CF
100
AcDbEntity
8
0
100
AcDbLine
62
7
6
CONTINUOUS
10
82.2957405977
20
242.3368096138
11
85.0503454777
21
240.1355068551
0
LINE
5
2D0
100
AcDbEntity
8
0
100
AcDbLine
62
7
6
CONTINUOUS
10
83.8065592100
20
244.4476178546
11
84.1291859366
21
244.1730658113
0
LINE
5
2D1
100
AcDbEntity
8
0
100
AcDbLine
62
7
6
CONTINUOUS
10
85.2702892471
20
243.7574995421
11
85.5929153031
21
243.4829462086
0
LINE
5
2D2
100
AcDbEntity
8
0
100
AcDbLine
62
7
6
CONTINUOUS
10
87.0296802096
20
245.2123722266
11
86.7070536394
21
245.4869242036
0
LINE
5
2D3
100
AcDbEntity
8
0
100
AcDbLine
62
7
6
CONTINUOUS
10
85.4420340161
20
245.8174847040
11
85.1938318521
21
246.0604469695
0
LINE
5
2D4
100
AcDbEntity
8
0
100
AcDbLine
62
7
6
CONTINUOUS
10
94.8216372031
20
250.7348735000
11
92.8216372031
21
254.1989751151
0
LINE
5
2D5
100
AcDbEntity
8
0
100
AcDbLine
62
7
6
CONTINUOUS
10
96.1677169680
20
252.0033949561
11
96.3804829299
21
251.6348735000
0
LINE
5
2D6
100
AcDbEntity
8
0
100
AcDbLine
62
7
6
CONTINUOUS
10
96.5806187880
20
255.2882280253
11
96.6657252801
21
255.1408192570
0
LINE
5
2D7
100
AcDbEntity
8
0
100
AcDbLine
62
7
6
CONTINUOUS
10
98.4589438989
20
252.8348735000
11
98.2461779371
21
253.2033949561
0
LINE
5
2D8
100
AcDbEntity
8
0
100
AcDbLine
62
7
6
CONTINUOUS
10
97.0121354416
20
255.3408192570
11
96.9270289495
21
255.4882280253
0
LINE
5
2D9
100
AcDbEntity
8
0
100
AcDbLine
62
7
6
CONTINUOUS
10
110.1471500767
20
256.8827458377
11
110.0754836834
21
257.2487032409
0
LINE
5
2DA
100
AcDbEntity
8
0
100
AcDbLine
62
7
6
CONTINUOUS
10
109.6454834783
20
257.2487032409
11
109.7171502817
21
256.7912564869
0
LINE
5
2DB
100
AcDbEntity
8
0
100
AcDbLine
62
7
6
CONTINUOUS
10
82.1779253817
20
235.4377341230
11
82.4011967450
21
235.3429610521
0
LINE
5
2DC
100
AcDbEntity
8
0
100
AcDbLine
62
7
6
CONTINUOUS
10
82.6240983616
20
235.6611618728
11
82.2519794227
21
235.8191169910
0
LINE
5
2DD
100
AcDbEntity
8
0
100
AcDbLine
62
7
6
CONTINUOUS
10
97.5591219196
20
255.4600772983
11
97.7293346653
21
255.1652601747
0
LINE
5
2DE
100
AcDbEntity
8
0
100
AcDbLine
62
7
6
CONTINUOUS
10
97.6805767447
20
256.3163785458
11
98.0210023552
21
255.7267440921
0
LINE
5
2DF
100
AcDbEntity
8
0
100
AcDbLine
62
7
6
CONTINUOUS
10
98.1912151009
20
255.4319269685
11
99.0422789186
21
253.9578411957
0
LINE
5
2E0
100
AcDbEntity
8
0
100
AcDbLine
62
7
6
CONTINUOUS
10
99.2458475405
20
254.2719164122
11
98.4798901254
21
255.5985935716
0
LINE
5
2E1
100
AcDbEntity
8
0
100
AcDbLine
62
7
6
CONTINUOUS
10
98.3096773797
20
255.8934106952
11
97.9692517692
21
256.4830451489
0
LINE
5
2E2
100
AcDbEntity
8
0
100
AcDbLine
62
7
6
CONTINUOUS
10
100.1909947065
20
253.8348735000
11
100.0207819460
21
254.1296906494
0
LINE
5
2E3
100
AcDbEntity
8
0
100
AcDbLine
62
7
6
CONTINUOUS
10
99.1149756417
20
255.9652603654
11
98.9447628961
21
256.2600774890
0
LINE
5
2E4
100
AcDbEntity
8
0
100
AcDbLine
62
7
6
CONTINUOUS
10
109.0721502817
20
255.7848735000
11
108.4271502817
21
257.8891288246
0
LINE
5
2E5
100
AcDbEntity
8
0
100
AcDbLine
62
7
6
CONTINUOUS
10
107.9971501792
20
257.7061501230
11
108.5704834783
21
255.7848735000
0
LINE
5
2E6
100
AcDbEntity
8
0
100
AcDbLine
62
7
6
CONTINUOUS
10
108.4988168800
20
259.3529586936
11
108.5704834783
21
259.0784906412
0
LINE
5
2E7
100
AcDbEntity
8
0
100
AcDbLine
62
7
6
CONTINUOUS
10
109.0004834783
20
259.0784906412
11
108.9288168800
21
259.3529586936
0
LINE
5
2E8
100
AcDbEntity
8
0
100
AcDbLine
62
7
6
CONTINUOUS
10
115.1638168800
20
258.9870010342
11
115.2354832733
21
258.6210436310
0
LINE
5
2E9
100
AcDbEntity
8
0
100
AcDbLine
62
7
6
CONTINUOUS
10
115.6654832733
20
258.6210436310
11
115.5938168800
21
259.0784906412
0
LINE
5
2EA
100
AcDbEntity
8
0
100
AcDbLine
62
7
6
CONTINUOUS
10
103.8188168800
20
185.5248735000
11
102.0188168800
21
183.7248735000
0
LINE
5
2EB
100
AcDbEntity
8
DEFAULT_1
100
AcDbLine
62
2
6
CENTER
10
111.0188168800
20
226.7248735000
11
88.0188168800
21
226.7248735000
0
LINE
5
2EC
100
AcDbEntity
8
DEFAULT_1
100
AcDbLine
62
2
6
CENTER
10
111.0188168800
20
226.7248735000
11
134.0188168800
21
226.7248735000
0
LINE
5
2ED
100
AcDbEntity
8
0
100
AcDbLine
62
7
6
CONTINUOUS
10
82.3291764862
20
232.6902219029
11
80.3947124153
21
232.8921277687
0
LINE
5
2EE
100
AcDbEntity
8
0
100
AcDbLine
62
7
6
CONTINUOUS
10
80.3950821266
20
232.4791537938
11
82.1559523054
21
232.2821313067
0
LINE
5
2EF
100
AcDbEntity
8
0
100
AcDbLine
62
7
6
CONTINUOUS
10
79.2286778834
20
233.4558828207
11
79.4766955279
21
233.4194083349
0
LINE
5
2F0
100
AcDbEntity
8
0
100
AcDbLine
62
7
6
CONTINUOUS
10
79.6251733568
20
233.7692001792
11
79.3771557122
21
233.8056746650
0
LINE
5
2F1
100
AcDbEntity
8
0
100
AcDbLine
62
7
6
CONTINUOUS
10
81.9561330053
20
233.8806116276
11
81.7081154315
21
233.9170862802
0
LINE
5
2F2
100
AcDbEntity
8
0
100
AcDbLine
62
7
6
CONTINUOUS
10
80.5418960597
20
234.6873280669
11
80.2938784859
21
234.7238027195
0
LINE
5
2F3
100
AcDbEntity
8
0
100
AcDbLine
62
7
6
CONTINUOUS
10
81.5596375319
20
233.5672942691
11
81.8820790351
21
233.4992289264
0
LINE
5
2F4
100
AcDbEntity
8
0
100
AcDbLine
62
7
6
CONTINUOUS
10
80.2198244449
20
234.3424198515
11
80.5422658064
21
234.2743541753
0
LINE
5
2F5
100
AcDbEntity
8
0
100
AcDbLine
62
7
6
CONTINUOUS
10
81.3306347103
20
240.0631626258
11
84.8285531534
21
238.5783843375
0
LINE
5
2F6
100
AcDbEntity
8
0
100
AcDbLine
62
7
6
CONTINUOUS
10
84.9770309823
20
238.9281761818
11
82.2233504170
21
240.0970442336
0
LINE
5
2F7
100
AcDbEntity
8
0
100
AcDbLine
62
7
6
CONTINUOUS
10
83.1142173900
20
242.1957952995
11
85.8678979552
21
241.0269272477
0
LINE
5
2F8
100
AcDbEntity
8
0
100
AcDbLine
62
7
6
CONTINUOUS
10
86.0163757840
20
241.3767190920
11
82.5184573409
21
242.8614973803
0
LINE
5
2F9
100
AcDbEntity
8
0
100
AcDbLine
62
7
6
CONTINUOUS
10
83.2373943883
20
243.1067495629
11
83.8327848991
21
242.8540212852
0
LINE
5
2FA
100
AcDbEntity
8
0
100
AcDbLine
62
7
6
CONTINUOUS
10
83.4602960049
20
243.4249503836
11
86.3628241457
21
242.1929002845
0
LINE
5
2FB
100
AcDbEntity
8
0
100
AcDbLine
62
7
6
CONTINUOUS
10
96.9270289495
20
255.4882280253
11
96.6990810668
21
255.7497117519
0
LINE
5
2FC
100
AcDbEntity
8
0
100
AcDbLine
62
7
6
CONTINUOUS
10
109.7171502817
20
256.7912564869
11
109.8604836834
21
256.4252990196
0
LINE
5
2FD
100
AcDbEntity
8
0
100
AcDbLine
62
7
6
CONTINUOUS
10
131.0188168800
20
191.7248735000
11
131.0188168800
21
194.9370332344
0
LINE
5
2FE
100
AcDbEntity
8
0
100
AcDbLine
62
7
6
CONTINUOUS
10
81.8820790351
20
233.4992289264
11
82.3284368958
21
233.5161695304
0
LINE
5
2FF
100
AcDbEntity
8
0
100
AcDbLine
62
7
6
CONTINUOUS
10
80.6892644397
20
236.2760416745
11
80.4412468660
21
236.3125163271
0
LINE
5
300
100
AcDbEntity
8
0
100
AcDbLine
62
7
6
CONTINUOUS
10
86.5113019745
20
242.5426921288
11
83.0133835314
21
244.0274704170
0
LINE
5
301
100
AcDbEntity
8
0
100
AcDbLine
62
7
6
CONTINUOUS
10
85.5929153031
20
243.4829462086
11
85.8161866664
21
243.3881731377
0
LINE
5
302
100
AcDbEntity
8
0
100
AcDbLine
62
7
6
CONTINUOUS
10
84.1291859366
20
244.1730658113
11
84.3524573000
21
244.0782927403
0
LINE
5
303
100
AcDbEntity
8
0
100
AcDbLine
62
7
6
CONTINUOUS
10
85.9399185680
20
243.6796672309
11
85.7166472047
21
243.7744403018
0
LINE
5
304
100
AcDbEntity
8
0
100
AcDbLine
62
7
6
CONTINUOUS
10
84.4017648474
20
244.4013765228
11
84.2529172718
21
244.4645585701
0
LINE
5
305
100
AcDbEntity
8
0
100
AcDbLine
62
7
6
CONTINUOUS
10
84.8468285871
20
245.8637259473
11
84.9956761627
21
245.8005439000
0
LINE
5
306
100
AcDbEntity
8
0
100
AcDbLine
62
7
6
CONTINUOUS
10
86.3600509408
20
245.2902045157
11
86.5833223042
21
245.1954314448
0
LINE
5
307
100
AcDbEntity
8
0
100
AcDbLine
62
7
6
CONTINUOUS
10
85.1938318521
20
246.0604469695
11
84.9705604888
21
246.1552200405
0
LINE
5
308
100
AcDbEntity
8
0
100
AcDbLine
62
7
6
CONTINUOUS
10
86.7070536394
20
245.4869242036
11
86.4837822760
21
245.5816972745
0
LINE
5
309
100
AcDbEntity
8
0
100
AcDbLine
62
7
6
CONTINUOUS
10
99.4312419362
20
254.0841367241
11
99.2458475405
21
254.2719164122
0
LINE
5
30A
100
AcDbEntity
8
0
100
AcDbLine
62
7
6
CONTINUOUS
10
108.9288168800
20
259.3529586936
11
108.7138168800
21
259.7189160968
0
LINE
5
30B
100
AcDbEntity
8
0
100
AcDbLine
62
7
6
CONTINUOUS
10
110.2904836834
20
256.6082777853
11
110.1471500767
21
256.8827458377
0
LINE
5
30C
100
AcDbEntity
8
0
100
AcDbLine
62
7
6
CONTINUOUS
10
115.5938168800
20
259.0784906412
11
115.4504832733
21
259.4444480444
0
LINE
5
30D
100
AcDbEntity
8
0
100
AcDbLine
62
7
6
CONTINUOUS
10
79.3771557122
20
233.8056746650
11
79.0052216466
21
233.7571428374
0
LINE
5
30E
100
AcDbEntity
8
0
100
AcDbLine
62
7
6
CONTINUOUS
10
81.9051613516
20
235.4159100680
11
82.1779253817
21
235.4377341230
0
LINE
5
30F
100
AcDbEntity
8
0
100
AcDbLine
62
7
6
CONTINUOUS
10
82.2519794227
20
235.8191169910
11
81.9047916049
21
235.8288839596
0
LINE
5
310
100
AcDbEntity
8
0
100
AcDbLine
62
7
6
CONTINUOUS
10
80.3671928249
20
235.9311334591
11
80.5407866109
21
235.9262498302
0
LINE
5
311
100
AcDbEntity
8
0
100
AcDbLine
62
7
6
CONTINUOUS
10
82.2233504170
20
240.0970442336
11
85.3234793439
21
239.7443573743
0
LINE
5
312
100
AcDbEntity
8
0
100
AcDbLine
62
7
6
CONTINUOUS
10
85.0503454777
20
240.1355068551
11
81.5533514535
21
240.5878503922
0
LINE
5
313
100
AcDbEntity
8
0
100
AcDbLine
62
7
6
CONTINUOUS
10
99.0422789186
20
253.9578411957
11
99.3279616229
21
253.7296906494
0
LINE
5
314
100
AcDbEntity
8
0
100
AcDbLine
62
7
6
CONTINUOUS
10
109.8604836834
20
256.4252990196
11
110.1471500767
21
256.0593415844
0
LINE
5
315
100
AcDbEntity
8
0
100
AcDbLine
62
7
6
CONTINUOUS
10
115.0204832733
20
259.2614693428
11
115.1638168800
21
258.9870010342
0
LINE
5
316
100
AcDbEntity
8
0
100
AcDbLine
62
7
6
CONTINUOUS
10
148.2684932191
20
225.1941397705
11
138.1902084875
21
200.8630080859
0
LINE
5
317
100
AcDbEntity
8
0
100
AcDbLine
62
7
6
CONTINUOUS
10
82.2536433352
20
233.9607344567
11
81.9561330053
21
233.8806116276
0
LINE
5
318
100
AcDbEntity
8
0
100
AcDbLine
62
7
6
CONTINUOUS
10
79.0303376746
20
233.4024675309
11
79.2286778834
21
233.4558828207
0
LINE
5
319
100
AcDbEntity
8
0
100
AcDbLine
62
7
6
CONTINUOUS
10
80.5422658064
20
234.2743541753
11
80.9389462240
21
234.3811847548
0
LINE
5
31A
100
AcDbEntity
8
0
100
AcDbLine
62
7
6
CONTINUOUS
10
81.9047916049
20
235.8288839596
11
81.5081111873
21
235.7220533801
0
LINE
5
31B
100
AcDbEntity
8
0
100
AcDbLine
62
7
6
CONTINUOUS
10
80.1688525453
20
235.8777180026
11
80.3671928249
21
235.9311334591
0
LINE
5
31C
100
AcDbEntity
8
0
100
AcDbLine
62
7
6
CONTINUOUS
10
80.4412468660
20
236.3125163271
11
80.0693128004
21
236.2639844995
0
LINE
5
31D
100
AcDbEntity
8
0
100
AcDbLine
62
7
6
CONTINUOUS
10
85.8161866664
20
243.3881731377
11
86.2377986447
21
243.3468161684
0
LINE
5
31E
100
AcDbEntity
8
0
100
AcDbLine
62
7
6
CONTINUOUS
10
86.4837822760
20
245.5816972745
11
86.0621708120
21
245.6230556003
0
LINE
5
31F
100
AcDbEntity
8
0
100
AcDbLine
62
7
6
CONTINUOUS
10
96.3374892851
20
255.4426742649
11
96.5806187880
21
255.2882280253
0
LINE
5
320
100
AcDbEntity
8
0
100
AcDbLine
62
7
6
CONTINUOUS
10
108.3554834783
20
259.5359373952
11
108.4988168800
21
259.3529586936
0
LINE
5
321
100
AcDbEntity
8
0
100
AcDbLine
62
7
6
CONTINUOUS
10
86.3118526857
20
243.7281990363
11
85.9399185680
21
243.6796672309
0
LINE
5
322
100
AcDbEntity
8
0
100
AcDbLine
62
7
6
CONTINUOUS
10
84.6745291980
20
244.4232016229
11
84.4017648474
21
244.4013765228
0
LINE
5
323
100
AcDbEntity
8
0
100
AcDbLine
62
7
6
CONTINUOUS
10
84.3524573000
20
244.0782927403
11
84.6996448720
21
244.0685254824
0
LINE
5
324
100
AcDbEntity
8
0
100
AcDbLine
62
7
6
CONTINUOUS
10
84.9705604888
20
246.1552200405
11
84.5489483541
21
246.1965770762
0
LINE
5
325
100
AcDbEntity
8
0
100
AcDbLine
62
7
6
CONTINUOUS
10
96.6990810668
20
255.7497117519
11
96.2979284337
21
255.9111956694
0
LINE
5
326
100
AcDbEntity
8
0
100
AcDbLine
62
7
6
CONTINUOUS
10
110.5054836834
20
256.4252990196
11
110.2904836834
21
256.6082777853
0
LINE
5
327
100
AcDbEntity
8
0
100
AcDbLine
62
7
6
CONTINUOUS
10
108.7138168800
20
259.7189160968
11
108.4271502817
21
259.9933841492
0
LINE
5
328
100
AcDbEntity
8
0
100
AcDbLine
62
7
6
CONTINUOUS
10
115.4504832733
20
259.4444480444
11
115.1638168800
21
259.8104054476
0
LINE
5
329
100
AcDbEntity
8
0
100
AcDbLine
62
7
6
CONTINUOUS
10
86.2377986447
20
243.3468161684
11
86.5353089486
21
243.4269390085
0
LINE
5
32A
100
AcDbEntity
8
0
100
AcDbLine
62
7
6
CONTINUOUS
10
84.6996448720
20
244.0685254824
11
84.9971551497
21
244.1486483336
0
LINE
5
32B
100
AcDbEntity
8
0
100
AcDbLine
62
7
6
CONTINUOUS
10
85.9881167710
20
245.2416727324
11
86.3600509408
21
245.2902045157
0
LINE
5
32C
100
AcDbEntity
8
0
100
AcDbLine
62
7
6
CONTINUOUS
10
84.5740645945
20
245.8419022701
11
84.8468285871
21
245.8637259473
0
LINE
5
32D
100
AcDbEntity
8
0
100
AcDbLine
62
7
6
CONTINUOUS
10
99.3279616229
20
253.7296906494
11
99.5862730840
21
253.6822820747
0
LINE
5
32E
100
AcDbEntity
8
0
100
AcDbLine
62
7
6
CONTINUOUS
10
99.6895533898
20
254.0367281623
11
99.4312419362
21
254.0841367241
0
LINE
5
32F
100
AcDbEntity
8
0
100
AcDbLine
62
7
6
CONTINUOUS
10
110.1471500767
20
256.0593415844
11
110.4338168800
21
255.8763628588
0
LINE
5
330
100
AcDbEntity
8
0
100
AcDbLine
62
7
6
CONTINUOUS
10
114.8054832733
20
259.4444480444
11
115.0204832733
21
259.2614693428
0
LINE
5
331
100
AcDbEntity
8
0
100
AcDbLine
62
7
6
CONTINUOUS
10
120.0188168800
20
163.2248735000
11
118.5188168800
21
161.7248735000
0
LINE
5
332
100
AcDbEntity
8
0
100
AcDbLine
62
7
6
CONTINUOUS
10
100.0207819460
20
254.1296906494
11
99.6895533898
21
254.0367281623
0
LINE
5
333
100
AcDbEntity
8
0
100
AcDbLine
62
7
6
CONTINUOUS
10
84.5489483541
20
246.1965770762
11
84.2514380763
21
246.1164542250
0
LINE
5
334
100
AcDbEntity
8
0
100
AcDbLine
62
7
6
CONTINUOUS
10
114.5188168800
20
255.7848735000
11
114.8771504867
21
255.8763628588
0
LINE
5
335
100
AcDbEntity
8
0
100
AcDbLine
62
7
6
CONTINUOUS
10
111.0788168800
20
255.7848735000
11
111.4371500767
21
255.8763628588
0
LINE
5
336
100
AcDbEntity
8
0
100
AcDbLine
62
7
6
CONTINUOUS
10
99.5862730840
20
253.6822820747
11
99.8020313549
21
253.7085777874
0
LINE
5
337
100
AcDbEntity
8
0
100
AcDbLine
62
7
6
CONTINUOUS
10
106.3488168800
20
255.7848735000
11
106.7788168800
21
255.7848735000
0
LINE
5
338
100
AcDbEntity
8
0
100
AcDbLine
62
7
6
CONTINUOUS
10
108.5704834783
20
255.7848735000
11
109.0721502817
21
255.7848735000
0
LINE
5
339
100
AcDbEntity
8
0
100
AcDbLine
62
7
6
CONTINUOUS
10
110.7921500767
20
255.7848735000
11
111.0788168800
21
255.7848735000
0
LINE
5
33A
100
AcDbEntity
8
0
100
AcDbLine
62
7
6
CONTINUOUS
10
112.7988168800
20
255.7848735000
11
114.5188168800
21
255.7848735000
0
LINE
5
33B
100
AcDbEntity
8
0
100
AcDbLine
62
7
6
CONTINUOUS
10
96.2979284337
20
255.9111956694
11
95.9818818431
21
255.9252708342
0
LINE
5
33C
100
AcDbEntity
8
0
100
AcDbLine
62
7
6
CONTINUOUS
10
96.0791778315
20
255.4900828267
11
96.3374892851
21
255.4426742649
0
LINE
5
33D
100
AcDbEntity
8
0
100
AcDbLine
62
7
6
CONTINUOUS
10
110.4338168800
20
255.8763628588
11
110.7921500767
21
255.7848735000
0
LINE
5
33E
100
AcDbEntity
8
0
100
AcDbLine
62
7
6
CONTINUOUS
10
110.7921500767
20
256.3338096689
11
110.5054836834
21
256.4252990196
0
LINE
5
33F
100
AcDbEntity
8
0
100
AcDbLine
62
7
6
CONTINUOUS
10
108.1404834783
20
259.6274267460
11
108.3554834783
21
259.5359373952
0
LINE
5
340
100
AcDbEntity
8
0
100
AcDbLine
62
7
6
CONTINUOUS
10
115.1638168800
20
259.8104054476
11
114.8771504867
21
259.9933841492
0
LINE
5
341
100
AcDbEntity
8
0
100
AcDbLine
62
7
6
CONTINUOUS
10
138.4407078167
20
251.9819800361
11
148.2684932191
21
228.2556072295
0
LINE
5
342
100
AcDbEntity
8
0
100
AcDbLine
62
7
6
CONTINUOUS
10
148.2684932191
20
228.2556072295
11
148.4716339410
21
227.6195573304
0
LINE
5
343
100
AcDbEntity
8
0
100
AcDbLine
62
7
6
CONTINUOUS
10
95.7479492902
20
255.3971203137
11
96.0791778315
21
255.4900828267
0
LINE
5
344
100
AcDbEntity
8
0
100
AcDbLine
62
7
6
CONTINUOUS
10
114.5188168800
20
256.3338096689
11
113.2288168800
21
256.3338096689
0
LINE
5
345
100
AcDbEntity
8
0
100
AcDbLine
62
7
6
CONTINUOUS
10
111.0788168800
20
256.3338096689
11
110.7921500767
21
256.3338096689
0
LINE
5
346
100
AcDbEntity
8
0
100
AcDbLine
62
7
6
CONTINUOUS
10
106.7788168800
20
257.7061501230
11
107.9971501792
21
257.7061501230
0
LINE
5
347
100
AcDbEntity
8
0
100
AcDbLine
62
7
6
CONTINUOUS
10
108.1404834783
20
258.2550862278
11
106.7788168800
21
258.2550862278
0
LINE
5
348
100
AcDbEntity
8
0
100
AcDbLine
62
7
6
CONTINUOUS
10
113.2288168800
20
259.5359373952
11
114.5188168800
21
259.5359373952
0
LINE
5
349
100
AcDbEntity
8
0
100
AcDbLine
62
7
6
CONTINUOUS
10
106.7788168800
20
259.6274267460
11
108.1404834783
21
259.6274267460
0
LINE
5
34A
100
AcDbEntity
8
0
100
AcDbLine
62
7
6
CONTINUOUS
10
114.5188168800
20
260.0848735000
11
112.7988168800
21
260.0848735000
0
LINE
5
34B
100
AcDbEntity
8
0
100
AcDbLine
62
7
6
CONTINUOUS
10
112.2254836834
20
260.0848735000
11
111.7954836834
21
260.0848735000
0
LINE
5
34C
100
AcDbEntity
8
0
100
AcDbLine
62
7
6
CONTINUOUS
10
110.0754836834
20
260.0848735000
11
109.6454834783
21
260.0848735000
0
LINE
5
34D
100
AcDbEntity
8
0
100
AcDbLine
62
7
6
CONTINUOUS
10
108.0688168800
20
260.0848735000
11
106.3488168800
21
260.0848735000
0
LINE
5
34E
100
AcDbEntity
8
0
100
AcDbLine
62
7
6
CONTINUOUS
10
108.4271502817
20
259.9933841492
11
108.0688168800
21
260.0848735000
0
LINE
5
34F
100
AcDbEntity
8
0
100
AcDbLine
62
7
6
CONTINUOUS
10
114.8771504867
20
259.9933841492
11
114.5188168800
21
260.0848735000
0
LINE
5
350
100
AcDbEntity
8
0
100
AcDbLine
62
7
6
CONTINUOUS
10
114.5188168800
20
259.5359373952
11
114.8054832733
21
259.4444480444
0
LINE
5
351
100
AcDbEntity
8
0
100
AcDbLine
62
7
6
CONTINUOUS
10
112.5495506095
20
263.9745498391
11
136.2759234161
21
254.1467644367
0
LINE
5
352
100
AcDbEntity
8
0
100
AcDbLine
62
7
6
CONTINUOUS
10
287.8771298906
20
161.7248735000
11
302.8771298906
21
161.7248735000
0
LINE
5
353
100
AcDbEntity
8
0
100
AcDbLine
62
7
6
CONTINUOUS
10
286.3771298906
20
163.2248735000
11
304.3771298906
21
163.2248735000
0
LINE
5
354
100
AcDbEntity
8
0
100
AcDbLine
62
7
6
CONTINUOUS
10
286.3771298906
20
163.2248735000
11
287.8771298906
21
161.7248735000
0
LINE
5
355
100
AcDbEntity
8
0
100
AcDbLine
62
7
6
CONTINUOUS
10
286.3771298906
20
183.7248735000
11
304.3771298906
21
183.7248735000
0
LINE
5
356
100
AcDbEntity
8
0
100
AcDbLine
62
7
6
CONTINUOUS
10
288.1771298906
20
185.5248735000
11
302.5771298906
21
185.5248735000
0
LINE
5
357
100
AcDbEntity
8
0
100
AcDbLine
62
7
6
CONTINUOUS
10
275.3771298906
20
191.7248735000
11
275.3771298906
21
200.7618084782
0
LINE
5
358
100
AcDbEntity
8
0
100
AcDbLine
62
7
6
CONTINUOUS
10
275.3774794628
20
191.7248735000
11
315.3767803184
21
191.7248735000
0
LINE
5
359
100
AcDbEntity
8
0
100
AcDbLine
62
7
6
CONTINUOUS
10
302.5771298906
20
185.5248735000
11
304.3771298906
21
183.7248735000
0
LINE
5
35A
100
AcDbEntity
8
0
100
AcDbLine
62
7
6
CONTINUOUS
10
303.7609639195
20
199.9370332344
11
286.9932958617
21
199.9370332344
0
LINE
5
35B
100
AcDbEntity
8
0
100
AcDbLine
62
7
6
CONTINUOUS
10
286.3771298906
20
183.7248735000
11
286.3771298906
21
163.2248735000
0
LINE
5
35C
100
AcDbEntity
8
0
100
AcDbLine
62
7
6
CONTINUOUS
10
287.3771298906
20
262.7790316967
11
287.3771298906
21
227.2840508940
0
LINE
5
35D
100
AcDbEntity
8
0
100
AcDbLine
62
7
6
CONTINUOUS
10
288.1771298906
20
191.7248735000
11
288.1771298906
21
185.5248735000
0
LINE
5
35E
100
AcDbEntity
8
0
100
AcDbLine
62
7
6
CONTINUOUS
10
287.3354971660
20
226.1672481113
11
285.3032747453
21
198.9478233173
0
LINE
5
35F
100
AcDbEntity
8
0
100
AcDbLine
62
7
6
CONTINUOUS
10
277.9078264955
20
203.7248735000
11
285.0070364151
21
204.8492778899
0
LINE
5
360
100
AcDbEntity
8
0
100
AcDbLine
62
7
6
CONTINUOUS
10
312.8464332857
20
203.7248735000
11
305.7456889394
21
204.8495209192
0
LINE
5
361
100
AcDbEntity
8
DEFAULT_1
100
AcDbLine
62
2
6
CENTER
10
295.3771298906
20
158.7248735000
11
295.3771298906
21
267.3624432463
0
LINE
5
362
100
AcDbEntity
8
0
100
AcDbLine
62
7
6
CONTINUOUS
10
302.5771298906
20
191.7248735000
11
302.5771298906
21
185.5248735000
0
LINE
5
363
100
AcDbEntity
8
0
100
AcDbLine
62
7
6
CONTINUOUS
10
305.4509850108
20
198.9478236530
11
303.4187626152
21
226.1672481113
0
LINE
5
364
100
AcDbEntity
8
0
100
AcDbLine
62
7
6
CONTINUOUS
10
303.3771298906
20
227.2840508940
11
303.3771298906
21
262.7790317091
0
LINE
5
365
100
AcDbEntity
8
0
100
AcDbLine
62
7
6
CONTINUOUS
10
303.6771298906
20
260.0848735000
11
303.6771298906
21
250.5348735000
0
LINE
5
366
100
AcDbEntity
8
0
100
AcDbLine
62
7
6
CONTINUOUS
10
303.6771298906
20
246.1965770762
11
303.6771298906
21
238.5783843375
0
LINE
5
367
100
AcDbEntity
8
0
100
AcDbLine
62
7
6
CONTINUOUS
10
303.6771298906
20
236.3125163271
11
303.6771298906
21
230.4748735000
0
LINE
5
368
100
AcDbEntity
8
0
100
AcDbLine
62
7
6
CONTINUOUS
10
304.3771298906
20
183.7248735000
11
304.3771298906
21
163.2248735000
0
LINE
5
369
100
AcDbEntity
8
0
100
AcDbLine
62
7
6
CONTINUOUS
10
288.1771298906
20
185.5248735000
11
286.3771298906
21
183.7248735000
0
LINE
5
36A
100
AcDbEntity
8
0
100
AcDbLine
62
7
6
CONTINUOUS
10
303.3771298906
20
230.4748735000
11
303.6771298906
21
230.4748735000
0
LINE
5
36B
100
AcDbEntity
8
0
100
AcDbLine
62
7
6
CONTINUOUS
10
315.3771298906
20
191.7248735000
11
315.3771298906
21
200.7618084782
0
LINE
5
36C
100
AcDbEntity
8
0
100
AcDbLine
62
7
6
CONTINUOUS
10
303.3771298906
20
238.5783843375
11
303.6771298906
21
238.5783843375
0
LINE
5
36D
100
AcDbEntity
8
0
100
AcDbLine
62
7
6
CONTINUOUS
10
303.3771298906
20
243.1067495629
11
303.6771298906
21
243.1067495629
0
LINE
5
36E
100
AcDbEntity
8
0
100
AcDbLine
62
7
6
CONTINUOUS
10
303.3771298906
20
243.6776785727
11
303.6771298906
21
243.6776785727
0
LINE
5
36F
100
AcDbEntity
8
0
100
AcDbLine
62
7
6
CONTINUOUS
10
303.3771298906
20
244.0274704170
11
303.6771298906
21
244.0274704170
0
LINE
5
370
100
AcDbEntity
8
0
100
AcDbLine
62
7
6
CONTINUOUS
10
303.3771298906
20
244.0685254824
11
303.6771298906
21
244.0685254824
0
LINE
5
371
100
AcDbEntity
8
0
100
AcDbLine
62
7
6
CONTINUOUS
10
303.3771298906
20
244.0782927403
11
303.6771298906
21
244.0782927403
0
LINE
5
372
100
AcDbEntity
8
0
100
AcDbLine
62
7
6
CONTINUOUS
10
303.3771298906
20
244.1730658113
11
303.6771298906
21
244.1730658113
0
LINE
5
373
100
AcDbEntity
8
0
100
AcDbLine
62
7
6
CONTINUOUS
10
303.3771298906
20
244.4476178546
11
303.6771298906
21
244.4476178546
0
LINE
5
374
100
AcDbEntity
8
0
100
AcDbLine
62
7
6
CONTINUOUS
10
303.3771298906
20
244.7172868477
11
303.6771298906
21
244.7172868477
0
LINE
5
375
100
AcDbEntity
8
0
100
AcDbLine
62
7
6
CONTINUOUS
10
303.3771298906
20
245.1035540118
11
303.6771298906
21
245.1035540118
0
LINE
5
376
100
AcDbEntity
8
0
100
AcDbLine
62
7
6
CONTINUOUS
10
303.3771298906
20
245.4266377943
11
303.6771298906
21
245.4266377943
0
LINE
5
377
100
AcDbEntity
8
0
100
AcDbLine
62
7
6
CONTINUOUS
10
303.3771298906
20
245.6598328019
11
303.6771298906
21
245.6598328019
0
LINE
5
378
100
AcDbEntity
8
0
100
AcDbLine
62
7
6
CONTINUOUS
10
303.3771298906
20
245.9197345371
11
303.6771298906
21
245.9197345371
0
LINE
5
379
100
AcDbEntity
8
0
100
AcDbLine
62
7
6
CONTINUOUS
10
303.3771298906
20
246.1164542250
11
303.6771298906
21
246.1164542250
0
LINE
5
37A
100
AcDbEntity
8
0
100
AcDbLine
62
7
6
CONTINUOUS
10
303.3771298906
20
246.1965770762
11
303.6771298906
21
246.1965770762
0
LINE
5
37B
100
AcDbEntity
8
0
100
AcDbLine
62
7
6
CONTINUOUS
10
303.3771298906
20
250.5348735000
11
303.6771298906
21
250.5348735000
0
LINE
5
37C
100
AcDbEntity
8
0
100
AcDbLine
62
7
6
CONTINUOUS
10
304.3771298906
20
163.2248735000
11
302.8771298906
21
161.7248735000
0
LINE
5
37D
100
AcDbEntity
8
0
100
AcDbLine
62
7
6
CONTINUOUS
10
303.3771298906
20
254.3215613268
11
303.6771298906
21
254.3215613268
0
LINE
5
37E
100
AcDbEntity
8
0
100
AcDbLine
62
7
6
CONTINUOUS
10
303.3771298906
20
254.6497118473
11
303.6771298906
21
254.6497118473
0
LINE
5
37F
100
AcDbEntity
8
0
100
AcDbLine
62
7
6
CONTINUOUS
10
303.3771298906
20
255.0778622724
11
303.6771298906
21
255.0778622724
0
LINE
5
380
100
AcDbEntity
8
0
100
AcDbLine
62
7
6
CONTINUOUS
10
303.3771298906
20
255.3586042312
11
303.6771298906
21
255.3586042312
0
LINE
5
381
100
AcDbEntity
8
0
100
AcDbLine
62
7
6
CONTINUOUS
10
303.3771298906
20
255.6656417182
11
303.6771298906
21
255.6656417182
0
LINE
5
382
100
AcDbEntity
8
0
100
AcDbLine
62
7
6
CONTINUOUS
10
303.3771298906
20
255.7989751151
11
303.6771298906
21
255.7989751151
0
LINE
5
383
100
AcDbEntity
8
0
100
AcDbLine
62
7
6
CONTINUOUS
10
303.3771298906
20
255.9252708342
11
303.6771298906
21
255.9252708342
0
LINE
5
384
100
AcDbEntity
8
0
100
AcDbLine
62
7
6
CONTINUOUS
10
303.3771298906
20
256.3163785458
11
303.6771298906
21
256.3163785458
0
LINE
5
385
100
AcDbEntity
8
0
100
AcDbLine
62
7
6
CONTINUOUS
10
303.3771298906
20
256.4830451489
11
303.6771298906
21
256.4830451489
0
LINE
5
386
100
AcDbEntity
8
0
100
AcDbLine
62
7
6
CONTINUOUS
10
303.3771298906
20
260.0848735000
11
303.6771298906
21
260.0848735000
0
LINE
5
387
100
AcDbEntity
8
0
100
AcDbLine
62
7
6
CONTINUOUS
10
301.8771298906
20
264.2790317091
11
288.8771298906
21
264.2790317091
0
LINE
5
388
100
AcDbEntity
8
0
100
AcDbLine
62
7
6
CONTINUOUS
10
73.4646586710
20
106.1027828430
11
73.4646586710
21
119.1241355540
0
LINE
5
389
100
AcDbEntity
8
0
100
AcDbLine
62
7
6
CONTINUOUS
10
77.8908984369
20
104.6134591987
11
77.8908984369
21
104.3134591987
0
LINE
5
38A
100
AcDbEntity
8
0
100
AcDbLine
62
7
6
CONTINUOUS
10
82.8649057026
20
104.6134591987
11
82.8649057026
21
104.3134591987
0
LINE
5
38B
100
AcDbEntity
8
0
100
AcDbLine
62
7
6
CONTINUOUS
10
83.0133835314
20
104.6134591987
11
83.0133835314
21
104.3134591987
0
LINE
5
38C
100
AcDbEntity
8
0
100
AcDbLine
62
7
6
CONTINUOUS
10
83.5579872993
20
104.6134591987
11
83.5579872993
21
104.3134591987
0
LINE
5
38D
100
AcDbEntity
8
0
100
AcDbLine
62
7
6
CONTINUOUS
10
83.6072948467
20
104.6134591987
11
83.6072948467
21
104.3134591987
0
LINE
5
38E
100
AcDbEntity
8
0
100
AcDbLine
62
7
6
CONTINUOUS
10
83.7062802547
20
104.6134591987
11
83.7062802547
21
104.3134591987
0
LINE
5
38F
100
AcDbEntity
8
0
100
AcDbLine
62
7
6
CONTINUOUS
10
83.9044353777
20
104.6134591987
11
83.9044353777
21
104.3134591987
0
LINE
5
390
100
AcDbEntity
8
0
100
AcDbLine
62
7
6
CONTINUOUS
10
84.2514380763
20
104.6134591987
11
84.2514380763
21
104.3134591987
0
LINE
5
391
100
AcDbEntity
8
0
100
AcDbLine
62
7
6
CONTINUOUS
10
84.5489483541
20
104.6134591987
11
84.5489483541
21
104.3134591987
0
LINE
5
392
100
AcDbEntity
8
0
100
AcDbLine
62
7
6
CONTINUOUS
10
84.9705604888
20
104.6134591987
11
84.9705604888
21
104.3134591987
0
LINE
5
393
100
AcDbEntity
8
0
100
AcDbLine
62
7
6
CONTINUOUS
10
85.1938318521
20
104.6134591987
11
85.1938318521
21
104.3134591987
0
LINE
5
394
100
AcDbEntity
8
0
100
AcDbLine
62
7
6
CONTINUOUS
10
85.4420340161
20
104.6134591987
11
85.4420340161
21
104.3134591987
0
LINE
5
395
100
AcDbEntity
8
0
100
AcDbLine
62
7
6
CONTINUOUS
10
85.5910664650
20
104.6134591987
11
85.5910664650
21
104.3134591987
0
LINE
5
396
100
AcDbEntity
8
0
100
AcDbLine
62
7
6
CONTINUOUS
10
85.6159978320
20
104.6134591987
11
85.6159978320
21
104.3134591987
0
LINE
5
397
100
AcDbEntity
8
0
100
AcDbLine
62
7
6
CONTINUOUS
10
85.7399140406
20
104.6134591987
11
85.7399140406
21
104.3134591987
0
LINE
5
398
100
AcDbEntity
8
0
100
AcDbLine
62
7
6
CONTINUOUS
10
86.0621708120
20
104.6134591987
11
86.0621708120
21
104.3134591987
0
LINE
5
399
100
AcDbEntity
8
0
100
AcDbLine
62
7
6
CONTINUOUS
10
86.4837822760
20
104.6134591987
11
86.4837822760
21
104.3134591987
0
LINE
5
39A
100
AcDbEntity
8
0
100
AcDbLine
62
7
6
CONTINUOUS
10
86.7070536394
20
104.6134591987
11
86.7070536394
21
104.3134591987
0
LINE
5
39B
100
AcDbEntity
8
0
100
AcDbLine
62
7
6
CONTINUOUS
10
87.0296802096
20
104.6134591987
11
87.0296802096
21
104.3134591987
0
LINE
5
39C
100
AcDbEntity
8
0
100
AcDbLine
62
7
6
CONTINUOUS
10
87.1787126847
20
104.6134591987
11
87.1787126847
21
104.3134591987
0
LINE
5
39D
100
AcDbEntity
8
0
100
AcDbLine
62
7
6
CONTINUOUS
10
87.2782527324
20
104.6134591987
11
87.2782527324
21
104.3134591987
0
LINE
5
39E
100
AcDbEntity
8
0
100
AcDbLine
62
7
6
CONTINUOUS
10
92.4266891849
20
104.6134591987
11
92.4266891849
21
104.3134591987
0
LINE
5
39F
100
AcDbEntity
8
0
100
AcDbLine
62
7
6
CONTINUOUS
10
147.3709855422
20
104.6190538907
11
147.3699097797
21
104.6187652734
0
LINE
5
3A0
100
AcDbEntity
8
0
100
AcDbLine
62
7
6
CONTINUOUS
10
74.6666280050
20
104.6190622889
11
74.6684130294
21
104.6185837815
0
LINE
5
3A1
100
AcDbEntity
8
0
100
AcDbLine
62
7
6
CONTINUOUS
10
94.7938253437
20
104.6134591987
11
94.7938253437
21
104.3134591987
0
LINE
5
3A2
100
AcDbEntity
8
0
100
AcDbLine
62
7
6
CONTINUOUS
10
94.8545526506
20
104.6134591987
11
94.8545526506
21
104.3134591987
0
LINE
5
3A3
100
AcDbEntity
8
0
100
AcDbLine
62
7
6
CONTINUOUS
10
95.0003864956
20
104.6134591987
11
95.0003864956
21
104.3134591987
0
LINE
5
3A4
100
AcDbEntity
8
0
100
AcDbLine
62
7
6
CONTINUOUS
10
95.3619782774
20
104.6134591987
11
95.3619782774
21
104.3134591987
0
LINE
5
3A5
100
AcDbEntity
8
0
100
AcDbLine
62
7
6
CONTINUOUS
10
95.5929184952
20
104.6134591987
11
95.5929184952
21
104.3134591987
0
LINE
5
3A6
100
AcDbEntity
8
0
100
AcDbLine
62
7
6
CONTINUOUS
10
95.9818818431
20
104.6134591987
11
95.9818818431
21
104.3134591987
0
LINE
5
3A7
100
AcDbEntity
8
0
100
AcDbLine
62
7
6
CONTINUOUS
10
96.2979284337
20
104.6134591987
11
96.2979284337
21
104.3134591987
0
LINE
5
3A8
100
AcDbEntity
8
0
100
AcDbLine
62
7
6
CONTINUOUS
10
96.6990810668
20
104.6134591987
11
96.6990810668
21
104.3134591987
0
LINE
5
3A9
100
AcDbEntity
8
0
100
AcDbLine
62
7
6
CONTINUOUS
10
96.9270289495
20
104.6134591987
11
96.9270289495
21
104.3134591987
0
LINE
5
3AA
100
AcDbEntity
8
0
100
AcDbLine
62
7
6
CONTINUOUS
10
97.0121354416
20
104.6134591987
11
97.0121354416
21
104.3134591987
0
LINE
5
3AB
100
AcDbEntity
8
0
100
AcDbLine
62
7
6
CONTINUOUS
10
97.1246130502
20
104.6134591987
11
97.1246130502
21
104.3134591987
0
LINE
5
3AC
100
AcDbEntity
8
0
100
AcDbLine
62
7
6
CONTINUOUS
10
97.1368026657
20
104.6134591987
11
97.1368026657
21
104.3134591987
0
LINE
5
3AD
100
AcDbEntity
8
0
100
AcDbLine
62
7
6
CONTINUOUS
10
147.1487565530
20
104.5699941091
11
137.0704718213
21
102.7534137918
0
LINE
5
3AE
100
AcDbEntity
8
0
100
AcDbLine
62
7
6
CONTINUOUS
10
84.9671619387
20
102.7534137918
11
74.8888772075
21
104.5699941090
0
LINE
5
3AF
100
AcDbEntity
8
0
100
AcDbLine
62
7
6
CONTINUOUS
10
97.5591219196
20
104.6134591987
11
97.5591219196
21
104.3134591987
0
LINE
5
3B0
100
AcDbEntity
8
0
100
AcDbLine
62
7
6
CONTINUOUS
10
97.6805767447
20
104.6134591987
11
97.6805767447
21
104.3134591987
0
LINE
5
3B1
100
AcDbEntity
8
0
100
AcDbLine
62
7
6
CONTINUOUS
10
97.9692517692
20
104.6134591987
11
97.9692517692
21
104.3134591987
0
LINE
5
3B2
100
AcDbEntity
8
0
100
AcDbLine
62
7
6
CONTINUOUS
10
98.3096773797
20
104.6134591987
11
98.3096773797
21
104.3134591987
0
LINE
5
3B3
100
AcDbEntity
8
0
100
AcDbLine
62
7
6
CONTINUOUS
10
98.9447628961
20
104.6134591987
11
98.9447628961
21
104.3134591987
0
LINE
5
3B4
100
AcDbEntity
8
0
100
AcDbLine
62
7
6
CONTINUOUS
10
99.1149756417
20
104.6134591987
11
99.1149756417
21
104.3134591987
0
LINE
5
3B5
100
AcDbEntity
8
0
100
AcDbLine
62
7
6
CONTINUOUS
10
99.2458475405
20
104.6134591987
11
99.2458475405
21
104.3134591987
0
LINE
5
3B6
100
AcDbEntity
8
0
100
AcDbLine
62
7
6
CONTINUOUS
10
99.4312419362
20
104.6134591987
11
99.4312419362
21
104.3134591987
0
LINE
5
3B7
100
AcDbEntity
8
0
100
AcDbLine
62
7
6
CONTINUOUS
10
99.6895533898
20
104.6134591987
11
99.6895533898
21
104.3134591987
0
LINE
5
3B8
100
AcDbEntity
8
0
100
AcDbLine
62
7
6
CONTINUOUS
10
100.0207819460
20
104.6134591987
11
100.0207819460
21
104.3134591987
0
LINE
5
3B9
100
AcDbEntity
8
0
100
AcDbLine
62
7
6
CONTINUOUS
10
100.1909947065
20
104.6134591987
11
100.1909947065
21
104.3134591987
0
LINE
5
3BA
100
AcDbEntity
8
0
100
AcDbLine
62
7
6
CONTINUOUS
10
136.8043891887
20
102.7296251698
11
134.5711273182
21
102.7296251698
0
LINE
5
3BB
100
AcDbEntity
8
0
100
AcDbLine
62
7
6
CONTINUOUS
10
87.4665064418
20
102.7296251698
11
85.2332445713
21
102.7296251698
0
LINE
5
3BC
100
AcDbEntity
8
0
100
AcDbLine
62
7
6
CONTINUOUS
10
115.6654832733
20
104.3134591987
11
112.7988168800
21
104.3134591987
0
LINE
5
3BD
100
AcDbEntity
8
0
100
AcDbLine
62
7
6
CONTINUOUS
10
112.2254836834
20
104.3134591987
11
109.6454834783
21
104.3134591987
0
LINE
5
3BE
100
AcDbEntity
8
0
100
AcDbLine
62
7
6
CONTINUOUS
10
109.0721502817
20
104.3134591987
11
106.3488168800
21
104.3134591987
0
LINE
5
3BF
100
AcDbEntity
8
0
100
AcDbLine
62
7
6
CONTINUOUS
10
100.1909947065
20
104.3134591987
11
92.4266891849
21
104.3134591987
0
LINE
5
3C0
100
AcDbEntity
8
0
100
AcDbLine
62
7
6
CONTINUOUS
10
87.2782527324
20
104.3134591987
11
77.8908984369
21
104.3134591987
0
LINE
5
3C1
100
AcDbEntity
8
0
100
AcDbLine
62
7
6
CONTINUOUS
10
75.0279968885
20
104.6134591987
11
147.0096368715
21
104.6134591987
0
LINE
5
3C2
100
AcDbEntity
8
0
100
AcDbLine
62
7
6
CONTINUOUS
10
106.3488168800
20
104.6134591987
11
106.3488168800
21
104.3134591987
0
LINE
5
3C3
100
AcDbEntity
8
0
100
AcDbLine
62
7
6
CONTINUOUS
10
109.0721502817
20
104.6134591987
11
109.0721502817
21
104.3134591987
0
LINE
5
3C4
100
AcDbEntity
8
0
100
AcDbLine
62
7
6
CONTINUOUS
10
109.6454834783
20
104.6134591987
11
109.6454834783
21
104.3134591987
0
LINE
5
3C5
100
AcDbEntity
8
DEFAULT_1
100
AcDbLine
62
2
6
CENTER
10
111.0188168800
20
112.6134591987
11
111.0188168800
21
89.6134591987
0
LINE
5
3C6
100
AcDbEntity
8
DEFAULT_1
100
AcDbLine
62
2
6
CENTER
10
111.0188168800
20
112.6134591987
11
111.0188168800
21
135.6134591987
0
LINE
5
3C7
100
AcDbEntity
8
DEFAULT_1
100
AcDbLine
62
2
6
CENTER
10
111.0188168800
20
112.6134591987
11
71.5096481271
21
112.6134591987
0
LINE
5
3C8
100
AcDbEntity
8
DEFAULT_1
100
AcDbLine
62
2
6
CENTER
10
111.0188168800
20
112.6134591987
11
150.1702610670
21
112.6134591987
0
LINE
5
3C9
100
AcDbEntity
8
0
100
AcDbLine
62
7
6
CONTINUOUS
10
112.2254836834
20
104.6134591987
11
112.2254836834
21
104.3134591987
0
LINE
5
3CA
100
AcDbEntity
8
0
100
AcDbLine
62
7
6
CONTINUOUS
10
112.7988168800
20
104.6134591987
11
112.7988168800
21
104.3134591987
0
LINE
5
3CB
100
AcDbEntity
8
0
100
AcDbLine
62
7
6
CONTINUOUS
10
115.6654832733
20
104.6134591987
11
115.6654832733
21
104.3134591987
0
LINE
5
3CC
100
AcDbEntity
8
0
100
AcDbLine
62
7
6
CONTINUOUS
10
147.0096368715
20
120.6134591987
11
75.0279968885
21
120.6134591987
0
LINE
5
3CD
100
AcDbEntity
8
0
100
AcDbLine
62
7
6
CONTINUOUS
10
85.2332445713
20
122.4972932276
11
87.4665064419
21
122.4972932276
0
LINE
5
3CE
100
AcDbEntity
8
0
100
AcDbLine
62
7
6
CONTINUOUS
10
134.5711273182
20
122.4972932276
11
136.8043891887
21
122.4972932276
0
LINE
5
3CF
100
AcDbEntity
8
0
100
AcDbLine
62
7
6
CONTINUOUS
10
74.8888772071
20
120.6569242883
11
84.9671619387
21
122.4735046056
0
LINE
5
3D0
100
AcDbEntity
8
0
100
AcDbLine
62
7
6
CONTINUOUS
10
137.0704718213
20
122.4735046056
11
147.1487565526
21
120.6569242884
0
LINE
5
3D1
100
AcDbEntity
8
0
100
AcDbLine
62
7
6
CONTINUOUS
10
74.6666479383
20
120.6078644311
11
74.6677239810
21
120.6081531236
0
LINE
5
3D2
100
AcDbEntity
8
0
100
AcDbLine
62
7
6
CONTINUOUS
10
147.3710057377
20
120.6078572531
11
147.3692677691
21
120.6083231641
0
LINE
5
3D3
100
AcDbEntity
8
0
100
AcDbLine
62
7
6
CONTINUOUS
10
148.5729750891
20
106.1027828524
11
148.5729750891
21
119.1241343523
0
ARC
5
3D4
100
AcDbEntity
8
0
100
AcDbCircle
62
7
6
CONTINUOUS
10
86.0188168800
20
194.9370332344
40
5.0000000000
100
AcDbArc
50
0.0000000000
51
90.0000000000
0
ARC
5
3D5
100
AcDbEntity
8
0
100
AcDbCircle
62
7
6
CONTINUOUS
10
136.0188168800
20
194.9370332344
40
5.0000000000
100
AcDbArc
50
90.0000000000
51
180.0000000000
0
CIRCLE
5
3D6
100
AcDbEntity
8
0
100
AcDbCircle
62
7
6
CONTINUOUS
10
111.0188168800
20
226.7248735000
40
20.0000000000
0
ARC
5
3D7
100
AcDbEntity
8
0
100
AcDbCircle
62
7
6
CONTINUOUS
10
134.7451896867
20
250.4512463066
40
4.0000000000
100
AcDbArc
50
22.5000000000
51
67.5000000000
0
ARC
5
3D8
100
AcDbEntity
8
0
100
AcDbCircle
62
7
6
CONTINUOUS
10
111.0188168800
20
260.2790317091
40
4.0000000000
100
AcDbArc
50
67.5000000000
51
112.5000000000
0
ARC
5
3D9
100
AcDbEntity
8
0
100
AcDbCircle
62
7
6
CONTINUOUS
10
87.2924440734
20
250.4512463066
40
4.0000000000
100
AcDbArc
50
112.5000000000
51
157.5000000000
0
ARC
5
3DA
100
AcDbEntity
8
0
100
AcDbCircle
62
7
6
CONTINUOUS
10
77.4646586710
20
226.7248735000
40
4.0000000000
100
AcDbArc
50
157.5000000000
51
202.5000000000
0
ARC
5
3DB
100
AcDbEntity
8
0
100
AcDbCircle
62
7
6
CONTINUOUS
10
144.5729750891
20
226.7248735000
40
4.0000000000
100
AcDbArc
50
337.5000000000
51
22.5000000000
0
ARC
5
3DC
100
AcDbEntity
8
0
100
AcDbCircle
62
7
6
CONTINUOUS
10
85.2332445713
20
201.4370332344
40
1.5000000000
100
AcDbArc
50
202.5000000000
51
270.0000000000
0
ARC
5
3DD
100
AcDbEntity
8
0
100
AcDbCircle
62
7
6
CONTINUOUS
10
136.8043891887
20
201.4370332344
40
1.5000000000
100
AcDbArc
50
270.0000000000
51
337.5000000000
0
ARC
5
3DE
100
AcDbEntity
8
DEFAULT_2
100
AcDbCircle
62
8
6
HIDDEN
10
295.3771298906
20
254.7248735000
40
8.0000000000
100
AcDbArc
50
180.0000000000
51
360.0000000000
0
ARC
5
3DF
100
AcDbEntity
8
0
100
AcDbCircle
62
7
6
CONTINUOUS
10
284.8522413518
20
205.8372142108
40
1.0000169379
100
AcDbArc
50
279.0000866216
51
336.2923239845
0
ARC
5
3E0
100
AcDbEntity
8
0
100
AcDbCircle
62
7
6
CONTINUOUS
10
305.9020221461
20
205.8372117190
40
1.0000198756
100
AcDbArc
50
203.7020218638
51
260.9998948341
0
ARC
5
3E1
100
AcDbEntity
8
0
100
AcDbCircle
62
7
6
CONTINUOUS
10
288.8771298906
20
262.7790317091
40
1.5000000000
100
AcDbArc
50
90.0000000000
51
180.0000000000
0
ARC
5
3E2
100
AcDbEntity
8
0
100
AcDbCircle
62
7
6
CONTINUOUS
10
301.8771298906
20
262.7790317091
40
1.5000000000
100
AcDbArc
50
0.0000000000
51
90.0000000000
0
ARC
5
3E3
100
AcDbEntity
8
0
100
AcDbCircle
62
7
6
CONTINUOUS
10
278.3771298906
20
200.7618084782
40
3.0000000000
100
AcDbArc
50
99.0000000000
51
180.0000000000
0
ARC
5
3E4
100
AcDbEntity
8
0
100
AcDbCircle
62
7
6
CONTINUOUS
10
312.3771298906
20
200.7618084782
40
3.0000000000
100
AcDbArc
50
0.0000000000
51
81.0000000000
0
ARC
5
3E5
100
AcDbEntity
8
0
100
AcDbCircle
62
7
6
CONTINUOUS
10
318.3771298906
20
227.2840508940
40
15.0000000000
100
AcDbArc
50
180.0000000000
51
184.2698234508
0
ARC
5
3E6
100
AcDbEntity
8
0
100
AcDbCircle
62
7
6
CONTINUOUS
10
272.3771298906
20
227.2840508940
40
15.0000000000
100
AcDbArc
50
355.7301765492
51
360.0000000000
0
ARC
5
3E7
100
AcDbEntity
8
0
100
AcDbCircle
62
7
6
CONTINUOUS
10
303.7609639195
20
201.4370332344
40
1.5000000000
100
AcDbArc
50
270.0000000000
51
4.2698234508
0
ARC
5
3E8
100
AcDbEntity
8
0
100
AcDbCircle
62
7
6
CONTINUOUS
10
286.9932958617
20
201.4370332344
40
1.5000000000
100
AcDbArc
50
175.7301765492
51
270.0000000000
0
ARC
5
3E9
100
AcDbEntity
8
0
100
AcDbCircle
62
7
6
CONTINUOUS
10
111.0188168800
20
112.6134591987
40
20.0000000000
100
AcDbArc
50
211.4000084404
51
328.5999915596
0
ARC
5
3EA
100
AcDbEntity
8
0
100
AcDbCircle
62
7
6
CONTINUOUS
10
111.0188168800
20
112.6134591987
40
20.0000000000
100
AcDbArc
50
31.4000084404
51
148.5999915596
0
SPLINE
5
3EB
100
AcDbEntity
8
0
100
AcDbSpline
62
7
6
CONTINUOUS
70
0
71
3
72
8
73
4
74
2
42
0.0000001000
43
0.0000001000
44
0.0000000001
40
0.0000000000
40
0.0000000000
40
0.0000000000
40
0.0000000000
40
1.0000000000
40
1.0000000000
40
1.0000000000
40
1.0000000000
10
285.7735010557
20
205.4494871089
30
0.0000000000
10
285.7726939673
20
205.4472800953
30
0.0000000000
10
285.7718635968
20
205.4450817382
30
0.0000000000
10
285.7710093608
20
205.4428926061
30
0.0000000000
11
285.7735010557
21
205.4494871089
31
0.0000000000
11
285.7710093608
21
205.4428926061
31
0.0000000000
0
SPLINE
5
3EC
100
AcDbEntity
8
0
100
AcDbSpline
62
7
6
CONTINUOUS
70
0
71
3
72
9
73
5
74
3
42
0.0000001000
43
0.0000001000
44
0.0000000001
40
0.0000000000
40
0.0000000000
40
0.0000000000
40
0.0000000000
40
0.7281977057
40
1.0000000000
40
1.0000000000
40
1.0000000000
40
1.0000000000
10
285.7971063914
20
205.5639721663
30
0.0000000000
10
285.7949914917
20
205.5385059417
30
0.0000000000
10
285.7898689836
20
205.5034119060
30
0.0000000000
10
285.7802776496
20
205.4695307501
30
0.0000000000
10
285.7773013326
20
205.4604494593
30
0.0000000000
11
285.7971063914
21
205.5639721663
31
0.0000000000
11
285.7851614016
21
205.4880383052
31
0.0000000000
11
285.7773013326
21
205.4604494593
31
0.0000000000
0
SPLINE
5
3ED
100
AcDbEntity
8
0
100
AcDbSpline
62
7
6
CONTINUOUS
70
0
71
3
72
9
73
5
74
3
42
0.0000001000
43
0.0000001000
44
0.0000000001
40
0.0000000000
40
0.0000000000
40
0.0000000000
40
0.0000000000
40
0.6802795606
40
1.0000000000
40
1.0000000000
40
1.0000000000
40
1.0000000000
10
285.7773013326
20
205.4604494593
30
0.0000000000
10
285.7753924685
20
205.4546251637
30
0.0000000000
10
285.7723631292
20
205.4461407477
30
0.0000000000
10
285.7689831212
20
205.4377915301
30
0.0000000000
10
285.7678655434
20
205.4351369776
30
0.0000000000
11
285.7773013326
21
205.4604494593
31
0.0000000000
11
285.7711085907
21
205.4431441813
31
0.0000000000
11
285.7678655434
21
205.4351369776
31
0.0000000000
0
SPLINE
5
3EE
100
AcDbEntity
8
0
100
AcDbSpline
62
7
6
CONTINUOUS
70
0
71
3
72
10
73
6
74
4
42
0.0000001000
43
0.0000001000
44
0.0000000001
40
0.0000000000
40
0.0000000000
40
0.0000000000
40
0.0000000000
40
0.0608336690
40
0.4082171616
40
1.0000000000
40
1.0000000000
40
1.0000000000
40
1.0000000000
10
304.9863556018
20
205.4352236689
30
0.0000000000
10
304.9853156716
20
205.4377018413
30
0.0000000000
10
304.9785505343
20
205.4544172541
30
0.0000000000
10
304.9653906740
20
205.4966850618
30
0.0000000000
10
304.9592701197
20
205.5380986343
30
0.0000000000
10
304.9571230260
20
205.5641073131
30
0.0000000000
11
304.9863556018
21
205.4352236689
31
0.0000000000
11
304.9833302888
21
205.4426957676
31
0.0000000000
11
304.9694604881
21
205.4865897581
31
0.0000000000
11
304.9571230260
21
205.5641073131
31
0.0000000000
0
SPLINE
5
3EF
100
AcDbEntity
8
0
100
AcDbSpline
62
7
6
CONTINUOUS
70
0
71
3
72
10
73
6
74
4
42
0.0000001000
43
0.0000001000
44
0.0000000001
40
0.0000000000
40
0.0000000000
40
0.0000000000
40
0.0000000000
40
0.0301436891
40
0.5150796678
40
1.0000000000
40
1.0000000000
40
1.0000000000
40
1.0000000000
10
128.7562135834
20
122.7074174499
30
0.0000000000
10
128.7500201982
20
122.7080117767
30
0.0000000000
10
128.6442939609
20
122.7191597120
30
0.0000000000
10
128.4431740583
20
122.7737690741
30
0.0000000000
10
128.2723776138
20
122.8818477725
30
0.0000000000
10
128.1968025468
20
122.9474451985
30
0.0000000000
11
128.7562135834
21
122.7074174499
31
0.0000000000
11
128.7376528025
21
122.7093747393
31
0.0000000000
11
128.4492363478
21
122.7875492391
31
0.0000000000
11
128.1968025468
21
122.9474451985
31
0.0000000000
0
SPLINE
5
3F0
100
AcDbEntity
8
0
100
AcDbSpline
62
7
6
CONTINUOUS
70
0
71
3
72
8
73
4
74
2
42
0.0000001000
43
0.0000001000
44
0.0000000001
40
0.0000000000
40
0.0000000000
40
0.0000000000
40
0.0000000000
40
1.0000000000
40
1.0000000000
40
1.0000000000
40
1.0000000000
10
128.1968025468
20
122.9474451985
30
0.0000000000
10
128.1590599707
20
122.9802048895
30
0.0000000000
10
128.1237669998
20
123.0158474458
30
0.0000000000
10
128.0913395026
20
123.0538587428
30
0.0000000000
11
128.1968025468
21
122.9474451985
31
0.0000000000
11
128.0913395026
21
123.0538587428
31
0.0000000000
0
SPLINE
5
3F1
100
AcDbEntity
8
0
100
AcDbSpline
62
7
6
CONTINUOUS
70
0
71
3
72
8
73
4
74
2
42
0.0000001000
43
0.0000001000
44
0.0000000001
40
0.0000000000
40
0.0000000000
40
0.0000000000
40
0.0000000000
40
1.0000000000
40
1.0000000000
40
1.0000000000
40
1.0000000000
10
128.0913395026
20
123.0538587428
30
0.0000000000
10
128.0588472235
20
123.0919459765
30
0.0000000000
10
128.0292318785
20
123.1324114248
30
0.0000000000
10
128.0029118332
20
123.1747378757
30
0.0000000000
11
128.0913395026
21
123.0538587428
31
0.0000000000
11
128.0029118332
21
123.1747378757
31
0.0000000000
0
SPLINE
5
3F2
100
AcDbEntity
8
0
100
AcDbSpline
62
7
6
CONTINUOUS
70
0
71
3
72
8
73
4
74
2
42
0.0000001000
43
0.0000001000
44
0.0000000001
40
0.0000000000
40
0.0000000000
40
0.0000000000
40
0.0000000000
40
1.0000000000
40
1.0000000000
40
1.0000000000
40
1.0000000000
10
94.0347218065
20
123.1747378027
30
0.0000000000
10
93.9821321157
20
123.0901659062
30
0.0000000000
10
93.9163863766
20
123.0130237814
30
0.0000000000
10
93.8408219795
20
122.9474372141
30
0.0000000000
11
94.0347218065
21
123.1747378027
31
0.0000000000
11
93.8408219795
21
122.9474372141
31
0.0000000000
0
SPLINE
5
3F3
100
AcDbEntity
8
0
100
AcDbSpline
62
7
6
CONTINUOUS
70
0
71
3
72
10
73
6
74
4
42
0.0000001000
43
0.0000001000
44
0.0000000001
40
0.0000000000
40
0.0000000000
40
0.0000000000
40
0.0000000000
40
0.4849242402
40
0.9698638221
40
1.0000000000
40
1.0000000000
40
1.0000000000
40
1.0000000000
10
93.8408219795
20
122.9474372141
30
0.0000000000
10
93.7652470876
20
122.8818415377
30
0.0000000000
10
93.5944518308
20
122.7737660103
30
0.0000000000
10
93.3933358354
20
122.7191590513
30
0.0000000000
10
93.2876125923
20
122.7080116061
30
0.0000000000
10
93.2814208803
20
122.7074174342
30
0.0000000000
11
93.8408219795
21
122.9474372141
31
0.0000000000
11
93.5883897566
21
122.7875458373
31
0.0000000000
11
93.2999766522
21
122.7093741647
31
0.0000000000
11
93.2814208803
21
122.7074174342
31
0.0000000000
0
SPLINE
5
3F4
100
AcDbEntity
8
0
100
AcDbSpline
62
7
6
CONTINUOUS
70
0
71
3
72
10
73
6
74
4
42
0.0000001000
43
0.0000001000
44
0.0000000001
40
0.0000000000
40
0.0000000000
40
0.0000000000
40
0.0000000000
40
0.0301436891
40
0.5150796678
40
1.0000000000
40
1.0000000000
40
1.0000000000
40
1.0000000000
10
93.2814201766
20
102.5195009475
30
0.0000000000
10
93.2876135618
20
102.5189066207
30
0.0000000000
10
93.3933397991
20
102.5077586854
30
0.0000000000
10
93.5944597017
20
102.4531493233
30
0.0000000000
10
93.7652561463
20
102.3450706250
30
0.0000000000
10
93.8408312132
20
102.2794731989
30
0.0000000000
11
93.2814201766
21
102.5195009475
31
0.0000000000
11
93.2999809575
21
102.5175436582
31
0.0000000000
11
93.5883974123
21
102.4393691583
31
0.0000000000
11
93.8408312132
21
102.2794731989
31
0.0000000000
0
SPLINE
5
3F5
100
AcDbEntity
8
0
100
AcDbSpline
62
7
6
CONTINUOUS
70
0
71
3
72
8
73
4
74
2
42
0.0000001000
43
0.0000001000
44
0.0000000001
40
0.0000000000
40
0.0000000000
40
0.0000000000
40
0.0000000000
40
1.0000000000
40
1.0000000000
40
1.0000000000
40
1.0000000000
10
93.8408312132
20
102.2794731989
30
0.0000000000
10
93.8785737893
20
102.2467135079
30
0.0000000000
10
93.9138667602
20
102.2110709516
30
0.0000000000
10
93.9462942575
20
102.1730596546
30
0.0000000000
11
93.8408312132
21
102.2794731989
31
0.0000000000
11
93.9462942575
21
102.1730596546
31
0.0000000000
0
SPLINE
5
3F6
100
AcDbEntity
8
0
100
AcDbSpline
62
7
6
CONTINUOUS
70
0
71
3
72
8
73
4
74
2
42
0.0000001000
43
0.0000001000
44
0.0000000001
40
0.0000000000
40
0.0000000000
40
0.0000000000
40
0.0000000000
40
1.0000000000
40
1.0000000000
40
1.0000000000
40
1.0000000000
10
93.9462942575
20
102.1730596546
30
0.0000000000
10
93.9787865366
20
102.1349724209
30
0.0000000000
10
94.0084018816
20
102.0945069726
30
0.0000000000
10
94.0347219269
20
102.0521805217
30
0.0000000000
11
93.9462942575
21
102.1730596546
31
0.0000000000
11
94.0347219269
21
102.0521805217
31
0.0000000000
0
SPLINE
5
3F7
100
AcDbEntity
8
0
100
AcDbSpline
62
7
6
CONTINUOUS
70
0
71
3
72
8
73
4
74
2
42
0.0000001000
43
0.0000001000
44
0.0000000001
40
0.0000000000
40
0.0000000000
40
0.0000000000
40
0.0000000000
40
1.0000000000
40
1.0000000000
40
1.0000000000
40
1.0000000000
10
128.0029119535
20
102.0521805947
30
0.0000000000
10
128.0555016443
20
102.1367524912
30
0.0000000000
10
128.1212473834
20
102.2138946160
30
0.0000000000
10
128.1968117806
20
102.2794811833
30
0.0000000000
11
128.0029119535
21
102.0521805947
31
0.0000000000
11
128.1968117806
21
102.2794811833
31
0.0000000000
0
SPLINE
5
3F8
100
AcDbEntity
8
0
100
AcDbSpline
62
7
6
CONTINUOUS
70
0
71
3
72
10
73
6
74
4
42
0.0000001000
43
0.0000001000
44
0.0000000001
40
0.0000000000
40
0.0000000000
40
0.0000000000
40
0.0000000000
40
0.4849242402
40
0.9698638221
40
1.0000000000
40
1.0000000000
40
1.0000000000
40
1.0000000000
10
128.1968117806
20
102.2794811833
30
0.0000000000
10
128.2723866725
20
102.3450768597
30
0.0000000000
10
128.4431819292
20
102.4531523872
30
0.0000000000
10
128.6442979246
20
102.5077593461
30
0.0000000000
10
128.7500211677
20
102.5189067913
30
0.0000000000
10
128.7562128798
20
102.5195009632
30
0.0000000000
11
128.1968117806
21
102.2794811833
31
0.0000000000
11
128.4492440034
21
102.4393725601
31
0.0000000000
11
128.7376571079
21
102.5175442328
31
0.0000000000
11
128.7562128798
21
102.5195009632
31
0.0000000000
0
SPLINE
5
3F9
100
AcDbEntity
8
0
100
AcDbSpline
62
7
6
CONTINUOUS
70
0
71
3
72
17
73
13
74
11
42
0.0000001000
43
0.0000001000
44
0.0000000001
40
0.0000000000
40
0.0000000000
40
0.0000000000
40
0.0000000000
40
0.1086901794
40
0.2448380989
40
0.3740526881
40
0.4953797723
40
0.6081232772
40
0.7118154739
40
0.8061614770
40
0.8909898604
40
0.9661439993
40
1.0000000000
40
1.0000000000
40
1.0000000000
40
1.0000000000
10
87.4665064418
20
102.7296255155
30
0.0000000000
10
87.6660191954
20
102.7296260141
30
0.0000000000
10
88.1154475443
20
102.7282343063
30
0.0000000000
10
88.8020330703
20
102.7213525639
30
0.0000000000
10
89.5117384825
20
102.7087720287
30
0.0000000000
10
90.1783782836
20
102.6918134148
30
0.0000000000
10
90.7980398382
20
102.6711644916
30
0.0000000000
10
91.3680299249
20
102.6474820698
30
0.0000000000
10
91.8866057460
20
102.6213925755
30
0.0000000000
10
92.3526490945
20
102.5934941294
30
0.0000000000
10
92.7075283761
20
102.5685150542
30
0.0000000000
10
92.9070812482
20
102.5525817165
30
0.0000000000
10
92.9690220275
20
102.5474291246
30
0.0000000000
11
87.4665064418
21
102.7296255155
31
0.0000000000
11
88.0650417227
21
102.7277769446
31
0.0000000000
11
88.8147457694
21
102.7202375595
31
0.0000000000
11
89.5261944099
21
102.7075726211
31
0.0000000000
11
90.1941026401
21
102.6905037926
31
0.0000000000
11
90.8146129510
21
102.6697261925
31
0.0000000000
11
91.3851297920
21
102.6458995620
31
0.0000000000
11
91.9040124792
21
102.6196472497
31
0.0000000000
11
92.3703025150
21
102.5915706316
31
0.0000000000
11
92.7831261426
21
102.5622968698
31
0.0000000000
11
92.9690220275
21
102.5474291246
31
0.0000000000
0
SPLINE
5
3FA
100
AcDbEntity
8
0
100
AcDbSpline
62
7
6
CONTINUOUS
70
0
71
3
72
8
73
4
74
2
42
0.0000001000
43
0.0000001000
44
0.0000000001
40
0.0000000000
40
0.0000000000
40
0.0000000000
40
0.0000000000
40
1.0000000000
40
1.0000000000
40
1.0000000000
40
1.0000000000
10
92.9690220275
20
102.5474291246
30
0.0000000000
10
93.0264259221
20
102.5426539371
30
0.0000000000
10
93.0837991745
20
102.5377034794
30
0.0000000000
10
93.1411151321
20
102.5325600981
30
0.0000000000
11
92.9690220275
21
102.5474291246
31
0.0000000000
11
93.1411151321
21
102.5325600981
31
0.0000000000
0
SPLINE
5
3FB
100
AcDbEntity
8
0
100
AcDbSpline
62
7
6
CONTINUOUS
70
0
71
3
72
8
73
4
74
2
42
0.0000001000
43
0.0000001000
44
0.0000000001
40
0.0000000000
40
0.0000000000
40
0.0000000000
40
0.0000000000
40
1.0000000000
40
1.0000000000
40
1.0000000000
40
1.0000000000
10
93.1411151321
20
102.5325600981
30
0.0000000000
10
93.1518284286
20
102.5315987155
30
0.0000000000
10
93.1625397234
20
102.5306305925
30
0.0000000000
10
93.1732497084
20
102.5296551939
30
0.0000000000
11
93.1411151321
21
102.5325600981
31
0.0000000000
11
93.1732497084
21
102.5296551939
31
0.0000000000
0
SPLINE
5
3FC
100
AcDbEntity
8
0
100
AcDbSpline
62
7
6
CONTINUOUS
70
0
71
3
72
8
73
4
74
2
42
0.0000001000
43
0.0000001000
44
0.0000000001
40
0.0000000000
40
0.0000000000
40
0.0000000000
40
0.0000000000
40
1.0000000000
40
1.0000000000
40
1.0000000000
40
1.0000000000
10
93.1732497084
20
102.5296551939
30
0.0000000000
10
93.2093215120
20
102.5263699991
30
0.0000000000
10
93.2453784573
20
102.5230022714
30
0.0000000000
10
93.2814469802
20
102.5195315596
30
0.0000000000
11
93.1732497084
21
102.5296551939
31
0.0000000000
11
93.2814469802
21
102.5195315596
31
0.0000000000
0
SPLINE
5
3FD
100
AcDbEntity
8
0
100
AcDbSpline
62
7
6
CONTINUOUS
70
0
71
3
72
9
73
5
74
3
42
0.0000001000
43
0.0000001000
44
0.0000000001
40
0.0000000000
40
0.0000000000
40
0.0000000000
40
0.0000000000
40
0.0200003749
40
1.0000000000
40
1.0000000000
40
1.0000000000
40
1.0000000000
10
84.9670296607
20
102.7534356520
30
0.0000000000
10
84.9687850802
20
102.7531197219
30
0.0000000000
10
85.0565849146
20
102.7374807197
30
0.0000000000
10
85.1458853377
20
102.7297100553
30
0.0000000000
10
85.2332445889
20
102.7296830793
30
0.0000000000
11
84.9670296607
21
102.7534356520
31
0.0000000000
11
84.9722977397
21
102.7524972976
31
0.0000000000
11
85.2332445889
21
102.7296830793
31
0.0000000000
0
SPLINE
5
3FE
100
AcDbEntity
8
0
100
AcDbSpline
62
7
6
CONTINUOUS
70
0
71
3
72
8
73
4
74
2
42
0.0000001000
43
0.0000001000
44
0.0000000001
40
0.0000000000
40
0.0000000000
40
0.0000000000
40
0.0000000000
40
1.0000000000
40
1.0000000000
40
1.0000000000
40
1.0000000000
10
85.2332445713
20
122.4972932276
30
0.0000000000
10
85.1429380589
20
122.4972932276
30
0.0000000000
10
85.0522692428
20
122.4890097118
30
0.0000000000
10
84.9629906980
20
122.4726696964
30
0.0000000000
11
85.2332445713
21
122.4972932276
31
0.0000000000
11
84.9629906980
21
122.4726696964
31
0.0000000000
0
SPLINE
5
3FF
100
AcDbEntity
8
0
100
AcDbSpline
62
7
6
CONTINUOUS
70
0
71
3
72
8
73
4
74
2
42
0.0000001000
43
0.0000001000
44
0.0000000001
40
0.0000000000
40
0.0000000000
40
0.0000000000
40
0.0000000000
40
1.0000000000
40
1.0000000000
40
1.0000000000
40
1.0000000000
10
93.2814467172
20
122.7073863388
30
0.0000000000
10
93.2341484597
20
122.7028348999
30
0.0000000000
10
93.1868709318
20
122.6984607983
30
0.0000000000
10
93.1395541708
20
122.6942179355
30
0.0000000000
11
93.2814467172
21
122.7073863388
31
0.0000000000
11
93.1395541708
21
122.6942179355
31
0.0000000000
0
SPLINE
5
400
100
AcDbEntity
8
0
100
AcDbSpline
62
7
6
CONTINUOUS
70
0
71
3
72
8
73
4
74
2
42
0.0000001000
43
0.0000001000
44
0.0000000001
40
0.0000000000
40
0.0000000000
40
0.0000000000
40
0.0000000000
40
1.0000000000
40
1.0000000000
40
1.0000000000
40
1.0000000000
10
93.1395541708
20
122.6942179355
30
0.0000000000
10
93.1206657230
20
122.6925242208
30
0.0000000000
10
93.1017710233
20
122.6908514195
30
0.0000000000
10
93.0828710296
20
122.6891989027
30
0.0000000000
11
93.1395541708
21
122.6942179355
31
0.0000000000
11
93.0828710296
21
122.6891989027
31
0.0000000000
0
SPLINE
5
401
100
AcDbEntity
8
0
100
AcDbSpline
62
7
6
CONTINUOUS
70
0
71
3
72
8
73
4
74
2
42
0.0000001000
43
0.0000001000
44
0.0000000001
40
0.0000000000
40
0.0000000000
40
0.0000000000
40
0.0000000000
40
1.0000000000
40
1.0000000000
40
1.0000000000
40
1.0000000000
10
93.0828710296
20
122.6891989027
30
0.0000000000
10
93.0442667093
20
122.6858235425
30
0.0000000000
10
93.0056403023
20
122.6825328102
30
0.0000000000
10
92.9669999720
20
122.6793213468
30
0.0000000000
11
93.0828710296
21
122.6891989027
31
0.0000000000
11
92.9669999720
21
122.6793213468
31
0.0000000000
0
SPLINE
5
402
100
AcDbEntity
8
0
100
AcDbSpline
62
7
6
CONTINUOUS
70
0
71
3
72
17
73
13
74
11
42
0.0000001000
43
0.0000001000
44
0.0000000001
40
0.0000000000
40
0.0000000000
40
0.0000000000
40
0.0000000000
40
0.0339589127
40
0.1093392443
40
0.1944180626
40
0.2890344463
40
0.3930192432
40
0.5060804393
40
0.6277523633
40
0.7573396658
40
0.8938868438
40
1.0000000000
40
1.0000000000
40
1.0000000000
40
1.0000000000
10
92.9669999720
20
122.6793213468
30
0.0000000000
10
92.9048933456
20
122.6741595597
30
0.0000000000
10
92.7048096586
20
122.6581992456
30
0.0000000000
10
92.3489990934
20
122.6331846150
30
0.0000000000
10
91.8817563996
20
122.6052566759
30
0.0000000000
10
91.3618785728
20
122.5791522983
30
0.0000000000
10
90.7904815463
20
122.5554692690
30
0.0000000000
10
90.1692945291
20
122.5348361052
30
0.0000000000
10
89.5009994693
20
122.5179122530
30
0.0000000000
10
88.7895050791
20
122.5053891767
30
0.0000000000
10
88.1064836541
20
122.4986382405
30
0.0000000000
10
87.6612170203
20
122.4972923660
30
0.0000000000
10
87.4665064419
20
122.4972928449
30
0.0000000000
11
92.9669999720
21
122.6793213468
31
0.0000000000
11
92.7806060824
21
122.6644280869
31
0.0000000000
11
92.3666901498
21
122.6351114974
31
0.0000000000
11
91.8991933426
21
122.6070045877
31
0.0000000000
11
91.3790128809
21
122.5807370129
31
0.0000000000
11
90.8070946065
21
122.5569099331
31
0.0000000000
11
90.1850629328
21
122.5361482020
31
0.0000000000
11
89.5155012660
21
122.5191143136
31
0.0000000000
11
88.8022618824
21
122.5065071878
31
0.0000000000
11
88.0506353935
21
122.4990536148
31
0.0000000000
11
87.4665064419
21
122.4972928449
31
0.0000000000
0
SPLINE
5
403
100
AcDbEntity
8
0
100
AcDbSpline
62
7
6
CONTINUOUS
70
0
71
3
72
17
73
13
74
11
42
0.0000001000
43
0.0000001000
44
0.0000000001
40
0.0000000000
40
0.0000000000
40
0.0000000000
40
0.0000000000
40
0.1086901794
40
0.2448380989
40
0.3740526881
40
0.4953797723
40
0.6081232772
40
0.7118154739
40
0.8061614770
40
0.8909898604
40
0.9661439993
40
1.0000000000
40
1.0000000000
40
1.0000000000
40
1.0000000000
10
134.5711273182
20
122.4972928819
30
0.0000000000
10
134.3716145646
20
122.4972923833
30
0.0000000000
10
133.9221862158
20
122.4986840911
30
0.0000000000
10
133.2356006897
20
122.5055658335
30
0.0000000000
10
132.5258952776
20
122.5181463687
30
0.0000000000
10
131.8592554765
20
122.5351049826
30
0.0000000000
10
131.2395939218
20
122.5557539058
30
0.0000000000
10
130.6696038352
20
122.5794363276
30
0.0000000000
10
130.1510280141
20
122.6055258219
30
0.0000000000
10
129.6849846656
20
122.6334242680
30
0.0000000000
10
129.3301053840
20
122.6584033432
30
0.0000000000
10
129.1305525119
20
122.6743366809
30
0.0000000000
10
129.0686117325
20
122.6794892728
30
0.0000000000
11
134.5711273182
21
122.4972928819
31
0.0000000000
11
133.9725920373
21
122.4991414528
31
0.0000000000
11
133.2228879907
21
122.5066808379
31
0.0000000000
11
132.5114393501
21
122.5193457763
31
0.0000000000
11
131.8435311199
21
122.5364146048
31
0.0000000000
11
131.2230208091
21
122.5571922049
31
0.0000000000
11
130.6525039680
21
122.5810188354
31
0.0000000000
11
130.1336212809
21
122.6072711478
31
0.0000000000
11
129.6673312450
21
122.6353477658
31
0.0000000000
11
129.2545076175
21
122.6646215276
31
0.0000000000
11
129.0686117325
21
122.6794892728
31
0.0000000000
0
SPLINE
5
404
100
AcDbEntity
8
0
100
AcDbSpline
62
7
6
CONTINUOUS
70
0
71
3
72
8
73
4
74
2
42
0.0000001000
43
0.0000001000
44
0.0000000001
40
0.0000000000
40
0.0000000000
40
0.0000000000
40
0.0000000000
40
1.0000000000
40
1.0000000000
40
1.0000000000
40
1.0000000000
10
129.0686117325
20
122.6794892728
30
0.0000000000
10
129.0112078379
20
122.6842644603
30
0.0000000000
10
128.9538345855
20
122.6892149180
30
0.0000000000
10
128.8965186279
20
122.6943582993
30
0.0000000000
11
129.0686117325
21
122.6794892728
31
0.0000000000
11
128.8965186279
21
122.6943582993
31
0.0000000000
0
SPLINE
5
405
100
AcDbEntity
8
0
100
AcDbSpline
62
7
6
CONTINUOUS
70
0
71
3
72
8
73
4
74
2
42
0.0000001000
43
0.0000001000
44
0.0000000001
40
0.0000000000
40
0.0000000000
40
0.0000000000
40
0.0000000000
40
1.0000000000
40
1.0000000000
40
1.0000000000
40
1.0000000000
10
128.8965186279
20
122.6943582993
30
0.0000000000
10
128.8858053314
20
122.6953196820
30
0.0000000000
10
128.8750940366
20
122.6962878050
30
0.0000000000
10
128.8643840517
20
122.6972632036
30
0.0000000000
11
128.8965186279
21
122.6943582993
31
0.0000000000
11
128.8643840517
21
122.6972632036
31
0.0000000000
0
SPLINE
5
406
100
AcDbEntity
8
0
100
AcDbSpline
62
7
6
CONTINUOUS
70
0
71
3
72
8
73
4
74
2
42
0.0000001000
43
0.0000001000
44
0.0000000001
40
0.0000000000
40
0.0000000000
40
0.0000000000
40
0.0000000000
40
1.0000000000
40
1.0000000000
40
1.0000000000
40
1.0000000000
10
128.8643840517
20
122.6972632036
30
0.0000000000
10
128.8283122480
20
122.7005483983
30
0.0000000000
10
128.7922553028
20
122.7039161260
30
0.0000000000
10
128.7561867798
20
122.7073868378
30
0.0000000000
11
128.8643840517
21
122.6972632036
31
0.0000000000
11
128.7561867798
21
122.7073868378
31
0.0000000000
0
SPLINE
5
407
100
AcDbEntity
8
0
100
AcDbSpline
62
7
6
CONTINUOUS
70
0
71
3
72
9
73
5
74
3
42
0.0000001000
43
0.0000001000
44
0.0000000001
40
0.0000000000
40
0.0000000000
40
0.0000000000
40
0.0000000000
40
0.0200003749
40
1.0000000000
40
1.0000000000
40
1.0000000000
40
1.0000000000
10
137.0706040994
20
122.4734827454
30
0.0000000000
10
137.0688486798
20
122.4737986755
30
0.0000000000
10
136.9810488455
20
122.4894376777
30
0.0000000000
10
136.8917484224
20
122.4972083421
30
0.0000000000
10
136.8043891712
20
122.4972353181
30
0.0000000000
11
137.0706040994
21
122.4734827454
31
0.0000000000
11
137.0653360204
21
122.4744210998
31
0.0000000000
11
136.8043891712
21
122.4972353181
31
0.0000000000
0
SPLINE
5
408
100
AcDbEntity
8
0
100
AcDbSpline
62
7
6
CONTINUOUS
70
0
71
3
72
8
73
4
74
2
42
0.0000001000
43
0.0000001000
44
0.0000000001
40
0.0000000000
40
0.0000000000
40
0.0000000000
40
0.0000000000
40
1.0000000000
40
1.0000000000
40
1.0000000000
40
1.0000000000
10
136.8043891887
20
102.7296251698
30
0.0000000000
10
136.8946957293
20
102.7296251698
30
0.0000000000
10
136.9853645737
20
102.7379086908
30
0.0000000000
10
137.0746431454
20
102.7542487163
30
0.0000000000
11
136.8043891887
21
102.7296251698
31
0.0000000000
11
137.0746431454
21
102.7542487163
31
0.0000000000
0
SPLINE
5
409
100
AcDbEntity
8
0
100
AcDbSpline
62
7
6
CONTINUOUS
70
0
71
3
72
8
73
4
74
2
42
0.0000001000
43
0.0000001000
44
0.0000000001
40
0.0000000000
40
0.0000000000
40
0.0000000000
40
0.0000000000
40
1.0000000000
40
1.0000000000
40
1.0000000000
40
1.0000000000
10
128.7561870429
20
102.5195320586
30
0.0000000000
10
128.8034853004
20
102.5240834975
30
0.0000000000
10
128.8507628282
20
102.5284575991
30
0.0000000000
10
128.8980795893
20
102.5327004620
30
0.0000000000
11
128.7561870429
21
102.5195320586
31
0.0000000000
11
128.8980795893
21
102.5327004620
31
0.0000000000
0
SPLINE
5
40A
100
AcDbEntity
8
0
100
AcDbSpline
62
7
6
CONTINUOUS
70
0
71
3
72
8
73
4
74
2
42
0.0000001000
43
0.0000001000
44
0.0000000001
40
0.0000000000
40
0.0000000000
40
0.0000000000
40
0.0000000000
40
1.0000000000
40
1.0000000000
40
1.0000000000
40
1.0000000000
10
128.8980795893
20
102.5327004620
30
0.0000000000
10
128.9169680370
20
102.5343941766
30
0.0000000000
10
128.9358627368
20
102.5360669779
30
0.0000000000
10
128.9547627305
20
102.5377194947
30
0.0000000000
11
128.8980795893
21
102.5327004620
31
0.0000000000
11
128.9547627305
21
102.5377194947
31
0.0000000000
0
SPLINE
5
40B
100
AcDbEntity
8
0
100
AcDbSpline
62
7
6
CONTINUOUS
70
0
71
3
72
8
73
4
74
2
42
0.0000001000
43
0.0000001000
44
0.0000000001
40
0.0000000000
40
0.0000000000
40
0.0000000000
40
0.0000000000
40
1.0000000000
40
1.0000000000
40
1.0000000000
40
1.0000000000
10
128.9547627305
20
102.5377194947
30
0.0000000000
10
128.9933670508
20
102.5410948549
30
0.0000000000
10
129.0319934578
20
102.5443855872
30
0.0000000000
10
129.0706337880
20
102.5475970506
30
0.0000000000
11
128.9547627305
21
102.5377194947
31
0.0000000000
11
129.0706337880
21
102.5475970506
31
0.0000000000
0
SPLINE
5
40C
100
AcDbEntity
8
0
100
AcDbSpline
62
7
6
CONTINUOUS
70
0
71
3
72
17
73
13
74
11
42
0.0000001000
43
0.0000001000
44
0.0000000001
40
0.0000000000
40
0.0000000000
40
0.0000000000
40
0.0000000000
40
0.0339589127
40
0.1093392443
40
0.1944180626
40
0.2890344463
40
0.3930192432
40
0.5060804393
40
0.6277523633
40
0.7573396658
40
0.8938868438
40
1.0000000000
40
1.0000000000
40
1.0000000000
40
1.0000000000
10
129.0706337880
20
102.5475970506
30
0.0000000000
10
129.1327404144
20
102.5527588377
30
0.0000000000
10
129.3328241015
20
102.5687191518
30
0.0000000000
10
129.6886346666
20
102.5937337824
30
0.0000000000
10
130.1558773605
20
102.6216617215
30
0.0000000000
10
130.6757551873
20
102.6477660991
30
0.0000000000
10
131.2471522137
20
102.6714491284
30
0.0000000000
10
131.8683392309
20
102.6920822922
30
0.0000000000
10
132.5366342907
20
102.7090061444
30
0.0000000000
10
133.2481286810
20
102.7215292207
30
0.0000000000
10
133.9311501059
20
102.7282801569
30
0.0000000000
10
134.3764167397
20
102.7296260315
30
0.0000000000
10
134.5711273182
20
102.7296255525
30
0.0000000000
11
129.0706337880
21
102.5475970506
31
0.0000000000
11
129.2570276777
21
102.5624903105
31
0.0000000000
11
129.6709436103
21
102.5918069000
31
0.0000000000
11
130.1384404175
21
102.6199138097
31
0.0000000000
11
130.6586208791
21
102.6461813845
31
0.0000000000
11
131.2305391536
21
102.6700084643
31
0.0000000000
11
131.8525708273
21
102.6907701954
31
0.0000000000
11
132.5221324941
21
102.7078040839
31
0.0000000000
11
133.2353718777
21
102.7204112096
31
0.0000000000
11
133.9869983665
21
102.7278647826
31
0.0000000000
11
134.5711273182
21
102.7296255525
31
0.0000000000
0
SPLINE
5
40D
100
AcDbEntity
8
0
100
AcDbSpline
62
7
6
CONTINUOUS
70
0
71
3
72
10
73
6
74
4
42
0.0000001000
43
0.0000001000
44
0.0000000001
40
0.0000000000
40
0.0000000000
40
0.0000000000
40
0.0000000000
40
0.1269919865
40
0.7376544488
40
1.0000000000
40
1.0000000000
40
1.0000000000
40
1.0000000000
10
147.3710058281
20
120.6078577617
30
0.0000000000
10
147.3616857166
20
120.6103627398
30
0.0000000000
10
147.3074537280
20
120.6245594383
30
0.0000000000
10
147.2332717202
20
120.6411157291
30
0.0000000000
10
147.1680913761
20
120.6534424596
30
0.0000000000
10
147.1484736414
20
120.6569770596
30
0.0000000000
11
147.3710058281
21
120.6078577617
31
0.0000000000
11
147.3429984571
21
120.6151920490
31
0.0000000000
11
147.2072279301
21
120.6458418246
31
0.0000000000
11
147.1484736414
21
120.6569770596
31
0.0000000000
0
SPLINE
5
40E
100
AcDbEntity
8
0
100
AcDbSpline
62
7
6
CONTINUOUS
70
0
71
3
72
16
73
12
74
10
42
0.0000001000
43
0.0000001000
44
0.0000000001
40
0.0000000000
40
0.0000000000
40
0.0000000000
40
0.0000000000
40
0.0873538115
40
0.2618708214
40
0.4209978042
40
0.5660526997
40
0.6968591920
40
0.8129902144
40
0.9059208323
40
0.9750548874
40
1.0000000000
40
1.0000000000
40
1.0000000000
40
1.0000000000
10
148.5729274390
20
119.1229373737
30
0.0000000000
10
148.5729282798
20
119.1831520968
30
0.0000000000
10
148.5621490917
20
119.3637783555
30
0.0000000000
10
148.4926671411
20
119.6471825044
30
0.0000000000
10
148.3428028644
20
119.9428316326
30
0.0000000000
10
148.1542416121
20
120.1771194567
30
0.0000000000
10
147.9480788968
20
120.3525016596
30
0.0000000000
10
147.7468112781
20
120.4726361176
30
0.0000000000
10
147.5705418562
20
120.5474929278
30
0.0000000000
10
147.4480945680
20
120.5866091936
30
0.0000000000
10
147.3858195423
20
120.6038894982
30
0.0000000000
10
147.3692687476
20
120.6083268140
30
0.0000000000
11
148.5729274390
21
119.1229373737
31
0.0000000000
11
148.5621272004
21
119.3031741040
31
0.0000000000
11
148.4766149402
21
119.6524706903
31
0.0000000000
11
148.3283731103
21
119.9449461694
31
0.0000000000
11
148.1410136639
21
120.1778379939
31
0.0000000000
11
147.9357695343
21
120.3525586309
31
0.0000000000
11
147.7303999629
21
120.4753926525
31
0.0000000000
11
147.5543370541
21
120.5507034703
31
0.0000000000
11
147.4187965352
21
120.5945571580
31
0.0000000000
11
147.3692687476
21
120.6083268140
31
0.0000000000
0
SPLINE
5
40F
100
AcDbEntity
8
0
100
AcDbSpline
62
7
6
CONTINUOUS
70
0
71
3
72
10
73
6
74
4
42
0.0000001000
43
0.0000001000
44
0.0000000001
40
0.0000000000
40
0.0000000000
40
0.0000000000
40
0.0000000000
40
0.2971361354
40
0.9138128397
40
1.0000000000
40
1.0000000000
40
1.0000000000
40
1.0000000000
10
74.8891866450
20
120.6569818810
30
0.0000000000
10
74.8669665909
20
120.6529788304
30
0.0000000000
10
74.7987513615
20
120.6399983730
30
0.0000000000
10
74.7246201817
20
120.6231989025
30
0.0000000000
10
74.6729737430
20
120.6095637127
30
0.0000000000
10
74.6666481596
20
120.6078636076
30
0.0000000000
11
74.8891866450
21
120.6569818810
31
0.0000000000
11
74.8226547824
21
120.6442866610
31
0.0000000000
11
74.6856466906
21
120.6128802058
31
0.0000000000
11
74.6666481596
21
120.6078636076
31
0.0000000000
0
SPLINE
5
410
100
AcDbEntity
8
0
100
AcDbSpline
62
7
6
CONTINUOUS
70
0
71
3
72
17
73
13
74
11
42
0.0000001000
43
0.0000001000
44
0.0000000001
40
0.0000000000
40
0.0000000000
40
0.0000000000
40
0.0000000000
40
0.0343727434
40
0.1029316812
40
0.1887595620
40
0.2936114450
40
0.4109570123
40
0.5384885267
40
0.6730411075
40
0.8123409557
40
0.9560477429
40
1.0000000000
40
1.0000000000
40
1.0000000000
40
1.0000000000
10
74.6677234644
20
120.6081548308
30
0.0000000000
10
74.6449142121
20
120.6020351394
30
0.0000000000
10
74.5768304498
20
120.5828860640
30
0.0000000000
10
74.4535984301
20
120.5421928365
30
0.0000000000
10
74.2898855615
20
120.4712195464
30
0.0000000000
10
74.1070842836
20
120.3632502164
30
0.0000000000
10
73.9199768315
20
120.2109161880
30
0.0000000000
10
73.7471099427
20
120.0140501723
30
0.0000000000
10
73.6042494306
20
119.7763702206
30
0.0000000000
10
73.5043740191
20
119.5055689728
30
0.0000000000
10
73.4685432449
20
119.2824192109
30
0.0000000000
10
73.4646648953
20
119.1531947164
30
0.0000000000
10
73.4646683246
20
119.1229310628
30
0.0000000000
11
74.6677234644
21
120.6081548308
31
0.0000000000
11
74.5995414246
21
120.5889068180
31
0.0000000000
11
74.4655221229
21
120.5441440067
31
0.0000000000
11
74.3033695332
21
120.4734630070
31
0.0000000000
11
74.1173910439
21
120.3634210795
31
0.0000000000
11
73.9298918055
21
120.2106705100
31
0.0000000000
11
73.7564944125
21
120.0131439735
31
0.0000000000
11
73.6136561845
21
119.7754538615
31
0.0000000000
11
73.5143142192
21
119.5060980478
31
0.0000000000
11
73.4673969891
21
119.2136640044
31
0.0000000000
11
73.4646683246
21
119.1229310628
31
0.0000000000
0
SPLINE
5
411
100
AcDbEntity
8
0
100
AcDbSpline
62
7
6
CONTINUOUS
70
0
71
3
72
10
73
6
74
4
42
0.0000001000
43
0.0000001000
44
0.0000000001
40
0.0000000000
40
0.0000000000
40
0.0000000000
40
0.0000000000
40
0.1269930209
40
0.7376615012
40
1.0000000000
40
1.0000000000
40
1.0000000000
40
1.0000000000
10
74.6666276398
20
104.6190607204
30
0.0000000000
10
74.6759478187
20
104.6165557198
30
0.0000000000
10
74.7301802771
20
104.6023588741
30
0.0000000000
10
74.8043622266
20
104.5858025843
30
0.0000000000
10
74.8695424512
20
104.5734759385
30
0.0000000000
10
74.8891596441
20
104.5699414435
30
0.0000000000
11
74.6666276398
21
104.6190607204
31
0.0000000000
11
74.6946352138
21
104.6117263676
31
0.0000000000
11
74.8304069745
21
104.5810763283
31
0.0000000000
11
74.8891596441
21
104.5699414435
31
0.0000000000
0
SPLINE
5
412
100
AcDbEntity
8
0
100
AcDbSpline
62
7
6
CONTINUOUS
70
0
71
3
72
16
73
12
74
10
42
0.0000001000
43
0.0000001000
44
0.0000000001
40
0.0000000000
40
0.0000000000
40
0.0000000000
40
0.0000000000
40
0.0873263177
40
0.2618383904
40
0.4209755916
40
0.5660380290
40
0.6968490297
40
0.8129677745
40
0.9059538528
40
0.9750860295
40
1.0000000000
40
1.0000000000
40
1.0000000000
40
1.0000000000
10
73.4647012712
20
106.1039906640
30
0.0000000000
10
73.4647003093
20
106.0437931773
30
0.0000000000
10
73.4754750677
20
105.8631841891
30
0.0000000000
10
73.5449451741
20
105.5797841145
30
0.0000000000
10
73.6948103278
20
105.2841140288
30
0.0000000000
10
73.8833845342
20
105.0498052522
30
0.0000000000
10
74.0895532192
20
104.8744177890
30
0.0000000000
10
74.2908533977
20
104.7542612955
30
0.0000000000
10
74.4671560408
20
104.6793932142
30
0.0000000000
10
74.5896257207
20
104.6402840918
30
0.0000000000
10
74.6518813421
20
104.6230116756
30
0.0000000000
10
74.6684120325
20
104.6185800628
30
0.0000000000
11
73.4647012712
21
106.1039906640
31
0.0000000000
11
73.4754950144
21
105.9238052671
31
0.0000000000
11
73.5609947716
21
105.5745052391
31
0.0000000000
11
73.7092427071
21
105.2819984692
31
0.0000000000
11
73.8966149369
21
105.0490857345
31
0.0000000000
11
74.1018719029
21
104.8743536524
31
0.0000000000
11
74.3072245909
21
104.7515270225
31
0.0000000000
11
74.4833995946
21
104.6761733904
31
0.0000000000
11
74.6189440765
21
104.6323309582
31
0.0000000000
11
74.6684120325
21
104.6185800628
31
0.0000000000
0
SPLINE
5
413
100
AcDbEntity
8
0
100
AcDbSpline
62
7
6
CONTINUOUS
70
0
71
3
72
10
73
6
74
4
42
0.0000001000
43
0.0000001000
44
0.0000000001
40
0.0000000000
40
0.0000000000
40
0.0000000000
40
0.0000000000
40
0.2971419988
40
0.9138137329
40
1.0000000000
40
1.0000000000
40
1.0000000000
40
1.0000000000
10
147.1484463339
20
104.5699363523
30
0.0000000000
10
147.1706668751
20
104.5739394959
30
0.0000000000
10
147.2388823141
20
104.5869200511
30
0.0000000000
10
147.3130136607
20
104.6037195382
30
0.0000000000
10
147.3646597890
20
104.6173546226
30
0.0000000000
10
147.3709853218
20
104.6190547110
30
0.0000000000
11
147.1484463339
21
104.5699363523
31
0.0000000000
11
147.2149796511
21
104.5826318894
31
0.0000000000
11
147.3519869434
21
104.6140381617
31
0.0000000000
11
147.3709853218
21
104.6190547110
31
0.0000000000
0
SPLINE
5
414
100
AcDbEntity
8
0
100
AcDbSpline
62
7
6
CONTINUOUS
70
0
71
3
72
17
73
13
74
11
42
0.0000001000
43
0.0000001000
44
0.0000000001
40
0.0000000000
40
0.0000000000
40
0.0000000000
40
0.0000000000
40
0.0343727482
40
0.1029316878
40
0.1887595696
40
0.2936114529
40
0.4109570196
40
0.5384885332
40
0.6730411126
40
0.8123409594
40
0.9560477449
40
1.0000000000
40
1.0000000000
40
1.0000000000
40
1.0000000000
10
147.3699102962
20
104.6187635668
30
0.0000000000
10
147.3927195517
20
104.6248832591
30
0.0000000000
10
147.4608033183
20
104.6440323359
30
0.0000000000
10
147.5840353429
20
104.6847255657
30
0.0000000000
10
147.7477482128
20
104.7556988580
30
0.0000000000
10
147.9305494902
20
104.8636681899
30
0.0000000000
10
148.1176569403
20
105.0160022196
30
0.0000000000
10
148.2905238262
20
105.2128682354
30
0.0000000000
10
148.4333843353
20
105.4505481860
30
0.0000000000
10
148.5332597443
20
105.7213494315
30
0.0000000000
10
148.5690905171
20
105.9444991901
30
0.0000000000
10
148.5729688665
20
106.0737236820
30
0.0000000000
10
148.5729654372
20
106.1039873343
30
0.0000000000
11
147.3699102962
21
104.6187635668
31
0.0000000000
11
147.4380923456
21
104.6380115825
31
0.0000000000
11
147.5721116505
21
104.6827743957
31
0.0000000000
11
147.7342642416
21
104.7534553976
31
0.0000000000
11
147.9202427303
21
104.8634973269
31
0.0000000000
11
148.1077419665
21
105.0162478976
31
0.0000000000
11
148.2811393567
21
105.2137744343
31
0.0000000000
11
148.4239775816
21
105.4514645451
31
0.0000000000
11
148.5233195444
21
105.7208203566
31
0.0000000000
11
148.5702367729
21
106.0132543967
31
0.0000000000
11
148.5729654372
21
106.1039873343
31
0.0000000000
0
ENDSEC
0
SECTION
2
OBJECTS
0
DICTIONARY
5
415
100
AcDbDictionary
3
ACAD_GROUP
350
416
3
ACAD_MLINESTYLE
350
417
0
DICTIONARY
5
416
102
{ACAD_REACTORS
330
415
102
}
100
AcDbDictionary
0
DICTIONARY
5
417
102
{ACAD_REACTORS
330
415
102
}
100
AcDbDictionary
3
STANDARD
350
418
0
MLINESTYLE
5
418
102
{ACAD_REACTORS
330
417
102
}
100
AcDbMlineStyle
2
STANDARD
70
0
3

62
256
51
90.0
52
90.0
71
2
49
0.5
62
256
6
BYLAYER
49
-0.5
62
256
6
BYLAYER
0
ENDSEC
0
EOF
