999
DXF file: C:\Aktuell-Internet\CAD-Daten\2rs-m16.dxf
999
Pro/ENGINEER 2001400 by Parametric Technology Corporation
0
SECTION
2
HEADER
9
$ACADVER
1
AC1014
9
$EXTMAX
10
420.0000000000
20
297.0000000000
9
$EXTMIN
10
0.0000000000
20
0.0000000000
9
$LIMMIN
10
0.0000000000
20
0.0000000000
9
$LIMMAX
10
420.0000000000
20
297.0000000000
9
$VIEWCTR
10
210.0000000000
20
148.5000000000
9
$VIEWSIZE
40
297.0000000000
9
$CLAYER
8
0
9
$LTSCALE
40
23.1000000000
9
$CELTYPE
6
BYLAYER
9
$DIMSCALE
40
1
9
$DIMASZ
40
3.5000000000
9
$DIMEXO
40
2.6250000000
9
$DIMDLI
40
15.9600000000
9
$DIMEXE
40
7.5600000000
9
$DIMCEN
40
3.7800000000
9
$DIMLFAC
40
1.0000000000
9
$DIMTXT
40
3.5000000000
9
$DIMTOL
70
1
9
$DIMTFAC
40
0.6000000000
9
$DIMTP
40
0.0050000000
9
$DIMTM
40
0.0050000000
9
$HANDSEED
5
432
0
ENDSEC
0
SECTION
2
CLASSES
0
ENDSEC
0
SECTION
2
TABLES
0
TABLE
2
VPORT
5
8
100
AcDbSymbolTable
70
2
0
VPORT
5
1F4
100
AcDbSymbolTableRecord
100
AcDbViewportTableRecord
2
*ACTIVE
70
0
10
0.0
20
0.0
11
1.0
21
1.0
12
210.0000000000
22
148.5000000000
13
0.0
23
0.0
14
1.0
24
1.0
15
0.0
25
0.0
16
0.0
26
0.0
36
1.0
17
0.0
27
0.0
37
0.0
40
297.0000000000
41
1.4141414141
42
50.0
43
0.0
44
0.0
50
0.0
51
0.0
71
0
72
100
73
1
74
1
75
0
76
0
77
0
78
0
0
ENDTAB
0
TABLE
2
LTYPE
5
5
100
AcDbSymbolTable
70
6
0
LTYPE
5
14
100
AcDbSymbolTableRecord
100
AcDbLinetypeTableRecord
2
BYBLOCK
70
0
3

72
65
73
0
40
0.0
0
LTYPE
5
15
100
AcDbSymbolTableRecord
100
AcDbLinetypeTableRecord
2
BYLAYER
70
0
3

72
65
73
0
40
0.0
0
LTYPE
5
16
100
AcDbSymbolTableRecord
100
AcDbLinetypeTableRecord
2
CONTINUOUS
70
64
3
Solid line
72
65
73
0
40
0
0
LTYPE
5
1F5
100
AcDbSymbolTableRecord
100
AcDbLinetypeTableRecord
2
CENTER
70
64
3
____ _ ____ _ ____ _ ____ _ ____ _ ____ _ ____
72
65
73
4
40
0.6
49
0.375
74
0
49
-0.075
74
0
49
0.075
74
0
49
-0.075
74
0
0
LTYPE
5
1F6
100
AcDbSymbolTableRecord
100
AcDbLinetypeTableRecord
2
HIDDEN
70
64
3
- - - - - - - - - - - - - - - - - - - -
72
65
73
2
40
0.2
49
0.1
74
0
49
-0.1
74
0
0
LTYPE
5
1F7
100
AcDbSymbolTableRecord
100
AcDbLinetypeTableRecord
2
PHANTOM
70
64
3
_____ _ _ _____ _ _ _____ _ _ _____
72
65
73
6
40
0.8
49
0.45
74
0
49
-0.05
74
0
49
0.1
74
0
49
-0.05
74
0
49
0.1
74
0
49
-0.05
74
0
0
LTYPE
5
1F8
100
AcDbSymbolTableRecord
100
AcDbLinetypeTableRecord
2
DOT
70
64
3
. . . . . . . . . . . . . . . . . . . .
72
65
73
2
40
0.2
49
0.1
74
0
49
-0.1
74
0
0
LTYPE
5
1F9
100
AcDbSymbolTableRecord
100
AcDbLinetypeTableRecord
2
DASHED
70
64
3
- - - - - - - - - - - - - - - - - - - -
72
65
73
2
40
0.2
49
0.1
74
0
49
-0.1
74
0
0
ENDTAB
0
TABLE
2
LAYER
5
2
100
AcDbSymbolTable
70
36
0
LAYER
5
10
100
AcDbSymbolTableRecord
100
AcDbLayerTableRecord
2
0
70
0
62
7
6
CONTINUOUS
0
LAYER
5
1FA
100
AcDbSymbolTableRecord
100
AcDbLayerTableRecord
2
DEFAULT_1
70
0
62
7
6
CENTER
0
LAYER
5
1FB
100
AcDbSymbolTableRecord
100
AcDbLayerTableRecord
2
DEFAULT_2
70
0
62
8
6
HIDDEN
0
LAYER
5
1FC
100
AcDbSymbolTableRecord
100
AcDbLayerTableRecord
2
DEFAULT_3
70
0
62
7
6
PHANTOM
0
ENDTAB
0
TABLE
2
STYLE
5
3
100
AcDbSymbolTable
70
1
0
STYLE
5
11
100
AcDbSymbolTableRecord
100
AcDbTextStyleTableRecord
2
STANDARD
70
0
40
0.0
41
1.0
50
0.0
71
0
42
0.0
3
txt
4

0
STYLE
5
1FD
100
AcDbSymbolTableRecord
100
AcDbTextStyleTableRecord
2
TEXTSTYLE_0
70
0
40
0.0
41
0.80
50
0.0
71
0
42
0.2
3
txt
4

0
ENDTAB
0
TABLE
2
VIEW
5
6
100
AcDbSymbolTable
70
0
0
ENDTAB
0
TABLE
2
UCS
5
7
100
AcDbSymbolTable
70
0
0
ENDTAB
0
TABLE
2
APPID
5
9
100
AcDbSymbolTable
70
1
0
APPID
5
1FE
100
AcDbSymbolTableRecord
100
AcDbRegAppTableRecord
2
ACAD
70
0
0
ENDTAB
0
TABLE
2
DIMSTYLE
5
A
100
AcDbSymbolTable
70
1
0
DIMSTYLE
105
1FF
100
AcDbSymbolTableRecord
100
AcDbDimStyleTableRecord
2
STANDARD
70
0
3

4

5

6

7

40
1.0
41
0.18
42
0.0625
43
0.38
44
0.18
45
0.0
46
0.0
47
0.0050000000
48
0.0050000000
140
3.5000000000
141
0.09
142
0.0
143
25.4
144
1.0000000000
145
0.0
146
0.6000000000
147
0.09
71
1
72
0
73
1
74
1
75
0
76
0
77
0
78
0
170
0
171
2
172
0
173
0
174
0
175
0
176
0
177
0
178
0
270
2
271
3
272
4
273
2
274
2
340
11
275
0
280
0
281
0
282
0
283
1
284
0
285
0
286
0
287
3
288
0
0
ENDTAB
0
TABLE
2
BLOCK_RECORD
5
1
100
AcDbSymbolTable
70
0
0
BLOCK_RECORD
5
1B
100
AcDbSymbolTableRecord
100
AcDbBlockTableRecord
2
*MODEL_SPACE
0
BLOCK_RECORD
5
1C
100
AcDbSymbolTableRecord
100
AcDbBlockTableRecord
2
*PAPER_SPACE
0
ENDTAB
0
ENDSEC
0
SECTION
2
BLOCKS
0
BLOCK
5
1E
100
AcDbEntity
8
0
100
AcDbBlockBegin
2
*MODEL_SPACE
70
0
10
0.0
20
0.0
30
0.0
3
*MODEL_SPACE
1

0
ENDBLK
5
1F
100
AcDbEntity
8
0
100
AcDbBlockEnd
0
BLOCK
5
20
100
AcDbEntity
8
0
100
AcDbBlockBegin
2
*PAPER_SPACE
70
0
10
0.0
20
0.0
30
0.0
3
*PAPER_SPACE
1

0
ENDBLK
5
21
100
AcDbEntity
8
0
100
AcDbBlockEnd
0
ENDSEC
0
SECTION
2
ENTITIES
0
TEXT
5
200
100
AcDbEntity
8
0
100
AcDbText
62
2
6
CONTINUOUS
10
113.8276718520
20
114.2652445153
7
TEXTSTYLE_0
40
3.5000000000
1
RUD
72
5
11
122.4943385186
21
114.2652445153
100
AcDbText
0
TEXT
5
201
100
AcDbEntity
8
0
100
AcDbText
62
2
6
CONTINUOUS
10
113.5550976134
20
107.5417466303
7
TEXTSTYLE_0
40
3.5000000000
1
RS M16
72
5
11
129.5550976134
21
107.5417466303
100
AcDbText
0
TEXT
5
202
100
AcDbEntity
8
0
100
AcDbText
62
2
6
CONTINUOUS
10
293.3632369984
20
202.3067235775
7
TEXTSTYLE_0
40
3.5000000000
1
RUD
50
90.0000000000
72
5
11
293.3632369984
21
210.9733902442
100
AcDbText
0
TEXT
5
203
100
AcDbEntity
8
0
100
AcDbText
62
2
6
CONTINUOUS
10
300.6318833606
20
202.6701559624
7
TEXTSTYLE_0
40
3.5000000000
1
RS M16
50
90.0000000000
72
5
11
300.6318833606
21
218.6701559624
100
AcDbText
0
LINE
5
204
100
AcDbEntity
8
0
100
AcDbLine
62
7
6
CONTINUOUS
10
0.0000000000
20
0.0000000000
11
0.0000000000
21
297.0000000000
0
LINE
5
205
100
AcDbEntity
8
0
100
AcDbLine
62
7
6
CONTINUOUS
10
0.0000000000
20
0.0000000000
11
420.0000000000
21
0.0000000000
0
LINE
5
206
100
AcDbEntity
8
0
100
AcDbLine
62
7
6
CONTINUOUS
10
0.0000000000
20
297.0000000000
11
420.0000000000
21
297.0000000000
0
LINE
5
207
100
AcDbEntity
8
0
100
AcDbLine
62
7
6
CONTINUOUS
10
420.0000000000
20
0.0000000000
11
420.0000000000
21
297.0000000000
0
LINE
5
208
100
AcDbEntity
8
0
100
AcDbLine
62
7
6
CONTINUOUS
10
117.7188218795
20
169.9102559507
11
104.3188218795
21
169.9102559507
0
LINE
5
209
100
AcDbEntity
8
0
100
AcDbLine
62
7
6
CONTINUOUS
10
89.2058662347
20
247.3879959961
11
109.4880881500
21
255.7891673885
0
LINE
5
20A
100
AcDbEntity
8
0
100
AcDbLine
62
7
6
CONTINUOUS
10
119.0188218795
20
171.2102559507
11
103.0188218795
21
171.2102559507
0
LINE
5
20B
100
AcDbEntity
8
0
100
AcDbLine
62
7
6
CONTINUOUS
10
87.6717125960
20
239.9697048466
11
87.7890778872
21
240.0828402928
0
LINE
5
20C
100
AcDbEntity
8
0
100
AcDbLine
62
7
6
CONTINUOUS
10
95.9499107928
20
247.9313448639
11
95.6468019014
21
247.7563448639
0
LINE
5
20D
100
AcDbEntity
8
0
100
AcDbLine
62
7
6
CONTINUOUS
10
99.6963013098
20
249.4924061434
11
99.4437103743
21
249.3465726988
0
LINE
5
20E
100
AcDbEntity
8
0
100
AcDbLine
62
7
6
CONTINUOUS
10
100.5498735458
20
249.2973094411
11
99.9941737190
21
248.9764759965
0
LINE
5
20F
100
AcDbEntity
8
0
100
AcDbLine
62
7
6
CONTINUOUS
10
99.7415827835
20
248.8306425519
11
99.3374379805
21
248.5973094411
0
LINE
5
210
100
AcDbEntity
8
0
100
AcDbLine
62
7
6
CONTINUOUS
10
99.4863741330
20
248.3393444579
11
99.8905189360
21
248.5726775687
0
LINE
5
211
100
AcDbEntity
8
0
100
AcDbLine
62
7
6
CONTINUOUS
10
100.1431098715
20
248.7185110133
11
100.6988096983
21
249.0393444579
0
LINE
5
212
100
AcDbEntity
8
0
100
AcDbLine
62
7
6
CONTINUOUS
10
108.9921551572
20
250.8653622937
11
108.8171551572
21
250.7908942175
0
LINE
5
213
100
AcDbEntity
8
0
100
AcDbLine
62
7
6
CONTINUOUS
10
78.6399104417
20
224.9409896801
11
87.0410818341
21
245.2232115955
0
LINE
5
214
100
AcDbEntity
8
0
100
AcDbLine
62
7
6
CONTINUOUS
10
87.3583982280
20
240.0483817153
11
87.2802518532
21
239.8642803935
0
LINE
5
215
100
AcDbEntity
8
0
100
AcDbLine
62
7
6
CONTINUOUS
10
86.8113744990
20
238.7596745694
11
86.6941551605
21
238.4835231133
0
LINE
5
216
100
AcDbEntity
8
0
100
AcDbLine
62
7
6
CONTINUOUS
10
86.4206432960
20
237.8391695403
11
86.2448142882
21
237.4249423563
0
LINE
5
217
100
AcDbEntity
8
0
100
AcDbLine
62
7
6
CONTINUOUS
10
85.6587175954
20
236.0441850761
11
85.4828885876
21
235.6299578920
0
LINE
5
218
100
AcDbEntity
8
0
100
AcDbLine
62
7
6
CONTINUOUS
10
84.0762566369
20
232.3161406830
11
83.9785737802
21
232.0860142940
0
LINE
5
219
100
AcDbEntity
8
0
100
AcDbLine
62
7
6
CONTINUOUS
10
83.2361846733
20
230.3370551603
11
82.7673073191
21
229.2324493361
0
LINE
5
21A
100
AcDbEntity
8
0
100
AcDbLine
62
7
6
CONTINUOUS
10
83.1783047674
20
229.3838993830
11
83.5494993208
21
230.2583789499
0
LINE
5
21B
100
AcDbEntity
8
0
100
AcDbLine
62
7
6
CONTINUOUS
10
87.5544932574
20
239.6935533906
11
87.6717125960
21
239.9697048466
0
LINE
5
21C
100
AcDbEntity
8
0
100
AcDbLine
62
7
6
CONTINUOUS
10
87.5148364830
20
240.2535672957
11
87.3583982280
21
240.0483817153
0
LINE
5
21D
100
AcDbEntity
8
0
100
AcDbLine
62
7
6
CONTINUOUS
10
88.5332189260
20
239.8756080287
11
88.3767802238
21
239.6704213948
0
LINE
5
21E
100
AcDbEntity
8
0
100
AcDbLine
62
7
6
CONTINUOUS
10
84.2326950037
20
232.5213265267
11
84.0762566369
21
232.3161406830
0
LINE
5
21F
100
AcDbEntity
8
0
100
AcDbLine
62
7
6
CONTINUOUS
10
83.3926230960
20
230.5422411357
11
83.2361846733
21
230.3370551603
0
LINE
5
220
100
AcDbEntity
8
0
100
AcDbLine
62
7
6
CONTINUOUS
10
89.8853281534
20
238.4869014298
11
90.0417664136
21
238.6920870080
0
LINE
5
221
100
AcDbEntity
8
0
100
AcDbLine
62
7
6
CONTINUOUS
10
88.6900950390
20
239.5917455795
11
88.8074603302
21
239.7048810257
0
LINE
5
222
100
AcDbEntity
8
0
100
AcDbLine
62
7
6
CONTINUOUS
10
89.7284515572
20
238.7707628408
11
89.6110862660
21
238.6576273946
0
LINE
5
223
100
AcDbEntity
8
0
100
AcDbLine
62
7
6
CONTINUOUS
10
84.4483268504
20
232.2125240591
11
84.5656921416
21
232.3256595053
0
LINE
5
224
100
AcDbEntity
8
0
100
AcDbLine
62
7
6
CONTINUOUS
10
109.0504886018
20
250.4930219125
11
109.2838218795
21
250.6419580650
0
LINE
5
225
100
AcDbEntity
8
0
100
AcDbLine
62
7
6
CONTINUOUS
10
97.3968019014
20
244.7252559507
11
97.6999107928
21
244.9002559507
0
LINE
5
226
100
AcDbEntity
8
0
100
AcDbLine
62
7
6
CONTINUOUS
10
87.7887859818
20
240.4088723125
11
87.5148364830
21
240.2535672957
0
LINE
5
227
100
AcDbEntity
8
0
100
AcDbLine
62
7
6
CONTINUOUS
10
88.8071684249
20
240.0309130454
11
88.5332189260
21
239.8756080287
0
LINE
5
228
100
AcDbEntity
8
0
100
AcDbLine
62
7
6
CONTINUOUS
10
89.6113781919
20
238.3315953662
11
89.8853281534
21
238.4869014298
0
LINE
5
229
100
AcDbEntity
8
0
100
AcDbLine
62
7
6
CONTINUOUS
10
87.7890778872
20
240.0828402928
11
87.9651988003
21
240.1710354572
0
LINE
5
22A
100
AcDbEntity
8
0
100
AcDbLine
62
7
6
CONTINUOUS
10
88.8074603302
20
239.7048810257
11
88.9835812434
21
239.7930761901
0
LINE
5
22B
100
AcDbEntity
8
0
100
AcDbLine
62
7
6
CONTINUOUS
10
89.6110862660
20
238.6576273946
11
89.4349653529
21
238.5694322302
0
LINE
5
22C
100
AcDbEntity
8
0
100
AcDbLine
62
7
6
CONTINUOUS
10
101.2999834473
20
247.0647472021
11
101.6403263800
21
247.1752559507
0
LINE
5
22D
100
AcDbEntity
8
0
100
AcDbLine
62
7
6
CONTINUOUS
10
111.4421553241
20
249.3015325364
11
111.2088218795
21
249.2270644602
0
LINE
5
22E
100
AcDbEntity
8
0
100
AcDbLine
62
7
6
CONTINUOUS
10
114.2421549903
20
249.3015325364
11
114.0088218795
21
249.2270644602
0
LINE
5
22F
100
AcDbEntity
8
0
100
AcDbLine
62
7
6
CONTINUOUS
10
103.0188218795
20
171.2102559507
11
104.3188218795
21
169.9102559507
0
LINE
5
230
100
AcDbEntity
8
0
100
AcDbLine
62
7
6
CONTINUOUS
10
83.9785737802
20
232.0860142940
11
83.9591832510
21
231.8769732171
0
LINE
5
231
100
AcDbEntity
8
0
100
AcDbLine
62
7
6
CONTINUOUS
10
84.3311075118
20
231.9363726031
11
84.4483268504
21
232.2125240591
0
LINE
5
232
100
AcDbEntity
8
0
100
AcDbLine
62
7
6
CONTINUOUS
10
84.8593242986
20
232.3639741060
11
84.9765436372
21
232.6401255621
0
LINE
5
233
100
AcDbEntity
8
0
100
AcDbLine
62
7
6
CONTINUOUS
10
88.1805390771
20
240.1882657993
11
88.2782217102
21
240.4183916615
0
LINE
5
234
100
AcDbEntity
8
0
100
AcDbLine
62
7
6
CONTINUOUS
10
88.3767802238
20
239.6704213948
11
88.2790975908
21
239.4402955326
0
LINE
5
235
100
AcDbEntity
8
0
100
AcDbLine
62
7
6
CONTINUOUS
10
85.2709057221
20
231.8633600437
11
85.1536863836
21
231.5872085877
0
LINE
5
236
100
AcDbEntity
8
0
100
AcDbLine
62
7
6
CONTINUOUS
10
84.4308338145
20
229.8842746527
11
84.0596392611
21
229.0097950858
0
LINE
5
237
100
AcDbEntity
8
0
100
AcDbLine
62
7
6
CONTINUOUS
10
88.5533389950
20
239.2695685297
11
88.6900950390
21
239.5917455795
0
LINE
5
238
100
AcDbEntity
8
0
100
AcDbLine
62
7
6
CONTINUOUS
10
84.4121729927
20
228.8601533949
11
84.7442944426
21
229.6425824984
0
LINE
5
239
100
AcDbEntity
8
0
100
AcDbLine
62
7
6
CONTINUOUS
10
85.5062201152
20
231.4375668967
11
85.6234394538
21
231.7137183528
0
LINE
5
23A
100
AcDbEntity
8
0
100
AcDbLine
62
7
6
CONTINUOUS
10
85.7808996833
20
230.7777923561
11
85.6636802889
21
230.5016407684
0
LINE
5
23B
100
AcDbEntity
8
0
100
AcDbLine
62
7
6
CONTINUOUS
10
86.5047739063
20
231.3396140730
11
86.3484814922
21
230.9714122194
0
LINE
5
23C
100
AcDbEntity
8
0
100
AcDbLine
62
7
6
CONTINUOUS
10
89.8652076013
20
239.0929398907
11
89.7284515572
21
238.7707628408
0
LINE
5
23D
100
AcDbEntity
8
0
100
AcDbLine
62
7
6
CONTINUOUS
10
85.5288218795
20
228.0602559507
11
85.6460412181
21
228.3364074067
0
LINE
5
23E
100
AcDbEntity
8
0
100
AcDbLine
62
7
6
CONTINUOUS
10
86.1344551100
20
229.4870384296
11
86.2712110423
21
229.8092152161
0
LINE
5
23F
100
AcDbEntity
8
0
100
AcDbLine
62
7
6
CONTINUOUS
10
86.7010152650
20
230.8217705110
11
86.8573076791
21
231.1899723646
0
LINE
5
240
100
AcDbEntity
8
0
100
AcDbLine
62
7
6
CONTINUOUS
10
88.2444031480
20
234.4577645066
11
88.3616224865
21
234.7339159626
0
LINE
5
241
100
AcDbEntity
8
0
100
AcDbLine
62
7
6
CONTINUOUS
10
88.6351343510
20
235.3782695356
11
88.7914268769
21
235.7464716526
0
LINE
5
242
100
AcDbEntity
8
0
100
AcDbLine
62
7
6
CONTINUOUS
10
89.0649385178
20
236.3908246988
11
89.1821578564
21
236.6669761549
0
LINE
5
243
100
AcDbEntity
8
0
100
AcDbLine
62
7
6
CONTINUOUS
10
89.4556697208
20
237.3113297279
11
89.5728890594
21
237.5874811839
0
LINE
5
244
100
AcDbEntity
8
0
100
AcDbLine
62
7
6
CONTINUOUS
10
90.0417664136
20
238.6920870080
11
90.1394490466
21
238.9222128703
0
LINE
5
245
100
AcDbEntity
8
0
100
AcDbLine
62
7
6
CONTINUOUS
10
85.4273442007
20
232.0685461508
11
85.2709057221
21
231.8633600437
0
LINE
5
246
100
AcDbEntity
8
0
100
AcDbLine
62
7
6
CONTINUOUS
10
86.5445768930
20
230.6165846694
11
86.7010152650
21
230.8217705110
0
LINE
5
247
100
AcDbEntity
8
0
100
AcDbLine
62
7
6
CONTINUOUS
10
85.6234394538
20
231.7137183528
11
85.7603413387
21
231.8728791294
0
LINE
5
248
100
AcDbEntity
8
0
100
AcDbLine
62
7
6
CONTINUOUS
10
85.3693183421
20
231.2784063835
11
85.5062201152
21
231.4375668967
0
LINE
5
249
100
AcDbEntity
8
0
100
AcDbLine
62
7
6
CONTINUOUS
10
86.3484814922
20
230.9714122194
11
86.2115796073
21
230.8122514428
0
LINE
5
24A
100
AcDbEntity
8
0
100
AcDbLine
62
7
6
CONTINUOUS
10
83.5494993208
20
230.2583789499
11
83.6668646120
21
230.3715143961
0
LINE
5
24B
100
AcDbEntity
8
0
100
AcDbLine
62
7
6
CONTINUOUS
10
85.1536863836
20
231.5872085877
11
85.0363210924
21
231.4740731415
0
LINE
5
24C
100
AcDbEntity
8
0
100
AcDbLine
62
7
6
CONTINUOUS
10
85.6230015958
20
232.2027663823
11
85.4273442007
21
232.0685461508
0
LINE
5
24D
100
AcDbEntity
8
0
100
AcDbLine
62
7
6
CONTINUOUS
10
85.1736608353
20
231.1441858886
11
85.3693183421
21
231.2784063835
0
LINE
5
24E
100
AcDbEntity
8
0
100
AcDbLine
62
7
6
CONTINUOUS
10
111.5004884349
20
248.8547240334
11
111.7338218795
21
249.0036602054
0
LINE
5
24F
100
AcDbEntity
8
0
100
AcDbLine
62
7
6
CONTINUOUS
10
114.3004887687
20
248.8547240334
11
114.5338218795
21
249.0036602054
0
LINE
5
250
100
AcDbEntity
8
0
100
AcDbLine
62
7
6
CONTINUOUS
10
84.4871081324
20
232.6306067397
11
84.2326950037
21
232.5213265267
0
LINE
5
251
100
AcDbEntity
8
0
100
AcDbLine
62
7
6
CONTINUOUS
10
84.3312534645
20
231.7733565933
11
84.3311075118
21
231.9363726031
0
LINE
5
252
100
AcDbEntity
8
0
100
AcDbLine
62
7
6
CONTINUOUS
10
84.4306878619
20
230.0472906625
11
84.4308338145
21
229.8842746527
0
LINE
5
253
100
AcDbEntity
8
0
100
AcDbLine
62
7
6
CONTINUOUS
10
86.5241645473
20
231.5486554133
11
86.5047739063
21
231.3396140730
0
LINE
5
254
100
AcDbEntity
8
0
100
AcDbLine
62
7
6
CONTINUOUS
10
87.2802518532
20
239.8642803935
11
87.2413248421
21
239.6092142495
0
LINE
5
255
100
AcDbEntity
8
0
100
AcDbLine
62
7
6
CONTINUOUS
10
86.8573076791
20
231.1899723646
11
86.8962349087
21
231.4450390376
0
LINE
5
256
100
AcDbEntity
8
0
100
AcDbLine
62
7
6
CONTINUOUS
10
88.2790975908
20
239.4402955326
11
88.2401705796
21
239.1852293886
0
LINE
5
257
100
AcDbEntity
8
0
100
AcDbLine
62
7
6
CONTINUOUS
10
109.1088218795
20
251.0142984461
11
108.9921551572
21
250.8653622937
0
LINE
5
258
100
AcDbEntity
8
0
100
AcDbLine
62
7
6
CONTINUOUS
10
111.6171553241
20
249.4504687410
11
111.4421553241
21
249.3015325364
0
LINE
5
259
100
AcDbEntity
8
0
100
AcDbLine
62
7
6
CONTINUOUS
10
114.4171549903
20
249.4504687410
11
114.2421549903
21
249.3015325364
0
LINE
5
25A
100
AcDbEntity
8
0
100
AcDbLine
62
7
6
CONTINUOUS
10
86.2706271551
20
230.4612791325
11
86.5445768930
21
230.6165846694
0
LINE
5
25B
100
AcDbEntity
8
0
100
AcDbLine
62
7
6
CONTINUOUS
10
85.7603413387
20
231.8728791294
11
85.9364622518
21
231.9610742938
0
LINE
5
25C
100
AcDbEntity
8
0
100
AcDbLine
62
7
6
CONTINUOUS
10
85.0363210924
20
231.4740731415
11
84.8602001792
21
231.3858779771
0
LINE
5
25D
100
AcDbEntity
8
0
100
AcDbLine
62
7
6
CONTINUOUS
10
83.6470361689
20
230.6515212170
11
83.3926230960
21
230.5422411357
0
LINE
5
25E
100
AcDbEntity
8
0
100
AcDbLine
62
7
6
CONTINUOUS
10
119.0188218795
20
187.9102559507
11
103.0188218795
21
187.9102559507
0
LINE
5
25F
100
AcDbEntity
8
0
100
AcDbLine
62
7
6
CONTINUOUS
10
87.2915811633
20
200.9925414278
11
78.6399104417
21
221.8795222212
0
LINE
5
260
100
AcDbEntity
8
0
100
AcDbLine
62
7
6
CONTINUOUS
10
87.5546392101
20
239.5305373807
11
87.5544932574
21
239.6935533906
0
LINE
5
261
100
AcDbEntity
8
0
100
AcDbLine
62
7
6
CONTINUOUS
10
88.5534849477
20
239.1065525198
11
88.5533389950
21
239.2695685297
0
LINE
5
262
100
AcDbEntity
8
0
100
AcDbLine
62
7
6
CONTINUOUS
10
90.1394490466
20
238.9222128703
11
90.1783764998
21
239.1772800699
0
LINE
5
263
100
AcDbEntity
8
0
100
AcDbLine
62
7
6
CONTINUOUS
10
111.7338218795
20
249.0036602054
11
111.9671553241
21
249.3015325364
0
LINE
5
264
100
AcDbEntity
8
0
100
AcDbLine
62
7
6
CONTINUOUS
10
117.5188218795
20
189.4102559507
11
104.5188218795
21
189.4102559507
0
LINE
5
265
100
AcDbEntity
8
0
100
AcDbLine
62
7
6
CONTINUOUS
10
83.9591832510
20
231.8769732171
11
83.9985482319
21
231.6429915950
0
LINE
5
266
100
AcDbEntity
8
0
100
AcDbLine
62
7
6
CONTINUOUS
10
84.7440025652
20
229.9686145839
11
84.7046375284
21
230.2025960743
0
LINE
5
267
100
AcDbEntity
8
0
100
AcDbLine
62
7
6
CONTINUOUS
10
89.8650616486
20
239.2559559005
11
89.8652076013
21
239.0929398907
0
LINE
5
268
100
AcDbEntity
8
0
100
AcDbLine
62
7
6
CONTINUOUS
10
95.6468019014
20
247.7563448639
11
95.6043312769
21
247.1299061434
0
LINE
5
269
100
AcDbEntity
8
0
100
AcDbLine
62
7
6
CONTINUOUS
10
109.2838218795
20
250.6419580650
11
109.4588218795
21
250.9398303699
0
LINE
5
26A
100
AcDbEntity
8
0
100
AcDbLine
62
7
6
CONTINUOUS
10
114.5338218795
20
249.0036602054
11
114.7671549903
21
249.3015325364
0
LINE
5
26B
100
AcDbEntity
8
0
100
AcDbLine
62
7
6
CONTINUOUS
10
93.5188218795
20
193.9102559507
11
128.5188218795
21
193.9102559507
0
LINE
5
26C
100
AcDbEntity
8
0
100
AcDbLine
62
7
6
CONTINUOUS
10
84.3901550391
20
231.5854003016
11
84.3312534645
21
231.7733565933
0
LINE
5
26D
100
AcDbEntity
8
0
100
AcDbLine
62
7
6
CONTINUOUS
10
86.4652629316
20
231.7366117225
11
86.5241645473
21
231.5486554133
0
LINE
5
26E
100
AcDbEntity
8
0
100
AcDbLine
62
7
6
CONTINUOUS
10
86.8962349087
20
231.4450390376
11
86.8568698005
21
231.6790204029
0
LINE
5
26F
100
AcDbEntity
8
0
100
AcDbLine
62
7
6
CONTINUOUS
10
93.5188218795
20
193.9102559507
11
93.5188218795
21
195.0665665764
0
LINE
5
270
100
AcDbEntity
8
0
100
AcDbLine
62
7
6
CONTINUOUS
10
95.9022036861
20
246.6139759965
11
95.9446742063
21
247.2404148976
0
LINE
5
271
100
AcDbEntity
8
0
100
AcDbLine
62
7
6
CONTINUOUS
10
111.7338218795
20
249.6738729697
11
111.6171553241
21
249.4504687410
0
LINE
5
272
100
AcDbEntity
8
0
100
AcDbLine
62
7
6
CONTINUOUS
10
84.3522497495
20
230.1892217554
11
84.4306878619
21
230.0472906625
0
LINE
5
273
100
AcDbEntity
8
0
100
AcDbLine
62
7
6
CONTINUOUS
10
83.9985482319
20
231.6429915950
11
84.1554244567
21
231.3591294092
0
LINE
5
274
100
AcDbEntity
8
0
100
AcDbLine
62
7
6
CONTINUOUS
10
87.6135407847
20
239.3425810891
11
87.5546392101
21
239.5305373807
0
LINE
5
275
100
AcDbEntity
8
0
100
AcDbLine
62
7
6
CONTINUOUS
10
87.2413248421
20
239.6092142495
11
87.3199086277
21
239.3042664883
0
LINE
5
276
100
AcDbEntity
8
0
100
AcDbLine
62
7
6
CONTINUOUS
10
109.1671551572
20
251.2377026748
11
109.1088218795
21
251.0142984461
0
LINE
5
277
100
AcDbEntity
8
0
100
AcDbLine
62
7
6
CONTINUOUS
10
109.4588218795
20
250.9398303699
11
109.5171551572
21
251.1632345986
0
LINE
5
278
100
AcDbEntity
8
0
100
AcDbLine
62
7
6
CONTINUOUS
10
111.9671553241
20
249.3015325364
11
112.0838218795
21
249.5994048935
0
LINE
5
279
100
AcDbEntity
8
0
100
AcDbLine
62
7
6
CONTINUOUS
10
114.5338218795
20
249.6738729697
11
114.4171549903
21
249.4504687410
0
LINE
5
27A
100
AcDbEntity
8
0
100
AcDbLine
62
7
6
CONTINUOUS
10
133.3602432969
20
200.0665665764
11
132.2789297348
21
200.0665665764
0
LINE
5
27B
100
AcDbEntity
8
0
100
AcDbLine
62
7
6
CONTINUOUS
10
89.7587140242
20
200.0665665764
11
88.6774004621
21
200.0665665764
0
LINE
5
27C
100
AcDbEntity
8
0
100
AcDbLine
62
7
6
CONTINUOUS
10
117.5188218795
20
189.4102559507
11
119.0188218795
21
187.9102559507
0
LINE
5
27D
100
AcDbEntity
8
0
100
AcDbLine
62
7
6
CONTINUOUS
10
84.7046375284
20
230.2025960743
11
84.5282247099
21
230.4404329296
0
LINE
5
27E
100
AcDbEntity
8
0
100
AcDbLine
62
7
6
CONTINUOUS
10
86.8568698005
20
231.6790204029
11
86.6999935552
21
231.9628825974
0
LINE
5
27F
100
AcDbEntity
8
0
100
AcDbLine
62
7
6
CONTINUOUS
10
88.2401705796
20
239.1852293886
11
88.3579737289
21
238.8093168053
0
LINE
5
280
100
AcDbEntity
8
0
100
AcDbLine
62
7
6
CONTINUOUS
10
88.6123865223
20
238.9185962282
11
88.5534849477
21
239.1065525198
0
LINE
5
281
100
AcDbEntity
8
0
100
AcDbLine
62
7
6
CONTINUOUS
10
89.8061600740
20
239.4439121922
11
89.8650616486
21
239.2559559005
0
LINE
5
282
100
AcDbEntity
8
0
100
AcDbLine
62
7
6
CONTINUOUS
10
90.1783764998
20
239.1772800699
11
90.0997922516
21
239.4822267842
0
LINE
5
283
100
AcDbEntity
8
0
100
AcDbLine
62
7
6
CONTINUOUS
10
103.0188218795
20
187.9102559507
11
103.0188218795
21
171.2102559507
0
LINE
5
284
100
AcDbEntity
8
0
100
AcDbLine
62
7
6
CONTINUOUS
10
114.7671549903
20
249.3015325364
11
114.8838218795
21
249.5994048935
0
LINE
5
285
100
AcDbEntity
8
0
100
AcDbLine
62
7
6
CONTINUOUS
10
86.3280691414
20
231.9034829655
11
86.4652629316
21
231.7366117225
0
LINE
5
286
100
AcDbEntity
8
0
100
AcDbLine
62
7
6
CONTINUOUS
10
88.6908248023
20
238.7766655303
11
88.6123865223
21
238.9185962282
0
LINE
5
287
100
AcDbEntity
8
0
100
AcDbLine
62
7
6
CONTINUOUS
10
104.5188218795
20
193.9102559507
11
104.5188218795
21
189.4102559507
0
LINE
5
288
100
AcDbEntity
8
0
100
AcDbLine
62
7
6
CONTINUOUS
10
107.3588218795
20
252.2802559507
11
107.3588218795
21
248.7802559507
0
LINE
5
289
100
AcDbEntity
8
0
100
AcDbLine
62
7
6
CONTINUOUS
10
107.7088218795
20
248.7802559507
11
107.7088218795
21
250.3440857601
0
LINE
5
28A
100
AcDbEntity
8
0
100
AcDbLine
62
7
6
CONTINUOUS
10
107.7088218795
20
250.7908942175
11
107.7088218795
21
251.9079155695
0
LINE
5
28B
100
AcDbEntity
8
0
100
AcDbLine
62
7
6
CONTINUOUS
10
112.0838218795
20
249.5994048935
11
112.1421553241
21
249.9717452746
0
LINE
5
28C
100
AcDbEntity
8
0
100
AcDbLine
62
7
6
CONTINUOUS
10
111.7921553241
20
249.9717452746
11
111.7338218795
21
249.6738729697
0
LINE
5
28D
100
AcDbEntity
8
0
100
AcDbLine
62
7
6
CONTINUOUS
10
114.5921549903
20
249.9717452746
11
114.5338218795
21
249.6738729697
0
LINE
5
28E
100
AcDbEntity
8
0
100
AcDbLine
62
7
6
CONTINUOUS
10
86.6999935552
20
231.9628825974
11
86.5040441018
21
232.1546941397
0
LINE
5
28F
100
AcDbEntity
8
0
100
AcDbLine
62
7
6
CONTINUOUS
10
87.3199086277
20
239.3042664883
11
87.4963214461
21
239.0664296330
0
LINE
5
290
100
AcDbEntity
8
0
100
AcDbLine
62
7
6
CONTINUOUS
10
86.6941551605
20
238.4835231133
11
86.9882251755
21
238.0327896845
0
LINE
5
291
100
AcDbEntity
8
0
100
AcDbLine
62
7
6
CONTINUOUS
10
87.4582703156
20
237.8332673601
11
87.1642001360
21
238.2840008587
0
LINE
5
292
100
AcDbEntity
8
0
100
AcDbLine
62
7
6
CONTINUOUS
10
109.1671551572
20
251.4611071121
11
109.1671551572
21
251.2377026748
0
LINE
5
293
100
AcDbEntity
8
0
100
AcDbLine
62
7
6
CONTINUOUS
10
109.5171551572
20
251.1632345986
11
109.5171551572
21
251.4611071121
0
LINE
5
294
100
AcDbEntity
8
0
100
AcDbLine
62
7
6
CONTINUOUS
10
110.0421551572
20
252.2802559507
11
110.0421551572
21
249.9717452746
0
LINE
5
295
100
AcDbEntity
8
0
100
AcDbLine
62
7
6
CONTINUOUS
10
110.3921553241
20
249.9717452746
11
110.3921553241
21
252.2802559507
0
LINE
5
296
100
AcDbEntity
8
DEFAULT_1
100
AcDbLine
62
2
6
CENTER
10
111.0188218795
20
223.4102559507
11
111.0188218795
21
169.7023978434
0
LINE
5
297
100
AcDbEntity
8
DEFAULT_1
100
AcDbLine
62
2
6
CENTER
10
111.0188218795
20
223.4102559507
11
111.0188218795
21
243.9102559507
0
LINE
5
298
100
AcDbEntity
8
0
100
AcDbLine
62
7
6
CONTINUOUS
10
114.8838218795
20
249.5994048935
11
114.9421549903
21
249.9717452746
0
LINE
5
299
100
AcDbEntity
8
0
100
AcDbLine
62
7
6
CONTINUOUS
10
84.1554244567
20
231.3591294092
11
84.3709104625
21
231.2133432148
0
LINE
5
29A
100
AcDbEntity
8
0
100
AcDbLine
62
7
6
CONTINUOUS
10
84.1955194214
20
230.3100677997
11
84.3522497495
21
230.1892217554
0
LINE
5
29B
100
AcDbEntity
8
0
100
AcDbLine
62
7
6
CONTINUOUS
10
84.5282247099
20
230.4404329296
11
84.3714943819
21
230.5612789739
0
LINE
5
29C
100
AcDbEntity
8
0
100
AcDbLine
62
7
6
CONTINUOUS
10
84.5468855876
20
231.4645543191
11
84.3901550391
21
231.5854003016
0
LINE
5
29D
100
AcDbEntity
8
0
100
AcDbLine
62
7
6
CONTINUOUS
10
87.7507346867
20
239.1757101094
11
87.6135407847
21
239.3425810891
0
LINE
5
29E
100
AcDbEntity
8
0
100
AcDbLine
62
7
6
CONTINUOUS
10
89.6689661308
20
239.6107831893
11
89.8061600740
21
239.4439121922
0
LINE
5
29F
100
AcDbEntity
8
0
100
AcDbLine
62
7
6
CONTINUOUS
10
90.0997922516
20
239.4822267842
11
89.9233794125
21
239.7200636482
0
LINE
5
2A0
100
AcDbEntity
8
0
100
AcDbLine
62
7
6
CONTINUOUS
10
111.7921553241
20
252.2802559507
11
111.7921553241
21
249.9717452746
0
LINE
5
2A1
100
AcDbEntity
8
0
100
AcDbLine
62
7
6
CONTINUOUS
10
112.1421553241
20
249.9717452746
11
112.1421553241
21
252.2802559507
0
LINE
5
2A2
100
AcDbEntity
8
0
100
AcDbLine
62
7
6
CONTINUOUS
10
112.6088218795
20
252.2802559507
11
112.6088218795
21
248.7802559507
0
LINE
5
2A3
100
AcDbEntity
8
0
100
AcDbLine
62
7
6
CONTINUOUS
10
112.9588218795
20
249.2270644602
11
112.9588218795
21
251.8334474933
0
LINE
5
2A4
100
AcDbEntity
8
0
100
AcDbLine
62
7
6
CONTINUOUS
10
114.5921549903
20
251.0887665224
11
114.5921549903
21
249.9717452746
0
LINE
5
2A5
100
AcDbEntity
8
0
100
AcDbLine
62
7
6
CONTINUOUS
10
114.9421549903
20
249.9717452746
11
114.9421549903
21
251.0887665224
0
LINE
5
2A6
100
AcDbEntity
8
0
100
AcDbLine
62
7
6
CONTINUOUS
10
82.7673073191
20
229.2324493361
11
85.5288218795
21
228.0602559507
0
LINE
5
2A7
100
AcDbEntity
8
0
100
AcDbLine
62
7
6
CONTINUOUS
10
86.2448142882
20
237.4249423563
11
88.4195023513
21
235.6870717573
0
LINE
5
2A8
100
AcDbEntity
8
0
100
AcDbLine
62
7
6
CONTINUOUS
10
88.7914268769
20
235.7464716526
11
86.8909801768
21
237.3136152661
0
LINE
5
2A9
100
AcDbEntity
8
0
100
AcDbLine
62
7
6
CONTINUOUS
10
95.6043312769
20
247.1299061434
11
95.9022036861
21
246.6139759965
0
LINE
5
2AA
100
AcDbEntity
8
0
100
AcDbLine
62
7
6
CONTINUOUS
10
95.9446742063
20
247.2404148976
11
97.3968019014
21
244.7252559507
0
LINE
5
2AB
100
AcDbEntity
8
0
100
AcDbLine
62
7
6
CONTINUOUS
10
117.5188218795
20
193.9102559507
11
117.5188218795
21
189.4102559507
0
LINE
5
2AC
100
AcDbEntity
8
0
100
AcDbLine
62
7
6
CONTINUOUS
10
85.6460412181
20
228.3364074067
11
84.4121729927
21
228.8601533949
0
LINE
5
2AD
100
AcDbEntity
8
0
100
AcDbLine
62
7
6
CONTINUOUS
10
84.0596392611
20
229.0097950858
11
83.1783047674
21
229.3838993830
0
LINE
5
2AE
100
AcDbEntity
8
0
100
AcDbLine
62
7
6
CONTINUOUS
10
84.0192523910
20
230.3848887150
11
84.1955194214
21
230.3100677997
0
LINE
5
2AF
100
AcDbEntity
8
0
100
AcDbLine
62
7
6
CONTINUOUS
10
84.3714943819
20
230.5612789739
11
84.1364717296
21
230.6610401711
0
LINE
5
2B0
100
AcDbEntity
8
0
100
AcDbLine
62
7
6
CONTINUOUS
10
84.3709104625
20
231.2133432148
11
84.6059331149
21
231.1135820176
0
LINE
5
2B1
100
AcDbEntity
8
0
100
AcDbLine
62
7
6
CONTINUOUS
10
84.6643968315
20
231.4146737555
11
84.5468855876
21
231.4645543191
0
LINE
5
2B2
100
AcDbEntity
8
0
100
AcDbLine
62
7
6
CONTINUOUS
10
87.9074650117
20
239.0548636002
11
87.7507346867
21
239.1757101094
0
LINE
5
2B3
100
AcDbEntity
8
0
100
AcDbLine
62
7
6
CONTINUOUS
10
88.8475550450
20
238.6558190561
11
88.6908248023
21
238.7766655303
0
LINE
5
2B4
100
AcDbEntity
8
0
100
AcDbLine
62
7
6
CONTINUOUS
10
87.4963214461
20
239.0664296330
11
87.7510267566
21
238.8496780198
0
LINE
5
2B5
100
AcDbEntity
8
0
100
AcDbLine
62
7
6
CONTINUOUS
10
89.9233794125
20
239.7200636482
11
89.6686742255
21
239.9368152090
0
LINE
5
2B6
100
AcDbEntity
8
0
100
AcDbLine
62
7
6
CONTINUOUS
10
97.6999107928
20
244.9002559507
11
95.9499107928
21
247.9313448639
0
LINE
5
2B7
100
AcDbEntity
8
0
100
AcDbLine
62
7
6
CONTINUOUS
10
99.3374379805
20
248.5973094411
11
99.4863741330
21
248.3393444579
0
LINE
5
2B8
100
AcDbEntity
8
0
100
AcDbLine
62
7
6
CONTINUOUS
10
110.4504884349
20
249.6738729697
11
110.3921553241
21
249.9717452746
0
LINE
5
2B9
100
AcDbEntity
8
0
100
AcDbLine
62
7
6
CONTINUOUS
10
110.0421551572
20
249.9717452746
11
110.1004886018
21
249.5994048935
0
LINE
5
2BA
100
AcDbEntity
8
0
100
AcDbLine
62
7
6
CONTINUOUS
10
119.0188218795
20
187.9102559507
11
119.0188218795
21
171.2102559507
0
LINE
5
2BB
100
AcDbEntity
8
DEFAULT_1
100
AcDbLine
62
2
6
CENTER
10
111.0188218795
20
223.4102559507
11
90.5188218795
21
223.4102559507
0
LINE
5
2BC
100
AcDbEntity
8
DEFAULT_1
100
AcDbLine
62
2
6
CENTER
10
111.0188218795
20
223.4102559507
11
131.5188218795
21
223.4102559507
0
LINE
5
2BD
100
AcDbEntity
8
0
100
AcDbLine
62
7
6
CONTINUOUS
10
86.1518022755
20
231.9783038110
11
86.3280691414
21
231.9034829655
0
LINE
5
2BE
100
AcDbEntity
8
0
100
AcDbLine
62
7
6
CONTINUOUS
10
86.5040441018
20
232.1546941397
11
86.2102659921
21
232.2793955488
0
LINE
5
2BF
100
AcDbEntity
8
0
100
AcDbLine
62
7
6
CONTINUOUS
10
85.4828885876
20
235.6299578920
11
88.2444031480
21
234.4577645066
0
LINE
5
2C0
100
AcDbEntity
8
0
100
AcDbLine
62
7
6
CONTINUOUS
10
88.3616224865
20
234.7339159626
11
86.1876641456
21
235.6567065298
0
LINE
5
2C1
100
AcDbEntity
8
0
100
AcDbLine
62
7
6
CONTINUOUS
10
87.7510267566
20
238.8496780198
11
88.1427794047
21
238.6290704532
0
LINE
5
2C2
100
AcDbEntity
8
0
100
AcDbLine
62
7
6
CONTINUOUS
10
88.2404624850
20
238.8591973689
11
87.9074650117
21
239.0548636002
0
LINE
5
2C3
100
AcDbEntity
8
0
100
AcDbLine
62
7
6
CONTINUOUS
10
89.5122359705
20
239.7316296286
11
89.6689661308
21
239.6107831893
0
LINE
5
2C4
100
AcDbEntity
8
0
100
AcDbLine
62
7
6
CONTINUOUS
10
99.4437103743
20
249.3465726988
11
99.7415827835
21
248.8306425519
0
LINE
5
2C5
100
AcDbEntity
8
0
100
AcDbLine
62
7
6
CONTINUOUS
10
99.8905189360
20
248.5726775687
11
100.6351997765
21
247.2828525175
0
LINE
5
2C6
100
AcDbEntity
8
0
100
AcDbLine
62
7
6
CONTINUOUS
10
100.8133226097
20
247.5576684988
11
100.1431098715
21
248.7185110133
0
LINE
5
2C7
100
AcDbEntity
8
0
100
AcDbLine
62
7
6
CONTINUOUS
10
99.9941737190
20
248.9764759965
11
99.6963013098
21
249.4924061434
0
LINE
5
2C8
100
AcDbEntity
8
0
100
AcDbLine
62
7
6
CONTINUOUS
10
101.6403263800
20
247.1752559507
11
101.4913902145
21
247.4332209564
0
LINE
5
2C9
100
AcDbEntity
8
0
100
AcDbLine
62
7
6
CONTINUOUS
10
100.6988096983
20
249.0393444579
11
100.5498735458
21
249.2973094411
0
LINE
5
2CA
100
AcDbEntity
8
0
100
AcDbLine
62
7
6
CONTINUOUS
10
109.5754886018
20
248.7802559507
11
109.0504886018
21
250.4930219125
0
LINE
5
2CB
100
AcDbEntity
8
0
100
AcDbLine
62
7
6
CONTINUOUS
10
108.7004885184
20
250.3440857601
11
109.1671551572
21
248.7802559507
0
LINE
5
2CC
100
AcDbEntity
8
0
100
AcDbLine
62
7
6
CONTINUOUS
10
109.1088218795
20
251.6845113408
11
109.1671551572
21
251.4611071121
0
LINE
5
2CD
100
AcDbEntity
8
0
100
AcDbLine
62
7
6
CONTINUOUS
10
109.5171551572
20
251.4611071121
11
109.4588218795
21
251.6845113408
0
LINE
5
2CE
100
AcDbEntity
8
0
100
AcDbLine
62
7
6
CONTINUOUS
10
114.5338218795
20
251.3866388273
11
114.5921549903
21
251.0887665224
0
LINE
5
2CF
100
AcDbEntity
8
0
100
AcDbLine
62
7
6
CONTINUOUS
10
114.9421549903
20
251.0887665224
11
114.8838218795
21
251.4611071121
0
LINE
5
2D0
100
AcDbEntity
8
0
100
AcDbLine
62
7
6
CONTINUOUS
10
104.5188218795
20
189.4102559507
11
103.0188218795
21
187.9102559507
0
LINE
5
2D1
100
AcDbEntity
8
0
100
AcDbLine
62
7
6
CONTINUOUS
10
86.2712110423
20
229.8092152161
11
84.7440025652
21
229.9686145839
0
LINE
5
2D2
100
AcDbEntity
8
0
100
AcDbLine
62
7
6
CONTINUOUS
10
84.7442944426
20
229.6425824984
11
86.1344551100
21
229.4870384296
0
LINE
5
2D3
100
AcDbEntity
8
0
100
AcDbLine
62
7
6
CONTINUOUS
10
83.8234489874
20
230.4136843617
11
84.0192523910
21
230.3848887150
0
LINE
5
2D4
100
AcDbEntity
8
0
100
AcDbLine
62
7
6
CONTINUOUS
10
84.1364717296
20
230.6610401711
11
83.9406683259
21
230.6898358177
0
LINE
5
2D5
100
AcDbEntity
8
0
100
AcDbLine
62
7
6
CONTINUOUS
10
85.9767030310
20
230.7489965777
11
85.7808996833
21
230.7777923561
0
LINE
5
2D6
100
AcDbEntity
8
0
100
AcDbLine
62
7
6
CONTINUOUS
10
84.8602001792
20
231.3858779771
11
84.6643968315
21
231.4146737555
0
LINE
5
2D7
100
AcDbEntity
8
0
100
AcDbLine
62
7
6
CONTINUOUS
10
85.6636802889
20
230.5016407684
11
85.9182393703
21
230.4479049715
0
LINE
5
2D8
100
AcDbEntity
8
0
100
AcDbLine
62
7
6
CONTINUOUS
10
84.6059331149
20
231.1135820176
11
84.8604920846
21
231.0598459574
0
LINE
5
2D9
100
AcDbEntity
8
0
100
AcDbLine
62
7
6
CONTINUOUS
10
86.8909801768
20
237.3136152661
11
89.0649385178
21
236.3908246988
0
LINE
5
2DA
100
AcDbEntity
8
0
100
AcDbLine
62
7
6
CONTINUOUS
10
89.1821578564
20
236.6669761549
11
86.4206432960
21
237.8391695403
0
LINE
5
2DB
100
AcDbEntity
8
0
100
AcDbLine
62
7
6
CONTINUOUS
10
86.9882251755
20
238.0327896845
11
87.4582703156
21
237.8332673601
0
LINE
5
2DC
100
AcDbEntity
8
0
100
AcDbLine
62
7
6
CONTINUOUS
10
87.1642001360
20
238.2840008587
11
89.4556697208
21
237.3113297279
0
LINE
5
2DD
100
AcDbEntity
8
0
100
AcDbLine
62
7
6
CONTINUOUS
10
89.5728890594
20
237.5874811839
11
86.8113744990
21
238.7596745694
0
LINE
5
2DE
100
AcDbEntity
8
0
100
AcDbLine
62
7
6
CONTINUOUS
10
88.1427794047
20
238.6290704532
11
88.5540687583
21
238.4544884805
0
LINE
5
2DF
100
AcDbEntity
8
0
100
AcDbLine
62
7
6
CONTINUOUS
10
88.3579737289
20
238.8093168053
11
88.2404624850
21
238.8591973689
0
LINE
5
2E0
100
AcDbEntity
8
0
100
AcDbLine
62
7
6
CONTINUOUS
10
110.1004886018
20
249.5994048935
11
110.2171553241
21
249.3015325364
0
LINE
5
2E1
100
AcDbEntity
8
0
100
AcDbLine
62
7
6
CONTINUOUS
10
128.5188218795
20
193.9102559507
11
128.5188218795
21
195.0665665764
0
LINE
5
2E2
100
AcDbEntity
8
0
100
AcDbLine
62
7
6
CONTINUOUS
10
85.9182393703
20
230.4479049715
11
86.2706271551
21
230.4612791325
0
LINE
5
2E3
100
AcDbEntity
8
0
100
AcDbLine
62
7
6
CONTINUOUS
10
84.9765436372
20
232.6401255621
11
84.7807402895
21
232.6689213405
0
LINE
5
2E4
100
AcDbEntity
8
0
100
AcDbLine
62
7
6
CONTINUOUS
10
88.5540687583
20
238.4544884805
11
88.9848948997
21
238.3259320666
0
LINE
5
2E5
100
AcDbEntity
8
0
100
AcDbLine
62
7
6
CONTINUOUS
10
89.0238219108
20
238.5809982106
11
88.8475550450
21
238.6558190561
0
LINE
5
2E6
100
AcDbEntity
8
0
100
AcDbLine
62
7
6
CONTINUOUS
10
89.3359691047
20
239.8064504741
11
89.5122359705
21
239.7316296286
0
LINE
5
2E7
100
AcDbEntity
8
0
100
AcDbLine
62
7
6
CONTINUOUS
10
89.6686742255
20
239.9368152090
11
89.3748960335
21
240.0615166530
0
LINE
5
2E8
100
AcDbEntity
8
0
100
AcDbLine
62
7
6
CONTINUOUS
10
100.9755427059
20
247.3933612717
11
100.8133226097
21
247.5576684988
0
LINE
5
2E9
100
AcDbEntity
8
0
100
AcDbLine
62
7
6
CONTINUOUS
10
109.4588218795
20
251.6845113408
11
109.2838218795
21
251.9823836457
0
LINE
5
2EA
100
AcDbEntity
8
0
100
AcDbLine
62
7
6
CONTINUOUS
10
110.5671553241
20
249.4504687410
11
110.4504884349
21
249.6738729697
0
LINE
5
2EB
100
AcDbEntity
8
0
100
AcDbLine
62
7
6
CONTINUOUS
10
114.8838218795
20
251.4611071121
11
114.7671549903
21
251.7589794171
0
LINE
5
2EC
100
AcDbEntity
8
0
100
AcDbLine
62
7
6
CONTINUOUS
10
83.9406683259
20
230.6898358177
11
83.6470361689
21
230.6515212170
0
LINE
5
2ED
100
AcDbEntity
8
0
100
AcDbLine
62
7
6
CONTINUOUS
10
85.9364622518
20
231.9610742938
11
86.1518022755
21
231.9783038110
0
LINE
5
2EE
100
AcDbEntity
8
0
100
AcDbLine
62
7
6
CONTINUOUS
10
86.2102659921
20
232.2793955488
11
85.9361703465
21
232.2871063135
0
LINE
5
2EF
100
AcDbEntity
8
0
100
AcDbLine
62
7
6
CONTINUOUS
10
84.7222765729
20
232.3678296026
11
84.8593242986
21
232.3639741060
0
LINE
5
2F0
100
AcDbEntity
8
0
100
AcDbLine
62
7
6
CONTINUOUS
10
86.1876641456
20
235.6567065298
11
88.6351343510
21
235.3782695356
0
LINE
5
2F1
100
AcDbEntity
8
0
100
AcDbLine
62
7
6
CONTINUOUS
10
88.4195023513
20
235.6870717573
11
85.6587175954
21
236.0441850761
0
LINE
5
2F2
100
AcDbEntity
8
0
100
AcDbLine
62
7
6
CONTINUOUS
10
89.2196254821
20
238.5522029590
11
89.0238219108
21
238.5809982106
0
LINE
5
2F3
100
AcDbEntity
8
0
100
AcDbLine
62
7
6
CONTINUOUS
10
100.6351997765
20
247.2828525175
11
100.8851724318
21
247.0832209564
0
LINE
5
2F4
100
AcDbEntity
8
0
100
AcDbLine
62
7
6
CONTINUOUS
10
110.2171553241
20
249.3015325364
11
110.4504884349
21
249.0036602054
0
LINE
5
2F5
100
AcDbEntity
8
0
100
AcDbLine
62
7
6
CONTINUOUS
10
114.4171549903
20
251.6100432646
11
114.5338218795
21
251.3866388273
0
LINE
5
2F6
100
AcDbEntity
8
0
100
AcDbLine
62
7
6
CONTINUOUS
10
86.2115796073
20
230.8122514428
11
85.9767030310
21
230.7489965777
0
LINE
5
2F7
100
AcDbEntity
8
0
100
AcDbLine
62
7
6
CONTINUOUS
10
83.6668646120
20
230.3715143961
11
83.8234489874
21
230.4136843617
0
LINE
5
2F8
100
AcDbEntity
8
0
100
AcDbLine
62
7
6
CONTINUOUS
10
84.8604920846
20
231.0598459574
11
85.1736608353
21
231.1441858886
0
LINE
5
2F9
100
AcDbEntity
8
0
100
AcDbLine
62
7
6
CONTINUOUS
10
85.9361703465
20
232.2871063135
11
85.6230015958
21
232.2027663823
0
LINE
5
2FA
100
AcDbEntity
8
0
100
AcDbLine
62
7
6
CONTINUOUS
10
84.5656921416
20
232.3256595053
11
84.7222765729
21
232.3678296026
0
LINE
5
2FB
100
AcDbEntity
8
0
100
AcDbLine
62
7
6
CONTINUOUS
10
84.7807402895
20
232.6689213405
11
84.4871081324
21
232.6306067397
0
LINE
5
2FC
100
AcDbEntity
8
0
100
AcDbLine
62
7
6
CONTINUOUS
10
88.9848948997
20
238.3259320666
11
89.3177460143
21
238.2932807742
0
LINE
5
2FD
100
AcDbEntity
8
0
100
AcDbLine
62
7
6
CONTINUOUS
10
89.3748960335
20
240.0615166530
11
89.0420449600
21
240.0941679280
0
LINE
5
2FE
100
AcDbEntity
8
0
100
AcDbLine
62
7
6
CONTINUOUS
10
89.1401654511
20
239.8352457607
11
89.3359691047
21
239.8064504741
0
LINE
5
2FF
100
AcDbEntity
8
0
100
AcDbLine
62
7
6
CONTINUOUS
10
88.2782217102
20
240.4183916615
11
88.0824181389
21
240.4471869132
0
LINE
5
300
100
AcDbEntity
8
0
100
AcDbLine
62
7
6
CONTINUOUS
10
108.9921551572
20
251.8334474933
11
109.1088218795
21
251.6845113408
0
LINE
5
301
100
AcDbEntity
8
0
100
AcDbLine
62
7
6
CONTINUOUS
10
143.3977333173
20
221.8795222212
11
134.7460625957
21
200.9925414278
0
LINE
5
302
100
AcDbEntity
8
0
100
AcDbLine
62
7
6
CONTINUOUS
10
89.3177460143
20
238.2932807742
11
89.6113781919
21
238.3315953662
0
LINE
5
303
100
AcDbEntity
8
0
100
AcDbLine
62
7
6
CONTINUOUS
10
89.4349653529
20
238.5694322302
11
89.2196254821
21
238.5522029590
0
LINE
5
304
100
AcDbEntity
8
0
100
AcDbLine
62
7
6
CONTINUOUS
10
87.9651988003
20
240.1710354572
11
88.1805390771
21
240.1882657993
0
LINE
5
305
100
AcDbEntity
8
0
100
AcDbLine
62
7
6
CONTINUOUS
10
110.7421553241
20
249.3015325364
11
110.5671553241
21
249.4504687410
0
LINE
5
306
100
AcDbEntity
8
0
100
AcDbLine
62
7
6
CONTINUOUS
10
109.2838218795
20
251.9823836457
11
109.0504886018
21
252.2057878744
0
LINE
5
307
100
AcDbEntity
8
0
100
AcDbLine
62
7
6
CONTINUOUS
10
114.7671549903
20
251.7589794171
11
114.5338218795
21
252.0568517220
0
LINE
5
308
100
AcDbEntity
8
0
100
AcDbLine
62
7
6
CONTINUOUS
10
88.9835812434
20
239.7930761901
11
89.1401654511
21
239.8352457607
0
LINE
5
309
100
AcDbEntity
8
0
100
AcDbLine
62
7
6
CONTINUOUS
10
89.0420449600
20
240.0941679280
11
88.8071684249
21
240.0309130454
0
LINE
5
30A
100
AcDbEntity
8
0
100
AcDbLine
62
7
6
CONTINUOUS
10
88.0824181389
20
240.4471869132
11
87.7887859818
21
240.4088723125
0
LINE
5
30B
100
AcDbEntity
8
0
100
AcDbLine
62
7
6
CONTINUOUS
10
100.8851724318
20
247.0832209564
11
101.1111949602
21
247.0417384535
0
LINE
5
30C
100
AcDbEntity
8
0
100
AcDbLine
62
7
6
CONTINUOUS
10
101.2015652278
20
247.3518787802
11
100.9755427059
21
247.3933612717
0
LINE
5
30D
100
AcDbEntity
8
0
100
AcDbLine
62
7
6
CONTINUOUS
10
110.4504884349
20
249.0036602054
11
110.6838218795
21
248.8547240334
0
LINE
5
30E
100
AcDbEntity
8
0
100
AcDbLine
62
7
6
CONTINUOUS
10
114.2421549903
20
251.7589794171
11
114.4171549903
21
251.6100432646
0
LINE
5
30F
100
AcDbEntity
8
0
100
AcDbLine
62
7
6
CONTINUOUS
10
119.0188218795
20
171.2102559507
11
117.7188218795
21
169.9102559507
0
LINE
5
310
100
AcDbEntity
8
0
100
AcDbLine
62
7
6
CONTINUOUS
10
101.4913902145
20
247.4332209564
11
101.2015652278
21
247.3518787802
0
LINE
5
311
100
AcDbEntity
8
0
100
AcDbLine
62
7
6
CONTINUOUS
10
114.0088218795
20
248.7802559507
11
114.3004887687
21
248.8547240334
0
LINE
5
312
100
AcDbEntity
8
0
100
AcDbLine
62
7
6
CONTINUOUS
10
111.2088218795
20
248.7802559507
11
111.5004884349
21
248.8547240334
0
LINE
5
313
100
AcDbEntity
8
0
100
AcDbLine
62
7
6
CONTINUOUS
10
101.1111949602
20
247.0417384535
11
101.2999834473
21
247.0647472021
0
LINE
5
314
100
AcDbEntity
8
0
100
AcDbLine
62
7
6
CONTINUOUS
10
107.3588218795
20
248.7802559507
11
107.7088218795
21
248.7802559507
0
LINE
5
315
100
AcDbEntity
8
0
100
AcDbLine
62
7
6
CONTINUOUS
10
109.1671551572
20
248.7802559507
11
109.5754886018
21
248.7802559507
0
LINE
5
316
100
AcDbEntity
8
0
100
AcDbLine
62
7
6
CONTINUOUS
10
110.9754884349
20
248.7802559507
11
111.2088218795
21
248.7802559507
0
LINE
5
317
100
AcDbEntity
8
0
100
AcDbLine
62
7
6
CONTINUOUS
10
112.6088218795
20
248.7802559507
11
114.0088218795
21
248.7802559507
0
LINE
5
318
100
AcDbEntity
8
0
100
AcDbLine
62
7
6
CONTINUOUS
10
114.0088218795
20
249.2270644602
11
112.9588218795
21
249.2270644602
0
LINE
5
319
100
AcDbEntity
8
0
100
AcDbLine
62
7
6
CONTINUOUS
10
111.2088218795
20
249.2270644602
11
110.9754884349
21
249.2270644602
0
LINE
5
31A
100
AcDbEntity
8
0
100
AcDbLine
62
7
6
CONTINUOUS
10
110.6838218795
20
248.8547240334
11
110.9754884349
21
248.7802559507
0
LINE
5
31B
100
AcDbEntity
8
0
100
AcDbLine
62
7
6
CONTINUOUS
10
110.9754884349
20
249.2270644602
11
110.7421553241
21
249.3015325364
0
LINE
5
31C
100
AcDbEntity
8
0
100
AcDbLine
62
7
6
CONTINUOUS
10
108.8171551572
20
251.9079155695
11
108.9921551572
21
251.8334474933
0
LINE
5
31D
100
AcDbEntity
8
0
100
AcDbLine
62
7
6
CONTINUOUS
10
114.5338218795
20
252.0568517220
11
114.3004887687
21
252.2057878744
0
LINE
5
31E
100
AcDbEntity
8
0
100
AcDbLine
62
7
6
CONTINUOUS
10
134.9965619249
20
245.2232115955
11
143.3977333173
21
224.9409896801
0
LINE
5
31F
100
AcDbEntity
8
0
100
AcDbLine
62
7
6
CONTINUOUS
10
107.7088218795
20
250.3440857601
11
108.7004885184
21
250.3440857601
0
LINE
5
320
100
AcDbEntity
8
0
100
AcDbLine
62
7
6
CONTINUOUS
10
108.8171551572
20
250.7908942175
11
107.7088218795
21
250.7908942175
0
LINE
5
321
100
AcDbEntity
8
0
100
AcDbLine
62
7
6
CONTINUOUS
10
112.9588218795
20
251.8334474933
11
114.0088218795
21
251.8334474933
0
LINE
5
322
100
AcDbEntity
8
0
100
AcDbLine
62
7
6
CONTINUOUS
10
107.7088218795
20
251.9079155695
11
108.8171551572
21
251.9079155695
0
LINE
5
323
100
AcDbEntity
8
0
100
AcDbLine
62
7
6
CONTINUOUS
10
114.0088218795
20
252.2802559507
11
112.6088218795
21
252.2802559507
0
LINE
5
324
100
AcDbEntity
8
0
100
AcDbLine
62
7
6
CONTINUOUS
10
112.1421553241
20
252.2802559507
11
111.7921553241
21
252.2802559507
0
LINE
5
325
100
AcDbEntity
8
0
100
AcDbLine
62
7
6
CONTINUOUS
10
110.3921553241
20
252.2802559507
11
110.0421551572
21
252.2802559507
0
LINE
5
326
100
AcDbEntity
8
0
100
AcDbLine
62
7
6
CONTINUOUS
10
108.7588218795
20
252.2802559507
11
107.3588218795
21
252.2802559507
0
LINE
5
327
100
AcDbEntity
8
0
100
AcDbLine
62
7
6
CONTINUOUS
10
109.0504886018
20
252.2057878744
11
108.7588218795
21
252.2802559507
0
LINE
5
328
100
AcDbEntity
8
0
100
AcDbLine
62
7
6
CONTINUOUS
10
114.3004887687
20
252.2057878744
11
114.0088218795
21
252.2802559507
0
LINE
5
329
100
AcDbEntity
8
0
100
AcDbLine
62
7
6
CONTINUOUS
10
114.0088218795
20
251.8334474933
11
114.2421549903
21
251.7589794171
0
LINE
5
32A
100
AcDbEntity
8
0
100
AcDbLine
62
7
6
CONTINUOUS
10
112.5495556090
20
255.7891673885
11
132.8317775243
21
247.3879959961
0
LINE
5
32B
100
AcDbEntity
8
0
100
AcDbLine
62
7
6
CONTINUOUS
10
288.6771300857
20
169.9102559507
11
302.0771300857
21
169.9102559507
0
LINE
5
32C
100
AcDbEntity
8
0
100
AcDbLine
62
7
6
CONTINUOUS
10
287.3771300857
20
171.2102559507
11
303.3771300857
21
171.2102559507
0
LINE
5
32D
100
AcDbEntity
8
0
100
AcDbLine
62
7
6
CONTINUOUS
10
287.3771300857
20
171.2102559507
11
288.6771300857
21
169.9102559507
0
LINE
5
32E
100
AcDbEntity
8
0
100
AcDbLine
62
7
6
CONTINUOUS
10
287.3771300857
20
187.9102559507
11
303.3771300857
21
187.9102559507
0
LINE
5
32F
100
AcDbEntity
8
0
100
AcDbLine
62
7
6
CONTINUOUS
10
288.8771300857
20
189.4102559507
11
301.8771300857
21
189.4102559507
0
LINE
5
330
100
AcDbEntity
8
0
100
AcDbLine
62
7
6
CONTINUOUS
10
277.8774359614
20
193.9102559507
11
312.8768242101
21
193.9102559507
0
LINE
5
331
100
AcDbEntity
8
0
100
AcDbLine
62
7
6
CONTINUOUS
10
277.8771300857
20
193.9102559507
11
277.8771300857
21
200.9471909289
0
LINE
5
332
100
AcDbEntity
8
0
100
AcDbLine
62
7
6
CONTINUOUS
10
302.7431204455
20
200.0665665764
11
298.0437551157
21
200.0665665764
0
LINE
5
333
100
AcDbEntity
8
0
100
AcDbLine
62
7
6
CONTINUOUS
10
292.7105050558
20
200.0665665764
11
288.0111397259
21
200.0665665764
0
LINE
5
334
100
AcDbEntity
8
0
100
AcDbLine
62
7
6
CONTINUOUS
10
301.8771300857
20
189.4102559507
11
303.3771300857
21
187.9102559507
0
LINE
5
335
100
AcDbEntity
8
0
100
AcDbLine
62
7
6
CONTINUOUS
10
287.3771300857
20
187.9102559507
11
287.3771300857
21
171.2102559507
0
LINE
5
336
100
AcDbEntity
8
0
100
AcDbLine
62
7
6
CONTINUOUS
10
288.3771300857
20
254.5936492492
11
288.3771300857
21
224.0516530215
0
LINE
5
337
100
AcDbEntity
8
0
100
AcDbLine
62
7
6
CONTINUOUS
10
288.8771300857
20
193.9102559507
11
288.8771300857
21
189.4102559507
0
LINE
5
338
100
AcDbEntity
8
0
100
AcDbLine
62
7
6
CONTINUOUS
10
288.3223781672
20
222.7712000612
11
286.2902996401
21
199.0530951012
0
LINE
5
339
100
AcDbEntity
8
0
100
AcDbLine
62
7
6
CONTINUOUS
10
280.4078266906
20
203.9102559507
11
286.1641772347
21
204.8219723099
0
LINE
5
33A
100
AcDbEntity
8
0
100
AcDbLine
62
7
6
CONTINUOUS
10
310.3464334809
20
203.9102559507
11
304.5930825343
21
204.8214972203
0
LINE
5
33B
100
AcDbEntity
8
DEFAULT_1
100
AcDbLine
62
2
6
CENTER
10
295.3771300857
20
166.9102559507
11
295.3771300857
21
260.2812854711
0
LINE
5
33C
100
AcDbEntity
8
0
100
AcDbLine
62
7
6
CONTINUOUS
10
301.8771300857
20
193.9102559507
11
301.8771300857
21
189.4102559507
0
LINE
5
33D
100
AcDbEntity
8
0
100
AcDbLine
62
7
6
CONTINUOUS
10
304.4639605313
20
199.0530951016
11
302.4318820043
21
222.7712000612
0
LINE
5
33E
100
AcDbEntity
8
0
100
AcDbLine
62
7
6
CONTINUOUS
10
302.3771300857
20
224.0516530215
11
302.3771300857
21
254.5936492493
0
LINE
5
33F
100
AcDbEntity
8
0
100
AcDbLine
62
7
6
CONTINUOUS
10
302.6771300857
20
252.2802559507
11
302.6771300857
21
244.7252559507
0
LINE
5
340
100
AcDbEntity
8
0
100
AcDbLine
62
7
6
CONTINUOUS
10
302.6771300857
20
240.4471869132
11
302.6771300857
21
234.4577645066
0
LINE
5
341
100
AcDbEntity
8
0
100
AcDbLine
62
7
6
CONTINUOUS
10
302.6771300857
20
232.6689213405
11
302.6771300857
21
228.0602559507
0
LINE
5
342
100
AcDbEntity
8
0
100
AcDbLine
62
7
6
CONTINUOUS
10
303.3771300857
20
187.9102559507
11
303.3771300857
21
171.2102559507
0
LINE
5
343
100
AcDbEntity
8
0
100
AcDbLine
62
7
6
CONTINUOUS
10
288.8771300857
20
189.4102559507
11
287.3771300857
21
187.9102559507
0
LINE
5
344
100
AcDbEntity
8
0
100
AcDbLine
62
7
6
CONTINUOUS
10
302.3771300857
20
228.0602559507
11
302.6771300857
21
228.0602559507
0
LINE
5
345
100
AcDbEntity
8
0
100
AcDbLine
62
7
6
CONTINUOUS
10
312.8771300857
20
193.9102559507
11
312.8771300857
21
200.9471909289
0
LINE
5
346
100
AcDbEntity
8
0
100
AcDbLine
62
7
6
CONTINUOUS
10
302.3771300857
20
229.2324493361
11
302.6771300857
21
229.2324493361
0
LINE
5
347
100
AcDbEntity
8
0
100
AcDbLine
62
7
6
CONTINUOUS
10
302.3771300857
20
230.3370551603
11
302.6771300857
21
230.3370551603
0
LINE
5
348
100
AcDbEntity
8
0
100
AcDbLine
62
7
6
CONTINUOUS
10
302.3771300857
20
230.5422411357
11
302.6771300857
21
230.5422411357
0
LINE
5
349
100
AcDbEntity
8
0
100
AcDbLine
62
7
6
CONTINUOUS
10
302.3771300857
20
230.6515212170
11
302.6771300857
21
230.6515212170
0
LINE
5
34A
100
AcDbEntity
8
0
100
AcDbLine
62
7
6
CONTINUOUS
10
302.3771300857
20
230.6898358177
11
302.6771300857
21
230.6898358177
0
LINE
5
34B
100
AcDbEntity
8
0
100
AcDbLine
62
7
6
CONTINUOUS
10
302.3771300857
20
230.7777923561
11
302.6771300857
21
230.7777923561
0
LINE
5
34C
100
AcDbEntity
8
0
100
AcDbLine
62
7
6
CONTINUOUS
10
302.3771300857
20
230.8122514428
11
302.6771300857
21
230.8122514428
0
LINE
5
34D
100
AcDbEntity
8
0
100
AcDbLine
62
7
6
CONTINUOUS
10
302.3771300857
20
230.9714122194
11
302.6771300857
21
230.9714122194
0
LINE
5
34E
100
AcDbEntity
8
0
100
AcDbLine
62
7
6
CONTINUOUS
10
302.3771300857
20
231.0598459574
11
302.6771300857
21
231.0598459574
0
LINE
5
34F
100
AcDbEntity
8
0
100
AcDbLine
62
7
6
CONTINUOUS
10
302.3771300857
20
231.1135820176
11
302.6771300857
21
231.1135820176
0
LINE
5
350
100
AcDbEntity
8
0
100
AcDbLine
62
7
6
CONTINUOUS
10
302.3771300857
20
231.2133432148
11
302.6771300857
21
231.2133432148
0
LINE
5
351
100
AcDbEntity
8
0
100
AcDbLine
62
7
6
CONTINUOUS
10
302.3771300857
20
231.3591294092
11
302.6771300857
21
231.3591294092
0
LINE
5
352
100
AcDbEntity
8
0
100
AcDbLine
62
7
6
CONTINUOUS
10
302.3771300857
20
231.6429915950
11
302.6771300857
21
231.6429915950
0
LINE
5
353
100
AcDbEntity
8
0
100
AcDbLine
62
7
6
CONTINUOUS
10
302.3771300857
20
231.8769732171
11
302.6771300857
21
231.8769732171
0
LINE
5
354
100
AcDbEntity
8
0
100
AcDbLine
62
7
6
CONTINUOUS
10
302.3771300857
20
232.0860142940
11
302.6771300857
21
232.0860142940
0
LINE
5
355
100
AcDbEntity
8
0
100
AcDbLine
62
7
6
CONTINUOUS
10
302.3771300857
20
232.3161406830
11
302.6771300857
21
232.3161406830
0
LINE
5
356
100
AcDbEntity
8
0
100
AcDbLine
62
7
6
CONTINUOUS
10
302.3771300857
20
232.5213265267
11
302.6771300857
21
232.5213265267
0
LINE
5
357
100
AcDbEntity
8
0
100
AcDbLine
62
7
6
CONTINUOUS
10
302.3771300857
20
232.6306067397
11
302.6771300857
21
232.6306067397
0
LINE
5
358
100
AcDbEntity
8
0
100
AcDbLine
62
7
6
CONTINUOUS
10
302.3771300857
20
232.6689213405
11
302.6771300857
21
232.6689213405
0
LINE
5
359
100
AcDbEntity
8
0
100
AcDbLine
62
7
6
CONTINUOUS
10
302.3771300857
20
234.4577645066
11
302.6771300857
21
234.4577645066
0
LINE
5
35A
100
AcDbEntity
8
0
100
AcDbLine
62
7
6
CONTINUOUS
10
302.3771300857
20
235.6299578920
11
302.6771300857
21
235.6299578920
0
LINE
5
35B
100
AcDbEntity
8
0
100
AcDbLine
62
7
6
CONTINUOUS
10
302.3771300857
20
236.0441850761
11
302.6771300857
21
236.0441850761
0
LINE
5
35C
100
AcDbEntity
8
0
100
AcDbLine
62
7
6
CONTINUOUS
10
302.3771300857
20
237.4249423563
11
302.6771300857
21
237.4249423563
0
LINE
5
35D
100
AcDbEntity
8
0
100
AcDbLine
62
7
6
CONTINUOUS
10
302.3771300857
20
237.8391695403
11
302.6771300857
21
237.8391695403
0
LINE
5
35E
100
AcDbEntity
8
0
100
AcDbLine
62
7
6
CONTINUOUS
10
302.3771300857
20
238.0327896845
11
302.6771300857
21
238.0327896845
0
LINE
5
35F
100
AcDbEntity
8
0
100
AcDbLine
62
7
6
CONTINUOUS
10
302.3771300857
20
238.4835231133
11
302.6771300857
21
238.4835231133
0
LINE
5
360
100
AcDbEntity
8
0
100
AcDbLine
62
7
6
CONTINUOUS
10
302.3771300857
20
238.7596745694
11
302.6771300857
21
238.7596745694
0
LINE
5
361
100
AcDbEntity
8
0
100
AcDbLine
62
7
6
CONTINUOUS
10
302.3771300857
20
238.8496780198
11
302.6771300857
21
238.8496780198
0
LINE
5
362
100
AcDbEntity
8
0
100
AcDbLine
62
7
6
CONTINUOUS
10
302.3771300857
20
239.0664296330
11
302.6771300857
21
239.0664296330
0
LINE
5
363
100
AcDbEntity
8
0
100
AcDbLine
62
7
6
CONTINUOUS
10
302.3771300857
20
239.3042664883
11
302.6771300857
21
239.3042664883
0
LINE
5
364
100
AcDbEntity
8
0
100
AcDbLine
62
7
6
CONTINUOUS
10
302.3771300857
20
239.6092142495
11
302.6771300857
21
239.6092142495
0
LINE
5
365
100
AcDbEntity
8
0
100
AcDbLine
62
7
6
CONTINUOUS
10
302.3771300857
20
239.8642803935
11
302.6771300857
21
239.8642803935
0
LINE
5
366
100
AcDbEntity
8
0
100
AcDbLine
62
7
6
CONTINUOUS
10
302.3771300857
20
240.0483817153
11
302.6771300857
21
240.0483817153
0
LINE
5
367
100
AcDbEntity
8
0
100
AcDbLine
62
7
6
CONTINUOUS
10
302.3771300857
20
240.2535672957
11
302.6771300857
21
240.2535672957
0
LINE
5
368
100
AcDbEntity
8
0
100
AcDbLine
62
7
6
CONTINUOUS
10
302.3771300857
20
240.4088723125
11
302.6771300857
21
240.4088723125
0
LINE
5
369
100
AcDbEntity
8
0
100
AcDbLine
62
7
6
CONTINUOUS
10
302.3771300857
20
240.4471869132
11
302.6771300857
21
240.4471869132
0
LINE
5
36A
100
AcDbEntity
8
0
100
AcDbLine
62
7
6
CONTINUOUS
10
302.3771300857
20
244.7252559507
11
302.6771300857
21
244.7252559507
0
LINE
5
36B
100
AcDbEntity
8
0
100
AcDbLine
62
7
6
CONTINUOUS
10
302.3771300857
20
246.6139759965
11
302.6771300857
21
246.6139759965
0
LINE
5
36C
100
AcDbEntity
8
0
100
AcDbLine
62
7
6
CONTINUOUS
10
302.3771300857
20
247.1299061434
11
302.6771300857
21
247.1299061434
0
LINE
5
36D
100
AcDbEntity
8
0
100
AcDbLine
62
7
6
CONTINUOUS
10
303.3771300857
20
171.2102559507
11
302.0771300857
21
169.9102559507
0
LINE
5
36E
100
AcDbEntity
8
0
100
AcDbLine
62
7
6
CONTINUOUS
10
302.3771300857
20
247.7563448639
11
302.6771300857
21
247.7563448639
0
LINE
5
36F
100
AcDbEntity
8
0
100
AcDbLine
62
7
6
CONTINUOUS
10
302.3771300857
20
247.9313448639
11
302.6771300857
21
247.9313448639
0
LINE
5
370
100
AcDbEntity
8
0
100
AcDbLine
62
7
6
CONTINUOUS
10
302.3771300857
20
248.3393444579
11
302.6771300857
21
248.3393444579
0
LINE
5
371
100
AcDbEntity
8
0
100
AcDbLine
62
7
6
CONTINUOUS
10
302.3771300857
20
248.5973094411
11
302.6771300857
21
248.5973094411
0
LINE
5
372
100
AcDbEntity
8
0
100
AcDbLine
62
7
6
CONTINUOUS
10
302.3771300857
20
248.8306425519
11
302.6771300857
21
248.8306425519
0
LINE
5
373
100
AcDbEntity
8
0
100
AcDbLine
62
7
6
CONTINUOUS
10
302.3771300857
20
249.3465726988
11
302.6771300857
21
249.3465726988
0
LINE
5
374
100
AcDbEntity
8
0
100
AcDbLine
62
7
6
CONTINUOUS
10
302.3771300857
20
249.4924061434
11
302.6771300857
21
249.4924061434
0
LINE
5
375
100
AcDbEntity
8
0
100
AcDbLine
62
7
6
CONTINUOUS
10
302.3771300857
20
252.2802559507
11
302.6771300857
21
252.2802559507
0
LINE
5
376
100
AcDbEntity
8
0
100
AcDbLine
62
7
6
CONTINUOUS
10
300.8771300857
20
256.0936492584
11
289.8771300857
21
256.0936492584
0
LINE
5
377
100
AcDbEntity
8
0
100
AcDbLine
62
7
6
CONTINUOUS
10
78.3354285718
20
107.1004069619
11
78.3354285718
21
118.1265110457
0
LINE
5
378
100
AcDbEntity
8
0
100
AcDbLine
62
7
6
CONTINUOUS
10
82.7673073191
20
105.6134590036
11
82.7673073191
21
105.3134590036
0
LINE
5
379
100
AcDbEntity
8
0
100
AcDbLine
62
7
6
CONTINUOUS
10
83.2361846733
20
105.6134590036
11
83.2361846733
21
105.3134590036
0
LINE
5
37A
100
AcDbEntity
8
0
100
AcDbLine
62
7
6
CONTINUOUS
10
83.3926230960
20
105.6134590036
11
83.3926230960
21
105.3134590036
0
LINE
5
37B
100
AcDbEntity
8
0
100
AcDbLine
62
7
6
CONTINUOUS
10
83.6470361689
20
105.6134590036
11
83.6470361689
21
105.3134590036
0
LINE
5
37C
100
AcDbEntity
8
0
100
AcDbLine
62
7
6
CONTINUOUS
10
83.9406683259
20
105.6134590036
11
83.9406683259
21
105.3134590036
0
LINE
5
37D
100
AcDbEntity
8
0
100
AcDbLine
62
7
6
CONTINUOUS
10
83.9591832510
20
105.6134590036
11
83.9591832510
21
105.3134590036
0
LINE
5
37E
100
AcDbEntity
8
0
100
AcDbLine
62
7
6
CONTINUOUS
10
83.9785737802
20
105.6134590036
11
83.9785737802
21
105.3134590036
0
LINE
5
37F
100
AcDbEntity
8
0
100
AcDbLine
62
7
6
CONTINUOUS
10
84.0762566369
20
105.6134590036
11
84.0762566369
21
105.3134590036
0
LINE
5
380
100
AcDbEntity
8
0
100
AcDbLine
62
7
6
CONTINUOUS
10
84.2326950037
20
105.6134590036
11
84.2326950037
21
105.3134590036
0
LINE
5
381
100
AcDbEntity
8
0
100
AcDbLine
62
7
6
CONTINUOUS
10
84.4871081324
20
105.6134590036
11
84.4871081324
21
105.3134590036
0
LINE
5
382
100
AcDbEntity
8
0
100
AcDbLine
62
7
6
CONTINUOUS
10
84.7807402895
20
105.6134590036
11
84.7807402895
21
105.3134590036
0
LINE
5
383
100
AcDbEntity
8
0
100
AcDbLine
62
7
6
CONTINUOUS
10
84.9765436372
20
105.6134590036
11
84.9765436372
21
105.3134590036
0
LINE
5
384
100
AcDbEntity
8
0
100
AcDbLine
62
7
6
CONTINUOUS
10
85.0363210924
20
105.6134590036
11
85.0363210924
21
105.3134590036
0
LINE
5
385
100
AcDbEntity
8
0
100
AcDbLine
62
7
6
CONTINUOUS
10
85.1536863836
20
105.6134590036
11
85.1536863836
21
105.3134590036
0
LINE
5
386
100
AcDbEntity
8
0
100
AcDbLine
62
7
6
CONTINUOUS
10
85.2709057221
20
105.6134590036
11
85.2709057221
21
105.3134590036
0
LINE
5
387
100
AcDbEntity
8
0
100
AcDbLine
62
7
6
CONTINUOUS
10
85.4273442007
20
105.6134590036
11
85.4273442007
21
105.3134590036
0
LINE
5
388
100
AcDbEntity
8
0
100
AcDbLine
62
7
6
CONTINUOUS
10
85.4828885876
20
105.6134590036
11
85.4828885876
21
105.3134590036
0
LINE
5
389
100
AcDbEntity
8
0
100
AcDbLine
62
7
6
CONTINUOUS
10
85.6587175954
20
105.6134590036
11
85.6587175954
21
105.3134590036
0
LINE
5
38A
100
AcDbEntity
8
0
100
AcDbLine
62
7
6
CONTINUOUS
10
86.2448142882
20
105.6134590036
11
86.2448142882
21
105.3134590036
0
LINE
5
38B
100
AcDbEntity
8
0
100
AcDbLine
62
7
6
CONTINUOUS
10
86.4206432960
20
105.6134590036
11
86.4206432960
21
105.3134590036
0
LINE
5
38C
100
AcDbEntity
8
0
100
AcDbLine
62
7
6
CONTINUOUS
10
86.6941551605
20
105.6134590036
11
86.6941551605
21
105.3134590036
0
LINE
5
38D
100
AcDbEntity
8
0
100
AcDbLine
62
7
6
CONTINUOUS
10
86.8113744990
20
105.6134590036
11
86.8113744990
21
105.3134590036
0
LINE
5
38E
100
AcDbEntity
8
0
100
AcDbLine
62
7
6
CONTINUOUS
10
87.2413248421
20
105.6134590036
11
87.2413248421
21
105.3134590036
0
LINE
5
38F
100
AcDbEntity
8
0
100
AcDbLine
62
7
6
CONTINUOUS
10
87.2802518532
20
105.6134590036
11
87.2802518532
21
105.3134590036
0
LINE
5
390
100
AcDbEntity
8
0
100
AcDbLine
62
7
6
CONTINUOUS
10
87.3583982280
20
105.6134590036
11
87.3583982280
21
105.3134590036
0
LINE
5
391
100
AcDbEntity
8
0
100
AcDbLine
62
7
6
CONTINUOUS
10
87.5148364830
20
105.6134590036
11
87.5148364830
21
105.3134590036
0
LINE
5
392
100
AcDbEntity
8
0
100
AcDbLine
62
7
6
CONTINUOUS
10
87.7887859818
20
105.6134590036
11
87.7887859818
21
105.3134590036
0
LINE
5
393
100
AcDbEntity
8
0
100
AcDbLine
62
7
6
CONTINUOUS
10
88.0824181389
20
105.6134590036
11
88.0824181389
21
105.3134590036
0
LINE
5
394
100
AcDbEntity
8
0
100
AcDbLine
62
7
6
CONTINUOUS
10
88.2782217102
20
105.6134590036
11
88.2782217102
21
105.3134590036
0
LINE
5
395
100
AcDbEntity
8
0
100
AcDbLine
62
7
6
CONTINUOUS
10
88.3767802238
20
105.6134590036
11
88.3767802238
21
105.3134590036
0
LINE
5
396
100
AcDbEntity
8
0
100
AcDbLine
62
7
6
CONTINUOUS
10
88.5332189260
20
105.6134590036
11
88.5332189260
21
105.3134590036
0
LINE
5
397
100
AcDbEntity
8
0
100
AcDbLine
62
7
6
CONTINUOUS
10
88.8071684249
20
105.6134590036
11
88.8071684249
21
105.3134590036
0
LINE
5
398
100
AcDbEntity
8
0
100
AcDbLine
62
7
6
CONTINUOUS
10
89.0420449600
20
105.6134590036
11
89.0420449600
21
105.3134590036
0
LINE
5
399
100
AcDbEntity
8
0
100
AcDbLine
62
7
6
CONTINUOUS
10
89.3748960335
20
105.6134590036
11
89.3748960335
21
105.3134590036
0
LINE
5
39A
100
AcDbEntity
8
0
100
AcDbLine
62
7
6
CONTINUOUS
10
89.6686742255
20
105.6134590036
11
89.6686742255
21
105.3134590036
0
LINE
5
39B
100
AcDbEntity
8
0
100
AcDbLine
62
7
6
CONTINUOUS
10
89.9233794125
20
105.6134590036
11
89.9233794125
21
105.3134590036
0
LINE
5
39C
100
AcDbEntity
8
0
100
AcDbLine
62
7
6
CONTINUOUS
10
90.0997922516
20
105.6134590036
11
90.0997922516
21
105.3134590036
0
LINE
5
39D
100
AcDbEntity
8
0
100
AcDbLine
62
7
6
CONTINUOUS
10
90.1783764998
20
105.6134590036
11
90.1783764998
21
105.3134590036
0
LINE
5
39E
100
AcDbEntity
8
0
100
AcDbLine
62
7
6
CONTINUOUS
10
95.6043312769
20
105.6134590036
11
95.6043312769
21
105.3134590036
0
LINE
5
39F
100
AcDbEntity
8
0
100
AcDbLine
62
7
6
CONTINUOUS
10
95.6468019014
20
105.6134590036
11
95.6468019014
21
105.3134590036
0
LINE
5
3A0
100
AcDbEntity
8
0
100
AcDbLine
62
7
6
CONTINUOUS
10
95.9499107928
20
105.6134590036
11
95.9499107928
21
105.3134590036
0
LINE
5
3A1
100
AcDbEntity
8
0
100
AcDbLine
62
7
6
CONTINUOUS
10
142.4668669118
20
105.6035481216
11
142.4661913355
21
105.6033687767
0
LINE
5
3A2
100
AcDbEntity
8
0
100
AcDbLine
62
7
6
CONTINUOUS
10
79.5707840213
20
105.6035475377
11
79.5722618023
21
105.6031557007
0
LINE
5
3A3
100
AcDbEntity
8
0
100
AcDbLine
62
7
6
CONTINUOUS
10
97.6999107928
20
105.6134590036
11
97.6999107928
21
105.3134590036
0
LINE
5
3A4
100
AcDbEntity
8
0
100
AcDbLine
62
7
6
CONTINUOUS
10
142.3157438760
20
105.5680801622
11
133.6640731544
21
103.7785617653
0
LINE
5
3A5
100
AcDbEntity
8
0
100
AcDbLine
62
7
6
CONTINUOUS
10
88.3735706046
20
103.7785617653
11
79.7218998832
21
105.5680801621
0
LINE
5
3A6
100
AcDbEntity
8
0
100
AcDbLine
62
7
6
CONTINUOUS
10
99.3374379805
20
105.6134590036
11
99.3374379805
21
105.3134590036
0
LINE
5
3A7
100
AcDbEntity
8
0
100
AcDbLine
62
7
6
CONTINUOUS
10
99.4437103743
20
105.6134590036
11
99.4437103743
21
105.3134590036
0
LINE
5
3A8
100
AcDbEntity
8
0
100
AcDbLine
62
7
6
CONTINUOUS
10
99.6963013098
20
105.6134590036
11
99.6963013098
21
105.3134590036
0
LINE
5
3A9
100
AcDbEntity
8
0
100
AcDbLine
62
7
6
CONTINUOUS
10
99.9941737190
20
105.6134590036
11
99.9941737190
21
105.3134590036
0
LINE
5
3AA
100
AcDbEntity
8
0
100
AcDbLine
62
7
6
CONTINUOUS
10
100.5498735458
20
105.6134590036
11
100.5498735458
21
105.3134590036
0
LINE
5
3AB
100
AcDbEntity
8
0
100
AcDbLine
62
7
6
CONTINUOUS
10
100.6988096983
20
105.6134590036
11
100.6988096983
21
105.3134590036
0
LINE
5
3AC
100
AcDbEntity
8
0
100
AcDbLine
62
7
6
CONTINUOUS
10
100.8133226097
20
105.6134590036
11
100.8133226097
21
105.3134590036
0
LINE
5
3AD
100
AcDbEntity
8
0
100
AcDbLine
62
7
6
CONTINUOUS
10
100.9755427059
20
105.6134590036
11
100.9755427059
21
105.3134590036
0
LINE
5
3AE
100
AcDbEntity
8
0
100
AcDbLine
62
7
6
CONTINUOUS
10
101.2015652278
20
105.6134590036
11
101.2015652278
21
105.3134590036
0
LINE
5
3AF
100
AcDbEntity
8
0
100
AcDbLine
62
7
6
CONTINUOUS
10
101.4913902145
20
105.6134590036
11
101.4913902145
21
105.3134590036
0
LINE
5
3B0
100
AcDbEntity
8
0
100
AcDbLine
62
7
6
CONTINUOUS
10
101.6403263800
20
105.6134590036
11
101.6403263800
21
105.3134590036
0
LINE
5
3B1
100
AcDbEntity
8
0
100
AcDbLine
62
7
6
CONTINUOUS
10
133.3602432969
20
103.7474686438
11
132.2789296998
21
103.7474686438
0
LINE
5
3B2
100
AcDbEntity
8
0
100
AcDbLine
62
7
6
CONTINUOUS
10
89.7587140242
20
103.7474686438
11
88.6774004621
21
103.7474686438
0
LINE
5
3B3
100
AcDbEntity
8
0
100
AcDbLine
62
7
6
CONTINUOUS
10
114.9421549903
20
105.3134590036
11
112.6088218795
21
105.3134590036
0
LINE
5
3B4
100
AcDbEntity
8
0
100
AcDbLine
62
7
6
CONTINUOUS
10
112.1421553241
20
105.3134590036
11
110.0421551572
21
105.3134590036
0
LINE
5
3B5
100
AcDbEntity
8
0
100
AcDbLine
62
7
6
CONTINUOUS
10
109.5754886018
20
105.3134590036
11
107.3588218795
21
105.3134590036
0
LINE
5
3B6
100
AcDbEntity
8
0
100
AcDbLine
62
7
6
CONTINUOUS
10
101.6403263800
20
105.3134590036
11
99.3374379805
21
105.3134590036
0
LINE
5
3B7
100
AcDbEntity
8
0
100
AcDbLine
62
7
6
CONTINUOUS
10
97.6999107928
20
105.3134590036
11
95.6043312769
21
105.3134590036
0
LINE
5
3B8
100
AcDbEntity
8
0
100
AcDbLine
62
7
6
CONTINUOUS
10
90.1783764998
20
105.3134590036
11
88.2790975908
21
105.3134590036
0
LINE
5
3B9
100
AcDbEntity
8
0
100
AcDbLine
62
7
6
CONTINUOUS
10
88.2782217102
20
105.3134590036
11
82.7673073191
21
105.3134590036
0
LINE
5
3BA
100
AcDbEntity
8
0
100
AcDbLine
62
7
6
CONTINUOUS
10
79.9191070291
20
105.6134590036
11
142.1185367299
21
105.6134590036
0
LINE
5
3BB
100
AcDbEntity
8
0
100
AcDbLine
62
7
6
CONTINUOUS
10
107.3588218795
20
105.6134590036
11
107.3588218795
21
105.3134590036
0
LINE
5
3BC
100
AcDbEntity
8
0
100
AcDbLine
62
7
6
CONTINUOUS
10
108.7588218795
20
105.6134590036
11
108.7588218795
21
105.3134590036
0
LINE
5
3BD
100
AcDbEntity
8
0
100
AcDbLine
62
7
6
CONTINUOUS
10
109.0504886018
20
105.6134590036
11
109.0504886018
21
105.3134590036
0
LINE
5
3BE
100
AcDbEntity
8
0
100
AcDbLine
62
7
6
CONTINUOUS
10
109.2838218795
20
105.6134590036
11
109.2838218795
21
105.3134590036
0
LINE
5
3BF
100
AcDbEntity
8
0
100
AcDbLine
62
7
6
CONTINUOUS
10
109.4588218795
20
105.6134590036
11
109.4588218795
21
105.3134590036
0
LINE
5
3C0
100
AcDbEntity
8
0
100
AcDbLine
62
7
6
CONTINUOUS
10
109.5171551572
20
105.6134590036
11
109.5171551572
21
105.3134590036
0
LINE
5
3C1
100
AcDbEntity
8
0
100
AcDbLine
62
7
6
CONTINUOUS
10
109.5754886018
20
105.6134590036
11
109.5754886018
21
105.3134590036
0
LINE
5
3C2
100
AcDbEntity
8
0
100
AcDbLine
62
7
6
CONTINUOUS
10
110.0421551572
20
105.6134590036
11
110.0421551572
21
105.3134590036
0
LINE
5
3C3
100
AcDbEntity
8
0
100
AcDbLine
62
7
6
CONTINUOUS
10
110.3921553241
20
105.6134590036
11
110.3921553241
21
105.3134590036
0
LINE
5
3C4
100
AcDbEntity
8
0
100
AcDbLine
62
7
6
CONTINUOUS
10
110.4504884349
20
105.6134590036
11
110.4504884349
21
105.3134590036
0
LINE
5
3C5
100
AcDbEntity
8
0
100
AcDbLine
62
7
6
CONTINUOUS
10
110.5671553241
20
105.6134590036
11
110.5671553241
21
105.3134590036
0
LINE
5
3C6
100
AcDbEntity
8
0
100
AcDbLine
62
7
6
CONTINUOUS
10
110.7421553241
20
105.6134590036
11
110.7421553241
21
105.3134590036
0
LINE
5
3C7
100
AcDbEntity
8
0
100
AcDbLine
62
7
6
CONTINUOUS
10
110.9754884349
20
105.6134590036
11
110.9754884349
21
105.3134590036
0
LINE
5
3C8
100
AcDbEntity
8
DEFAULT_1
100
AcDbLine
62
2
6
CENTER
10
111.0188218795
20
112.6134590036
11
111.0188218795
21
92.1134590036
0
LINE
5
3C9
100
AcDbEntity
8
DEFAULT_1
100
AcDbLine
62
2
6
CENTER
10
111.0188218795
20
112.6134590036
11
111.0188218795
21
133.1134590036
0
LINE
5
3CA
100
AcDbEntity
8
0
100
AcDbLine
62
7
6
CONTINUOUS
10
111.2088218795
20
105.6134590036
11
111.2088218795
21
105.3134590036
0
LINE
5
3CB
100
AcDbEntity
8
DEFAULT_1
100
AcDbLine
62
2
6
CENTER
10
111.0188218795
20
112.6134590036
11
90.5188218795
21
112.6134590036
0
LINE
5
3CC
100
AcDbEntity
8
DEFAULT_1
100
AcDbLine
62
2
6
CENTER
10
111.0188218795
20
112.6134590036
11
131.5188218795
21
112.6134590036
0
LINE
5
3CD
100
AcDbEntity
8
0
100
AcDbLine
62
7
6
CONTINUOUS
10
111.4421553241
20
105.6134590036
11
111.4421553241
21
105.3134590036
0
LINE
5
3CE
100
AcDbEntity
8
0
100
AcDbLine
62
7
6
CONTINUOUS
10
111.6171553241
20
105.6134590036
11
111.6171553241
21
105.3134590036
0
LINE
5
3CF
100
AcDbEntity
8
0
100
AcDbLine
62
7
6
CONTINUOUS
10
111.7338218795
20
105.6134590036
11
111.7338218795
21
105.3134590036
0
LINE
5
3D0
100
AcDbEntity
8
0
100
AcDbLine
62
7
6
CONTINUOUS
10
111.7921553241
20
105.6134590036
11
111.7921553241
21
105.3134590036
0
LINE
5
3D1
100
AcDbEntity
8
0
100
AcDbLine
62
7
6
CONTINUOUS
10
112.1421553241
20
105.6134590036
11
112.1421553241
21
105.3134590036
0
LINE
5
3D2
100
AcDbEntity
8
0
100
AcDbLine
62
7
6
CONTINUOUS
10
112.6088218795
20
105.6134590036
11
112.6088218795
21
105.3134590036
0
LINE
5
3D3
100
AcDbEntity
8
0
100
AcDbLine
62
7
6
CONTINUOUS
10
114.0088218795
20
105.6134590036
11
114.0088218795
21
105.3134590036
0
LINE
5
3D4
100
AcDbEntity
8
0
100
AcDbLine
62
7
6
CONTINUOUS
10
114.3004887687
20
105.6134590036
11
114.3004887687
21
105.3134590036
0
LINE
5
3D5
100
AcDbEntity
8
0
100
AcDbLine
62
7
6
CONTINUOUS
10
114.5338218795
20
105.6134590036
11
114.5338218795
21
105.3134590036
0
LINE
5
3D6
100
AcDbEntity
8
0
100
AcDbLine
62
7
6
CONTINUOUS
10
114.7671549903
20
105.6134590036
11
114.7671549903
21
105.3134590036
0
LINE
5
3D7
100
AcDbEntity
8
0
100
AcDbLine
62
7
6
CONTINUOUS
10
114.8838218795
20
105.6134590036
11
114.8838218795
21
105.3134590036
0
LINE
5
3D8
100
AcDbEntity
8
0
100
AcDbLine
62
7
6
CONTINUOUS
10
114.9421549903
20
105.6134590036
11
114.9421549903
21
105.3134590036
0
LINE
5
3D9
100
AcDbEntity
8
0
100
AcDbLine
62
7
6
CONTINUOUS
10
142.1185367299
20
119.6134590036
11
79.9191070291
21
119.6134590036
0
LINE
5
3DA
100
AcDbEntity
8
0
100
AcDbLine
62
7
6
CONTINUOUS
10
88.6774004621
20
121.4794493633
11
89.7587140592
21
121.4794493633
0
LINE
5
3DB
100
AcDbEntity
8
0
100
AcDbLine
62
7
6
CONTINUOUS
10
132.2789297348
20
121.4794493633
11
133.3602432969
21
121.4794493633
0
LINE
5
3DC
100
AcDbEntity
8
0
100
AcDbLine
62
7
6
CONTINUOUS
10
79.5707767702
20
119.6233698666
11
79.5714524218
21
119.6235492314
0
LINE
5
3DD
100
AcDbEntity
8
0
100
AcDbLine
62
7
6
CONTINUOUS
10
79.7218998830
20
119.6588378449
11
88.3735706046
21
121.4483562418
0
LINE
5
3DE
100
AcDbEntity
8
0
100
AcDbLine
62
7
6
CONTINUOUS
10
133.6640731544
20
121.4483562418
11
142.3157438758
21
119.6588378450
0
LINE
5
3DF
100
AcDbEntity
8
0
100
AcDbLine
62
7
6
CONTINUOUS
10
142.4668597335
20
119.6233707223
11
142.4654078202
21
119.6237557141
0
LINE
5
3E0
100
AcDbEntity
8
0
100
AcDbLine
62
7
6
CONTINUOUS
10
143.7022151873
20
107.1004069378
11
143.7022151873
21
118.1265103762
0
ARC
5
3E1
100
AcDbEntity
8
0
100
AcDbCircle
62
7
6
CONTINUOUS
10
88.6781525451
20
201.5647508873
40
1.5000000000
100
AcDbArc
50
202.5000000000
51
268.0789722427
0
ARC
5
3E2
100
AcDbEntity
8
0
100
AcDbCircle
62
7
6
CONTINUOUS
10
133.3594912139
20
201.5647508873
40
1.5000000000
100
AcDbArc
50
271.4047110510
51
337.5000000000
0
ARC
5
3E3
100
AcDbEntity
8
0
100
AcDbCircle
62
7
6
CONTINUOUS
10
88.5188218795
20
195.0665665764
40
5.0000000000
100
AcDbArc
50
0.0000000000
51
88.7506915331
0
ARC
5
3E4
100
AcDbEntity
8
0
100
AcDbCircle
62
7
6
CONTINUOUS
10
133.5188218795
20
195.0665665764
40
5.0000000000
100
AcDbArc
50
91.2493084669
51
180.0000000000
0
CIRCLE
5
3E5
100
AcDbEntity
8
0
100
AcDbCircle
62
7
6
CONTINUOUS
10
111.0188218795
20
223.4102559507
40
17.5000000000
0
ARC
5
3E6
100
AcDbEntity
8
0
100
AcDbCircle
62
7
6
CONTINUOUS
10
131.3010437949
20
243.6924778660
40
4.0000000000
100
AcDbArc
50
22.5000000000
51
67.5000000000
0
ARC
5
3E7
100
AcDbEntity
8
0
100
AcDbCircle
62
7
6
CONTINUOUS
10
111.0188218795
20
252.0936492584
40
4.0000000000
100
AcDbArc
50
67.5000000000
51
112.5000000000
0
ARC
5
3E8
100
AcDbEntity
8
0
100
AcDbCircle
62
7
6
CONTINUOUS
10
90.7365999642
20
243.6924778660
40
4.0000000000
100
AcDbArc
50
112.5000000000
51
157.5000000000
0
ARC
5
3E9
100
AcDbEntity
8
0
100
AcDbCircle
62
7
6
CONTINUOUS
10
82.3354285718
20
223.4102559507
40
4.0000000000
100
AcDbArc
50
157.5000000000
51
202.5000000000
0
ARC
5
3EA
100
AcDbEntity
8
0
100
AcDbCircle
62
7
6
CONTINUOUS
10
139.7022151873
20
223.4102559507
40
4.0000000000
100
AcDbArc
50
337.5000000000
51
22.5000000000
0
ARC
5
3EB
100
AcDbEntity
8
0
100
AcDbCircle
62
7
6
CONTINUOUS
10
88.6773619590
20
201.5666595312
40
1.5000000000
100
AcDbArc
50
202.5038431565
51
270.0014706212
0
ARC
5
3EC
100
AcDbEntity
8
0
100
AcDbCircle
62
7
6
CONTINUOUS
10
133.3602432969
20
201.5665665764
40
1.5000000000
100
AcDbArc
50
270.0000000000
51
337.5000000000
0
ARC
5
3ED
100
AcDbEntity
8
DEFAULT_2
100
AcDbCircle
62
8
6
HIDDEN
10
295.3771300857
20
247.9102559507
40
7.0000000000
100
AcDbArc
50
180.0000000000
51
360.0000000000
0
ARC
5
3EE
100
AcDbEntity
8
0
100
AcDbCircle
62
7
6
CONTINUOUS
10
289.8771300857
20
254.5936492584
40
1.5000000000
100
AcDbArc
50
90.0000000000
51
180.0000000000
0
ARC
5
3EF
100
AcDbEntity
8
0
100
AcDbCircle
62
7
6
CONTINUOUS
10
300.8771300857
20
254.5936492584
40
1.5000000000
100
AcDbArc
50
0.0000000000
51
90.0000000000
0
ARC
5
3F0
100
AcDbEntity
8
0
100
AcDbCircle
62
7
6
CONTINUOUS
10
280.8771300857
20
200.9471909289
40
3.0000000000
100
AcDbArc
50
99.0000000000
51
180.0000000000
0
ARC
5
3F1
100
AcDbEntity
8
0
100
AcDbCircle
62
7
6
CONTINUOUS
10
309.8771300857
20
200.9471909289
40
3.0000000000
100
AcDbArc
50
0.0000000000
51
81.0000000000
0
ARC
5
3F2
100
AcDbEntity
8
0
100
AcDbCircle
62
7
6
CONTINUOUS
10
317.3771300857
20
224.0516530215
40
15.0000000000
100
AcDbArc
50
180.0000000000
51
184.8969296235
0
ARC
5
3F3
100
AcDbEntity
8
0
100
AcDbCircle
62
7
6
CONTINUOUS
10
273.3771300857
20
224.0516530215
40
15.0000000000
100
AcDbArc
50
355.1030703765
51
360.0000000000
0
ARC
5
3F4
100
AcDbEntity
8
0
100
AcDbCircle
62
7
6
CONTINUOUS
10
302.7431204455
20
201.5665665764
40
1.5000000000
100
AcDbArc
50
270.0000000000
51
4.8969296235
0
ARC
5
3F5
100
AcDbEntity
8
0
100
AcDbCircle
62
7
6
CONTINUOUS
10
288.0111397259
20
201.5665665764
40
1.5000000000
100
AcDbArc
50
175.1030703765
51
270.0000000000
0
ARC
5
3F6
100
AcDbEntity
8
0
100
AcDbCircle
62
7
6
CONTINUOUS
10
111.0188218795
20
112.6134590036
40
17.5000000000
100
AcDbArc
50
212.4565766901
51
327.5434233099
0
ARC
5
3F7
100
AcDbEntity
8
0
100
AcDbCircle
62
7
6
CONTINUOUS
10
111.0188218795
20
112.6134590036
40
17.5000000000
100
AcDbArc
50
32.4565766901
51
147.5434233099
0
SPLINE
5
3F8
100
AcDbEntity
8
0
100
AcDbSpline
62
7
6
CONTINUOUS
70
0
71
3
72
8
73
4
74
2
42
0.0000001000
43
0.0000001000
44
0.0000000001
40
0.0000000000
40
0.0000000000
40
0.0000000000
40
0.0000000000
40
1.0000000000
40
1.0000000000
40
1.0000000000
40
1.0000000000
10
133.3923065423
20
200.0653780419
30
0.0000000000
10
133.3923065423
20
200.0653780427
30
0.0000000000
10
133.3870561924
20
200.0656697938
30
0.0000000000
10
133.3804580221
20
200.0659641994
30
0.0000000000
11
133.3923065423
21
200.0653780419
31
0.0000000000
11
133.3804580221
21
200.0659641994
31
0.0000000000
0
SPLINE
5
3F9
100
AcDbEntity
8
0
100
AcDbSpline
62
7
6
CONTINUOUS
70
0
71
3
72
9
73
5
74
3
42
0.0000001000
43
0.0000001000
44
0.0000000001
40
0.0000000000
40
0.0000000000
40
0.0000000000
40
0.0000000000
40
0.6685848052
40
1.0000000000
40
1.0000000000
40
1.0000000000
40
1.0000000000
10
133.3602440811
20
200.0665665764
30
0.0000000000
10
133.3709389056
20
200.0665653906
30
0.0000000000
10
133.4028984054
20
200.0647894748
30
0.0000000000
10
133.3870561926
20
200.0656697938
30
0.0000000000
10
133.3804580221
20
200.0659641994
30
0.0000000000
11
133.3602440811
21
200.0665665764
31
0.0000000000
11
133.3923065423
21
200.0653780419
31
0.0000000000
11
133.3804580221
21
200.0659641994
31
0.0000000000
0
SPLINE
5
3FA
100
AcDbEntity
8
0
100
AcDbSpline
62
7
6
CONTINUOUS
70
0
71
3
72
8
73
4
74
2
42
0.0000001000
43
0.0000001000
44
0.0000000001
40
0.0000000000
40
0.0000000000
40
0.0000000000
40
0.0000000000
40
1.0000000000
40
1.0000000000
40
1.0000000000
40
1.0000000000
10
88.6773996734
20
200.0665665764
30
0.0000000000
10
88.6667048473
20
200.0665653902
30
0.0000000000
10
88.6453372169
20
200.0653780402
30
0.0000000000
10
88.6453372167
20
200.0653780419
30
0.0000000000
11
88.6773996734
21
200.0665665764
31
0.0000000000
11
88.6453372167
21
200.0653780419
31
0.0000000000
0
SPLINE
5
3FB
100
AcDbEntity
8
0
100
AcDbSpline
62
7
6
CONTINUOUS
70
0
71
3
72
8
73
4
74
2
42
0.0000001000
43
0.0000001000
44
0.0000000001
40
0.0000000000
40
0.0000000000
40
0.0000000000
40
0.0000000000
40
1.0000000000
40
1.0000000000
40
1.0000000000
40
1.0000000000
10
286.7182231941
20
205.1043866150
30
0.0000000000
10
286.6880634545
20
205.0740951622
30
0.0000000000
10
286.6558646377
20
205.0456871242
30
0.0000000000
10
286.6219586873
20
205.0194255862
30
0.0000000000
11
286.7182231941
21
205.1043866150
31
0.0000000000
11
286.6219586873
21
205.0194255862
31
0.0000000000
0
SPLINE
5
3FC
100
AcDbEntity
8
0
100
AcDbSpline
62
7
6
CONTINUOUS
70
0
71
3
72
10
73
6
74
4
42
0.0000001000
43
0.0000001000
44
0.0000000001
40
0.0000000000
40
0.0000000000
40
0.0000000000
40
0.0000000000
40
0.2565613315
40
0.7722522587
40
1.0000000000
40
1.0000000000
40
1.0000000000
40
1.0000000000
10
286.6219586873
20
205.0194255862
30
0.0000000000
10
286.5880133129
20
204.9931335127
30
0.0000000000
10
286.4806869386
20
204.9204701205
30
0.0000000000
10
286.3255416427
20
204.8547162384
30
0.0000000000
10
286.2036621660
20
204.8282560331
30
0.0000000000
10
286.1660068493
20
204.8222931373
30
0.0000000000
11
286.6219586873
21
205.0194255862
31
0.0000000000
11
286.5153223492
21
204.9472678532
31
0.0000000000
11
286.2777225704
21
204.8465722583
31
0.0000000000
11
286.1660068493
21
204.8222931373
31
0.0000000000
0
SPLINE
5
3FD
100
AcDbEntity
8
0
100
AcDbSpline
62
7
6
CONTINUOUS
70
0
71
3
72
9
73
5
74
3
42
0.0000001000
43
0.0000001000
44
0.0000000001
40
0.0000000000
40
0.0000000000
40
0.0000000000
40
0.0000000000
40
0.7301417611
40
1.0000000000
40
1.0000000000
40
1.0000000000
40
1.0000000000
10
286.7290234387
20
205.1155475499
30
0.0000000000
10
286.7283136444
20
205.1147628310
30
0.0000000000
10
286.7273162588
20
205.1137002260
30
0.0000000000
10
286.7260076754
20
205.1123366690
30
0.0000000000
10
286.7256582629
20
205.1119735427
30
0.0000000000
11
286.7290234387
21
205.1155475499
31
0.0000000000
11
286.7266912769
21
205.1130506868
31
0.0000000000
11
286.7256582629
21
205.1119735427
31
0.0000000000
0
SPLINE
5
3FE
100
AcDbEntity
8
0
100
AcDbSpline
62
7
6
CONTINUOUS
70
0
71
3
72
9
73
5
74
3
42
0.0000001000
43
0.0000001000
44
0.0000000001
40
0.0000000000
40
0.0000000000
40
0.0000000000
40
0.0000000000
40
0.7868749084
40
1.0000000000
40
1.0000000000
40
1.0000000000
40
1.0000000000
10
286.7256582629
20
205.1119735427
30
0.0000000000
10
286.7246636702
20
205.1109399140
30
0.0000000000
10
286.7234379918
20
205.1096761725
30
0.0000000000
10
286.7232436787
20
205.1094724436
30
0.0000000000
10
286.7232440925
20
205.1094720374
30
0.0000000000
11
286.7256582629
21
205.1119735427
31
0.0000000000
11
286.7233733516
21
205.1096074313
31
0.0000000000
11
286.7232440925
21
205.1094720374
31
0.0000000000
0
SPLINE
5
3FF
100
AcDbEntity
8
0
100
AcDbSpline
62
7
6
CONTINUOUS
70
0
71
3
72
12
73
8
74
6
42
0.0000001000
43
0.0000001000
44
0.0000000001
40
0.0000000000
40
0.0000000000
40
0.0000000000
40
0.0000000000
40
0.1263646239
40
0.3846060418
40
0.6359984329
40
0.8804239739
40
1.0000000000
40
1.0000000000
40
1.0000000000
40
1.0000000000
10
286.8330012901
20
205.3874048194
30
0.0000000000
10
286.8327926141
20
205.3851133177
30
0.0000000000
10
286.8321169378
20
205.3781425629
30
0.0000000000
10
286.8307951973
20
205.3666364343
30
0.0000000000
10
286.8289057726
20
205.3530353852
30
0.0000000000
10
286.8271068938
20
205.3419742247
30
0.0000000000
10
286.8259308696
20
205.3354511604
30
0.0000000000
10
286.8255324298
20
205.3333105618
30
0.0000000000
11
286.8330012901
21
205.3874048194
31
0.0000000000
11
286.8323352747
21
205.3805341195
31
0.0000000000
11
286.8307250282
21
205.3665196356
31
0.0000000000
11
286.8288351052
21
205.3529177527
31
0.0000000000
11
286.8266914409
21
205.3397389766
31
0.0000000000
11
286.8255324298
21
205.3333105618
31
0.0000000000
0
SPLINE
5
400
100
AcDbEntity
8
0
100
AcDbSpline
62
7
6
CONTINUOUS
70
0
71
3
72
14
73
10
74
8
42
0.0000001000
43
0.0000001000
44
0.0000000001
40
0.0000000000
40
0.0000000000
40
0.0000000000
40
0.0000000000
40
0.0945571956
40
0.2794206041
40
0.4586340825
40
0.6322437731
40
0.8003238146
40
0.9629735302
40
1.0000000000
40
1.0000000000
40
1.0000000000
40
1.0000000000
10
286.8255324298
20
205.3333105618
30
0.0000000000
10
286.8251398613
20
205.3312015068
30
0.0000000000
10
286.8239450627
20
205.3249756268
30
0.0000000000
10
286.8218151027
20
205.3147900038
30
0.0000000000
10
286.8190590225
20
205.3029058825
30
0.0000000000
10
286.8161448031
20
205.2914521214
30
0.0000000000
10
286.8130933439
20
205.2804236547
30
0.0000000000
10
286.8107053228
20
205.2724287741
30
0.0000000000
10
286.8093550910
20
205.2681045016
30
0.0000000000
10
286.8091028680
20
205.2673032217
30
0.0000000000
11
286.8255324298
21
205.3333105618
31
0.0000000000
11
286.8243194304
21
205.3269901040
31
0.0000000000
11
286.8217436508
21
205.3146745032
31
0.0000000000
11
286.8189876292
21
205.3027924077
31
0.0000000000
11
286.8160736562
21
205.2913412179
31
0.0000000000
11
286.8130226402
21
205.2803158026
31
0.0000000000
11
286.8098540006
21
205.2697087948
31
0.0000000000
11
286.8091028680
21
205.2673032217
31
0.0000000000
0
SPLINE
5
401
100
AcDbEntity
8
0
100
AcDbSpline
62
7
6
CONTINUOUS
70
0
71
3
72
8
73
4
74
2
42
0.0000001000
43
0.0000001000
44
0.0000000001
40
0.0000000000
40
0.0000000000
40
0.0000000000
40
0.0000000000
40
1.0000000000
40
1.0000000000
40
1.0000000000
40
1.0000000000
10
286.8091028680
20
205.2673032217
30
0.0000000000
10
286.8088147294
20
205.2663878426
30
0.0000000000
10
286.8085241815
20
205.2654732219
30
0.0000000000
10
286.8082312219
20
205.2645593745
30
0.0000000000
11
286.8091028680
21
205.2673032217
31
0.0000000000
11
286.8082312219
21
205.2645593745
31
0.0000000000
0
SPLINE
5
402
100
AcDbEntity
8
0
100
AcDbSpline
62
7
6
CONTINUOUS
70
0
71
3
72
8
73
4
74
2
42
0.0000001000
43
0.0000001000
44
0.0000000001
40
0.0000000000
40
0.0000000000
40
0.0000000000
40
0.0000000000
40
1.0000000000
40
1.0000000000
40
1.0000000000
40
1.0000000000
10
286.8332735890
20
205.3905465071
30
0.0000000000
10
286.8296857635
20
205.3488739579
30
0.0000000000
10
286.8216262100
20
205.3071729625
30
0.0000000000
10
286.8089340276
20
205.2669984379
30
0.0000000000
11
286.8332735890
21
205.3905465071
31
0.0000000000
11
286.8089340276
21
205.2669984379
31
0.0000000000
0
SPLINE
5
403
100
AcDbEntity
8
0
100
AcDbSpline
62
7
6
CONTINUOUS
70
0
71
3
72
10
73
6
74
4
42
0.0000001000
43
0.0000001000
44
0.0000000001
40
0.0000000000
40
0.0000000000
40
0.0000000000
40
0.0000000000
40
0.5350409709
40
0.8990581482
40
1.0000000000
40
1.0000000000
40
1.0000000000
40
1.0000000000
10
286.8089340276
20
205.2669984379
30
0.0000000000
10
286.7987812671
20
205.2348619371
30
0.0000000000
10
286.7767399523
20
205.1825025333
30
0.0000000000
10
286.7426555687
20
205.1298316308
30
0.0000000000
10
286.7227569449
20
205.1087701377
30
0.0000000000
10
286.7182231941
20
205.1043866150
30
0.0000000000
11
286.8089340276
21
205.2669984379
31
0.0000000000
11
286.7695004676
21
205.1743150766
31
0.0000000000
11
286.7312059426
21
205.1180765523
31
0.0000000000
11
286.7182231941
21
205.1043866150
31
0.0000000000
0
SPLINE
5
404
100
AcDbEntity
8
0
100
AcDbSpline
62
7
6
CONTINUOUS
70
0
71
3
72
10
73
6
74
4
42
0.0000001000
43
0.0000001000
44
0.0000000001
40
0.0000000000
40
0.0000000000
40
0.0000000000
40
0.0000000000
40
0.0892641054
40
0.6968972310
40
1.0000000000
40
1.0000000000
40
1.0000000000
40
1.0000000000
10
304.5882603125
20
204.8222162226
30
0.0000000000
10
304.5738456298
20
204.8244975469
30
0.0000000000
10
304.4617025853
20
204.8447728109
30
0.0000000000
10
304.3063871455
20
204.9013790776
30
0.0000000000
10
304.1807464858
20
204.9826547236
30
0.0000000000
10
304.1411887741
20
205.0125924795
30
0.0000000000
11
304.5882603125
21
204.8222162226
31
0.0000000000
11
304.5451813482
21
204.8300061491
31
0.0000000000
11
304.2661268701
21
204.9318480243
31
0.0000000000
11
304.1411887741
21
205.0125924795
31
0.0000000000
0
SPLINE
5
405
100
AcDbEntity
8
0
100
AcDbSpline
62
7
6
CONTINUOUS
70
0
71
3
72
8
73
4
74
2
42
0.0000001000
43
0.0000001000
44
0.0000000001
40
0.0000000000
40
0.0000000000
40
0.0000000000
40
0.0000000000
40
1.0000000000
40
1.0000000000
40
1.0000000000
40
1.0000000000
10
304.1411887741
20
205.0125924795
30
0.0000000000
10
304.1015719477
20
205.0425749740
30
0.0000000000
10
304.0642187322
20
205.0754544483
30
0.0000000000
10
304.0296370181
20
205.1108252989
30
0.0000000000
11
304.1411887741
21
205.0125924795
31
0.0000000000
11
304.0296370181
21
205.1108252989
31
0.0000000000
0
SPLINE
5
406
100
AcDbEntity
8
0
100
AcDbSpline
62
7
6
CONTINUOUS
70
0
71
3
72
8
73
4
74
2
42
0.0000001000
43
0.0000001000
44
0.0000000001
40
0.0000000000
40
0.0000000000
40
0.0000000000
40
0.0000000000
40
1.0000000000
40
1.0000000000
40
1.0000000000
40
1.0000000000
10
304.0199837737
20
205.1217479076
30
0.0000000000
10
304.0126516839
20
205.1305109706
30
0.0000000000
10
304.0058727922
20
205.1397205798
30
0.0000000000
10
303.9995741809
20
205.1492757087
30
0.0000000000
11
304.0199837737
21
205.1217479076
31
0.0000000000
11
303.9995741809
21
205.1492757087
31
0.0000000000
0
SPLINE
5
407
100
AcDbEntity
8
0
100
AcDbSpline
62
7
6
CONTINUOUS
70
0
71
3
72
8
73
4
74
2
42
0.0000001000
43
0.0000001000
44
0.0000000001
40
0.0000000000
40
0.0000000000
40
0.0000000000
40
0.0000000000
40
1.0000000000
40
1.0000000000
40
1.0000000000
40
1.0000000000
10
303.9970255400
20
205.1532013667
30
0.0000000000
10
303.9861970198
20
205.1701354658
30
0.0000000000
10
303.9768176569
20
205.1880917124
30
0.0000000000
10
303.9684930999
20
205.2065237374
30
0.0000000000
11
303.9970255400
21
205.1532013667
31
0.0000000000
11
303.9684930999
21
205.2065237374
31
0.0000000000
0
SPLINE
5
408
100
AcDbEntity
8
0
100
AcDbSpline
62
7
6
CONTINUOUS
70
0
71
3
72
8
73
4
74
2
42
0.0000001000
43
0.0000001000
44
0.0000000001
40
0.0000000000
40
0.0000000000
40
0.0000000000
40
0.0000000000
40
1.0000000000
40
1.0000000000
40
1.0000000000
40
1.0000000000
10
303.9684930999
20
205.2065237374
30
0.0000000000
10
303.9639250174
20
205.2166382710
30
0.0000000000
10
303.9596737774
20
205.2268952519
30
0.0000000000
10
303.9557386229
20
205.2372717476
30
0.0000000000
11
303.9684930999
21
205.2065237374
31
0.0000000000
11
303.9557386229
21
205.2372717476
31
0.0000000000
0
SPLINE
5
409
100
AcDbEntity
8
0
100
AcDbSpline
62
7
6
CONTINUOUS
70
0
71
3
72
10
73
6
74
4
42
0.0000001000
43
0.0000001000
44
0.0000000001
40
0.0000000000
40
0.0000000000
40
0.0000000000
40
0.0000000000
40
0.0525010406
40
0.3973392641
40
1.0000000000
40
1.0000000000
40
1.0000000000
40
1.0000000000
10
304.0296370181
20
205.1108252989
30
0.0000000000
10
304.0262244917
20
205.1144811846
30
0.0000000000
10
304.0012400090
20
205.1428540824
30
0.0000000000
10
303.9535274896
20
205.2264675030
30
0.0000000000
10
303.9295920945
20
205.3153137295
30
0.0000000000
10
303.9228493237
20
205.3724498292
30
0.0000000000
11
304.0296370181
21
205.1108252989
31
0.0000000000
11
304.0197272301
21
205.1220637676
31
0.0000000000
11
303.9686464883
21
205.2061846565
31
0.0000000000
11
303.9228493237
21
205.3724498292
31
0.0000000000
0
SPLINE
5
40A
100
AcDbEntity
8
0
100
AcDbSpline
62
7
6
CONTINUOUS
70
0
71
3
72
8
73
4
74
2
42
0.0000001000
43
0.0000001000
44
0.0000000001
40
0.0000000000
40
0.0000000000
40
0.0000000000
40
0.0000000000
40
1.0000000000
40
1.0000000000
40
1.0000000000
40
1.0000000000
10
303.9228493237
20
205.3724498292
30
0.0000000000
10
303.9221718346
20
205.3781906563
30
0.0000000000
10
303.9215799699
20
205.3839377938
30
0.0000000000
10
303.9210736033
20
205.3896879271
30
0.0000000000
11
303.9228493237
21
205.3724498292
31
0.0000000000
11
303.9210736033
21
205.3896879271
31
0.0000000000
0
SPLINE
5
40B
100
AcDbEntity
8
0
100
AcDbSpline
62
7
6
CONTINUOUS
70
0
71
3
72
10
73
6
74
4
42
0.0000001000
43
0.0000001000
44
0.0000000001
40
0.0000000000
40
0.0000000000
40
0.0000000000
40
0.0000000000
40
0.3340338999
40
0.6659582453
40
1.0000000000
40
1.0000000000
40
1.0000000000
40
1.0000000000
10
298.0437414701
20
200.0665665764
30
0.0000000000
10
297.4499156396
20
200.0665647826
30
0.0000000000
10
296.2660148538
20
200.0649858023
30
0.0000000000
10
294.4882731677
20
200.0649857512
30
0.0000000000
10
293.3043584181
20
200.0665647928
30
0.0000000000
10
292.7105186238
20
200.0665665764
30
0.0000000000
11
298.0437414701
21
200.0665665764
31
0.0000000000
11
296.2622643752
21
200.0653780419
31
0.0000000000
11
294.4920376102
21
200.0653780139
31
0.0000000000
11
292.7105186238
21
200.0665665764
31
0.0000000000
0
SPLINE
5
40C
100
AcDbEntity
8
0
100
AcDbSpline
62
7
6
CONTINUOUS
70
0
71
3
72
10
73
6
74
4
42
0.0000001000
43
0.0000001000
44
0.0000000001
40
0.0000000000
40
0.0000000000
40
0.0000000000
40
0.0000000000
40
0.0220858887
40
0.5110472898
40
1.0000000000
40
1.0000000000
40
1.0000000000
40
1.0000000000
10
126.4005010096
20
121.7278192264
30
0.0000000000
10
126.3961713709
20
121.7283093869
30
0.0000000000
10
126.2960675213
20
121.7403094469
30
0.0000000000
10
126.1042701331
20
121.7936123941
30
0.0000000000
10
125.9392705834
20
121.8969152271
30
0.0000000000
10
125.8657823351
20
121.9593866320
30
0.0000000000
11
126.4005010096
21
121.7278192264
31
0.0000000000
11
126.3875229078
21
121.7293750624
31
0.0000000000
11
126.1099090222
21
121.8064073670
31
0.0000000000
11
125.8657823351
21
121.9593866320
31
0.0000000000
0
SPLINE
5
40D
100
AcDbEntity
8
0
100
AcDbSpline
62
7
6
CONTINUOUS
70
0
71
3
72
8
73
4
74
2
42
0.0000001000
43
0.0000001000
44
0.0000000001
40
0.0000000000
40
0.0000000000
40
0.0000000000
40
0.0000000000
40
1.0000000000
40
1.0000000000
40
1.0000000000
40
1.0000000000
10
125.8657823351
20
121.9593866320
30
0.0000000000
10
125.8290785983
20
121.9905880017
30
0.0000000000
10
125.7946226104
20
122.0244885400
30
0.0000000000
10
125.7627944213
20
122.0606339889
30
0.0000000000
11
125.8657823351
21
121.9593866320
31
0.0000000000
11
125.7627944213
21
122.0606339889
31
0.0000000000
0
SPLINE
5
40E
100
AcDbEntity
8
0
100
AcDbSpline
62
7
6
CONTINUOUS
70
0
71
3
72
8
73
4
74
2
42
0.0000001000
43
0.0000001000
44
0.0000000001
40
0.0000000000
40
0.0000000000
40
0.0000000000
40
0.0000000000
40
1.0000000000
40
1.0000000000
40
1.0000000000
40
1.0000000000
10
125.7627944213
20
122.0606339889
30
0.0000000000
10
125.7310441262
20
122.0966909782
30
0.0000000000
10
125.7019087835
20
122.1349819035
30
0.0000000000
10
125.6757656596
20
122.1750558341
30
0.0000000000
11
125.7627944213
21
122.0606339889
31
0.0000000000
11
125.6757656596
21
122.1750558341
31
0.0000000000
0
SPLINE
5
40F
100
AcDbEntity
8
0
100
AcDbSpline
62
7
6
CONTINUOUS
70
0
71
3
72
8
73
4
74
2
42
0.0000001000
43
0.0000001000
44
0.0000000001
40
0.0000000000
40
0.0000000000
40
0.0000000000
40
0.0000000000
40
1.0000000000
40
1.0000000000
40
1.0000000000
40
1.0000000000
10
96.3618780463
20
122.1750557825
30
0.0000000000
10
96.3095281129
20
122.0948103084
30
0.0000000000
10
96.2451801456
20
122.0217142375
30
0.0000000000
10
96.1718633040
20
121.9593882224
30
0.0000000000
11
96.3618780463
21
122.1750557825
31
0.0000000000
11
96.1718633040
21
121.9593882224
31
0.0000000000
0
SPLINE
5
410
100
AcDbEntity
8
0
100
AcDbSpline
62
7
6
CONTINUOUS
70
0
71
3
72
10
73
6
74
4
42
0.0000001000
43
0.0000001000
44
0.0000000001
40
0.0000000000
40
0.0000000000
40
0.0000000000
40
0.0000000000
40
0.4889528224
40
0.9779140018
40
1.0000000000
40
1.0000000000
40
1.0000000000
40
1.0000000000
10
96.1718633040
20
121.9593882224
30
0.0000000000
10
96.0983748946
20
121.8969163590
30
0.0000000000
10
95.9333748672
20
121.7936127906
30
0.0000000000
10
95.7415767173
20
121.7403094763
30
0.0000000000
10
95.6414724803
20
121.7283093536
30
0.0000000000
10
95.6371428023
20
121.7278191883
30
0.0000000000
11
96.1718633040
21
121.9593882224
31
0.0000000000
11
95.9277358564
21
121.8064078324
31
0.0000000000
11
95.6501210215
21
121.7293750404
31
0.0000000000
11
95.6371428023
21
121.7278191883
31
0.0000000000
0
SPLINE
5
411
100
AcDbEntity
8
0
100
AcDbSpline
62
7
6
CONTINUOUS
70
0
71
3
72
10
73
6
74
4
42
0.0000001000
43
0.0000001000
44
0.0000000001
40
0.0000000000
40
0.0000000000
40
0.0000000000
40
0.0000000000
40
0.0220858887
40
0.5110472898
40
1.0000000000
40
1.0000000000
40
1.0000000000
40
1.0000000000
10
95.6371427494
20
103.4990987807
30
0.0000000000
10
95.6414723882
20
103.4986086202
30
0.0000000000
10
95.7415762378
20
103.4866085602
30
0.0000000000
10
95.9333736259
20
103.4333056130
30
0.0000000000
10
96.0983731756
20
103.3300027800
30
0.0000000000
10
96.1718614239
20
103.2675313751
30
0.0000000000
11
95.6371427494
21
103.4990987807
31
0.0000000000
11
95.6501208512
21
103.4975429447
31
0.0000000000
11
95.9277347368
21
103.4205106402
31
0.0000000000
11
96.1718614239
21
103.2675313751
31
0.0000000000
0
SPLINE
5
412
100
AcDbEntity
8
0
100
AcDbSpline
62
7
6
CONTINUOUS
70
0
71
3
72
8
73
4
74
2
42
0.0000001000
43
0.0000001000
44
0.0000000001
40
0.0000000000
40
0.0000000000
40
0.0000000000
40
0.0000000000
40
1.0000000000
40
1.0000000000
40
1.0000000000
40
1.0000000000
10
96.1718614239
20
103.2675313751
30
0.0000000000
10
96.2085651607
20
103.2363300054
30
0.0000000000
10
96.2430211486
20
103.2024294671
30
0.0000000000
10
96.2748493377
20
103.1662840182
30
0.0000000000
11
96.1718614239
21
103.2675313751
31
0.0000000000
11
96.2748493377
21
103.1662840182
31
0.0000000000
0
SPLINE
5
413
100
AcDbEntity
8
0
100
AcDbSpline
62
7
6
CONTINUOUS
70
0
71
3
72
8
73
4
74
2
42
0.0000001000
43
0.0000001000
44
0.0000000001
40
0.0000000000
40
0.0000000000
40
0.0000000000
40
0.0000000000
40
1.0000000000
40
1.0000000000
40
1.0000000000
40
1.0000000000
10
96.2748493377
20
103.1662840182
30
0.0000000000
10
96.3065996328
20
103.1302270289
30
0.0000000000
10
96.3357349755
20
103.0919361036
30
0.0000000000
10
96.3618780995
20
103.0518621730
30
0.0000000000
11
96.2748493377
21
103.1662840182
31
0.0000000000
11
96.3618780995
21
103.0518621730
31
0.0000000000
0
SPLINE
5
414
100
AcDbEntity
8
0
100
AcDbSpline
62
7
6
CONTINUOUS
70
0
71
3
72
8
73
4
74
2
42
0.0000001000
43
0.0000001000
44
0.0000000001
40
0.0000000000
40
0.0000000000
40
0.0000000000
40
0.0000000000
40
1.0000000000
40
1.0000000000
40
1.0000000000
40
1.0000000000
10
125.6757657127
20
103.0518622246
30
0.0000000000
10
125.7281156462
20
103.1321076987
30
0.0000000000
10
125.7924636134
20
103.2052037696
30
0.0000000000
10
125.8657804550
20
103.2675297848
30
0.0000000000
11
125.6757657127
21
103.0518622246
31
0.0000000000
11
125.8657804550
21
103.2675297848
31
0.0000000000
0
SPLINE
5
415
100
AcDbEntity
8
0
100
AcDbSpline
62
7
6
CONTINUOUS
70
0
71
3
72
10
73
6
74
4
42
0.0000001000
43
0.0000001000
44
0.0000000001
40
0.0000000000
40
0.0000000000
40
0.0000000000
40
0.0000000000
40
0.4889528224
40
0.9779140018
40
1.0000000000
40
1.0000000000
40
1.0000000000
40
1.0000000000
10
125.8657804550
20
103.2675297848
30
0.0000000000
10
125.9392688644
20
103.3300016481
30
0.0000000000
10
126.1042688918
20
103.4333052166
30
0.0000000000
10
126.2960670417
20
103.4866085308
30
0.0000000000
10
126.3961712788
20
103.4986086535
30
0.0000000000
10
126.4005009567
20
103.4990988188
30
0.0000000000
11
125.8657804550
21
103.2675297848
31
0.0000000000
11
126.1099079026
21
103.4205101747
31
0.0000000000
11
126.3875227375
21
103.4975429667
31
0.0000000000
11
126.4005009567
21
103.4990988188
31
0.0000000000
0
SPLINE
5
416
100
AcDbEntity
8
0
100
AcDbSpline
62
7
6
CONTINUOUS
70
0
71
3
72
17
73
13
74
11
42
0.0000001000
43
0.0000001000
44
0.0000000001
40
0.0000000000
40
0.0000000000
40
0.0000000000
40
0.0000000000
40
0.1160840426
40
0.2542394294
40
0.3849095150
40
0.5070371854
40
0.6197630516
40
0.7225172024
40
0.8149673416
40
0.8969400978
40
0.9683013535
40
1.0000000000
40
1.0000000000
40
1.0000000000
40
1.0000000000
10
89.7587140219
20
103.7474719479
30
0.0000000000
10
89.9781150256
20
103.7474781606
30
0.0000000000
10
90.4586343886
20
103.7456097920
30
0.0000000000
10
91.1860714186
20
103.7364681235
30
0.0000000000
10
91.9248137535
20
103.7203628479
30
0.0000000000
10
92.6153329764
20
103.6988587255
30
0.0000000000
10
93.2529012342
20
103.6728912918
30
0.0000000000
10
93.8341442612
20
103.6433849493
30
0.0000000000
10
94.3570719940
20
103.6112403362
30
0.0000000000
10
94.8202708560
20
103.5773584448
30
0.0000000000
10
95.1689873871
20
103.5472187516
30
0.0000000000
10
95.3624595251
20
103.5283770136
30
0.0000000000
10
95.4220259680
20
103.5223013588
30
0.0000000000
11
89.7587140219
21
103.7474719479
31
0.0000000000
11
90.4169117509
21
103.7449026685
31
0.0000000000
11
91.2001966656
21
103.7350517512
31
0.0000000000
11
91.9409237205
21
103.7188197518
31
0.0000000000
11
92.6330538282
21
103.6971570591
31
0.0000000000
11
93.2716791682
21
103.6710094244
31
0.0000000000
11
93.8535419452
21
103.6413077157
31
0.0000000000
11
94.3767386682
21
103.6089530611
31
0.0000000000
11
94.8402710370
21
103.5747984647
31
0.0000000000
11
95.2433735578
21
103.5397731505
31
0.0000000000
11
95.4220259680
21
103.5223013588
31
0.0000000000
0
SPLINE
5
417
100
AcDbEntity
8
0
100
AcDbSpline
62
7
6
CONTINUOUS
70
0
71
3
72
8
73
4
74
2
42
0.0000001000
43
0.0000001000
44
0.0000000001
40
0.0000000000
40
0.0000000000
40
0.0000000000
40
0.0000000000
40
1.0000000000
40
1.0000000000
40
1.0000000000
40
1.0000000000
10
95.4220259680
20
103.5223013588
30
0.0000000000
10
95.4765871114
20
103.5167362342
30
0.0000000000
10
95.5311979703
20
103.5109358466
30
0.0000000000
10
95.5859591017
20
103.5048340658
30
0.0000000000
11
95.4220259680
21
103.5223013588
31
0.0000000000
11
95.5859591017
21
103.5048340658
31
0.0000000000
0
SPLINE
5
418
100
AcDbEntity
8
0
100
AcDbSpline
62
7
6
CONTINUOUS
70
0
71
3
72
8
73
4
74
2
42
0.0000001000
43
0.0000001000
44
0.0000000001
40
0.0000000000
40
0.0000000000
40
0.0000000000
40
0.0000000000
40
1.0000000000
40
1.0000000000
40
1.0000000000
40
1.0000000000
10
95.5859591017
20
103.5048340658
30
0.0000000000
10
95.6030005387
20
103.5029352169
30
0.0000000000
10
95.6200565284
20
103.5010071803
30
0.0000000000
10
95.6371111951
20
103.4990532212
30
0.0000000000
11
95.5859591017
21
103.5048340658
31
0.0000000000
11
95.6371111951
21
103.4990532212
31
0.0000000000
0
SPLINE
5
419
100
AcDbEntity
8
0
100
AcDbSpline
62
7
6
CONTINUOUS
70
0
71
3
72
9
73
5
74
3
42
0.0000001000
43
0.0000001000
44
0.0000000001
40
0.0000000000
40
0.0000000000
40
0.0000000000
40
0.0000000000
40
0.1940891822
40
1.0000000000
40
1.0000000000
40
1.0000000000
40
1.0000000000
10
88.3726605272
20
103.7787332666
30
0.0000000000
10
88.3920864377
20
103.7747062991
30
0.0000000000
10
88.4926073815
20
103.7559480015
30
0.0000000000
10
88.5950016582
20
103.7475574532
30
0.0000000000
10
88.6774004784
20
103.7475377273
30
0.0000000000
11
88.3726605272
21
103.7787332666
31
0.0000000000
11
88.4311770628
21
103.7678152933
31
0.0000000000
11
88.6774004784
21
103.7475377273
31
0.0000000000
0
SPLINE
5
41A
100
AcDbEntity
8
0
100
AcDbSpline
62
7
6
CONTINUOUS
70
0
71
3
72
8
73
4
74
2
42
0.0000001000
43
0.0000001000
44
0.0000000001
40
0.0000000000
40
0.0000000000
40
0.0000000000
40
0.0000000000
40
1.0000000000
40
1.0000000000
40
1.0000000000
40
1.0000000000
10
88.6774004621
20
121.4794493633
30
0.0000000000
10
88.5753307949
20
121.4794493633
30
0.0000000000
10
88.4728855231
20
121.4689213135
30
0.0000000000
10
88.3725964027
20
121.4481373192
30
0.0000000000
11
88.6774004621
21
121.4794493633
31
0.0000000000
11
88.3725964027
21
121.4481373192
31
0.0000000000
0
SPLINE
5
41B
100
AcDbEntity
8
0
100
AcDbSpline
62
7
6
CONTINUOUS
70
0
71
3
72
9
73
5
74
3
42
0.0000001000
43
0.0000001000
44
0.0000000001
40
0.0000000000
40
0.0000000000
40
0.0000000000
40
0.0000000000
40
0.1761553974
40
1.0000000000
40
1.0000000000
40
1.0000000000
40
1.0000000000
10
95.6371125397
20
121.7278472058
30
0.0000000000
10
95.6253983614
20
121.7265056656
30
0.0000000000
10
95.5589082260
20
121.7189632937
30
0.0000000000
10
95.4926309065
20
121.7118691801
30
0.0000000000
10
95.4380758651
20
121.7062627072
30
0.0000000000
11
95.6371125397
21
121.7278472058
31
0.0000000000
11
95.6019797727
21
121.7238623163
31
0.0000000000
11
95.4380758651
21
121.7062627072
31
0.0000000000
0
SPLINE
5
41C
100
AcDbEntity
8
0
100
AcDbSpline
62
7
6
CONTINUOUS
70
0
71
3
72
8
73
4
74
2
42
0.0000001000
43
0.0000001000
44
0.0000000001
40
0.0000000000
40
0.0000000000
40
0.0000000000
40
0.0000000000
40
1.0000000000
40
1.0000000000
40
1.0000000000
40
1.0000000000
10
95.4380758651
20
121.7062627072
30
0.0000000000
10
95.4230811385
20
121.7047217400
30
0.0000000000
10
95.4080899755
20
121.7031987507
30
0.0000000000
10
95.3931003561
20
121.7016923632
30
0.0000000000
11
95.4380758651
21
121.7062627072
31
0.0000000000
11
95.3931003561
21
121.7016923632
31
0.0000000000
0
SPLINE
5
41D
100
AcDbEntity
8
0
100
AcDbSpline
62
7
6
CONTINUOUS
70
0
71
3
72
17
73
13
74
11
42
0.0000001000
43
0.0000001000
44
0.0000000001
40
0.0000000000
40
0.0000000000
40
0.0000000000
40
0.0000000000
40
0.0238591285
40
0.0956527638
40
0.1782210956
40
0.2714677525
40
0.3752232221
40
0.4891517765
40
0.6126745805
40
0.7449122028
40
0.8847795370
40
1.0000000000
40
1.0000000000
40
1.0000000000
40
1.0000000000
10
95.3931003561
20
121.7016923632
30
0.0000000000
10
95.3485136380
20
121.6972116041
30
0.0000000000
10
95.1698174075
20
121.6798368397
30
0.0000000000
10
94.8356861909
20
121.6507783877
30
0.0000000000
10
94.3714557710
20
121.6166347701
30
0.0000000000
10
93.8467314987
20
121.5842280354
30
0.0000000000
10
93.2628445362
20
121.5544684003
30
0.0000000000
10
92.6217918980
20
121.5282778711
30
0.0000000000
10
91.9269917208
20
121.5065977191
30
0.0000000000
10
91.1832554548
20
121.4903853090
30
0.0000000000
10
90.4550112764
20
121.4812813918
30
0.0000000000
10
89.9753645209
20
121.4794399895
30
0.0000000000
10
89.7587140640
20
121.4794460980
30
0.0000000000
11
95.3931003561
21
121.7016923632
31
0.0000000000
11
95.2593280226
21
121.6886545380
31
0.0000000000
11
94.8558853064
21
121.6533750838
31
0.0000000000
11
94.3913970253
21
121.6189594504
31
0.0000000000
11
93.8664124418
21
121.5863379361
31
0.0000000000
11
93.2819031699
21
121.5563793683
31
0.0000000000
11
92.6397825138
21
121.5300044820
31
0.0000000000
11
91.9433424199
21
121.5081626543
31
0.0000000000
11
91.1975793203
21
121.4918209553
31
0.0000000000
11
90.4086603236
21
121.4819510530
31
0.0000000000
11
89.7587140640
21
121.4794460980
31
0.0000000000
0
SPLINE
5
41E
100
AcDbEntity
8
0
100
AcDbSpline
62
7
6
CONTINUOUS
70
0
71
3
72
17
73
13
74
11
42
0.0000001000
43
0.0000001000
44
0.0000000001
40
0.0000000000
40
0.0000000000
40
0.0000000000
40
0.0000000000
40
0.1160840426
40
0.2542394294
40
0.3849095150
40
0.5070371854
40
0.6197630516
40
0.7225172024
40
0.8149673416
40
0.8969400978
40
0.9683013535
40
1.0000000000
40
1.0000000000
40
1.0000000000
40
1.0000000000
10
132.2789297371
20
121.4794460592
30
0.0000000000
10
132.0595287334
20
121.4794398465
30
0.0000000000
10
131.5790093704
20
121.4813082151
30
0.0000000000
10
130.8515723404
20
121.4904498836
30
0.0000000000
10
130.1128300055
20
121.5065551592
30
0.0000000000
10
129.4223107826
20
121.5280592816
30
0.0000000000
10
128.7847425248
20
121.5540267153
30
0.0000000000
10
128.2034994978
20
121.5835330578
30
0.0000000000
10
127.6805717650
20
121.6156776709
30
0.0000000000
10
127.2173729031
20
121.6495595623
30
0.0000000000
10
126.8686563720
20
121.6796992555
30
0.0000000000
10
126.6751842339
20
121.6985409935
30
0.0000000000
10
126.6156177911
20
121.7046166483
30
0.0000000000
11
132.2789297371
21
121.4794460592
31
0.0000000000
11
131.6207320082
21
121.4820153386
31
0.0000000000
11
130.8374470934
21
121.4918662559
31
0.0000000000
11
130.0967200386
21
121.5080982553
31
0.0000000000
11
129.4045899308
21
121.5297609481
31
0.0000000000
11
128.7659645908
21
121.5559085827
31
0.0000000000
11
128.1841018138
21
121.5856102914
31
0.0000000000
11
127.6609050908
21
121.6179649460
31
0.0000000000
11
127.1973727220
21
121.6521195424
31
0.0000000000
11
126.7942702012
21
121.6871448566
31
0.0000000000
11
126.6156177911
21
121.7046166483
31
0.0000000000
0
SPLINE
5
41F
100
AcDbEntity
8
0
100
AcDbSpline
62
7
6
CONTINUOUS
70
0
71
3
72
8
73
4
74
2
42
0.0000001000
43
0.0000001000
44
0.0000000001
40
0.0000000000
40
0.0000000000
40
0.0000000000
40
0.0000000000
40
1.0000000000
40
1.0000000000
40
1.0000000000
40
1.0000000000
10
126.6156177911
20
121.7046166483
30
0.0000000000
10
126.5610566476
20
121.7101817729
30
0.0000000000
10
126.5064457887
20
121.7159821605
30
0.0000000000
10
126.4516846573
20
121.7220839413
30
0.0000000000
11
126.6156177911
21
121.7046166483
31
0.0000000000
11
126.4516846573
21
121.7220839413
31
0.0000000000
0
SPLINE
5
420
100
AcDbEntity
8
0
100
AcDbSpline
62
7
6
CONTINUOUS
70
0
71
3
72
8
73
4
74
2
42
0.0000001000
43
0.0000001000
44
0.0000000001
40
0.0000000000
40
0.0000000000
40
0.0000000000
40
0.0000000000
40
1.0000000000
40
1.0000000000
40
1.0000000000
40
1.0000000000
10
126.4516846573
20
121.7220839413
30
0.0000000000
10
126.4346432204
20
121.7239827902
30
0.0000000000
10
126.4175872306
20
121.7259108268
30
0.0000000000
10
126.4005325639
20
121.7278647859
30
0.0000000000
11
126.4516846573
21
121.7220839413
31
0.0000000000
11
126.4005325639
21
121.7278647859
31
0.0000000000
0
SPLINE
5
421
100
AcDbEntity
8
0
100
AcDbSpline
62
7
6
CONTINUOUS
70
0
71
3
72
9
73
5
74
3
42
0.0000001000
43
0.0000001000
44
0.0000000001
40
0.0000000000
40
0.0000000000
40
0.0000000000
40
0.0000000000
40
0.1940885142
40
1.0000000000
40
1.0000000000
40
1.0000000000
40
1.0000000000
10
133.6649829829
20
121.4481847921
30
0.0000000000
10
133.6455571547
20
121.4522117391
30
0.0000000000
10
133.5450362927
20
121.4709700126
30
0.0000000000
10
133.4426421009
20
121.4793605539
30
0.0000000000
10
133.3602432807
20
121.4793802798
30
0.0000000000
11
133.6649829829
21
121.4481847921
31
0.0000000000
11
133.6064666962
21
121.4591027138
31
0.0000000000
11
133.3602432807
21
121.4793802798
31
0.0000000000
0
SPLINE
5
422
100
AcDbEntity
8
0
100
AcDbSpline
62
7
6
CONTINUOUS
70
0
71
3
72
8
73
4
74
2
42
0.0000001000
43
0.0000001000
44
0.0000000001
40
0.0000000000
40
0.0000000000
40
0.0000000000
40
0.0000000000
40
1.0000000000
40
1.0000000000
40
1.0000000000
40
1.0000000000
10
133.3602432969
20
103.7474686438
30
0.0000000000
10
133.4623128993
20
103.7474686438
30
0.0000000000
10
133.5647581057
20
103.7579966802
30
0.0000000000
10
133.6650471651
20
103.7787806483
30
0.0000000000
11
133.3602432969
21
103.7474686438
31
0.0000000000
11
133.6650471651
21
103.7787806483
31
0.0000000000
0
SPLINE
5
423
100
AcDbEntity
8
0
100
AcDbSpline
62
7
6
CONTINUOUS
70
0
71
3
72
9
73
5
74
3
42
0.0000001000
43
0.0000001000
44
0.0000000001
40
0.0000000000
40
0.0000000000
40
0.0000000000
40
0.0000000000
40
0.1761553974
40
1.0000000000
40
1.0000000000
40
1.0000000000
40
1.0000000000
10
126.4005312193
20
103.4990708013
30
0.0000000000
10
126.4122453977
20
103.5004123416
30
0.0000000000
10
126.4787355331
20
103.5079547134
30
0.0000000000
10
126.5450128525
20
103.5150488271
30
0.0000000000
10
126.5995678939
20
103.5206552999
30
0.0000000000
11
126.4005312193
21
103.4990708013
31
0.0000000000
11
126.4356639863
21
103.5030556908
31
0.0000000000
11
126.5995678939
21
103.5206552999
31
0.0000000000
0
SPLINE
5
424
100
AcDbEntity
8
0
100
AcDbSpline
62
7
6
CONTINUOUS
70
0
71
3
72
8
73
4
74
2
42
0.0000001000
43
0.0000001000
44
0.0000000001
40
0.0000000000
40
0.0000000000
40
0.0000000000
40
0.0000000000
40
1.0000000000
40
1.0000000000
40
1.0000000000
40
1.0000000000
10
126.5995678939
20
103.5206552999
30
0.0000000000
10
126.6145626205
20
103.5221962671
30
0.0000000000
10
126.6295537836
20
103.5237192564
30
0.0000000000
10
126.6445434029
20
103.5252256439
30
0.0000000000
11
126.5995678939
21
103.5206552999
31
0.0000000000
11
126.6445434029
21
103.5252256439
31
0.0000000000
0
SPLINE
5
425
100
AcDbEntity
8
0
100
AcDbSpline
62
7
6
CONTINUOUS
70
0
71
3
72
17
73
13
74
11
42
0.0000001000
43
0.0000001000
44
0.0000000001
40
0.0000000000
40
0.0000000000
40
0.0000000000
40
0.0000000000
40
0.0238591285
40
0.0956527638
40
0.1782210956
40
0.2714677525
40
0.3752232221
40
0.4891517765
40
0.6126745805
40
0.7449122028
40
0.8847795370
40
1.0000000000
40
1.0000000000
40
1.0000000000
40
1.0000000000
10
126.6445434029
20
103.5252256439
30
0.0000000000
10
126.6891301210
20
103.5297064030
30
0.0000000000
10
126.8678263515
20
103.5470811674
30
0.0000000000
10
127.2019575682
20
103.5761396194
30
0.0000000000
10
127.6661879880
20
103.6102832370
30
0.0000000000
10
128.1909122603
20
103.6426899717
30
0.0000000000
10
128.7747992228
20
103.6724496068
30
0.0000000000
10
129.4158518611
20
103.6986401360
30
0.0000000000
10
130.1106520382
20
103.7203202880
30
0.0000000000
10
130.8543883042
20
103.7365326982
30
0.0000000000
10
131.5826324826
20
103.7456366153
30
0.0000000000
10
132.0622792381
20
103.7474780176
30
0.0000000000
10
132.2789296950
20
103.7474719092
30
0.0000000000
11
126.6445434029
21
103.5252256439
31
0.0000000000
11
126.7783157364
21
103.5382634691
31
0.0000000000
11
127.1817584526
21
103.5735429233
31
0.0000000000
11
127.6462467338
21
103.6079585567
31
0.0000000000
11
128.1712313172
21
103.6405800710
31
0.0000000000
11
128.7557405891
21
103.6705386388
31
0.0000000000
11
129.3978612452
21
103.6969135251
31
0.0000000000
11
130.0943013391
21
103.7187553528
31
0.0000000000
11
130.8400644387
21
103.7350970518
31
0.0000000000
11
131.6289834354
21
103.7449669541
31
0.0000000000
11
132.2789296950
21
103.7474719092
31
0.0000000000
0
SPLINE
5
426
100
AcDbEntity
8
0
100
AcDbSpline
62
7
6
CONTINUOUS
70
0
71
3
72
10
73
6
74
4
42
0.0000001000
43
0.0000001000
44
0.0000000001
40
0.0000000000
40
0.0000000000
40
0.0000000000
40
0.0000000000
40
0.0872026347
40
0.7775258081
40
1.0000000000
40
1.0000000000
40
1.0000000000
40
1.0000000000
10
142.4668599471
20
119.6233715939
30
0.0000000000
10
142.4624975148
20
119.6245309444
30
0.0000000000
10
142.4235721665
20
119.6347598000
30
0.0000000000
10
142.3731983838
20
119.6466970073
30
0.0000000000
10
142.3269823943
20
119.6565136446
30
0.0000000000
10
142.3157058290
20
119.6588460772
30
0.0000000000
11
142.4668599471
21
119.6233715939
31
0.0000000000
11
142.4537632087
21
119.6268134422
31
0.0000000000
11
142.3494966913
21
119.6516643350
31
0.0000000000
11
142.3157058290
21
119.6588460772
31
0.0000000000
0
SPLINE
5
427
100
AcDbEntity
8
0
100
AcDbSpline
62
7
6
CONTINUOUS
70
0
71
3
72
16
73
12
74
10
42
0.0000001000
43
0.0000001000
44
0.0000000001
40
0.0000000000
40
0.0000000000
40
0.0000000000
40
0.0000000000
40
0.0967450301
40
0.2712871098
40
0.4296992396
40
0.5736063489
40
0.7021618764
40
0.8139618297
40
0.9010008407
40
0.9687126202
40
1.0000000000
40
1.0000000000
40
1.0000000000
40
1.0000000000
10
143.7021651727
20
118.1259309499
30
0.0000000000
10
143.7021605917
20
118.1937772766
30
0.0000000000
10
143.6893537641
20
118.3841980364
30
0.0000000000
10
143.6121240448
20
118.6772806596
30
0.0000000000
10
143.4541087562
20
118.9737865401
30
0.0000000000
10
143.2588141441
20
119.2055777118
30
0.0000000000
10
143.0493012636
20
119.3757617681
30
0.0000000000
10
142.8498390212
20
119.4895637072
30
0.0000000000
10
142.6772582756
20
119.5605144404
30
0.0000000000
10
142.5532405794
20
119.5997586037
30
0.0000000000
10
142.4865424845
20
119.6181530181
30
0.0000000000
10
142.4654087146
20
119.6237590859
30
0.0000000000
11
143.7021651727
21
118.1259309499
31
0.0000000000
11
143.6884542736
21
118.3289061549
31
0.0000000000
11
143.5953505277
21
118.6827669421
31
0.0000000000
11
143.4391849762
21
118.9758470180
31
0.0000000000
11
143.2448646654
21
119.2066101137
31
0.0000000000
11
143.0357644786
21
119.3766308203
31
0.0000000000
11
142.8323512108
21
119.4930525680
31
0.0000000000
11
142.6638064257
21
119.5629550075
31
0.0000000000
11
142.5286303994
21
119.6062777795
31
0.0000000000
11
142.4654087146
21
119.6237590859
31
0.0000000000
0
SPLINE
5
428
100
AcDbEntity
8
0
100
AcDbSpline
62
7
6
CONTINUOUS
70
0
71
3
72
10
73
6
74
4
42
0.0000001000
43
0.0000001000
44
0.0000000001
40
0.0000000000
40
0.0000000000
40
0.0000000000
40
0.0000000000
40
0.2675459965
40
0.9624151504
40
1.0000000000
40
1.0000000000
40
1.0000000000
40
1.0000000000
10
79.7219438230
20
119.6588473450
30
0.0000000000
10
79.7083814990
20
119.6560422074
30
0.0000000000
10
79.6596598703
20
119.6456384875
30
0.0000000000
10
79.6093136806
20
119.6335643252
30
0.0000000000
10
79.5726571707
20
119.6238695431
30
0.0000000000
10
79.5707767852
20
119.6233698103
30
0.0000000000
11
79.7219438230
21
119.6588473450
31
0.0000000000
11
79.6813135093
21
119.6501638335
31
0.0000000000
11
79.5764197041
21
119.6248622506
31
0.0000000000
11
79.5707767852
21
119.6233698103
31
0.0000000000
0
SPLINE
5
429
100
AcDbEntity
8
0
100
AcDbSpline
62
7
6
CONTINUOUS
70
0
71
3
72
17
73
13
74
11
42
0.0000001000
43
0.0000001000
44
0.0000000001
40
0.0000000000
40
0.0000000000
40
0.0000000000
40
0.0000000000
40
0.0449193636
40
0.1145528276
40
0.1966307075
40
0.2972880044
40
0.4116584055
40
0.5369411129
40
0.6697528467
40
0.8073111475
40
0.9493336086
40
1.0000000000
40
1.0000000000
40
1.0000000000
40
1.0000000000
10
79.5714512836
20
119.6235534446
30
0.0000000000
10
79.5411052099
20
119.6154983517
30
0.0000000000
10
79.4640053270
20
119.5938635417
30
0.0000000000
10
79.3334957283
20
119.5504959339
30
0.0000000000
10
79.1712544261
20
119.4805500333
30
0.0000000000
10
78.9911244442
20
119.3759889888
30
0.0000000000
10
78.8042700570
20
119.2272566324
30
0.0000000000
10
78.6292305331
20
119.0328054458
30
0.0000000000
10
78.4830397391
20
118.7962341300
30
0.0000000000
10
78.3795111476
20
118.5253296799
30
0.0000000000
10
78.3401996665
20
118.2964306104
30
0.0000000000
10
78.3354470123
20
118.1614342080
30
0.0000000000
10
78.3354498755
20
118.1259434458
30
0.0000000000
11
79.5714512836
21
119.6235534446
31
0.0000000000
11
79.4808033628
21
119.5979729256
31
0.0000000000
11
79.3424220044
21
119.5514314819
31
0.0000000000
11
79.1845476507
21
119.4829427936
31
0.0000000000
11
79.0021342485
21
119.3768044531
31
0.0000000000
11
78.8145802305
21
119.2273855159
31
0.0000000000
11
78.6388779504
21
119.0321226968
31
0.0000000000
11
78.4925211710
21
118.7952241995
31
0.0000000000
11
78.3895662231
21
118.5258118283
31
0.0000000000
11
78.3392036360
21
118.2323275868
31
0.0000000000
11
78.3354498755
21
118.1259434458
31
0.0000000000
0
SPLINE
5
42A
100
AcDbEntity
8
0
100
AcDbSpline
62
7
6
CONTINUOUS
70
0
71
3
72
10
73
6
74
4
42
0.0000001000
43
0.0000001000
44
0.0000000001
40
0.0000000000
40
0.0000000000
40
0.0000000000
40
0.0000000000
40
0.0872031907
40
0.7775316711
40
1.0000000000
40
1.0000000000
40
1.0000000000
40
1.0000000000
10
79.5707837466
20
105.6035464312
30
0.0000000000
10
79.5751462089
20
105.6023870718
30
0.0000000000
10
79.6140718711
20
105.5921581261
30
0.0000000000
10
79.6644456829
20
105.5802209105
30
0.0000000000
10
79.7106616753
20
105.5704042998
30
0.0000000000
10
79.7219379506
20
105.5680719314
30
0.0000000000
11
79.5707837466
21
105.6035464312
31
0.0000000000
11
79.5838805753
21
105.6001045566
31
0.0000000000
11
79.6881479564
21
105.5752534716
31
0.0000000000
11
79.7219379506
21
105.5680719314
31
0.0000000000
0
SPLINE
5
42B
100
AcDbEntity
8
0
100
AcDbSpline
62
7
6
CONTINUOUS
70
0
71
3
72
16
73
12
74
10
42
0.0000001000
43
0.0000001000
44
0.0000000001
40
0.0000000000
40
0.0000000000
40
0.0000000000
40
0.0000000000
40
0.0967752487
40
0.2713145147
40
0.4297095920
40
0.5736130093
40
0.7021614310
40
0.8139494272
40
0.9009688240
40
0.9687065276
40
1.0000000000
40
1.0000000000
40
1.0000000000
40
1.0000000000
10
78.3354849615
20
107.1009793146
30
0.0000000000
10
78.3354896577
20
107.0331111657
30
0.0000000000
10
78.3483021611
20
106.8426693086
30
0.0000000000
10
78.4255464467
20
106.5495806035
30
0.0000000000
10
78.5835630172
20
106.2530917115
30
0.0000000000
10
78.7788508852
20
106.0213170859
30
0.0000000000
10
78.9883566568
20
105.8511459542
30
0.0000000000
10
79.1877986434
20
105.7373600828
30
0.0000000000
10
79.3603751261
20
105.6664058173
30
0.0000000000
10
79.4844022432
20
105.6271586131
30
0.0000000000
10
79.5511227317
20
105.6087590929
30
0.0000000000
10
79.5722608712
20
105.6031521905
30
0.0000000000
11
78.3354849615
21
107.1009793146
31
0.0000000000
11
78.3492048125
21
106.8979392120
31
0.0000000000
11
78.4423224192
21
106.5440850379
31
0.0000000000
11
78.5984807130
21
106.2510384854
31
0.0000000000
11
78.7928020499
21
106.0202831062
31
0.0000000000
11
79.0018959273
21
105.8502747146
31
0.0000000000
11
79.2052904586
21
105.7338667855
31
0.0000000000
11
79.3737974014
21
105.6639764913
31
0.0000000000
11
79.5090261127
21
105.6206361859
31
0.0000000000
11
79.5722608712
21
105.6031521905
31
0.0000000000
0
SPLINE
5
42C
100
AcDbEntity
8
0
100
AcDbSpline
62
7
6
CONTINUOUS
70
0
71
3
72
10
73
6
74
4
42
0.0000001000
43
0.0000001000
44
0.0000000001
40
0.0000000000
40
0.0000000000
40
0.0000000000
40
0.0000000000
40
0.2675509919
40
0.9624153934
40
1.0000000000
40
1.0000000000
40
1.0000000000
40
1.0000000000
10
142.3156997589
20
105.5680706181
30
0.0000000000
10
142.3292623444
20
105.5708758139
30
0.0000000000
10
142.3779840128
20
105.5812795684
30
0.0000000000
10
142.4283302363
20
105.5933537330
30
0.0000000000
10
142.4649865224
20
105.6030484475
30
0.0000000000
10
142.4668668971
20
105.6035481770
30
0.0000000000
11
142.3156997589
21
105.5680706181
31
0.0000000000
11
142.3563308548
21
105.5767543148
31
0.0000000000
11
142.4612240106
21
105.6020557466
31
0.0000000000
11
142.4668668971
21
105.6035481770
31
0.0000000000
0
SPLINE
5
42D
100
AcDbEntity
8
0
100
AcDbSpline
62
7
6
CONTINUOUS
70
0
71
3
72
17
73
13
74
11
42
0.0000001000
43
0.0000001000
44
0.0000000001
40
0.0000000000
40
0.0000000000
40
0.0000000000
40
0.0000000000
40
0.0449193626
40
0.1145528248
40
0.1966307078
40
0.2972880074
40
0.4116584094
40
0.5369411163
40
0.6697528491
40
0.8073111494
40
0.9493336098
40
1.0000000000
40
1.0000000000
40
1.0000000000
40
1.0000000000
10
142.4661924741
20
105.6033645623
30
0.0000000000
10
142.4965385470
20
105.6114196550
30
0.0000000000
10
142.5736384280
20
105.6330544644
30
0.0000000000
10
142.7041480271
20
105.6764220715
30
0.0000000000
10
142.8663893322
20
105.7463679726
30
0.0000000000
10
143.0465193179
20
105.8509290198
30
0.0000000000
10
143.2333737061
20
105.9996613783
30
0.0000000000
10
143.4084132286
20
106.1941125655
30
0.0000000000
10
143.5546040209
20
106.4306838806
30
0.0000000000
10
143.6581326110
20
106.7015883294
30
0.0000000000
10
143.6974440913
20
106.9304873973
30
0.0000000000
10
143.7021967454
20
107.0654837984
30
0.0000000000
10
143.7021938822
20
107.1009745597
30
0.0000000000
11
142.4661924741
21
105.6033645623
31
0.0000000000
11
142.5568403926
21
105.6289450805
31
0.0000000000
11
142.6952217478
21
105.6754865225
31
0.0000000000
11
142.8530961077
21
105.7439752127
31
0.0000000000
11
143.0355095146
21
105.8501135563
31
0.0000000000
11
143.2230635333
21
105.9995324955
31
0.0000000000
11
143.3987658116
21
106.1947953146
31
0.0000000000
11
143.5451225889
21
106.4316938108
31
0.0000000000
11
143.6480775355
21
106.7011061811
31
0.0000000000
11
143.6984401218
21
106.9945904212
31
0.0000000000
11
143.7021938822
21
107.1009745597
31
0.0000000000
0
ENDSEC
0
SECTION
2
OBJECTS
0
DICTIONARY
5
42E
100
AcDbDictionary
3
ACAD_GROUP
350
42F
3
ACAD_MLINESTYLE
350
430
0
DICTIONARY
5
42F
102
{ACAD_REACTORS
330
42E
102
}
100
AcDbDictionary
0
DICTIONARY
5
430
102
{ACAD_REACTORS
330
42E
102
}
100
AcDbDictionary
3
STANDARD
350
431
0
MLINESTYLE
5
431
102
{ACAD_REACTORS
330
430
102
}
100
AcDbMlineStyle
2
STANDARD
70
0
3

62
256
51
90.0
52
90.0
71
2
49
0.5
62
256
6
BYLAYER
49
-0.5
62
256
6
BYLAYER
0
ENDSEC
0
EOF
