999
DXF file: C:\Aktuell-Internet\CAD-Daten\2rs-m14.dxf
999
Pro/ENGINEER 2001400 by Parametric Technology Corporation
0
SECTION
2
HEADER
9
$ACADVER
1
AC1014
9
$EXTMAX
10
420.0000000000
20
297.0000000000
9
$EXTMIN
10
0.0000000000
20
0.0000000000
9
$LIMMIN
10
0.0000000000
20
0.0000000000
9
$LIMMAX
10
420.0000000000
20
297.0000000000
9
$VIEWCTR
10
210.0000000000
20
148.5000000000
9
$VIEWSIZE
40
297.0000000000
9
$CLAYER
8
0
9
$LTSCALE
40
23.1000000000
9
$CELTYPE
6
BYLAYER
9
$DIMSCALE
40
1
9
$DIMASZ
40
3.5000000000
9
$DIMEXO
40
2.6250000000
9
$DIMDLI
40
15.9600000000
9
$DIMEXE
40
7.5600000000
9
$DIMCEN
40
3.7800000000
9
$DIMLFAC
40
1.0000000000
9
$DIMTXT
40
3.5000000000
9
$DIMTOL
70
1
9
$DIMTFAC
40
0.6000000000
9
$DIMTP
40
0.0050000000
9
$DIMTM
40
0.0050000000
9
$HANDSEED
5
497
0
ENDSEC
0
SECTION
2
CLASSES
0
ENDSEC
0
SECTION
2
TABLES
0
TABLE
2
VPORT
5
8
100
AcDbSymbolTable
70
2
0
VPORT
5
1F4
100
AcDbSymbolTableRecord
100
AcDbViewportTableRecord
2
*ACTIVE
70
0
10
0.0
20
0.0
11
1.0
21
1.0
12
210.0000000000
22
148.5000000000
13
0.0
23
0.0
14
1.0
24
1.0
15
0.0
25
0.0
16
0.0
26
0.0
36
1.0
17
0.0
27
0.0
37
0.0
40
297.0000000000
41
1.4141414141
42
50.0
43
0.0
44
0.0
50
0.0
51
0.0
71
0
72
100
73
1
74
1
75
0
76
0
77
0
78
0
0
ENDTAB
0
TABLE
2
LTYPE
5
5
100
AcDbSymbolTable
70
6
0
LTYPE
5
14
100
AcDbSymbolTableRecord
100
AcDbLinetypeTableRecord
2
BYBLOCK
70
0
3

72
65
73
0
40
0.0
0
LTYPE
5
15
100
AcDbSymbolTableRecord
100
AcDbLinetypeTableRecord
2
BYLAYER
70
0
3

72
65
73
0
40
0.0
0
LTYPE
5
16
100
AcDbSymbolTableRecord
100
AcDbLinetypeTableRecord
2
CONTINUOUS
70
64
3
Solid line
72
65
73
0
40
0
0
LTYPE
5
1F5
100
AcDbSymbolTableRecord
100
AcDbLinetypeTableRecord
2
CENTER
70
64
3
____ _ ____ _ ____ _ ____ _ ____ _ ____ _ ____
72
65
73
4
40
0.6
49
0.375
74
0
49
-0.075
74
0
49
0.075
74
0
49
-0.075
74
0
0
LTYPE
5
1F6
100
AcDbSymbolTableRecord
100
AcDbLinetypeTableRecord
2
HIDDEN
70
64
3
- - - - - - - - - - - - - - - - - - - -
72
65
73
2
40
0.2
49
0.1
74
0
49
-0.1
74
0
0
LTYPE
5
1F7
100
AcDbSymbolTableRecord
100
AcDbLinetypeTableRecord
2
PHANTOM
70
64
3
_____ _ _ _____ _ _ _____ _ _ _____
72
65
73
6
40
0.8
49
0.45
74
0
49
-0.05
74
0
49
0.1
74
0
49
-0.05
74
0
49
0.1
74
0
49
-0.05
74
0
0
LTYPE
5
1F8
100
AcDbSymbolTableRecord
100
AcDbLinetypeTableRecord
2
DOT
70
64
3
. . . . . . . . . . . . . . . . . . . .
72
65
73
2
40
0.2
49
0.1
74
0
49
-0.1
74
0
0
LTYPE
5
1F9
100
AcDbSymbolTableRecord
100
AcDbLinetypeTableRecord
2
DASHED
70
64
3
- - - - - - - - - - - - - - - - - - - -
72
65
73
2
40
0.2
49
0.1
74
0
49
-0.1
74
0
0
ENDTAB
0
TABLE
2
LAYER
5
2
100
AcDbSymbolTable
70
36
0
LAYER
5
10
100
AcDbSymbolTableRecord
100
AcDbLayerTableRecord
2
0
70
0
62
7
6
CONTINUOUS
0
LAYER
5
1FA
100
AcDbSymbolTableRecord
100
AcDbLayerTableRecord
2
DEFAULT_1
70
0
62
7
6
CENTER
0
LAYER
5
1FB
100
AcDbSymbolTableRecord
100
AcDbLayerTableRecord
2
DEFAULT_2
70
0
62
8
6
HIDDEN
0
LAYER
5
1FC
100
AcDbSymbolTableRecord
100
AcDbLayerTableRecord
2
DEFAULT_3
70
0
62
7
6
PHANTOM
0
ENDTAB
0
TABLE
2
STYLE
5
3
100
AcDbSymbolTable
70
1
0
STYLE
5
11
100
AcDbSymbolTableRecord
100
AcDbTextStyleTableRecord
2
STANDARD
70
0
40
0.0
41
1.0
50
0.0
71
0
42
0.0
3
txt
4

0
STYLE
5
1FD
100
AcDbSymbolTableRecord
100
AcDbTextStyleTableRecord
2
TEXTSTYLE_0
70
0
40
0.0
41
0.80
50
0.0
71
0
42
0.2
3
txt
4

0
ENDTAB
0
TABLE
2
VIEW
5
6
100
AcDbSymbolTable
70
0
0
ENDTAB
0
TABLE
2
UCS
5
7
100
AcDbSymbolTable
70
0
0
ENDTAB
0
TABLE
2
APPID
5
9
100
AcDbSymbolTable
70
1
0
APPID
5
1FE
100
AcDbSymbolTableRecord
100
AcDbRegAppTableRecord
2
ACAD
70
0
0
ENDTAB
0
TABLE
2
DIMSTYLE
5
A
100
AcDbSymbolTable
70
1
0
DIMSTYLE
105
1FF
100
AcDbSymbolTableRecord
100
AcDbDimStyleTableRecord
2
STANDARD
70
0
3

4

5

6

7

40
1.0
41
0.18
42
0.0625
43
0.38
44
0.18
45
0.0
46
0.0
47
0.0050000000
48
0.0050000000
140
3.5000000000
141
0.09
142
0.0
143
25.4
144
1.0000000000
145
0.0
146
0.6000000000
147
0.09
71
1
72
0
73
1
74
1
75
0
76
0
77
0
78
0
170
0
171
2
172
0
173
0
174
0
175
0
176
0
177
0
178
0
270
2
271
3
272
4
273
2
274
2
340
11
275
0
280
0
281
0
282
0
283
1
284
0
285
0
286
0
287
3
288
0
0
ENDTAB
0
TABLE
2
BLOCK_RECORD
5
1
100
AcDbSymbolTable
70
0
0
BLOCK_RECORD
5
1B
100
AcDbSymbolTableRecord
100
AcDbBlockTableRecord
2
*MODEL_SPACE
0
BLOCK_RECORD
5
1C
100
AcDbSymbolTableRecord
100
AcDbBlockTableRecord
2
*PAPER_SPACE
0
ENDTAB
0
ENDSEC
0
SECTION
2
BLOCKS
0
BLOCK
5
1E
100
AcDbEntity
8
0
100
AcDbBlockBegin
2
*MODEL_SPACE
70
0
10
0.0
20
0.0
30
0.0
3
*MODEL_SPACE
1

0
ENDBLK
5
1F
100
AcDbEntity
8
0
100
AcDbBlockEnd
0
BLOCK
5
20
100
AcDbEntity
8
0
100
AcDbBlockBegin
2
*PAPER_SPACE
70
0
10
0.0
20
0.0
30
0.0
3
*PAPER_SPACE
1

0
ENDBLK
5
21
100
AcDbEntity
8
0
100
AcDbBlockEnd
0
ENDSEC
0
SECTION
2
ENTITIES
0
TEXT
5
200
100
AcDbEntity
8
0
100
AcDbText
62
2
6
CONTINUOUS
10
113.8276718520
20
114.2652445153
7
TEXTSTYLE_0
40
3.5000000000
1
RUD
72
5
11
122.4943381880
21
114.2652445153
100
AcDbText
0
TEXT
5
201
100
AcDbEntity
8
0
100
AcDbText
62
2
6
CONTINUOUS
10
113.5550976134
20
107.5417466303
7
TEXTSTYLE_0
40
3.5000000000
1
RS M14
72
5
11
129.5550970030
21
107.5417466303
100
AcDbText
0
TEXT
5
202
100
AcDbEntity
8
0
100
AcDbText
62
2
6
CONTINUOUS
10
293.3632369984
20
202.3067235775
7
TEXTSTYLE_0
40
3.5000000000
1
RUD
50
90.0000000000
72
5
11
293.3632369984
21
210.9733902442
100
AcDbText
0
TEXT
5
203
100
AcDbEntity
8
0
100
AcDbText
62
2
6
CONTINUOUS
10
300.6318833606
20
202.6701558957
7
TEXTSTYLE_0
40
3.5000000000
1
RS M14
50
90.0000000000
72
5
11
300.6318833606
21
218.6701558957
100
AcDbText
0
LINE
5
204
100
AcDbEntity
8
0
100
AcDbLine
62
7
6
CONTINUOUS
10
0.0000000000
20
0.0000000000
11
0.0000000000
21
297.0000000000
0
LINE
5
205
100
AcDbEntity
8
0
100
AcDbLine
62
7
6
CONTINUOUS
10
0.0000000000
20
0.0000000000
11
420.0000000000
21
0.0000000000
0
LINE
5
206
100
AcDbEntity
8
0
100
AcDbLine
62
7
6
CONTINUOUS
10
0.0000000000
20
297.0000000000
11
420.0000000000
21
297.0000000000
0
LINE
5
207
100
AcDbEntity
8
0
100
AcDbLine
62
7
6
CONTINUOUS
10
420.0000000000
20
0.0000000000
11
420.0000000000
21
297.0000000000
0
LINE
5
208
100
AcDbEntity
8
0
100
AcDbLine
62
7
6
CONTINUOUS
10
89.2058662347
20
245.8879959961
11
109.4880881500
21
254.2891673885
0
LINE
5
209
100
AcDbEntity
8
0
100
AcDbLine
62
7
6
CONTINUOUS
10
117.0188218795
20
171.4102559507
11
105.0188218795
21
171.4102559507
0
LINE
5
20A
100
AcDbEntity
8
0
100
AcDbLine
62
7
6
CONTINUOUS
10
118.0188218795
20
172.4102559507
11
104.0188218795
21
172.4102559507
0
LINE
5
20B
100
AcDbEntity
8
0
100
AcDbLine
62
7
6
CONTINUOUS
10
94.7374746047
20
245.7313447416
11
92.9188214980
21
244.6813455045
0
LINE
5
20C
100
AcDbEntity
8
0
100
AcDbLine
62
7
6
CONTINUOUS
10
96.8592378341
20
246.9563451230
11
95.1416207992
21
245.9646783292
0
LINE
5
20D
100
AcDbEntity
8
0
100
AcDbLine
62
7
6
CONTINUOUS
10
99.8398086272
20
248.6771779477
11
99.5872174941
21
248.5313439786
0
LINE
5
20E
100
AcDbEntity
8
0
100
AcDbLine
62
7
6
CONTINUOUS
10
93.1049920760
20
244.3588891446
11
94.6205369674
21
245.2338891446
0
LINE
5
20F
100
AcDbEntity
8
0
100
AcDbLine
62
7
6
CONTINUOUS
10
95.5803815566
20
245.7880559385
11
97.0454074584
21
246.6338887632
0
LINE
5
210
100
AcDbEntity
8
0
100
AcDbLine
62
7
6
CONTINUOUS
10
103.5809623443
20
249.5473084867
11
103.3283716880
21
249.4014764249
0
LINE
5
211
100
AcDbEntity
8
0
100
AcDbLine
62
7
6
CONTINUOUS
10
101.3581639968
20
248.2639756620
11
101.0550548278
21
248.0889764249
0
LINE
5
212
100
AcDbEntity
8
0
100
AcDbLine
62
7
6
CONTINUOUS
10
102.8737079345
20
249.1389756620
11
102.5705997192
21
248.9639764249
0
LINE
5
213
100
AcDbEntity
8
0
100
AcDbLine
62
7
6
CONTINUOUS
10
96.8354798995
20
245.4808259427
11
96.5323716842
21
245.3058267057
0
LINE
5
214
100
AcDbEntity
8
0
100
AcDbLine
62
7
6
CONTINUOUS
10
102.7567693435
20
248.6415200650
11
103.0598785125
21
248.8165193021
0
LINE
5
215
100
AcDbEntity
8
0
100
AcDbLine
62
7
6
CONTINUOUS
10
96.7185413085
20
244.9833703458
11
97.0216504775
21
245.1583714902
0
LINE
5
216
100
AcDbEntity
8
0
100
AcDbLine
62
7
6
CONTINUOUS
10
98.6140882217
20
247.8835206449
11
98.2737457000
21
247.7730107724
0
LINE
5
217
100
AcDbEntity
8
0
100
AcDbLine
62
7
6
CONTINUOUS
10
78.6399104417
20
223.4409896801
11
87.0410818341
21
243.7232115955
0
LINE
5
218
100
AcDbEntity
8
0
100
AcDbLine
62
7
6
CONTINUOUS
10
87.5537645065
20
239.0086331784
11
87.4365445815
21
238.7324815213
0
LINE
5
219
100
AcDbEntity
8
0
100
AcDbLine
62
7
6
CONTINUOUS
10
86.8113748275
20
237.2596745908
11
86.6941549026
21
236.9835229337
0
LINE
5
21A
100
AcDbEntity
8
0
100
AcDbLine
62
7
6
CONTINUOUS
10
84.0762559615
20
230.8161406934
11
83.9785730087
21
230.5860143125
0
LINE
5
21B
100
AcDbEntity
8
0
100
AcDbLine
62
7
6
CONTINUOUS
10
83.2361852371
20
228.8370552480
11
82.7673074447
21
227.7324495732
0
LINE
5
21C
100
AcDbEntity
8
0
100
AcDbLine
62
7
6
CONTINUOUS
10
86.4206430160
20
236.3391700208
11
86.2448140823
21
235.9249425351
0
LINE
5
21D
100
AcDbEntity
8
0
100
AcDbLine
62
7
6
CONTINUOUS
10
85.6587182723
20
234.5441852033
11
85.4828893386
21
234.1299577176
0
LINE
5
21E
100
AcDbEntity
8
0
100
AcDbLine
62
7
6
CONTINUOUS
10
83.1783048354
20
227.8838992536
11
83.5494996749
21
228.7583790242
0
LINE
5
21F
100
AcDbEntity
8
0
100
AcDbLine
62
7
6
CONTINUOUS
10
84.3311082565
20
230.4363723218
11
84.4483262740
21
230.7125239789
0
LINE
5
220
100
AcDbEntity
8
0
100
AcDbLine
62
7
6
CONTINUOUS
10
83.3926221572
20
229.0422411382
11
83.2361852371
21
228.8370552480
0
LINE
5
221
100
AcDbEntity
8
0
100
AcDbLine
62
7
6
CONTINUOUS
10
84.2326947891
20
231.0213265836
11
84.0762559615
21
230.8161406934
0
LINE
5
222
100
AcDbEntity
8
0
100
AcDbLine
62
7
6
CONTINUOUS
10
96.5537034713
20
244.8022122800
11
96.7185413085
21
244.9833703458
0
LINE
5
223
100
AcDbEntity
8
0
100
AcDbLine
62
7
6
CONTINUOUS
10
98.2445594512
20
247.2402310788
11
98.4599162780
21
247.4505544126
0
LINE
5
224
100
AcDbEntity
8
0
100
AcDbLine
62
7
6
CONTINUOUS
10
96.5323716842
20
245.3058267057
11
96.3170148574
21
245.0955014646
0
LINE
5
225
100
AcDbEntity
8
0
100
AcDbLine
62
7
6
CONTINUOUS
10
98.2737457000
20
247.7730107724
11
98.0078708373
21
247.5335202634
0
LINE
5
226
100
AcDbEntity
8
0
100
AcDbLine
62
7
6
CONTINUOUS
10
109.0504885160
20
248.9930215299
11
109.2838218652
21
249.1419587552
0
LINE
5
227
100
AcDbEntity
8
0
100
AcDbLine
62
7
6
CONTINUOUS
10
96.1097051345
20
244.2879052579
11
96.4633323394
21
244.4920716703
0
LINE
5
228
100
AcDbEntity
8
0
100
AcDbLine
62
7
6
CONTINUOUS
10
96.7479211532
20
243.8824849546
11
96.4448119842
21
243.7074838102
0
LINE
5
229
100
AcDbEntity
8
0
100
AcDbLine
62
7
6
CONTINUOUS
10
103.8790275298
20
247.3977113187
11
103.6769549094
21
247.2810464322
0
LINE
5
22A
100
AcDbEntity
8
0
100
AcDbLine
62
7
6
CONTINUOUS
10
97.7663308822
20
243.8685460508
11
97.4632226669
21
243.6935449063
0
LINE
5
22B
100
AcDbEntity
8
0
100
AcDbLine
62
7
6
CONTINUOUS
10
102.4486171447
20
246.1419225156
11
102.7517253600
21
246.3169217527
0
LINE
5
22C
100
AcDbEntity
8
0
100
AcDbLine
62
7
6
CONTINUOUS
10
95.1740037643
20
241.9419217527
11
95.4771119796
21
242.1169228971
0
LINE
5
22D
100
AcDbEntity
8
0
100
AcDbLine
62
7
6
CONTINUOUS
10
97.6493922912
20
243.3710885465
11
97.9525014602
21
243.5460896909
0
LINE
5
22E
100
AcDbEntity
8
0
100
AcDbLine
62
7
6
CONTINUOUS
10
101.3372174941
20
245.5002561032
11
101.5898086272
21
245.6460900724
0
LINE
5
22F
100
AcDbEntity
8
0
100
AcDbLine
62
7
6
CONTINUOUS
10
103.7620884620
20
246.9002557218
11
104.0651976310
21
247.0752568662
0
LINE
5
230
100
AcDbEntity
8
0
100
AcDbLine
62
7
6
CONTINUOUS
10
103.5573975288
20
246.4381242215
11
103.3048068725
21
246.2922902524
0
LINE
5
231
100
AcDbEntity
8
0
100
AcDbLine
62
7
6
CONTINUOUS
10
104.5120059692
20
246.3013616025
11
104.2088972770
21
246.1263604581
0
LINE
5
232
100
AcDbEntity
8
0
100
AcDbLine
62
7
6
CONTINUOUS
10
104.3578330718
20
245.8683953702
11
104.6609422408
21
246.0433965146
0
LINE
5
233
100
AcDbEntity
8
0
100
AcDbLine
62
7
6
CONTINUOUS
10
108.9921552383
20
249.3653626859
11
108.8171552860
21
249.2908940732
0
LINE
5
234
100
AcDbEntity
8
0
100
AcDbLine
62
7
6
CONTINUOUS
10
99.6834022247
20
244.6314130246
11
100.0237457000
21
244.7419228971
0
LINE
5
235
100
AcDbEntity
8
0
100
AcDbLine
62
7
6
CONTINUOUS
10
111.4421552264
20
247.8015332639
11
111.2088218771
21
247.7270646512
0
LINE
5
236
100
AcDbEntity
8
0
100
AcDbLine
62
7
6
CONTINUOUS
10
114.2421552383
20
247.8015332639
11
114.0088218890
21
247.7270646512
0
LINE
5
237
100
AcDbEntity
8
0
100
AcDbLine
62
7
6
CONTINUOUS
10
104.0188218795
20
172.4102559507
11
105.0188218795
21
171.4102559507
0
LINE
5
238
100
AcDbEntity
8
0
100
AcDbLine
62
7
6
CONTINUOUS
10
83.9785730087
20
230.5860143125
11
83.9591829025
21
230.3769727170
0
LINE
5
239
100
AcDbEntity
8
0
100
AcDbLine
62
7
6
CONTINUOUS
10
84.8593236648
20
230.8639741361
11
84.9765435897
21
231.1401257932
0
LINE
5
23A
100
AcDbEntity
8
0
100
AcDbLine
62
7
6
CONTINUOUS
10
85.2709066116
20
230.3633599698
11
85.1536866866
21
230.0872083127
0
LINE
5
23B
100
AcDbEntity
8
0
100
AcDbLine
62
7
6
CONTINUOUS
10
84.4308339797
20
228.3842745244
11
84.0596391402
21
227.5097952306
0
LINE
5
23C
100
AcDbEntity
8
0
100
AcDbLine
62
7
6
CONTINUOUS
10
85.5062200271
20
229.9375672757
11
85.6234399520
21
230.2137179792
0
LINE
5
23D
100
AcDbEntity
8
0
100
AcDbLine
62
7
6
CONTINUOUS
10
84.4121724807
20
227.3601532399
11
84.7442952834
21
228.1425824582
0
LINE
5
23E
100
AcDbEntity
8
0
100
AcDbLine
62
7
6
CONTINUOUS
10
89.3355313979
20
238.7954984128
11
89.1401654922
21
238.3352456510
0
LINE
5
23F
100
AcDbEntity
8
0
100
AcDbLine
62
7
6
CONTINUOUS
10
89.0229455673
20
238.0590939939
11
88.6908246719
21
237.2766652524
0
LINE
5
240
100
AcDbEntity
8
0
100
AcDbLine
62
7
6
CONTINUOUS
10
89.4926988326
20
238.1856046140
11
89.6880647384
21
238.6458573758
0
LINE
5
241
100
AcDbEntity
8
0
100
AcDbLine
62
7
6
CONTINUOUS
10
88.9066030227
20
236.8048472821
11
89.3754808151
21
237.9094529569
0
LINE
5
242
100
AcDbEntity
8
0
100
AcDbLine
62
7
6
CONTINUOUS
10
85.7808992110
20
229.2777924955
11
85.6636811935
21
229.0016408384
0
LINE
5
243
100
AcDbEntity
8
0
100
AcDbLine
62
7
6
CONTINUOUS
10
86.5047742568
20
229.8396139562
11
86.3484822952
21
229.4714122235
0
LINE
5
244
100
AcDbEntity
8
0
100
AcDbLine
62
7
6
CONTINUOUS
10
89.0649377548
20
234.8908248365
11
89.1821576797
21
235.1669764936
0
LINE
5
245
100
AcDbEntity
8
0
100
AcDbLine
62
7
6
CONTINUOUS
10
89.4556695663
20
235.8113294065
11
89.5728894912
21
236.0874810636
0
LINE
5
246
100
AcDbEntity
8
0
100
AcDbLine
62
7
6
CONTINUOUS
10
86.1344548904
20
227.9870386541
11
86.2712117873
21
228.3092151105
0
LINE
5
247
100
AcDbEntity
8
0
100
AcDbLine
62
7
6
CONTINUOUS
10
85.5288221084
20
226.5602560460
11
85.6460420333
21
226.8364072263
0
LINE
5
248
100
AcDbEntity
8
0
100
AcDbLine
62
7
6
CONTINUOUS
10
86.7010156356
20
229.3217707097
11
86.8573075973
21
229.6899724424
0
LINE
5
249
100
AcDbEntity
8
0
100
AcDbLine
62
7
6
CONTINUOUS
10
88.6351339065
20
233.8782697141
11
88.7914258682
21
234.2464719236
0
LINE
5
24A
100
AcDbEntity
8
0
100
AcDbLine
62
7
6
CONTINUOUS
10
88.2444040023
20
232.9577651441
11
88.3616220199
21
233.2339158475
0
LINE
5
24B
100
AcDbEntity
8
0
100
AcDbLine
62
7
6
CONTINUOUS
10
90.1980592452
20
237.5602889478
11
90.3152772628
21
237.8364406049
0
LINE
5
24C
100
AcDbEntity
8
0
100
AcDbLine
62
7
6
CONTINUOUS
10
85.4273435317
20
230.5685458600
11
85.2709066116
21
230.3633599698
0
LINE
5
24D
100
AcDbEntity
8
0
100
AcDbLine
62
7
6
CONTINUOUS
10
86.5445768081
20
229.1165848195
11
86.7010156356
21
229.3217707097
0
LINE
5
24E
100
AcDbEntity
8
0
100
AcDbLine
62
7
6
CONTINUOUS
10
85.6234399520
20
230.2137179792
11
85.7603418075
21
230.3728795468
0
LINE
5
24F
100
AcDbEntity
8
0
100
AcDbLine
62
7
6
CONTINUOUS
10
85.3693181716
20
229.7784061849
11
85.5062200271
21
229.9375672757
0
LINE
5
250
100
AcDbEntity
8
0
100
AcDbLine
62
7
6
CONTINUOUS
10
86.3484822952
20
229.4714122235
11
86.2115804397
21
229.3122516095
0
LINE
5
251
100
AcDbEntity
8
0
100
AcDbLine
62
7
6
CONTINUOUS
10
97.9311696731
20
244.0497041166
11
97.7663308822
21
243.8685460508
0
LINE
5
252
100
AcDbEntity
8
0
100
AcDbLine
62
7
6
CONTINUOUS
10
102.5705997192
20
248.9639764249
11
102.4057609283
21
248.7828183591
0
LINE
5
253
100
AcDbEntity
8
0
100
AcDbLine
62
7
6
CONTINUOUS
10
104.0438658439
20
247.5788693845
11
103.8790275298
21
247.3977113187
0
LINE
5
254
100
AcDbEntity
8
0
100
AcDbLine
62
7
6
CONTINUOUS
10
104.0651976310
20
247.0752568662
11
104.2300359451
21
247.2564130246
0
LINE
5
255
100
AcDbEntity
8
0
100
AcDbLine
62
7
6
CONTINUOUS
10
97.9525014602
20
243.5460896909
11
98.1678582870
21
243.7564130246
0
LINE
5
256
100
AcDbEntity
8
0
100
AcDbLine
62
7
6
CONTINUOUS
10
100.0529319488
20
245.2747025907
11
99.8375751220
21
245.0643792569
0
LINE
5
257
100
AcDbEntity
8
0
100
AcDbLine
62
7
6
CONTINUOUS
10
84.4483262740
20
230.7125239789
11
84.5656930648
21
230.8256593167
0
LINE
5
258
100
AcDbEntity
8
0
100
AcDbLine
62
7
6
CONTINUOUS
10
83.5494996749
20
228.7583790242
11
83.6668645583
21
228.8715143621
0
LINE
5
259
100
AcDbEntity
8
0
100
AcDbLine
62
7
6
CONTINUOUS
10
85.1536866866
20
230.0872083127
11
85.0363218032
21
229.9740729749
0
LINE
5
25A
100
AcDbEntity
8
0
100
AcDbLine
62
7
6
CONTINUOUS
10
100.0237457000
20
244.7419228971
11
100.2896205627
21
244.9814134061
0
LINE
5
25B
100
AcDbEntity
8
0
100
AcDbLine
62
7
6
CONTINUOUS
10
85.6230012618
20
230.7027669370
11
85.4273435317
21
230.5685458600
0
LINE
5
25C
100
AcDbEntity
8
0
100
AcDbLine
62
7
6
CONTINUOUS
10
85.1736604415
20
229.6441860616
11
85.3693181716
21
229.7784061849
0
LINE
5
25D
100
AcDbEntity
8
0
100
AcDbLine
62
7
6
CONTINUOUS
10
111.5004885339
20
247.3547234952
11
111.7338218533
21
247.5036607206
0
LINE
5
25E
100
AcDbEntity
8
0
100
AcDbLine
62
7
6
CONTINUOUS
10
84.3312532150
20
230.2733569562
11
84.3311082565
21
230.4363723218
0
LINE
5
25F
100
AcDbEntity
8
0
100
AcDbLine
62
7
6
CONTINUOUS
10
84.4306871139
20
228.5472908437
11
84.4308339797
21
228.3842745244
0
LINE
5
260
100
AcDbEntity
8
0
100
AcDbLine
62
7
6
CONTINUOUS
10
86.5241643630
20
230.0486550748
11
86.5047742568
21
229.8396139562
0
LINE
5
261
100
AcDbEntity
8
0
100
AcDbLine
62
7
6
CONTINUOUS
10
86.8573075973
20
229.6899724424
11
86.8962346755
21
229.9450393140
0
LINE
5
262
100
AcDbEntity
8
0
100
AcDbLine
62
7
6
CONTINUOUS
10
96.3170148574
20
245.0955014646
11
96.1761256896
21
244.7561955869
0
LINE
5
263
100
AcDbEntity
8
0
100
AcDbLine
62
7
6
CONTINUOUS
10
98.0078708373
20
247.5335202634
11
97.8669826232
21
247.1942124784
0
LINE
5
264
100
AcDbEntity
8
0
100
AcDbLine
62
7
6
CONTINUOUS
10
104.8257805549
20
246.2245545804
11
104.9401013099
21
246.3765454709
0
LINE
5
265
100
AcDbEntity
8
0
100
AcDbLine
62
7
6
CONTINUOUS
10
104.6768447601
20
246.4825196683
11
104.5120059692
21
246.3013616025
0
LINE
5
266
100
AcDbEntity
8
0
100
AcDbLine
62
7
6
CONTINUOUS
10
104.6609422408
20
246.0433965146
11
104.8257805549
21
246.2245545804
0
LINE
5
267
100
AcDbEntity
8
0
100
AcDbLine
62
7
6
CONTINUOUS
10
111.6171552383
20
247.9504685819
11
111.4421552264
21
247.8015332639
0
LINE
5
268
100
AcDbEntity
8
0
100
AcDbLine
62
7
6
CONTINUOUS
10
114.4171551906
20
247.9504685819
11
114.2421552383
21
247.8015332639
0
LINE
5
269
100
AcDbEntity
8
0
100
AcDbLine
62
7
6
CONTINUOUS
10
114.3004886352
20
247.3547234952
11
114.5338219844
21
247.5036607206
0
LINE
5
26A
100
AcDbEntity
8
0
100
AcDbLine
62
7
6
CONTINUOUS
10
86.2706262313
20
228.9612794339
11
86.5445768081
21
229.1165848195
0
LINE
5
26B
100
AcDbEntity
8
0
100
AcDbLine
62
7
6
CONTINUOUS
10
85.7603418075
20
230.3728795468
11
85.9364625655
21
230.4610743940
0
LINE
5
26C
100
AcDbEntity
8
0
100
AcDbLine
62
7
6
CONTINUOUS
10
85.0363218032
20
229.9740729749
11
84.8602010452
21
229.8858781278
0
LINE
5
26D
100
AcDbEntity
8
0
100
AcDbLine
62
7
6
CONTINUOUS
10
84.4871083938
20
231.1306062162
11
84.2326947891
21
231.0213265836
0
LINE
5
26E
100
AcDbEntity
8
0
100
AcDbLine
62
7
6
CONTINUOUS
10
83.6470357620
20
229.1515212476
11
83.3926221572
21
229.0422411382
0
LINE
5
26F
100
AcDbEntity
8
0
100
AcDbLine
62
7
6
CONTINUOUS
10
118.0188218795
20
186.4102559507
11
104.0188218795
21
186.4102559507
0
LINE
5
270
100
AcDbEntity
8
0
100
AcDbLine
62
7
6
CONTINUOUS
10
116.5188218795
20
187.9102559507
11
105.5188218795
21
187.9102559507
0
LINE
5
271
100
AcDbEntity
8
0
100
AcDbLine
62
7
6
CONTINUOUS
10
87.2915811633
20
199.4925414278
11
78.6399104417
21
220.3795222212
0
LINE
5
272
100
AcDbEntity
8
0
100
AcDbLine
62
7
6
CONTINUOUS
10
96.4633323394
20
244.4920716703
11
96.5537034713
21
244.8022122800
0
LINE
5
273
100
AcDbEntity
8
0
100
AcDbLine
62
7
6
CONTINUOUS
10
98.1674730026
20
247.0237489164
11
98.2445594512
21
247.2402310788
0
LINE
5
274
100
AcDbEntity
8
0
100
AcDbLine
62
7
6
CONTINUOUS
10
98.0082561218
20
244.2661862790
11
97.9311696731
21
244.0497041166
0
LINE
5
275
100
AcDbEntity
8
0
100
AcDbLine
62
7
6
CONTINUOUS
10
100.1300183975
20
245.4911866605
11
100.0529319488
21
245.2747025907
0
LINE
5
276
100
AcDbEntity
8
0
100
AcDbLine
62
7
6
CONTINUOUS
10
98.1678582870
20
243.7564130246
11
98.3087465011
21
244.0957208097
0
LINE
5
277
100
AcDbEntity
8
0
100
AcDbLine
62
7
6
CONTINUOUS
10
100.2896205627
20
244.9814134061
11
100.4305087768
21
245.3207211911
0
LINE
5
278
100
AcDbEntity
8
0
100
AcDbLine
62
7
6
CONTINUOUS
10
102.6291648589
20
248.3958707273
11
102.7567693435
21
248.6415200650
0
LINE
5
279
100
AcDbEntity
8
0
100
AcDbLine
62
7
6
CONTINUOUS
10
104.2300359451
20
247.2564130246
11
104.2938381873
21
247.3792386472
0
LINE
5
27A
100
AcDbEntity
8
0
100
AcDbLine
62
7
6
CONTINUOUS
10
109.1088219129
20
249.5142980039
11
108.9921552383
21
249.3653626859
0
LINE
5
27B
100
AcDbEntity
8
0
100
AcDbLine
62
7
6
CONTINUOUS
10
111.7338218533
20
247.5036607206
11
111.9671552025
21
247.8015332639
0
LINE
5
27C
100
AcDbEntity
8
0
100
AcDbLine
62
7
6
CONTINUOUS
10
83.9591829025
20
230.3769727170
11
83.9985486709
21
230.1429915845
0
LINE
5
27D
100
AcDbEntity
8
0
100
AcDbLine
62
7
6
CONTINUOUS
10
84.7440034591
20
228.4686146199
11
84.7046376907
21
228.7025962293
0
LINE
5
27E
100
AcDbEntity
8
0
100
AcDbLine
62
7
6
CONTINUOUS
10
86.8962346755
20
229.9450393140
11
86.8568689071
21
230.1790204465
0
LINE
5
27F
100
AcDbEntity
8
0
100
AcDbLine
62
7
6
CONTINUOUS
10
93.5188218795
20
192.4102559507
11
93.5188218795
21
193.5665665764
0
LINE
5
280
100
AcDbEntity
8
0
100
AcDbLine
62
7
6
CONTINUOUS
10
97.8669826232
20
247.1942124784
11
97.8271295272
21
246.9132390439
0
LINE
5
281
100
AcDbEntity
8
0
100
AcDbLine
62
7
6
CONTINUOUS
10
102.4057609283
20
248.7828183591
11
102.3286744796
21
248.5663361966
0
LINE
5
282
100
AcDbEntity
8
0
100
AcDbLine
62
7
6
CONTINUOUS
10
104.1209522926
20
247.7953534543
11
104.0438658439
21
247.5788693845
0
LINE
5
283
100
AcDbEntity
8
0
100
AcDbLine
62
7
6
CONTINUOUS
10
109.2838218652
20
249.1419587552
11
109.4588219367
21
249.4398312986
0
LINE
5
284
100
AcDbEntity
8
0
100
AcDbLine
62
7
6
CONTINUOUS
10
114.5338219844
20
247.5036607206
11
114.7671550952
21
247.8015332639
0
LINE
5
285
100
AcDbEntity
8
0
100
AcDbLine
62
7
6
CONTINUOUS
10
93.5188218795
20
192.4102559507
11
128.5188218795
21
192.4102559507
0
LINE
5
286
100
AcDbEntity
8
0
100
AcDbLine
62
7
6
CONTINUOUS
10
84.3901559554
20
230.0854001462
11
84.3312532150
21
230.2733569562
0
LINE
5
287
100
AcDbEntity
8
0
100
AcDbLine
62
7
6
CONTINUOUS
10
86.4652635299
20
230.2366118848
11
86.5241643630
21
230.0486550748
0
LINE
5
288
100
AcDbEntity
8
0
100
AcDbLine
62
7
6
CONTINUOUS
10
100.4305087768
20
245.3207211911
11
100.4703618728
21
245.6016946256
0
LINE
5
289
100
AcDbEntity
8
0
100
AcDbLine
62
7
6
CONTINUOUS
10
101.1802341186
20
246.3554921567
11
101.2466546737
21
246.8237824857
0
LINE
5
28A
100
AcDbEntity
8
0
100
AcDbLine
62
7
6
CONTINUOUS
10
104.9401013099
20
246.3765454709
11
105.0171872817
21
246.5930276334
0
LINE
5
28B
100
AcDbEntity
8
0
100
AcDbLine
62
7
6
CONTINUOUS
10
111.7338218533
20
248.1738725125
11
111.6171552383
21
247.9504685819
0
LINE
5
28C
100
AcDbEntity
8
0
100
AcDbLine
62
7
6
CONTINUOUS
10
133.3602432969
20
198.5665665764
11
132.2789297348
21
198.5665665764
0
LINE
5
28D
100
AcDbEntity
8
0
100
AcDbLine
62
7
6
CONTINUOUS
10
89.7587140242
20
198.5665665764
11
88.6774004621
21
198.5665665764
0
LINE
5
28E
100
AcDbEntity
8
0
100
AcDbLine
62
7
6
CONTINUOUS
10
116.5188218795
20
187.9102559507
11
118.0188218795
21
186.4102559507
0
LINE
5
28F
100
AcDbEntity
8
0
100
AcDbLine
62
7
6
CONTINUOUS
10
84.3522493087
20
228.6892219007
11
84.4306871139
21
228.5472908437
0
LINE
5
290
100
AcDbEntity
8
0
100
AcDbLine
62
7
6
CONTINUOUS
10
83.9985486709
20
230.1429915845
11
84.1554242812
21
229.8591294706
0
LINE
5
291
100
AcDbEntity
8
0
100
AcDbLine
62
7
6
CONTINUOUS
10
97.9975902282
20
244.5179925382
11
98.0082561218
21
244.2661862790
0
LINE
5
292
100
AcDbEntity
8
0
100
AcDbLine
62
7
6
CONTINUOUS
10
98.1888047897
20
246.5201344907
11
98.1674730026
21
247.0237489164
0
LINE
5
293
100
AcDbEntity
8
0
100
AcDbLine
62
7
6
CONTINUOUS
10
98.3087465011
20
244.0957208097
11
98.3113652908
21
244.4411855161
0
LINE
5
294
100
AcDbEntity
8
0
100
AcDbLine
62
7
6
CONTINUOUS
10
101.2865068160
20
247.1047559201
11
101.3581639968
21
248.2639756620
0
LINE
5
295
100
AcDbEntity
8
0
100
AcDbLine
62
7
6
CONTINUOUS
10
101.0550548278
20
248.0889764249
11
100.9568292342
21
246.7424397885
0
LINE
5
296
100
AcDbEntity
8
0
100
AcDbLine
62
7
6
CONTINUOUS
10
102.3286744796
20
248.5663361966
11
102.2888223373
21
248.2853627622
0
LINE
5
297
100
AcDbEntity
8
0
100
AcDbLine
62
7
6
CONTINUOUS
10
104.2938381873
20
247.3792386472
11
104.3204066001
21
247.5665536344
0
LINE
5
298
100
AcDbEntity
8
0
100
AcDbLine
62
7
6
CONTINUOUS
10
104.7166969024
20
246.7634931028
11
104.6768447601
21
246.4825196683
0
LINE
5
299
100
AcDbEntity
8
0
100
AcDbLine
62
7
6
CONTINUOUS
10
109.1671551906
20
249.7377019345
11
109.1088219129
21
249.5142980039
0
LINE
5
29A
100
AcDbEntity
8
0
100
AcDbLine
62
7
6
CONTINUOUS
10
109.4588219367
20
249.4398312986
11
109.5171552144
21
249.6632352292
0
LINE
5
29B
100
AcDbEntity
8
0
100
AcDbLine
62
7
6
CONTINUOUS
10
111.9671552025
20
247.8015332639
11
112.0838219367
21
248.0994058072
0
LINE
5
29C
100
AcDbEntity
8
0
100
AcDbLine
62
7
6
CONTINUOUS
10
114.5338219844
20
248.1738725125
11
114.4171551906
21
247.9504685819
0
LINE
5
29D
100
AcDbEntity
8
0
100
AcDbLine
62
7
6
CONTINUOUS
10
84.7046376907
20
228.7025962293
11
84.5282251083
21
228.9404330671
0
LINE
5
29E
100
AcDbEntity
8
0
100
AcDbLine
62
7
6
CONTINUOUS
10
86.8568689071
20
230.1790204465
11
86.6999932967
21
230.4628825605
0
LINE
5
29F
100
AcDbEntity
8
0
100
AcDbLine
62
7
6
CONTINUOUS
10
94.6205369674
20
245.2338891446
11
95.1740037643
21
241.9419217527
0
LINE
5
2A0
100
AcDbEntity
8
0
100
AcDbLine
62
7
6
CONTINUOUS
10
95.4771119796
20
242.1169228971
11
94.9236451827
21
245.4088883817
0
LINE
5
2A1
100
AcDbEntity
8
0
100
AcDbLine
62
7
6
CONTINUOUS
10
100.1086866103
20
245.9948010862
11
100.1300183975
21
245.4911866605
0
LINE
5
2A2
100
AcDbEntity
8
0
100
AcDbLine
62
7
6
CONTINUOUS
10
102.6398307525
20
248.1440644681
11
102.6291648589
21
248.3958707273
0
LINE
5
2A3
100
AcDbEntity
8
0
100
AcDbLine
62
7
6
CONTINUOUS
10
104.0188218795
20
186.4102559507
11
104.0188218795
21
172.4102559507
0
LINE
5
2A4
100
AcDbEntity
8
0
100
AcDbLine
62
7
6
CONTINUOUS
10
114.7671550952
20
247.8015332639
11
114.8838218890
21
248.0994058072
0
LINE
5
2A5
100
AcDbEntity
8
0
100
AcDbLine
62
7
6
CONTINUOUS
10
86.3280698501
20
230.4034829557
11
86.4652635299
21
230.2366118848
0
LINE
5
2A6
100
AcDbEntity
8
0
100
AcDbLine
62
7
6
CONTINUOUS
10
86.6941549026
20
236.9835229337
11
86.9882261001
21
236.5327897489
0
LINE
5
2A7
100
AcDbEntity
8
0
100
AcDbLine
62
7
6
CONTINUOUS
10
87.4582711898
20
236.3332677304
11
87.1641999923
21
236.7840009153
0
LINE
5
2A8
100
AcDbEntity
8
0
100
AcDbLine
62
7
6
CONTINUOUS
10
97.8271295272
20
246.9132390439
11
97.8750297271
21
246.5969415128
0
LINE
5
2A9
100
AcDbEntity
8
0
100
AcDbLine
62
7
6
CONTINUOUS
10
104.1102863990
20
248.0471597135
11
104.1209522926
21
247.7953534543
0
LINE
5
2AA
100
AcDbEntity
8
0
100
AcDbLine
62
7
6
CONTINUOUS
10
105.0171872817
20
246.5930276334
11
105.0065218650
21
246.8448338926
0
LINE
5
2AB
100
AcDbEntity
8
0
100
AcDbLine
62
7
6
CONTINUOUS
10
105.5188218795
20
192.4102559507
11
105.5188218795
21
187.9102559507
0
LINE
5
2AC
100
AcDbEntity
8
0
100
AcDbLine
62
7
6
CONTINUOUS
10
107.3588217937
20
250.7802567899
11
107.3588217937
21
247.2802567899
0
LINE
5
2AD
100
AcDbEntity
8
0
100
AcDbLine
62
7
6
CONTINUOUS
10
107.7088219367
20
247.2802567899
11
107.7088219367
21
248.8440862119
0
LINE
5
2AE
100
AcDbEntity
8
0
100
AcDbLine
62
7
6
CONTINUOUS
10
107.7088219367
20
249.2908940732
11
107.7088219367
21
250.4079156339
0
LINE
5
2AF
100
AcDbEntity
8
0
100
AcDbLine
62
7
6
CONTINUOUS
10
112.0838219367
20
248.0994058072
11
112.1421552144
21
248.4717450559
0
LINE
5
2B0
100
AcDbEntity
8
0
100
AcDbLine
62
7
6
CONTINUOUS
10
111.7921551906
20
248.4717450559
11
111.7338218533
21
248.1738725125
0
LINE
5
2B1
100
AcDbEntity
8
0
100
AcDbLine
62
7
6
CONTINUOUS
10
114.5921551429
20
248.4717450559
11
114.5338219844
21
248.1738725125
0
LINE
5
2B2
100
AcDbEntity
8
0
100
AcDbLine
62
7
6
CONTINUOUS
10
84.1955186569
20
228.8100676953
11
84.3522493087
21
228.6892219007
0
LINE
5
2B3
100
AcDbEntity
8
0
100
AcDbLine
62
7
6
CONTINUOUS
10
84.5282251083
20
228.9404330671
11
84.3714944564
21
229.0612788617
0
LINE
5
2B4
100
AcDbEntity
8
0
100
AcDbLine
62
7
6
CONTINUOUS
10
86.6999932967
20
230.4628825605
11
86.5040437423
21
230.6546941220
0
LINE
5
2B5
100
AcDbEntity
8
0
100
AcDbLine
62
7
6
CONTINUOUS
10
87.4365445815
20
238.7324815213
11
88.5540696822
21
236.9544892728
0
LINE
5
2B6
100
AcDbEntity
8
0
100
AcDbLine
62
7
6
CONTINUOUS
10
88.6908246719
20
237.2766652524
11
87.9065896713
21
238.5329595029
0
LINE
5
2B7
100
AcDbEntity
8
0
100
AcDbLine
62
7
6
CONTINUOUS
10
97.9364062988
20
244.7406335294
11
97.9975902282
21
244.5179925382
0
LINE
5
2B8
100
AcDbEntity
8
0
100
AcDbLine
62
7
6
CONTINUOUS
10
97.8750297271
20
246.5969415128
11
97.9362136565
21
246.3743005216
0
LINE
5
2B9
100
AcDbEntity
8
0
100
AcDbLine
62
7
6
CONTINUOUS
10
98.3113652908
20
244.4411855161
11
98.2262307845
21
244.8219762265
0
LINE
5
2BA
100
AcDbEntity
8
0
100
AcDbLine
62
7
6
CONTINUOUS
10
100.4703618728
20
245.6016946256
11
100.4224616729
21
245.9179921567
0
LINE
5
2BB
100
AcDbEntity
8
0
100
AcDbLine
62
7
6
CONTINUOUS
10
102.2888223373
20
248.2853627622
11
102.3127719604
21
248.1272130429
0
LINE
5
2BC
100
AcDbEntity
8
0
100
AcDbLine
62
7
6
CONTINUOUS
10
109.1671551906
20
249.9611077726
11
109.1671551906
21
249.7377019345
0
LINE
5
2BD
100
AcDbEntity
8
0
100
AcDbLine
62
7
6
CONTINUOUS
10
109.5171552144
20
249.6632352292
11
109.5171552144
21
249.9611077726
0
LINE
5
2BE
100
AcDbEntity
8
0
100
AcDbLine
62
7
6
CONTINUOUS
10
110.0421551906
20
250.7802567899
11
110.0421551906
21
248.4717450559
0
LINE
5
2BF
100
AcDbEntity
8
0
100
AcDbLine
62
7
6
CONTINUOUS
10
110.3921552144
20
248.4717450559
11
110.3921552144
21
250.7802567899
0
LINE
5
2C0
100
AcDbEntity
8
DEFAULT_1
100
AcDbLine
62
2
6
CENTER
10
111.0188218795
20
221.9102559507
11
111.0188218795
21
168.2023978434
0
LINE
5
2C1
100
AcDbEntity
8
DEFAULT_1
100
AcDbLine
62
2
6
CENTER
10
111.0188218795
20
221.9102559507
11
111.0188218795
21
242.4102559507
0
LINE
5
2C2
100
AcDbEntity
8
0
100
AcDbLine
62
7
6
CONTINUOUS
10
114.8838218890
20
248.0994058072
11
114.9421552860
21
248.4717450559
0
LINE
5
2C3
100
AcDbEntity
8
0
100
AcDbLine
62
7
6
CONTINUOUS
10
84.1554242812
20
229.8591294706
11
84.3709108077
21
229.7133431852
0
LINE
5
2C4
100
AcDbEntity
8
0
100
AcDbLine
62
7
6
CONTINUOUS
10
84.5468846999
20
229.9645543515
11
84.3901559554
21
230.0854001462
0
LINE
5
2C5
100
AcDbEntity
8
0
100
AcDbLine
62
7
6
CONTINUOUS
10
92.9188214980
20
244.6813455045
11
93.1049920760
21
244.3588891446
0
LINE
5
2C6
100
AcDbEntity
8
0
100
AcDbLine
62
7
6
CONTINUOUS
10
97.9362136565
20
246.3743005216
11
98.0718661987
21
246.0226769864
0
LINE
5
2C7
100
AcDbEntity
8
0
100
AcDbLine
62
7
6
CONTINUOUS
10
100.4224616729
20
245.9179921567
11
100.3612777435
21
246.1406331479
0
LINE
5
2C8
100
AcDbEntity
8
0
100
AcDbLine
62
7
6
CONTINUOUS
10
104.3204066001
20
247.5665536344
11
104.2964565002
21
247.7247033536
0
LINE
5
2C9
100
AcDbEntity
8
0
100
AcDbLine
62
7
6
CONTINUOUS
10
104.6927468024
20
246.9216409146
11
104.7166969024
21
246.7634931028
0
LINE
5
2CA
100
AcDbEntity
8
0
100
AcDbLine
62
7
6
CONTINUOUS
10
111.7921551906
20
250.7802567899
11
111.7921551906
21
248.4717450559
0
LINE
5
2CB
100
AcDbEntity
8
0
100
AcDbLine
62
7
6
CONTINUOUS
10
112.1421552144
20
248.4717450559
11
112.1421552144
21
250.7802567899
0
LINE
5
2CC
100
AcDbEntity
8
0
100
AcDbLine
62
7
6
CONTINUOUS
10
112.6088219129
20
250.7802567899
11
112.6088219129
21
247.2802567899
0
LINE
5
2CD
100
AcDbEntity
8
0
100
AcDbLine
62
7
6
CONTINUOUS
10
112.9588219367
20
247.7270646512
11
112.9588219367
21
250.3334470212
0
LINE
5
2CE
100
AcDbEntity
8
0
100
AcDbLine
62
7
6
CONTINUOUS
10
114.5921551429
20
249.5887666166
11
114.5921551429
21
248.4717450559
0
LINE
5
2CF
100
AcDbEntity
8
0
100
AcDbLine
62
7
6
CONTINUOUS
10
114.9421552860
20
248.4717450559
11
114.9421552860
21
249.5887666166
0
LINE
5
2D0
100
AcDbEntity
8
0
100
AcDbLine
62
7
6
CONTINUOUS
10
82.7673074447
20
227.7324495732
11
85.5288221084
21
226.5602560460
0
LINE
5
2D1
100
AcDbEntity
8
0
100
AcDbLine
62
7
6
CONTINUOUS
10
84.0596391402
20
227.5097952306
11
83.1783048354
21
227.8838992536
0
LINE
5
2D2
100
AcDbEntity
8
0
100
AcDbLine
62
7
6
CONTINUOUS
10
85.6460420333
20
226.8364072263
11
84.4121724807
21
227.3601532399
0
LINE
5
2D3
100
AcDbEntity
8
0
100
AcDbLine
62
7
6
CONTINUOUS
10
86.2448140823
20
235.9249425351
11
88.4195024215
21
234.1870723188
0
LINE
5
2D4
100
AcDbEntity
8
0
100
AcDbLine
62
7
6
CONTINUOUS
10
88.7914258682
20
234.2464719236
11
86.8909799300
21
235.8136153638
0
LINE
5
2D5
100
AcDbEntity
8
0
100
AcDbLine
62
7
6
CONTINUOUS
10
94.9236451827
20
245.4088883817
11
94.7374746047
21
245.7313447416
0
LINE
5
2D6
100
AcDbEntity
8
0
100
AcDbLine
62
7
6
CONTINUOUS
10
95.1416207992
20
245.9646783292
11
96.1097051345
21
244.2879052579
0
LINE
5
2D7
100
AcDbEntity
8
0
100
AcDbLine
62
7
6
CONTINUOUS
10
96.1761256896
20
244.7561955869
11
95.5803815566
21
245.7880559385
0
LINE
5
2D8
100
AcDbEntity
8
0
100
AcDbLine
62
7
6
CONTINUOUS
10
98.3616906844
20
246.1040196836
11
98.1888047897
21
246.5201344907
0
LINE
5
2D9
100
AcDbEntity
8
0
100
AcDbLine
62
7
6
CONTINUOUS
10
99.9358007156
20
246.4109139859
11
100.1086866103
21
245.9948010862
0
LINE
5
2DA
100
AcDbEntity
8
0
100
AcDbLine
62
7
6
CONTINUOUS
10
100.3612777435
20
246.1406331479
11
100.2256252013
21
246.4922566831
0
LINE
5
2DB
100
AcDbEntity
8
0
100
AcDbLine
62
7
6
CONTINUOUS
10
102.3127719604
20
248.1272130429
11
102.4111901962
21
247.8400807798
0
LINE
5
2DC
100
AcDbEntity
8
0
100
AcDbLine
62
7
6
CONTINUOUS
10
102.7010146819
20
247.9214234769
11
102.6398307525
21
248.1440644681
0
LINE
5
2DD
100
AcDbEntity
8
0
100
AcDbLine
62
7
6
CONTINUOUS
10
116.5188218795
20
192.4102559507
11
116.5188218795
21
187.9102559507
0
LINE
5
2DE
100
AcDbEntity
8
0
100
AcDbLine
62
7
6
CONTINUOUS
10
118.0188218795
20
186.4102559507
11
118.0188218795
21
172.4102559507
0
LINE
5
2DF
100
AcDbEntity
8
0
100
AcDbLine
62
7
6
CONTINUOUS
10
84.0192529403
20
228.8848886907
11
84.1955186569
21
228.8100676953
0
LINE
5
2E0
100
AcDbEntity
8
0
100
AcDbLine
62
7
6
CONTINUOUS
10
84.3714944564
20
229.0612788617
11
84.1364709579
21
229.1610403478
0
LINE
5
2E1
100
AcDbEntity
8
0
100
AcDbLine
62
7
6
CONTINUOUS
10
84.3709108077
20
229.7133431852
11
84.6059323989
21
229.6135821759
0
LINE
5
2E2
100
AcDbEntity
8
0
100
AcDbLine
62
7
6
CONTINUOUS
10
84.6643964492
20
229.9146733701
11
84.5468846999
21
229.9645543515
0
LINE
5
2E3
100
AcDbEntity
8
0
100
AcDbLine
62
7
6
CONTINUOUS
10
86.1518022262
20
230.4783034742
11
86.3280698501
21
230.4034829557
0
LINE
5
2E4
100
AcDbEntity
8
0
100
AcDbLine
62
7
6
CONTINUOUS
10
86.5040437423
20
230.6546941220
11
86.2102662765
21
230.7793956220
0
LINE
5
2E5
100
AcDbEntity
8
0
100
AcDbLine
62
7
6
CONTINUOUS
10
97.8619386398
20
244.8696160733
11
97.9364062988
21
244.7406335294
0
LINE
5
2E6
100
AcDbEntity
8
0
100
AcDbLine
62
7
6
CONTINUOUS
10
97.0454074584
20
246.6338887632
11
96.8592378341
21
246.9563451230
0
LINE
5
2E7
100
AcDbEntity
8
0
100
AcDbLine
62
7
6
CONTINUOUS
10
98.2262307845
20
244.8219762265
11
98.0772954665
21
245.0799413144
0
LINE
5
2E8
100
AcDbEntity
8
0
100
AcDbLine
62
7
6
CONTINUOUS
10
98.0718661987
20
246.0226769864
11
98.4069720947
21
245.4422555387
0
LINE
5
2E9
100
AcDbEntity
8
0
100
AcDbLine
62
7
6
CONTINUOUS
10
98.6223289214
20
245.6525807798
11
98.3616906844
21
246.1040196836
0
LINE
5
2EA
100
AcDbEntity
8
0
100
AcDbLine
62
7
6
CONTINUOUS
10
99.6751624786
20
246.8623528897
11
99.9358007156
21
246.4109139859
0
LINE
5
2EB
100
AcDbEntity
8
0
100
AcDbLine
62
7
6
CONTINUOUS
10
100.2256252013
20
246.4922566831
11
99.8905193053
21
247.0726781308
0
LINE
5
2EC
100
AcDbEntity
8
0
100
AcDbLine
62
7
6
CONTINUOUS
10
104.5943290435
20
247.2087731778
11
104.6927468024
21
246.9216409146
0
LINE
5
2ED
100
AcDbEntity
8
0
100
AcDbLine
62
7
6
CONTINUOUS
10
105.0065218650
20
246.8448338926
11
104.8469196998
21
247.3546071469
0
LINE
5
2EE
100
AcDbEntity
8
0
100
AcDbLine
62
7
6
CONTINUOUS
10
110.4504885517
20
248.1738725125
11
110.3921552144
21
248.4717450559
0
LINE
5
2EF
100
AcDbEntity
8
0
100
AcDbLine
62
7
6
CONTINUOUS
10
110.0421551906
20
248.4717450559
11
110.1004885279
21
248.0994058072
0
LINE
5
2F0
100
AcDbEntity
8
DEFAULT_1
100
AcDbLine
62
2
6
CENTER
10
111.0188218795
20
221.9102559507
11
90.5188218795
21
221.9102559507
0
LINE
5
2F1
100
AcDbEntity
8
DEFAULT_1
100
AcDbLine
62
2
6
CENTER
10
111.0188218795
20
221.9102559507
11
131.5188218795
21
221.9102559507
0
LINE
5
2F2
100
AcDbEntity
8
0
100
AcDbLine
62
7
6
CONTINUOUS
10
85.6636811935
20
229.0016408384
11
85.9182397567
21
228.9479051053
0
LINE
5
2F3
100
AcDbEntity
8
0
100
AcDbLine
62
7
6
CONTINUOUS
10
84.6059323989
20
229.6135821759
11
84.8604928695
21
229.5598459661
0
LINE
5
2F4
100
AcDbEntity
8
0
100
AcDbLine
62
7
6
CONTINUOUS
10
85.4828893386
20
234.1299577176
11
88.2444040023
21
232.9577651441
0
LINE
5
2F5
100
AcDbEntity
8
0
100
AcDbLine
62
7
6
CONTINUOUS
10
88.3616220199
20
233.2339158475
11
86.1876641952
21
234.1567063749
0
LINE
5
2F6
100
AcDbEntity
8
0
100
AcDbLine
62
7
6
CONTINUOUS
10
98.4069720947
20
245.4422555387
11
98.6436607085
21
245.1489663541
0
LINE
5
2F7
100
AcDbEntity
8
0
100
AcDbLine
62
7
6
CONTINUOUS
10
98.8962508880
20
245.2948003232
11
98.6223289214
21
245.6525807798
0
LINE
5
2F8
100
AcDbEntity
8
0
100
AcDbLine
62
7
6
CONTINUOUS
10
99.5872174941
20
248.5313439786
11
101.3372174941
21
245.5002561032
0
LINE
5
2F9
100
AcDbEntity
8
0
100
AcDbLine
62
7
6
CONTINUOUS
10
100.9568292342
20
246.7424397885
11
99.8398086272
21
248.6771779477
0
LINE
5
2FA
100
AcDbEntity
8
0
100
AcDbLine
62
7
6
CONTINUOUS
10
101.5898086272
20
245.6460900724
11
101.1802341186
21
246.3554921567
0
LINE
5
2FB
100
AcDbEntity
8
0
100
AcDbLine
62
7
6
CONTINUOUS
10
102.4111901962
20
247.8400807798
11
102.7090627395
21
247.3241506040
0
LINE
5
2FC
100
AcDbEntity
8
0
100
AcDbLine
62
7
6
CONTINUOUS
10
102.9244186126
20
247.5344758451
11
102.7010146819
21
247.9214234769
0
LINE
5
2FD
100
AcDbEntity
8
0
100
AcDbLine
62
7
6
CONTINUOUS
10
109.5754884921
20
247.2802567899
11
109.0504885160
21
248.9930215299
0
LINE
5
2FE
100
AcDbEntity
8
0
100
AcDbLine
62
7
6
CONTINUOUS
10
108.7004884921
20
248.8440862119
11
109.1671551906
21
247.2802567899
0
LINE
5
2FF
100
AcDbEntity
8
0
100
AcDbLine
62
7
6
CONTINUOUS
10
109.1088219129
20
250.1845117032
11
109.1671551906
21
249.9611077726
0
LINE
5
300
100
AcDbEntity
8
0
100
AcDbLine
62
7
6
CONTINUOUS
10
109.5171552144
20
249.9611077726
11
109.4588219367
21
250.1845117032
0
LINE
5
301
100
AcDbEntity
8
0
100
AcDbLine
62
7
6
CONTINUOUS
10
114.5338219844
20
249.8866391599
11
114.5921551429
21
249.5887666166
0
LINE
5
302
100
AcDbEntity
8
0
100
AcDbLine
62
7
6
CONTINUOUS
10
114.9421552860
20
249.5887666166
11
114.8838218890
21
249.9611077726
0
LINE
5
303
100
AcDbEntity
8
0
100
AcDbLine
62
7
6
CONTINUOUS
10
105.5188218795
20
187.9102559507
11
104.0188218795
21
186.4102559507
0
LINE
5
304
100
AcDbEntity
8
0
100
AcDbLine
62
7
6
CONTINUOUS
10
86.2712117873
20
228.3092151105
11
84.7440034591
21
228.4686146199
0
LINE
5
305
100
AcDbEntity
8
0
100
AcDbLine
62
7
6
CONTINUOUS
10
84.7442952834
20
228.1425824582
11
86.1344548904
21
227.9870386541
0
LINE
5
306
100
AcDbEntity
8
0
100
AcDbLine
62
7
6
CONTINUOUS
10
83.8234483444
20
228.9136844098
11
84.0192529403
21
228.8848886907
0
LINE
5
307
100
AcDbEntity
8
0
100
AcDbLine
62
7
6
CONTINUOUS
10
84.1364709579
20
229.1610403478
11
83.9406682693
21
229.1898355901
0
LINE
5
308
100
AcDbEntity
8
0
100
AcDbLine
62
7
6
CONTINUOUS
10
85.9767038070
20
229.2489967763
11
85.7808992110
21
229.2777924955
0
LINE
5
309
100
AcDbEntity
8
0
100
AcDbLine
62
7
6
CONTINUOUS
10
84.8602010452
20
229.8858781278
11
84.6643964492
21
229.9146733701
0
LINE
5
30A
100
AcDbEntity
8
0
100
AcDbLine
62
7
6
CONTINUOUS
10
84.9765435897
20
231.1401257932
11
84.7807409011
21
231.1689210355
0
LINE
5
30B
100
AcDbEntity
8
0
100
AcDbLine
62
7
6
CONTINUOUS
10
86.8909799300
20
235.8136153638
11
89.0649377548
21
234.8908248365
0
LINE
5
30C
100
AcDbEntity
8
0
100
AcDbLine
62
7
6
CONTINUOUS
10
89.1821576797
20
235.1669764936
11
86.4206430160
21
236.3391700208
0
LINE
5
30D
100
AcDbEntity
8
0
100
AcDbLine
62
7
6
CONTINUOUS
10
86.9882261001
20
236.5327897489
11
87.4582711898
21
236.3332677304
0
LINE
5
30E
100
AcDbEntity
8
0
100
AcDbLine
62
7
6
CONTINUOUS
10
87.1641999923
20
236.7840009153
11
89.4556695663
21
235.8113294065
0
LINE
5
30F
100
AcDbEntity
8
0
100
AcDbLine
62
7
6
CONTINUOUS
10
89.5728894912
20
236.0874810636
11
86.8113748275
21
237.2596745908
0
LINE
5
310
100
AcDbEntity
8
0
100
AcDbLine
62
7
6
CONTINUOUS
10
88.5540696822
20
236.9544892728
11
88.9066030227
21
236.8048472821
0
LINE
5
311
100
AcDbEntity
8
0
100
AcDbLine
62
7
6
CONTINUOUS
10
87.9065896713
20
238.5329595029
11
89.0229455673
21
238.0590939939
0
LINE
5
312
100
AcDbEntity
8
0
100
AcDbLine
62
7
6
CONTINUOUS
10
89.3754808151
20
237.9094529569
11
90.1980592452
21
237.5602889478
0
LINE
5
313
100
AcDbEntity
8
0
100
AcDbLine
62
7
6
CONTINUOUS
10
97.6997176849
20
245.0339227140
11
97.8619386398
21
244.8696160733
0
LINE
5
314
100
AcDbEntity
8
0
100
AcDbLine
62
7
6
CONTINUOUS
10
98.6436607085
20
245.1489663541
11
98.8058807098
21
244.9846597135
0
LINE
5
315
100
AcDbEntity
8
0
100
AcDbLine
62
7
6
CONTINUOUS
10
99.8905193053
20
247.0726781308
11
99.6538306915
21
247.3659673154
0
LINE
5
316
100
AcDbEntity
8
0
100
AcDbLine
62
7
6
CONTINUOUS
10
99.4012395583
20
247.2201333463
11
99.6751624786
21
246.8623528897
0
LINE
5
317
100
AcDbEntity
8
0
100
AcDbLine
62
7
6
CONTINUOUS
10
103.3283716880
20
249.4014764249
11
103.5517756187
21
249.0145287931
0
LINE
5
318
100
AcDbEntity
8
0
100
AcDbLine
62
7
6
CONTINUOUS
10
103.7379457198
20
248.6920724332
11
104.1102863990
21
248.0471597135
0
LINE
5
319
100
AcDbEntity
8
0
100
AcDbLine
62
7
6
CONTINUOUS
10
104.2964565002
20
247.7247033536
11
104.5943290435
21
247.2087731778
0
LINE
5
31A
100
AcDbEntity
8
0
100
AcDbLine
62
7
6
CONTINUOUS
10
104.8469196998
20
247.3546071469
11
103.5809623443
21
249.5473084867
0
LINE
5
31B
100
AcDbEntity
8
0
100
AcDbLine
62
7
6
CONTINUOUS
10
110.1004885279
20
248.0994058072
11
110.2171552025
21
247.8015332639
0
LINE
5
31C
100
AcDbEntity
8
0
100
AcDbLine
62
7
6
CONTINUOUS
10
128.5188218795
20
192.4102559507
11
128.5188218795
21
193.5665665764
0
LINE
5
31D
100
AcDbEntity
8
0
100
AcDbLine
62
7
6
CONTINUOUS
10
85.9182397567
20
228.9479051053
11
86.2706262313
21
228.9612794339
0
LINE
5
31E
100
AcDbEntity
8
0
100
AcDbLine
62
7
6
CONTINUOUS
10
86.2102662765
20
230.7793956220
11
85.9361707412
21
230.7871060788
0
LINE
5
31F
100
AcDbEntity
8
0
100
AcDbLine
62
7
6
CONTINUOUS
10
84.7222768508
20
230.8678298413
11
84.8593236648
21
230.8639741361
0
LINE
5
320
100
AcDbEntity
8
0
100
AcDbLine
62
7
6
CONTINUOUS
10
90.3152772628
20
237.8364406049
11
89.4926988326
21
238.1856046140
0
LINE
5
321
100
AcDbEntity
8
0
100
AcDbLine
62
7
6
CONTINUOUS
10
89.1401654922
20
238.3352456510
11
87.5537645065
21
239.0086331784
0
LINE
5
322
100
AcDbEntity
8
0
100
AcDbLine
62
7
6
CONTINUOUS
10
89.6880647384
20
238.6458573758
11
89.3355313979
21
238.7954984128
0
LINE
5
323
100
AcDbEntity
8
0
100
AcDbLine
62
7
6
CONTINUOUS
10
96.4448119842
20
243.7074838102
11
96.6947843276
21
243.5078530729
0
LINE
5
324
100
AcDbEntity
8
0
100
AcDbLine
62
7
6
CONTINUOUS
10
96.9978934966
20
243.6828523099
11
96.7479211532
21
243.8824849546
0
LINE
5
325
100
AcDbEntity
8
0
100
AcDbLine
62
7
6
CONTINUOUS
10
98.8058807098
20
244.9846597135
11
99.0558530532
21
244.7850289762
0
LINE
5
326
100
AcDbEntity
8
0
100
AcDbLine
62
7
6
CONTINUOUS
10
98.0772954665
20
245.0799413144
11
97.7900888168
21
245.3440633237
0
LINE
5
327
100
AcDbEntity
8
0
100
AcDbLine
62
7
6
CONTINUOUS
10
99.6538306915
20
247.3659673154
11
99.4916106902
21
247.5302739560
0
LINE
5
328
100
AcDbEntity
8
0
100
AcDbLine
62
7
6
CONTINUOUS
10
103.3048068725
20
246.2922902524
11
103.6292473518
21
245.9636769712
0
LINE
5
329
100
AcDbEntity
8
0
100
AcDbLine
62
7
6
CONTINUOUS
10
102.7090627395
20
247.3241506040
11
102.9085170470
21
247.0953526914
0
LINE
5
32A
100
AcDbEntity
8
0
100
AcDbLine
62
7
6
CONTINUOUS
10
109.4588219367
20
250.1845117032
11
109.2838218652
21
250.4823842466
0
LINE
5
32B
100
AcDbEntity
8
0
100
AcDbLine
62
7
6
CONTINUOUS
10
110.5671552264
20
247.9504685819
11
110.4504885517
21
248.1738725125
0
LINE
5
32C
100
AcDbEntity
8
0
100
AcDbLine
62
7
6
CONTINUOUS
10
114.8838218890
20
249.9611077726
11
114.7671550952
21
250.2589784085
0
LINE
5
32D
100
AcDbEntity
8
0
100
AcDbLine
62
7
6
CONTINUOUS
10
83.9406682693
20
229.1898355901
11
83.6470357620
21
229.1515212476
0
LINE
5
32E
100
AcDbEntity
8
0
100
AcDbLine
62
7
6
CONTINUOUS
10
84.7807409011
20
231.1689210355
11
84.4871083938
21
231.1306062162
0
LINE
5
32F
100
AcDbEntity
8
0
100
AcDbLine
62
7
6
CONTINUOUS
10
85.9364625655
20
230.4610743940
11
86.1518022262
21
230.4783034742
0
LINE
5
330
100
AcDbEntity
8
0
100
AcDbLine
62
7
6
CONTINUOUS
10
86.1876641952
20
234.1567063749
11
88.6351339065
21
233.8782697141
0
LINE
5
331
100
AcDbEntity
8
0
100
AcDbLine
62
7
6
CONTINUOUS
10
88.4195024215
20
234.1870723188
11
85.6587182723
21
234.5441852033
0
LINE
5
332
100
AcDbEntity
8
0
100
AcDbLine
62
7
6
CONTINUOUS
10
96.6947843276
20
243.5078530729
11
96.9952747070
21
243.3373876035
0
LINE
5
333
100
AcDbEntity
8
0
100
AcDbLine
62
7
6
CONTINUOUS
10
97.7900888168
20
245.3440633237
11
97.4895974838
21
245.5145287931
0
LINE
5
334
100
AcDbEntity
8
0
100
AcDbLine
62
7
6
CONTINUOUS
10
97.4869796478
20
245.1690640866
11
97.6997176849
21
245.0339227140
0
LINE
5
335
100
AcDbEntity
8
0
100
AcDbLine
62
7
6
CONTINUOUS
10
99.3217279159
20
245.0245194852
11
98.8962508880
21
245.2948003232
0
LINE
5
336
100
AcDbEntity
8
0
100
AcDbLine
62
7
6
CONTINUOUS
10
99.4916106902
20
247.5302739560
11
99.2416383468
21
247.7299066007
0
LINE
5
337
100
AcDbEntity
8
0
100
AcDbLine
62
7
6
CONTINUOUS
10
102.9085170470
20
247.0953526914
11
103.0335027419
21
246.9955373227
0
LINE
5
338
100
AcDbEntity
8
0
100
AcDbLine
62
7
6
CONTINUOUS
10
103.7196180068
20
246.2738175809
11
103.5573975288
21
246.4381242215
0
LINE
5
339
100
AcDbEntity
8
0
100
AcDbLine
62
7
6
CONTINUOUS
10
103.0866390907
20
247.3701692044
11
102.9244186126
21
247.5344758451
0
LINE
5
33A
100
AcDbEntity
8
0
100
AcDbLine
62
7
6
CONTINUOUS
10
110.2171552025
20
247.8015332639
11
110.4504885517
21
247.5036607206
0
LINE
5
33B
100
AcDbEntity
8
0
100
AcDbLine
62
7
6
CONTINUOUS
10
108.9921552383
20
250.3334470212
11
109.1088219129
21
250.1845117032
0
LINE
5
33C
100
AcDbEntity
8
0
100
AcDbLine
62
7
6
CONTINUOUS
10
114.4171551906
20
250.1100430906
11
114.5338219844
21
249.8866391599
0
LINE
5
33D
100
AcDbEntity
8
0
100
AcDbLine
62
7
6
CONTINUOUS
10
86.2115804397
20
229.3122516095
11
85.9767038070
21
229.2489967763
0
LINE
5
33E
100
AcDbEntity
8
0
100
AcDbLine
62
7
6
CONTINUOUS
10
83.6668645583
20
228.8715143621
11
83.8234483444
21
228.9136844098
0
LINE
5
33F
100
AcDbEntity
8
0
100
AcDbLine
62
7
6
CONTINUOUS
10
84.8604928695
20
229.5598459661
11
85.1736604415
21
229.6441860616
0
LINE
5
340
100
AcDbEntity
8
0
100
AcDbLine
62
7
6
CONTINUOUS
10
85.9361707412
20
230.7871060788
11
85.6230012618
21
230.7027669370
0
LINE
5
341
100
AcDbEntity
8
0
100
AcDbLine
62
7
6
CONTINUOUS
10
84.5656930648
20
230.8256593167
11
84.7222768508
21
230.8678298413
0
LINE
5
342
100
AcDbEntity
8
0
100
AcDbLine
62
7
6
CONTINUOUS
10
99.0558530532
20
244.7850289762
11
99.3191100799
21
244.6790547788
0
LINE
5
343
100
AcDbEntity
8
0
100
AcDbLine
62
7
6
CONTINUOUS
10
101.2466546737
20
246.8237824857
11
102.4486171447
21
246.1419225156
0
LINE
5
344
100
AcDbEntity
8
0
100
AcDbLine
62
7
6
CONTINUOUS
10
98.9757634841
20
247.4904141843
11
99.4012395583
21
247.2201333463
0
LINE
5
345
100
AcDbEntity
8
0
100
AcDbLine
62
7
6
CONTINUOUS
10
103.9323565208
20
246.1386762082
11
103.7196180068
21
246.2738175809
0
LINE
5
346
100
AcDbEntity
8
0
100
AcDbLine
62
7
6
CONTINUOUS
10
103.2116257392
20
247.2703519284
11
103.0866390907
21
247.3701692044
0
LINE
5
347
100
AcDbEntity
8
0
100
AcDbLine
62
7
6
CONTINUOUS
10
103.5517756187
20
249.0145287931
11
103.4267894470
21
249.1143441617
0
LINE
5
348
100
AcDbEntity
8
0
100
AcDbLine
62
7
6
CONTINUOUS
10
143.3977333173
20
220.3795222212
11
134.7460625957
21
199.4925414278
0
LINE
5
349
100
AcDbEntity
8
0
100
AcDbLine
62
7
6
CONTINUOUS
10
96.9952747070
20
243.3373876035
11
97.3595678054
21
243.2897477567
0
LINE
5
34A
100
AcDbEntity
8
0
100
AcDbLine
62
7
6
CONTINUOUS
10
97.2239162170
20
243.6413693845
11
96.9978934966
21
243.6828523099
0
LINE
5
34B
100
AcDbEntity
8
0
100
AcDbLine
62
7
6
CONTINUOUS
10
103.6292473518
20
245.9636769712
11
103.8925039016
21
245.8577027738
0
LINE
5
34C
100
AcDbEntity
8
0
100
AcDbLine
62
7
6
CONTINUOUS
10
99.2416383468
20
247.7299066007
11
98.9783813201
21
247.8358807981
0
LINE
5
34D
100
AcDbEntity
8
0
100
AcDbLine
62
7
6
CONTINUOUS
10
103.0335027419
20
246.9955373227
11
103.2967592918
21
246.8895631253
0
LINE
5
34E
100
AcDbEntity
8
0
100
AcDbLine
62
7
6
CONTINUOUS
10
102.7517253600
20
246.3169217527
11
101.2865068160
21
247.1047559201
0
LINE
5
34F
100
AcDbEntity
8
0
100
AcDbLine
62
7
6
CONTINUOUS
10
103.5252076827
20
248.8272118985
11
103.7379457198
21
248.6920724332
0
LINE
5
350
100
AcDbEntity
8
0
100
AcDbLine
62
7
6
CONTINUOUS
10
110.7421552085
20
247.8015332639
11
110.5671552264
21
247.9504685819
0
LINE
5
351
100
AcDbEntity
8
0
100
AcDbLine
62
7
6
CONTINUOUS
10
109.2838218652
20
250.4823842466
11
109.0504885160
21
250.7057881772
0
LINE
5
352
100
AcDbEntity
8
0
100
AcDbLine
62
7
6
CONTINUOUS
10
114.7671550952
20
250.2589784085
11
114.5338219844
21
250.5568509519
0
LINE
5
353
100
AcDbEntity
8
0
100
AcDbLine
62
7
6
CONTINUOUS
10
99.3191100799
20
244.6790547788
11
99.6834022247
21
244.6314130246
0
LINE
5
354
100
AcDbEntity
8
0
100
AcDbLine
62
7
6
CONTINUOUS
10
97.4895974838
20
245.5145287931
11
97.1253053390
21
245.5621686399
0
LINE
5
355
100
AcDbEntity
8
0
100
AcDbLine
62
7
6
CONTINUOUS
10
97.2609569274
20
245.2105451047
11
97.4869796478
21
245.1690640866
0
LINE
5
356
100
AcDbEntity
8
0
100
AcDbLine
62
7
6
CONTINUOUS
10
99.5477506362
20
244.9830365598
11
99.3217279159
21
245.0245194852
0
LINE
5
357
100
AcDbEntity
8
0
100
AcDbLine
62
7
6
CONTINUOUS
10
103.8925039016
20
245.8577027738
11
104.1185266219
21
245.8162198484
0
LINE
5
358
100
AcDbEntity
8
0
100
AcDbLine
62
7
6
CONTINUOUS
10
98.7497407638
20
247.5318971097
11
98.9757634841
21
247.4904141843
0
LINE
5
359
100
AcDbEntity
8
0
100
AcDbLine
62
7
6
CONTINUOUS
10
103.2967592918
20
246.8895631253
11
103.5227820121
21
246.8480801999
0
LINE
5
35A
100
AcDbEntity
8
0
100
AcDbLine
62
7
6
CONTINUOUS
10
103.4267894470
20
249.1143441617
11
103.2512852393
21
249.1849942624
0
LINE
5
35B
100
AcDbEntity
8
0
100
AcDbLine
62
7
6
CONTINUOUS
10
110.4504885517
20
247.5036607206
11
110.6838218712
21
247.3547234952
0
LINE
5
35C
100
AcDbEntity
8
0
100
AcDbLine
62
7
6
CONTINUOUS
10
114.2421552383
20
250.2589784085
11
114.4171551906
21
250.1100430906
0
LINE
5
35D
100
AcDbEntity
8
0
100
AcDbLine
62
7
6
CONTINUOUS
10
118.0188218795
20
172.4102559507
11
117.0188218795
21
171.4102559507
0
LINE
5
35E
100
AcDbEntity
8
0
100
AcDbLine
62
7
6
CONTINUOUS
10
99.8375751220
20
245.0643792569
11
99.5477506362
21
244.9830365598
0
LINE
5
35F
100
AcDbEntity
8
0
100
AcDbLine
62
7
6
CONTINUOUS
10
97.1253053390
20
245.5621686399
11
96.8354798995
21
245.4808259427
0
LINE
5
360
100
AcDbEntity
8
0
100
AcDbLine
62
7
6
CONTINUOUS
10
97.3595678054
20
243.2897477567
11
97.6493922912
21
243.3710885465
0
LINE
5
361
100
AcDbEntity
8
0
100
AcDbLine
62
7
6
CONTINUOUS
10
114.0088218890
20
247.2802567899
11
114.3004886352
21
247.3547234952
0
LINE
5
362
100
AcDbEntity
8
0
100
AcDbLine
62
7
6
CONTINUOUS
10
111.2088218771
20
247.2802567899
11
111.5004885339
21
247.3547234952
0
LINE
5
363
100
AcDbEntity
8
0
100
AcDbLine
62
7
6
CONTINUOUS
10
97.4632226669
20
243.6935449063
11
97.2239162170
21
243.6413693845
0
LINE
5
364
100
AcDbEntity
8
0
100
AcDbLine
62
7
6
CONTINUOUS
10
104.1185266219
20
245.8162198484
11
104.3578330718
21
245.8683953702
0
LINE
5
365
100
AcDbEntity
8
0
100
AcDbLine
62
7
6
CONTINUOUS
10
97.0216504775
20
245.1583714902
11
97.2609569274
21
245.2105451047
0
LINE
5
366
100
AcDbEntity
8
0
100
AcDbLine
62
7
6
CONTINUOUS
10
103.5227820121
20
246.8480801999
11
103.7620884620
21
246.9002557218
0
LINE
5
367
100
AcDbEntity
8
0
100
AcDbLine
62
7
6
CONTINUOUS
10
103.6769549094
20
247.2810464322
11
103.4376479827
21
247.2288709104
0
LINE
5
368
100
AcDbEntity
8
0
100
AcDbLine
62
7
6
CONTINUOUS
10
107.3588217937
20
247.2802567899
11
107.7088219367
21
247.2802567899
0
LINE
5
369
100
AcDbEntity
8
0
100
AcDbLine
62
7
6
CONTINUOUS
10
109.1671551906
20
247.2802567899
11
109.5754884921
21
247.2802567899
0
LINE
5
36A
100
AcDbEntity
8
0
100
AcDbLine
62
7
6
CONTINUOUS
10
110.9754885465
20
247.2802567899
11
111.2088218771
21
247.2802567899
0
LINE
5
36B
100
AcDbEntity
8
0
100
AcDbLine
62
7
6
CONTINUOUS
10
112.6088219129
20
247.2802567899
11
114.0088218890
21
247.2802567899
0
LINE
5
36C
100
AcDbEntity
8
0
100
AcDbLine
62
7
6
CONTINUOUS
10
114.0088218890
20
247.7270646512
11
112.9588219367
21
247.7270646512
0
LINE
5
36D
100
AcDbEntity
8
0
100
AcDbLine
62
7
6
CONTINUOUS
10
111.2088218771
20
247.7270646512
11
110.9754885465
21
247.7270646512
0
LINE
5
36E
100
AcDbEntity
8
0
100
AcDbLine
62
7
6
CONTINUOUS
10
104.2088972770
20
246.1263604581
11
103.9323565208
21
246.1386762082
0
LINE
5
36F
100
AcDbEntity
8
0
100
AcDbLine
62
7
6
CONTINUOUS
10
98.9783813201
20
247.8358807981
11
98.6140882217
21
247.8835206449
0
LINE
5
370
100
AcDbEntity
8
0
100
AcDbLine
62
7
6
CONTINUOUS
10
103.4376479827
20
247.2288709104
11
103.2116257392
21
247.2703519284
0
LINE
5
371
100
AcDbEntity
8
0
100
AcDbLine
62
7
6
CONTINUOUS
10
103.2991849624
20
248.8686948239
11
103.5252076827
21
248.8272118985
0
LINE
5
372
100
AcDbEntity
8
0
100
AcDbLine
62
7
6
CONTINUOUS
10
110.6838218712
20
247.3547234952
11
110.9754885465
21
247.2802567899
0
LINE
5
373
100
AcDbEntity
8
0
100
AcDbLine
62
7
6
CONTINUOUS
10
110.9754885465
20
247.7270646512
11
110.7421552085
21
247.8015332639
0
LINE
5
374
100
AcDbEntity
8
0
100
AcDbLine
62
7
6
CONTINUOUS
10
108.8171552860
20
250.4079156339
11
108.9921552383
21
250.3334470212
0
LINE
5
375
100
AcDbEntity
8
0
100
AcDbLine
62
7
6
CONTINUOUS
10
114.5338219844
20
250.5568509519
11
114.3004886352
21
250.7057881772
0
LINE
5
376
100
AcDbEntity
8
0
100
AcDbLine
62
7
6
CONTINUOUS
10
134.9965619249
20
243.7232115955
11
143.3977333173
21
223.4409896801
0
LINE
5
377
100
AcDbEntity
8
0
100
AcDbLine
62
7
6
CONTINUOUS
10
98.4599162780
20
247.4505544126
11
98.7497407638
21
247.5318971097
0
LINE
5
378
100
AcDbEntity
8
0
100
AcDbLine
62
7
6
CONTINUOUS
10
103.0598785125
20
248.8165193021
11
103.2991849624
21
248.8686948239
0
LINE
5
379
100
AcDbEntity
8
0
100
AcDbLine
62
7
6
CONTINUOUS
10
103.1130148612
20
249.1911511838
11
102.8737079345
21
249.1389756620
0
LINE
5
37A
100
AcDbEntity
8
0
100
AcDbLine
62
7
6
CONTINUOUS
10
107.7088219367
20
248.8440862119
11
108.7004884921
21
248.8440862119
0
LINE
5
37B
100
AcDbEntity
8
0
100
AcDbLine
62
7
6
CONTINUOUS
10
108.8171552860
20
249.2908940732
11
107.7088219367
21
249.2908940732
0
LINE
5
37C
100
AcDbEntity
8
0
100
AcDbLine
62
7
6
CONTINUOUS
10
112.9588219367
20
250.3334470212
11
114.0088218890
21
250.3334470212
0
LINE
5
37D
100
AcDbEntity
8
0
100
AcDbLine
62
7
6
CONTINUOUS
10
107.7088219367
20
250.4079156339
11
108.8171552860
21
250.4079156339
0
LINE
5
37E
100
AcDbEntity
8
0
100
AcDbLine
62
7
6
CONTINUOUS
10
114.0088218890
20
250.7802567899
11
112.6088219129
21
250.7802567899
0
LINE
5
37F
100
AcDbEntity
8
0
100
AcDbLine
62
7
6
CONTINUOUS
10
112.1421552144
20
250.7802567899
11
111.7921551906
21
250.7802567899
0
LINE
5
380
100
AcDbEntity
8
0
100
AcDbLine
62
7
6
CONTINUOUS
10
110.3921552144
20
250.7802567899
11
110.0421551906
21
250.7802567899
0
LINE
5
381
100
AcDbEntity
8
0
100
AcDbLine
62
7
6
CONTINUOUS
10
108.7588218890
20
250.7802567899
11
107.3588217937
21
250.7802567899
0
LINE
5
382
100
AcDbEntity
8
0
100
AcDbLine
62
7
6
CONTINUOUS
10
103.2512852393
20
249.1849942624
11
103.1130148612
21
249.1911511838
0
LINE
5
383
100
AcDbEntity
8
0
100
AcDbLine
62
7
6
CONTINUOUS
10
109.0504885160
20
250.7057881772
11
108.7588218890
21
250.7802567899
0
LINE
5
384
100
AcDbEntity
8
0
100
AcDbLine
62
7
6
CONTINUOUS
10
114.3004886352
20
250.7057881772
11
114.0088218890
21
250.7802567899
0
LINE
5
385
100
AcDbEntity
8
0
100
AcDbLine
62
7
6
CONTINUOUS
10
114.0088218890
20
250.3334470212
11
114.2421552383
21
250.2589784085
0
LINE
5
386
100
AcDbEntity
8
0
100
AcDbLine
62
7
6
CONTINUOUS
10
112.5495556090
20
254.2891673885
11
132.8317775243
21
245.8879959961
0
LINE
5
387
100
AcDbEntity
8
0
100
AcDbLine
62
7
6
CONTINUOUS
10
289.3771300857
20
171.4102559507
11
301.3771300857
21
171.4102559507
0
LINE
5
388
100
AcDbEntity
8
0
100
AcDbLine
62
7
6
CONTINUOUS
10
288.3771300857
20
172.4102559507
11
302.3771300857
21
172.4102559507
0
LINE
5
389
100
AcDbEntity
8
0
100
AcDbLine
62
7
6
CONTINUOUS
10
288.3771300857
20
172.4102559507
11
289.3771300857
21
171.4102559507
0
LINE
5
38A
100
AcDbEntity
8
0
100
AcDbLine
62
7
6
CONTINUOUS
10
288.3771300857
20
186.4102559507
11
302.3771300857
21
186.4102559507
0
LINE
5
38B
100
AcDbEntity
8
0
100
AcDbLine
62
7
6
CONTINUOUS
10
289.8771300857
20
187.9102559507
11
300.8771300857
21
187.9102559507
0
LINE
5
38C
100
AcDbEntity
8
0
100
AcDbLine
62
7
6
CONTINUOUS
10
277.8774359614
20
192.4102559507
11
312.8768242101
21
192.4102559507
0
LINE
5
38D
100
AcDbEntity
8
0
100
AcDbLine
62
7
6
CONTINUOUS
10
277.8771300857
20
192.4102559507
11
277.8771300857
21
199.4471909289
0
LINE
5
38E
100
AcDbEntity
8
0
100
AcDbLine
62
7
6
CONTINUOUS
10
302.7431204455
20
198.5665665764
11
298.0437551157
21
198.5665665764
0
LINE
5
38F
100
AcDbEntity
8
0
100
AcDbLine
62
7
6
CONTINUOUS
10
292.7105050558
20
198.5665665764
11
288.0111397259
21
198.5665665764
0
LINE
5
390
100
AcDbEntity
8
0
100
AcDbLine
62
7
6
CONTINUOUS
10
300.8771300857
20
187.9102559507
11
302.3771300857
21
186.4102559507
0
LINE
5
391
100
AcDbEntity
8
0
100
AcDbLine
62
7
6
CONTINUOUS
10
288.3771300857
20
253.0936492492
11
288.3771300857
21
222.5516530215
0
LINE
5
392
100
AcDbEntity
8
0
100
AcDbLine
62
7
6
CONTINUOUS
10
288.3771300857
20
186.4102559507
11
288.3771300857
21
172.4102559507
0
LINE
5
393
100
AcDbEntity
8
0
100
AcDbLine
62
7
6
CONTINUOUS
10
288.3223781672
20
221.2712000612
11
286.2902996401
21
197.5530951012
0
LINE
5
394
100
AcDbEntity
8
0
100
AcDbLine
62
7
6
CONTINUOUS
10
280.4078266906
20
202.4102559507
11
286.1641772347
21
203.3219723099
0
LINE
5
395
100
AcDbEntity
8
0
100
AcDbLine
62
7
6
CONTINUOUS
10
310.3464334809
20
202.4102559507
11
304.5930825343
21
203.3214972203
0
LINE
5
396
100
AcDbEntity
8
0
100
AcDbLine
62
7
6
CONTINUOUS
10
289.8771300857
20
192.4102559507
11
289.8771300857
21
187.9102559507
0
LINE
5
397
100
AcDbEntity
8
DEFAULT_1
100
AcDbLine
62
2
6
CENTER
10
295.3771300857
20
168.4102559507
11
295.3771300857
21
258.7812854711
0
LINE
5
398
100
AcDbEntity
8
0
100
AcDbLine
62
7
6
CONTINUOUS
10
300.8771300857
20
192.4102559507
11
300.8771300857
21
187.9102559507
0
LINE
5
399
100
AcDbEntity
8
0
100
AcDbLine
62
7
6
CONTINUOUS
10
304.4639605313
20
197.5530951016
11
302.4318820043
21
221.2712000612
0
LINE
5
39A
100
AcDbEntity
8
0
100
AcDbLine
62
7
6
CONTINUOUS
10
302.3771300857
20
186.4102559507
11
302.3771300857
21
172.4102559507
0
LINE
5
39B
100
AcDbEntity
8
0
100
AcDbLine
62
7
6
CONTINUOUS
10
302.3771300857
20
222.5516530215
11
302.3771300857
21
253.0936492493
0
LINE
5
39C
100
AcDbEntity
8
0
100
AcDbLine
62
7
6
CONTINUOUS
10
302.6771300857
20
250.7802567899
11
302.6771300857
21
241.9419217527
0
LINE
5
39D
100
AcDbEntity
8
0
100
AcDbLine
62
7
6
CONTINUOUS
10
302.6771300857
20
239.0086331784
11
302.6771300857
21
237.2766652524
0
LINE
5
39E
100
AcDbEntity
8
0
100
AcDbLine
62
7
6
CONTINUOUS
10
302.6771300857
20
237.2596745908
11
302.6771300857
21
232.9577651441
0
LINE
5
39F
100
AcDbEntity
8
0
100
AcDbLine
62
7
6
CONTINUOUS
10
302.6771300857
20
231.1689210355
11
302.6771300857
21
226.5602560460
0
LINE
5
3A0
100
AcDbEntity
8
0
100
AcDbLine
62
7
6
CONTINUOUS
10
289.8771300857
20
187.9102559507
11
288.3771300857
21
186.4102559507
0
LINE
5
3A1
100
AcDbEntity
8
0
100
AcDbLine
62
7
6
CONTINUOUS
10
302.3771300857
20
226.5602560460
11
302.6771300857
21
226.5602560460
0
LINE
5
3A2
100
AcDbEntity
8
0
100
AcDbLine
62
7
6
CONTINUOUS
10
302.3771300857
20
227.7324495732
11
302.6771300857
21
227.7324495732
0
LINE
5
3A3
100
AcDbEntity
8
0
100
AcDbLine
62
7
6
CONTINUOUS
10
312.8771300857
20
192.4102559507
11
312.8771300857
21
199.4471909289
0
LINE
5
3A4
100
AcDbEntity
8
0
100
AcDbLine
62
7
6
CONTINUOUS
10
302.3771300857
20
228.8370552480
11
302.6771300857
21
228.8370552480
0
LINE
5
3A5
100
AcDbEntity
8
0
100
AcDbLine
62
7
6
CONTINUOUS
10
302.3771300857
20
229.0422411382
11
302.6771300857
21
229.0422411382
0
LINE
5
3A6
100
AcDbEntity
8
0
100
AcDbLine
62
7
6
CONTINUOUS
10
302.3771300857
20
229.1515212476
11
302.6771300857
21
229.1515212476
0
LINE
5
3A7
100
AcDbEntity
8
0
100
AcDbLine
62
7
6
CONTINUOUS
10
302.3771300857
20
229.1898355901
11
302.6771300857
21
229.1898355901
0
LINE
5
3A8
100
AcDbEntity
8
0
100
AcDbLine
62
7
6
CONTINUOUS
10
302.3771300857
20
229.2777924955
11
302.6771300857
21
229.2777924955
0
LINE
5
3A9
100
AcDbEntity
8
0
100
AcDbLine
62
7
6
CONTINUOUS
10
302.3771300857
20
229.3122516095
11
302.6771300857
21
229.3122516095
0
LINE
5
3AA
100
AcDbEntity
8
0
100
AcDbLine
62
7
6
CONTINUOUS
10
302.3771300857
20
229.4714122235
11
302.6771300857
21
229.4714122235
0
LINE
5
3AB
100
AcDbEntity
8
0
100
AcDbLine
62
7
6
CONTINUOUS
10
302.3771300857
20
229.5598459661
11
302.6771300857
21
229.5598459661
0
LINE
5
3AC
100
AcDbEntity
8
0
100
AcDbLine
62
7
6
CONTINUOUS
10
302.3771300857
20
229.6135821759
11
302.6771300857
21
229.6135821759
0
LINE
5
3AD
100
AcDbEntity
8
0
100
AcDbLine
62
7
6
CONTINUOUS
10
302.3771300857
20
229.7133431852
11
302.6771300857
21
229.7133431852
0
LINE
5
3AE
100
AcDbEntity
8
0
100
AcDbLine
62
7
6
CONTINUOUS
10
302.3771300857
20
229.8591294706
11
302.6771300857
21
229.8591294706
0
LINE
5
3AF
100
AcDbEntity
8
0
100
AcDbLine
62
7
6
CONTINUOUS
10
302.3771300857
20
230.1429915845
11
302.6771300857
21
230.1429915845
0
LINE
5
3B0
100
AcDbEntity
8
0
100
AcDbLine
62
7
6
CONTINUOUS
10
302.3771300857
20
230.3769727170
11
302.6771300857
21
230.3769727170
0
LINE
5
3B1
100
AcDbEntity
8
0
100
AcDbLine
62
7
6
CONTINUOUS
10
302.3771300857
20
230.5860143125
11
302.6771300857
21
230.5860143125
0
LINE
5
3B2
100
AcDbEntity
8
0
100
AcDbLine
62
7
6
CONTINUOUS
10
302.3771300857
20
230.8161406934
11
302.6771300857
21
230.8161406934
0
LINE
5
3B3
100
AcDbEntity
8
0
100
AcDbLine
62
7
6
CONTINUOUS
10
302.3771300857
20
231.0213265836
11
302.6771300857
21
231.0213265836
0
LINE
5
3B4
100
AcDbEntity
8
0
100
AcDbLine
62
7
6
CONTINUOUS
10
302.3771300857
20
231.1306062162
11
302.6771300857
21
231.1306062162
0
LINE
5
3B5
100
AcDbEntity
8
0
100
AcDbLine
62
7
6
CONTINUOUS
10
302.3771300857
20
231.1689210355
11
302.6771300857
21
231.1689210355
0
LINE
5
3B6
100
AcDbEntity
8
0
100
AcDbLine
62
7
6
CONTINUOUS
10
302.3771300857
20
232.9577651441
11
302.6771300857
21
232.9577651441
0
LINE
5
3B7
100
AcDbEntity
8
0
100
AcDbLine
62
7
6
CONTINUOUS
10
302.3771300857
20
234.1299577176
11
302.6771300857
21
234.1299577176
0
LINE
5
3B8
100
AcDbEntity
8
0
100
AcDbLine
62
7
6
CONTINUOUS
10
302.3771300857
20
234.5441852033
11
302.6771300857
21
234.5441852033
0
LINE
5
3B9
100
AcDbEntity
8
0
100
AcDbLine
62
7
6
CONTINUOUS
10
302.3771300857
20
235.9249425351
11
302.6771300857
21
235.9249425351
0
LINE
5
3BA
100
AcDbEntity
8
0
100
AcDbLine
62
7
6
CONTINUOUS
10
302.3771300857
20
236.3391700208
11
302.6771300857
21
236.3391700208
0
LINE
5
3BB
100
AcDbEntity
8
0
100
AcDbLine
62
7
6
CONTINUOUS
10
302.3771300857
20
236.5327897489
11
302.6771300857
21
236.5327897489
0
LINE
5
3BC
100
AcDbEntity
8
0
100
AcDbLine
62
7
6
CONTINUOUS
10
302.3771300857
20
236.9835229337
11
302.6771300857
21
236.9835229337
0
LINE
5
3BD
100
AcDbEntity
8
0
100
AcDbLine
62
7
6
CONTINUOUS
10
302.3771300857
20
237.2596745908
11
302.6771300857
21
237.2596745908
0
LINE
5
3BE
100
AcDbEntity
8
0
100
AcDbLine
62
7
6
CONTINUOUS
10
302.3771300857
20
238.7324815213
11
302.6771300857
21
238.7324815213
0
LINE
5
3BF
100
AcDbEntity
8
0
100
AcDbLine
62
7
6
CONTINUOUS
10
302.3771300857
20
239.0086331784
11
302.6771300857
21
239.0086331784
0
LINE
5
3C0
100
AcDbEntity
8
0
100
AcDbLine
62
7
6
CONTINUOUS
10
302.3771300857
20
241.9419217527
11
302.6771300857
21
241.9419217527
0
LINE
5
3C1
100
AcDbEntity
8
0
100
AcDbLine
62
7
6
CONTINUOUS
10
302.3771300857
20
244.3588891446
11
302.6771300857
21
244.3588891446
0
LINE
5
3C2
100
AcDbEntity
8
0
100
AcDbLine
62
7
6
CONTINUOUS
10
302.3771300857
20
244.6813455045
11
302.6771300857
21
244.6813455045
0
LINE
5
3C3
100
AcDbEntity
8
0
100
AcDbLine
62
7
6
CONTINUOUS
10
302.3771300857
20
245.7313447416
11
302.6771300857
21
245.7313447416
0
LINE
5
3C4
100
AcDbEntity
8
0
100
AcDbLine
62
7
6
CONTINUOUS
10
302.3771300857
20
245.9646783292
11
302.6771300857
21
245.9646783292
0
LINE
5
3C5
100
AcDbEntity
8
0
100
AcDbLine
62
7
6
CONTINUOUS
10
302.3771300857
20
172.4102559507
11
301.3771300857
21
171.4102559507
0
LINE
5
3C6
100
AcDbEntity
8
0
100
AcDbLine
62
7
6
CONTINUOUS
10
302.3771300857
20
246.9563451230
11
302.6771300857
21
246.9563451230
0
LINE
5
3C7
100
AcDbEntity
8
0
100
AcDbLine
62
7
6
CONTINUOUS
10
302.3771300857
20
247.1942124784
11
302.6771300857
21
247.1942124784
0
LINE
5
3C8
100
AcDbEntity
8
0
100
AcDbLine
62
7
6
CONTINUOUS
10
302.3771300857
20
247.5335202634
11
302.6771300857
21
247.5335202634
0
LINE
5
3C9
100
AcDbEntity
8
0
100
AcDbLine
62
7
6
CONTINUOUS
10
302.3771300857
20
247.7730107724
11
302.6771300857
21
247.7730107724
0
LINE
5
3CA
100
AcDbEntity
8
0
100
AcDbLine
62
7
6
CONTINUOUS
10
302.3771300857
20
247.8835206449
11
302.6771300857
21
247.8835206449
0
LINE
5
3CB
100
AcDbEntity
8
0
100
AcDbLine
62
7
6
CONTINUOUS
10
302.3771300857
20
248.5313439786
11
302.6771300857
21
248.5313439786
0
LINE
5
3CC
100
AcDbEntity
8
0
100
AcDbLine
62
7
6
CONTINUOUS
10
302.3771116615
20
248.6771779447
11
302.6771300857
21
248.6771779477
0
LINE
5
3CD
100
AcDbEntity
8
0
100
AcDbLine
62
7
6
CONTINUOUS
10
302.3771300857
20
248.7828183591
11
302.6771300857
21
248.7828183591
0
LINE
5
3CE
100
AcDbEntity
8
0
100
AcDbLine
62
7
6
CONTINUOUS
10
302.3771300857
20
248.9639764249
11
302.6771300857
21
248.9639764249
0
LINE
5
3CF
100
AcDbEntity
8
0
100
AcDbLine
62
7
6
CONTINUOUS
10
302.3771300857
20
249.1389756620
11
302.6771300857
21
249.1389756620
0
LINE
5
3D0
100
AcDbEntity
8
0
100
AcDbLine
62
7
6
CONTINUOUS
10
302.3771300857
20
249.1911511838
11
302.6771300857
21
249.1911511838
0
LINE
5
3D1
100
AcDbEntity
8
0
100
AcDbLine
62
7
6
CONTINUOUS
10
302.3771300857
20
249.4014764249
11
302.6771300857
21
249.4014764249
0
LINE
5
3D2
100
AcDbEntity
8
0
100
AcDbLine
62
7
6
CONTINUOUS
10
302.3771300857
20
249.5473084867
11
302.6771300857
21
249.5473084867
0
LINE
5
3D3
100
AcDbEntity
8
0
100
AcDbLine
62
7
6
CONTINUOUS
10
302.3771300857
20
250.7802567899
11
302.6771300857
21
250.7802567899
0
LINE
5
3D4
100
AcDbEntity
8
0
100
AcDbLine
62
7
6
CONTINUOUS
10
300.8771300857
20
254.5936492584
11
289.8771300857
21
254.5936492584
0
LINE
5
3D5
100
AcDbEntity
8
0
100
AcDbLine
62
7
6
CONTINUOUS
10
78.3354285718
20
107.1004069619
11
78.3354285718
21
118.1265110457
0
LINE
5
3D6
100
AcDbEntity
8
0
100
AcDbLine
62
7
6
CONTINUOUS
10
82.7673074447
20
105.6134590036
11
82.7673074447
21
105.3134590036
0
LINE
5
3D7
100
AcDbEntity
8
0
100
AcDbLine
62
7
6
CONTINUOUS
10
83.2361852371
20
105.6134590036
11
83.2361852371
21
105.3134590036
0
LINE
5
3D8
100
AcDbEntity
8
0
100
AcDbLine
62
7
6
CONTINUOUS
10
83.3926221572
20
105.6134590036
11
83.3926221572
21
105.3134590036
0
LINE
5
3D9
100
AcDbEntity
8
0
100
AcDbLine
62
7
6
CONTINUOUS
10
83.6470357620
20
105.6134590036
11
83.6470357620
21
105.3134590036
0
LINE
5
3DA
100
AcDbEntity
8
0
100
AcDbLine
62
7
6
CONTINUOUS
10
83.9406682693
20
105.6134590036
11
83.9406682693
21
105.3134590036
0
LINE
5
3DB
100
AcDbEntity
8
0
100
AcDbLine
62
7
6
CONTINUOUS
10
83.9591829025
20
105.6134590036
11
83.9591829025
21
105.3134590036
0
LINE
5
3DC
100
AcDbEntity
8
0
100
AcDbLine
62
7
6
CONTINUOUS
10
83.9785730087
20
105.6134590036
11
83.9785730087
21
105.3134590036
0
LINE
5
3DD
100
AcDbEntity
8
0
100
AcDbLine
62
7
6
CONTINUOUS
10
84.0762559615
20
105.6134590036
11
84.0762559615
21
105.3134590036
0
LINE
5
3DE
100
AcDbEntity
8
0
100
AcDbLine
62
7
6
CONTINUOUS
10
84.2326947891
20
105.6134590036
11
84.2326947891
21
105.3134590036
0
LINE
5
3DF
100
AcDbEntity
8
0
100
AcDbLine
62
7
6
CONTINUOUS
10
84.4871083938
20
105.6134590036
11
84.4871083938
21
105.3134590036
0
LINE
5
3E0
100
AcDbEntity
8
0
100
AcDbLine
62
7
6
CONTINUOUS
10
84.7807409011
20
105.6134590036
11
84.7807409011
21
105.3134590036
0
LINE
5
3E1
100
AcDbEntity
8
0
100
AcDbLine
62
7
6
CONTINUOUS
10
84.9765435897
20
105.6134590036
11
84.9765435897
21
105.3134590036
0
LINE
5
3E2
100
AcDbEntity
8
0
100
AcDbLine
62
7
6
CONTINUOUS
10
85.0363218032
20
105.6134590036
11
85.0363218032
21
105.3134590036
0
LINE
5
3E3
100
AcDbEntity
8
0
100
AcDbLine
62
7
6
CONTINUOUS
10
85.1536866866
20
105.6134590036
11
85.1536866866
21
105.3134590036
0
LINE
5
3E4
100
AcDbEntity
8
0
100
AcDbLine
62
7
6
CONTINUOUS
10
85.2709066116
20
105.6134590036
11
85.2709066116
21
105.3134590036
0
LINE
5
3E5
100
AcDbEntity
8
0
100
AcDbLine
62
7
6
CONTINUOUS
10
85.4273435317
20
105.6134590036
11
85.4273435317
21
105.3134590036
0
LINE
5
3E6
100
AcDbEntity
8
0
100
AcDbLine
62
7
6
CONTINUOUS
10
85.4828893386
20
105.6134590036
11
85.4828893386
21
105.3134590036
0
LINE
5
3E7
100
AcDbEntity
8
0
100
AcDbLine
62
7
6
CONTINUOUS
10
85.6587182723
20
105.6134590036
11
85.6587182723
21
105.3134590036
0
LINE
5
3E8
100
AcDbEntity
8
0
100
AcDbLine
62
7
6
CONTINUOUS
10
86.2448140823
20
105.6134590036
11
86.2448140823
21
105.3134590036
0
LINE
5
3E9
100
AcDbEntity
8
0
100
AcDbLine
62
7
6
CONTINUOUS
10
86.4206430160
20
105.6134590036
11
86.4206430160
21
105.3134590036
0
LINE
5
3EA
100
AcDbEntity
8
0
100
AcDbLine
62
7
6
CONTINUOUS
10
86.6941549026
20
105.6134590036
11
86.6941549026
21
105.3134590036
0
LINE
5
3EB
100
AcDbEntity
8
0
100
AcDbLine
62
7
6
CONTINUOUS
10
86.8113748275
20
105.6134590036
11
86.8113748275
21
105.3134590036
0
LINE
5
3EC
100
AcDbEntity
8
0
100
AcDbLine
62
7
6
CONTINUOUS
10
87.4365445815
20
105.6134590036
11
87.4365445815
21
105.3134590036
0
LINE
5
3ED
100
AcDbEntity
8
0
100
AcDbLine
62
7
6
CONTINUOUS
10
87.5537645065
20
105.6134590036
11
87.5537645065
21
105.3134590036
0
LINE
5
3EE
100
AcDbEntity
8
0
100
AcDbLine
62
7
6
CONTINUOUS
10
89.1401654922
20
105.6134590036
11
89.1401654922
21
105.3134590036
0
LINE
5
3EF
100
AcDbEntity
8
0
100
AcDbLine
62
7
6
CONTINUOUS
10
89.3355313979
20
105.6134590036
11
89.3355313979
21
105.3134590036
0
LINE
5
3F0
100
AcDbEntity
8
0
100
AcDbLine
62
7
6
CONTINUOUS
10
89.6880647384
20
105.6134590036
11
89.6880647384
21
105.3134590036
0
LINE
5
3F1
100
AcDbEntity
8
0
100
AcDbLine
62
7
6
CONTINUOUS
10
90.3152772628
20
105.6134590036
11
90.3152772628
21
105.3134590036
0
LINE
5
3F2
100
AcDbEntity
8
0
100
AcDbLine
62
7
6
CONTINUOUS
10
92.9188214980
20
105.6134590036
11
92.9188214980
21
105.3134590036
0
LINE
5
3F3
100
AcDbEntity
8
0
100
AcDbLine
62
7
6
CONTINUOUS
10
94.7374746047
20
105.6134590036
11
94.7374746047
21
105.3134590036
0
LINE
5
3F4
100
AcDbEntity
8
0
100
AcDbLine
62
7
6
CONTINUOUS
10
94.9236451827
20
105.6134590036
11
94.9236451827
21
105.3134590036
0
LINE
5
3F5
100
AcDbEntity
8
0
100
AcDbLine
62
7
6
CONTINUOUS
10
95.1416207992
20
105.6134590036
11
95.1416207992
21
105.3134590036
0
LINE
5
3F6
100
AcDbEntity
8
0
100
AcDbLine
62
7
6
CONTINUOUS
10
142.4668669118
20
105.6035481216
11
142.4661913352
21
105.6033687767
0
LINE
5
3F7
100
AcDbEntity
8
0
100
AcDbLine
62
7
6
CONTINUOUS
10
79.5707840213
20
105.6035475377
11
79.5722618023
21
105.6031557007
0
LINE
5
3F8
100
AcDbEntity
8
0
100
AcDbLine
62
7
6
CONTINUOUS
10
96.8592378341
20
105.6134590036
11
96.8592378341
21
105.3134590036
0
LINE
5
3F9
100
AcDbEntity
8
0
100
AcDbLine
62
7
6
CONTINUOUS
10
97.0454074584
20
105.6134590036
11
97.0454074584
21
105.3134590036
0
LINE
5
3FA
100
AcDbEntity
8
0
100
AcDbLine
62
7
6
CONTINUOUS
10
97.1253053390
20
105.6134590036
11
97.1253053390
21
105.3134590036
0
LINE
5
3FB
100
AcDbEntity
8
0
100
AcDbLine
62
7
6
CONTINUOUS
10
97.4895974838
20
105.6134590036
11
97.4895974838
21
105.3134590036
0
LINE
5
3FC
100
AcDbEntity
8
0
100
AcDbLine
62
7
6
CONTINUOUS
10
97.7900888168
20
105.6134590036
11
97.7900888168
21
105.3134590036
0
LINE
5
3FD
100
AcDbEntity
8
0
100
AcDbLine
62
7
6
CONTINUOUS
10
97.8271295272
20
105.6134590036
11
97.8271295272
21
105.3134590036
0
LINE
5
3FE
100
AcDbEntity
8
0
100
AcDbLine
62
7
6
CONTINUOUS
10
97.8669826232
20
105.6134590036
11
97.8669826232
21
105.3134590036
0
LINE
5
3FF
100
AcDbEntity
8
0
100
AcDbLine
62
7
6
CONTINUOUS
10
98.0078708373
20
105.6134590036
11
98.0078708373
21
105.3134590036
0
LINE
5
400
100
AcDbEntity
8
0
100
AcDbLine
62
7
6
CONTINUOUS
10
98.2737457000
20
105.6134590036
11
98.2737457000
21
105.3134590036
0
LINE
5
401
100
AcDbEntity
8
0
100
AcDbLine
62
7
6
CONTINUOUS
10
98.6140882217
20
105.6134590036
11
98.6140882217
21
105.3134590036
0
LINE
5
402
100
AcDbEntity
8
0
100
AcDbLine
62
7
6
CONTINUOUS
10
98.9783813201
20
105.6134590036
11
98.9783813201
21
105.3134590036
0
LINE
5
403
100
AcDbEntity
8
0
100
AcDbLine
62
7
6
CONTINUOUS
10
142.3157438760
20
105.5680801622
11
133.6640731544
21
103.7785617653
0
LINE
5
404
100
AcDbEntity
8
0
100
AcDbLine
62
7
6
CONTINUOUS
10
88.3735706046
20
103.7785617653
11
79.7218998832
21
105.5680801621
0
LINE
5
405
100
AcDbEntity
8
0
100
AcDbLine
62
7
6
CONTINUOUS
10
99.2416383468
20
105.6134590036
11
99.2416383468
21
105.3134590036
0
LINE
5
406
100
AcDbEntity
8
0
100
AcDbLine
62
7
6
CONTINUOUS
10
99.4916106902
20
105.6134590036
11
99.4916106902
21
105.3134590036
0
LINE
5
407
100
AcDbEntity
8
0
100
AcDbLine
62
7
6
CONTINUOUS
10
99.5872174941
20
105.6134590036
11
99.5872174941
21
105.3134590036
0
LINE
5
408
100
AcDbEntity
8
0
100
AcDbLine
62
7
6
CONTINUOUS
10
99.8398086220
20
105.6134774278
11
99.8398086272
21
105.3134590036
0
LINE
5
409
100
AcDbEntity
8
0
100
AcDbLine
62
7
6
CONTINUOUS
10
100.9568292342
20
105.6134590036
11
100.9568292342
21
105.3134590036
0
LINE
5
40A
100
AcDbEntity
8
0
100
AcDbLine
62
7
6
CONTINUOUS
10
101.0550548278
20
105.6134590036
11
101.0550548278
21
105.3134590036
0
LINE
5
40B
100
AcDbEntity
8
0
100
AcDbLine
62
7
6
CONTINUOUS
10
101.3581639968
20
105.6134590036
11
101.3581639968
21
105.3134590036
0
LINE
5
40C
100
AcDbEntity
8
0
100
AcDbLine
62
7
6
CONTINUOUS
10
102.2888223373
20
105.6134590036
11
102.2888223373
21
105.3134590036
0
LINE
5
40D
100
AcDbEntity
8
0
100
AcDbLine
62
7
6
CONTINUOUS
10
102.3286744796
20
105.6134590036
11
102.3286744796
21
105.3134590036
0
LINE
5
40E
100
AcDbEntity
8
0
100
AcDbLine
62
7
6
CONTINUOUS
10
102.4057609283
20
105.6134590036
11
102.4057609283
21
105.3134590036
0
LINE
5
40F
100
AcDbEntity
8
0
100
AcDbLine
62
7
6
CONTINUOUS
10
102.5705997192
20
105.6134590036
11
102.5705997192
21
105.3134590036
0
LINE
5
410
100
AcDbEntity
8
0
100
AcDbLine
62
7
6
CONTINUOUS
10
102.8737079345
20
105.6134590036
11
102.8737079345
21
105.3134590036
0
LINE
5
411
100
AcDbEntity
8
0
100
AcDbLine
62
7
6
CONTINUOUS
10
103.1130148612
20
105.6134590036
11
103.1130148612
21
105.3134590036
0
LINE
5
412
100
AcDbEntity
8
0
100
AcDbLine
62
7
6
CONTINUOUS
10
103.2512852393
20
105.6134590036
11
103.2512852393
21
105.3134590036
0
LINE
5
413
100
AcDbEntity
8
0
100
AcDbLine
62
7
6
CONTINUOUS
10
103.3283716880
20
105.6134590036
11
103.3283716880
21
105.3134590036
0
LINE
5
414
100
AcDbEntity
8
0
100
AcDbLine
62
7
6
CONTINUOUS
10
103.5809623443
20
105.6134590036
11
103.5809623443
21
105.3134590036
0
LINE
5
415
100
AcDbEntity
8
0
100
AcDbLine
62
7
6
CONTINUOUS
10
133.3602432969
20
103.7474686438
11
132.2789296998
21
103.7474686438
0
LINE
5
416
100
AcDbEntity
8
0
100
AcDbLine
62
7
6
CONTINUOUS
10
89.7587140242
20
103.7474686438
11
88.6774004621
21
103.7474686438
0
LINE
5
417
100
AcDbEntity
8
0
100
AcDbLine
62
7
6
CONTINUOUS
10
114.9421552860
20
105.3134590036
11
112.6088219129
21
105.3134590036
0
LINE
5
418
100
AcDbEntity
8
0
100
AcDbLine
62
7
6
CONTINUOUS
10
112.1421552144
20
105.3134590036
11
110.0421551906
21
105.3134590036
0
LINE
5
419
100
AcDbEntity
8
0
100
AcDbLine
62
7
6
CONTINUOUS
10
109.5754884921
20
105.3134590036
11
107.3588217937
21
105.3134590036
0
LINE
5
41A
100
AcDbEntity
8
0
100
AcDbLine
62
7
6
CONTINUOUS
10
105.0171872817
20
105.3134590036
11
92.9188214980
21
105.3134590036
0
LINE
5
41B
100
AcDbEntity
8
0
100
AcDbLine
62
7
6
CONTINUOUS
10
90.3152772628
20
105.3134590036
11
82.7673074447
21
105.3134590036
0
LINE
5
41C
100
AcDbEntity
8
0
100
AcDbLine
62
7
6
CONTINUOUS
10
104.8469196998
20
105.6134590036
11
104.8469196998
21
105.3134590036
0
LINE
5
41D
100
AcDbEntity
8
0
100
AcDbLine
62
7
6
CONTINUOUS
10
105.0065218650
20
105.6134590036
11
105.0065218650
21
105.3134590036
0
LINE
5
41E
100
AcDbEntity
8
0
100
AcDbLine
62
7
6
CONTINUOUS
10
105.0171872817
20
105.6134590036
11
105.0171872817
21
105.3134590036
0
LINE
5
41F
100
AcDbEntity
8
0
100
AcDbLine
62
7
6
CONTINUOUS
10
79.9191070291
20
105.6134590036
11
142.1185367299
21
105.6134590036
0
LINE
5
420
100
AcDbEntity
8
0
100
AcDbLine
62
7
6
CONTINUOUS
10
107.3588217937
20
105.6134590036
11
107.3588217937
21
105.3134590036
0
LINE
5
421
100
AcDbEntity
8
0
100
AcDbLine
62
7
6
CONTINUOUS
10
108.7588218890
20
105.6134590036
11
108.7588218890
21
105.3134590036
0
LINE
5
422
100
AcDbEntity
8
0
100
AcDbLine
62
7
6
CONTINUOUS
10
109.0504885160
20
105.6134590036
11
109.0504885160
21
105.3134590036
0
LINE
5
423
100
AcDbEntity
8
0
100
AcDbLine
62
7
6
CONTINUOUS
10
109.2838218652
20
105.6134590036
11
109.2838218652
21
105.3134590036
0
LINE
5
424
100
AcDbEntity
8
0
100
AcDbLine
62
7
6
CONTINUOUS
10
109.4588219367
20
105.6134590036
11
109.4588219367
21
105.3134590036
0
LINE
5
425
100
AcDbEntity
8
0
100
AcDbLine
62
7
6
CONTINUOUS
10
109.5171552144
20
105.6134590036
11
109.5171552144
21
105.3134590036
0
LINE
5
426
100
AcDbEntity
8
0
100
AcDbLine
62
7
6
CONTINUOUS
10
109.5754884921
20
105.6134590036
11
109.5754884921
21
105.3134590036
0
LINE
5
427
100
AcDbEntity
8
0
100
AcDbLine
62
7
6
CONTINUOUS
10
110.0421551906
20
105.6134590036
11
110.0421551906
21
105.3134590036
0
LINE
5
428
100
AcDbEntity
8
0
100
AcDbLine
62
7
6
CONTINUOUS
10
110.3921552144
20
105.6134590036
11
110.3921552144
21
105.3134590036
0
LINE
5
429
100
AcDbEntity
8
0
100
AcDbLine
62
7
6
CONTINUOUS
10
110.4504885517
20
105.6134590036
11
110.4504885517
21
105.3134590036
0
LINE
5
42A
100
AcDbEntity
8
0
100
AcDbLine
62
7
6
CONTINUOUS
10
110.5671552264
20
105.6134590036
11
110.5671552264
21
105.3134590036
0
LINE
5
42B
100
AcDbEntity
8
0
100
AcDbLine
62
7
6
CONTINUOUS
10
110.7421552085
20
105.6134590036
11
110.7421552085
21
105.3134590036
0
LINE
5
42C
100
AcDbEntity
8
0
100
AcDbLine
62
7
6
CONTINUOUS
10
110.9754885465
20
105.6134590036
11
110.9754885465
21
105.3134590036
0
LINE
5
42D
100
AcDbEntity
8
DEFAULT_1
100
AcDbLine
62
2
6
CENTER
10
111.0188218795
20
112.6134590036
11
111.0188218795
21
92.1134590036
0
LINE
5
42E
100
AcDbEntity
8
DEFAULT_1
100
AcDbLine
62
2
6
CENTER
10
111.0188218795
20
112.6134590036
11
111.0188218795
21
133.1134590036
0
LINE
5
42F
100
AcDbEntity
8
0
100
AcDbLine
62
7
6
CONTINUOUS
10
111.2088218771
20
105.6134590036
11
111.2088218771
21
105.3134590036
0
LINE
5
430
100
AcDbEntity
8
DEFAULT_1
100
AcDbLine
62
2
6
CENTER
10
111.0188218795
20
112.6134590036
11
90.5188218795
21
112.6134590036
0
LINE
5
431
100
AcDbEntity
8
DEFAULT_1
100
AcDbLine
62
2
6
CENTER
10
111.0188218795
20
112.6134590036
11
131.5188218795
21
112.6134590036
0
LINE
5
432
100
AcDbEntity
8
0
100
AcDbLine
62
7
6
CONTINUOUS
10
111.4421552264
20
105.6134590036
11
111.4421552264
21
105.3134590036
0
LINE
5
433
100
AcDbEntity
8
0
100
AcDbLine
62
7
6
CONTINUOUS
10
111.6171552383
20
105.6134590036
11
111.6171552383
21
105.3134590036
0
LINE
5
434
100
AcDbEntity
8
0
100
AcDbLine
62
7
6
CONTINUOUS
10
111.7338218533
20
105.6134590036
11
111.7338218533
21
105.3134590036
0
LINE
5
435
100
AcDbEntity
8
0
100
AcDbLine
62
7
6
CONTINUOUS
10
111.7921551906
20
105.6134590036
11
111.7921551906
21
105.3134590036
0
LINE
5
436
100
AcDbEntity
8
0
100
AcDbLine
62
7
6
CONTINUOUS
10
112.1421552144
20
105.6134590036
11
112.1421552144
21
105.3134590036
0
LINE
5
437
100
AcDbEntity
8
0
100
AcDbLine
62
7
6
CONTINUOUS
10
112.6088219129
20
105.6134590036
11
112.6088219129
21
105.3134590036
0
LINE
5
438
100
AcDbEntity
8
0
100
AcDbLine
62
7
6
CONTINUOUS
10
114.0088218890
20
105.6134590036
11
114.0088218890
21
105.3134590036
0
LINE
5
439
100
AcDbEntity
8
0
100
AcDbLine
62
7
6
CONTINUOUS
10
114.3004886352
20
105.6134590036
11
114.3004886352
21
105.3134590036
0
LINE
5
43A
100
AcDbEntity
8
0
100
AcDbLine
62
7
6
CONTINUOUS
10
114.5338219844
20
105.6134590036
11
114.5338219844
21
105.3134590036
0
LINE
5
43B
100
AcDbEntity
8
0
100
AcDbLine
62
7
6
CONTINUOUS
10
114.7671550952
20
105.6134590036
11
114.7671550952
21
105.3134590036
0
LINE
5
43C
100
AcDbEntity
8
0
100
AcDbLine
62
7
6
CONTINUOUS
10
114.8838218890
20
105.6134590036
11
114.8838218890
21
105.3134590036
0
LINE
5
43D
100
AcDbEntity
8
0
100
AcDbLine
62
7
6
CONTINUOUS
10
114.9421552860
20
105.6134590036
11
114.9421552860
21
105.3134590036
0
LINE
5
43E
100
AcDbEntity
8
0
100
AcDbLine
62
7
6
CONTINUOUS
10
142.1185367299
20
119.6134590036
11
79.9191070291
21
119.6134590036
0
LINE
5
43F
100
AcDbEntity
8
0
100
AcDbLine
62
7
6
CONTINUOUS
10
88.6774004621
20
121.4794493633
11
89.7587140592
21
121.4794493633
0
LINE
5
440
100
AcDbEntity
8
0
100
AcDbLine
62
7
6
CONTINUOUS
10
132.2789297348
20
121.4794493633
11
133.3602432969
21
121.4794493633
0
LINE
5
441
100
AcDbEntity
8
0
100
AcDbLine
62
7
6
CONTINUOUS
10
79.5707767702
20
119.6233698666
11
79.5714524221
21
119.6235492315
0
LINE
5
442
100
AcDbEntity
8
0
100
AcDbLine
62
7
6
CONTINUOUS
10
79.7218998830
20
119.6588378449
11
88.3735706046
21
121.4483562418
0
LINE
5
443
100
AcDbEntity
8
0
100
AcDbLine
62
7
6
CONTINUOUS
10
133.6640731544
20
121.4483562418
11
142.3157438758
21
119.6588378450
0
LINE
5
444
100
AcDbEntity
8
0
100
AcDbLine
62
7
6
CONTINUOUS
10
142.4668597335
20
119.6233707223
11
142.4654078201
21
119.6237557141
0
LINE
5
445
100
AcDbEntity
8
0
100
AcDbLine
62
7
6
CONTINUOUS
10
143.7022151873
20
107.1004069378
11
143.7022151873
21
118.1265103762
0
ARC
5
446
100
AcDbEntity
8
0
100
AcDbCircle
62
7
6
CONTINUOUS
10
88.6781525451
20
200.0647508873
40
1.5000000000
100
AcDbArc
50
202.5000000000
51
268.0789722427
0
ARC
5
447
100
AcDbEntity
8
0
100
AcDbCircle
62
7
6
CONTINUOUS
10
133.3594912139
20
200.0647508873
40
1.5000000000
100
AcDbArc
50
271.4047110510
51
337.5000000000
0
ARC
5
448
100
AcDbEntity
8
0
100
AcDbCircle
62
7
6
CONTINUOUS
10
88.5188218795
20
193.5665665764
40
5.0000000000
100
AcDbArc
50
0.0000000000
51
88.7506915331
0
ARC
5
449
100
AcDbEntity
8
0
100
AcDbCircle
62
7
6
CONTINUOUS
10
133.5188218795
20
193.5665665764
40
5.0000000000
100
AcDbArc
50
91.2493084669
51
180.0000000000
0
CIRCLE
5
44A
100
AcDbEntity
8
0
100
AcDbCircle
62
7
6
CONTINUOUS
10
111.0188218795
20
221.9102559507
40
17.5000000000
0
ARC
5
44B
100
AcDbEntity
8
0
100
AcDbCircle
62
7
6
CONTINUOUS
10
131.3010437949
20
242.1924778660
40
4.0000000000
100
AcDbArc
50
22.5000000000
51
67.5000000000
0
ARC
5
44C
100
AcDbEntity
8
0
100
AcDbCircle
62
7
6
CONTINUOUS
10
111.0188218795
20
250.5936492584
40
4.0000000000
100
AcDbArc
50
67.5000000000
51
112.5000000000
0
ARC
5
44D
100
AcDbEntity
8
0
100
AcDbCircle
62
7
6
CONTINUOUS
10
90.7365999642
20
242.1924778660
40
4.0000000000
100
AcDbArc
50
112.5000000000
51
157.5000000000
0
ARC
5
44E
100
AcDbEntity
8
0
100
AcDbCircle
62
7
6
CONTINUOUS
10
82.3354285718
20
221.9102559507
40
4.0000000000
100
AcDbArc
50
157.5000000000
51
202.5000000000
0
ARC
5
44F
100
AcDbEntity
8
0
100
AcDbCircle
62
7
6
CONTINUOUS
10
139.7022151873
20
221.9102559507
40
4.0000000000
100
AcDbArc
50
337.5000000000
51
22.5000000000
0
ARC
5
450
100
AcDbEntity
8
0
100
AcDbCircle
62
7
6
CONTINUOUS
10
88.6773619590
20
200.0666595312
40
1.5000000000
100
AcDbArc
50
202.5038431565
51
270.0014706212
0
ARC
5
451
100
AcDbEntity
8
0
100
AcDbCircle
62
7
6
CONTINUOUS
10
133.3602432969
20
200.0665665764
40
1.5000000000
100
AcDbArc
50
270.0000000000
51
337.5000000000
0
ARC
5
452
100
AcDbEntity
8
DEFAULT_2
100
AcDbCircle
62
8
6
HIDDEN
10
295.3771300857
20
246.4102559507
40
7.0000000000
100
AcDbArc
50
180.0000000000
51
360.0000000000
0
ARC
5
453
100
AcDbEntity
8
0
100
AcDbCircle
62
7
6
CONTINUOUS
10
289.8771300857
20
253.0936492584
40
1.5000000000
100
AcDbArc
50
90.0000000000
51
180.0000000000
0
ARC
5
454
100
AcDbEntity
8
0
100
AcDbCircle
62
7
6
CONTINUOUS
10
300.8771300857
20
253.0936492584
40
1.5000000000
100
AcDbArc
50
0.0000000000
51
90.0000000000
0
ARC
5
455
100
AcDbEntity
8
0
100
AcDbCircle
62
7
6
CONTINUOUS
10
280.8771300857
20
199.4471909289
40
3.0000000000
100
AcDbArc
50
99.0000000000
51
180.0000000000
0
ARC
5
456
100
AcDbEntity
8
0
100
AcDbCircle
62
7
6
CONTINUOUS
10
309.8771300857
20
199.4471909289
40
3.0000000000
100
AcDbArc
50
0.0000000000
51
81.0000000000
0
ARC
5
457
100
AcDbEntity
8
0
100
AcDbCircle
62
7
6
CONTINUOUS
10
317.3771300857
20
222.5516530215
40
15.0000000000
100
AcDbArc
50
180.0000000000
51
184.8969296235
0
ARC
5
458
100
AcDbEntity
8
0
100
AcDbCircle
62
7
6
CONTINUOUS
10
273.3771300857
20
222.5516530215
40
15.0000000000
100
AcDbArc
50
355.1030703765
51
360.0000000000
0
ARC
5
459
100
AcDbEntity
8
0
100
AcDbCircle
62
7
6
CONTINUOUS
10
288.0111397259
20
200.0665665764
40
1.5000000000
100
AcDbArc
50
175.1030703765
51
270.0000000000
0
ARC
5
45A
100
AcDbEntity
8
0
100
AcDbCircle
62
7
6
CONTINUOUS
10
302.7431204455
20
200.0665665764
40
1.5000000000
100
AcDbArc
50
270.0000000000
51
4.8969296235
0
ARC
5
45B
100
AcDbEntity
8
0
100
AcDbCircle
62
7
6
CONTINUOUS
10
111.0188218795
20
112.6134590036
40
17.5000000000
100
AcDbArc
50
212.4565766901
51
327.5434233099
0
ARC
5
45C
100
AcDbEntity
8
0
100
AcDbCircle
62
7
6
CONTINUOUS
10
111.0188218795
20
112.6134590036
40
17.5000000000
100
AcDbArc
50
32.4565766901
51
147.5434233099
0
SPLINE
5
45D
100
AcDbEntity
8
0
100
AcDbSpline
62
7
6
CONTINUOUS
70
0
71
3
72
8
73
4
74
2
42
0.0000001000
43
0.0000001000
44
0.0000000001
40
0.0000000000
40
0.0000000000
40
0.0000000000
40
0.0000000000
40
1.0000000000
40
1.0000000000
40
1.0000000000
40
1.0000000000
10
133.3923065423
20
198.5653780419
30
0.0000000000
10
133.3923065423
20
198.5653780427
30
0.0000000000
10
133.3870561924
20
198.5656697938
30
0.0000000000
10
133.3804580221
20
198.5659641994
30
0.0000000000
11
133.3923065423
21
198.5653780419
31
0.0000000000
11
133.3804580221
21
198.5659641994
31
0.0000000000
0
SPLINE
5
45E
100
AcDbEntity
8
0
100
AcDbSpline
62
7
6
CONTINUOUS
70
0
71
3
72
9
73
5
74
3
42
0.0000001000
43
0.0000001000
44
0.0000000001
40
0.0000000000
40
0.0000000000
40
0.0000000000
40
0.0000000000
40
0.6685848052
40
1.0000000000
40
1.0000000000
40
1.0000000000
40
1.0000000000
10
133.3602440811
20
198.5665665764
30
0.0000000000
10
133.3709389056
20
198.5665653906
30
0.0000000000
10
133.4028984054
20
198.5647894748
30
0.0000000000
10
133.3870561926
20
198.5656697938
30
0.0000000000
10
133.3804580221
20
198.5659641994
30
0.0000000000
11
133.3602440811
21
198.5665665764
31
0.0000000000
11
133.3923065423
21
198.5653780419
31
0.0000000000
11
133.3804580221
21
198.5659641994
31
0.0000000000
0
SPLINE
5
45F
100
AcDbEntity
8
0
100
AcDbSpline
62
7
6
CONTINUOUS
70
0
71
3
72
8
73
4
74
2
42
0.0000001000
43
0.0000001000
44
0.0000000001
40
0.0000000000
40
0.0000000000
40
0.0000000000
40
0.0000000000
40
1.0000000000
40
1.0000000000
40
1.0000000000
40
1.0000000000
10
88.6773996734
20
198.5665665764
30
0.0000000000
10
88.6667048473
20
198.5665653902
30
0.0000000000
10
88.6453372169
20
198.5653780402
30
0.0000000000
10
88.6453372167
20
198.5653780419
30
0.0000000000
11
88.6773996734
21
198.5665665764
31
0.0000000000
11
88.6453372167
21
198.5653780419
31
0.0000000000
0
SPLINE
5
460
100
AcDbEntity
8
0
100
AcDbSpline
62
7
6
CONTINUOUS
70
0
71
3
72
8
73
4
74
2
42
0.0000001000
43
0.0000001000
44
0.0000000001
40
0.0000000000
40
0.0000000000
40
0.0000000000
40
0.0000000000
40
1.0000000000
40
1.0000000000
40
1.0000000000
40
1.0000000000
10
286.7182231941
20
203.6043866150
30
0.0000000000
10
286.6880634545
20
203.5740951622
30
0.0000000000
10
286.6558646377
20
203.5456871242
30
0.0000000000
10
286.6219586873
20
203.5194255862
30
0.0000000000
11
286.7182231941
21
203.6043866150
31
0.0000000000
11
286.6219586873
21
203.5194255862
31
0.0000000000
0
SPLINE
5
461
100
AcDbEntity
8
0
100
AcDbSpline
62
7
6
CONTINUOUS
70
0
71
3
72
10
73
6
74
4
42
0.0000001000
43
0.0000001000
44
0.0000000001
40
0.0000000000
40
0.0000000000
40
0.0000000000
40
0.0000000000
40
0.2565613315
40
0.7722522587
40
1.0000000000
40
1.0000000000
40
1.0000000000
40
1.0000000000
10
286.6219586873
20
203.5194255862
30
0.0000000000
10
286.5880133129
20
203.4931335127
30
0.0000000000
10
286.4806869386
20
203.4204701205
30
0.0000000000
10
286.3255416427
20
203.3547162384
30
0.0000000000
10
286.2036621660
20
203.3282560331
30
0.0000000000
10
286.1660068493
20
203.3222931373
30
0.0000000000
11
286.6219586873
21
203.5194255862
31
0.0000000000
11
286.5153223492
21
203.4472678532
31
0.0000000000
11
286.2777225704
21
203.3465722583
31
0.0000000000
11
286.1660068493
21
203.3222931373
31
0.0000000000
0
SPLINE
5
462
100
AcDbEntity
8
0
100
AcDbSpline
62
7
6
CONTINUOUS
70
0
71
3
72
9
73
5
74
3
42
0.0000001000
43
0.0000001000
44
0.0000000001
40
0.0000000000
40
0.0000000000
40
0.0000000000
40
0.0000000000
40
0.7301417611
40
1.0000000000
40
1.0000000000
40
1.0000000000
40
1.0000000000
10
286.7290234387
20
203.6155475499
30
0.0000000000
10
286.7283136444
20
203.6147628310
30
0.0000000000
10
286.7273162588
20
203.6137002260
30
0.0000000000
10
286.7260076754
20
203.6123366690
30
0.0000000000
10
286.7256582629
20
203.6119735427
30
0.0000000000
11
286.7290234387
21
203.6155475499
31
0.0000000000
11
286.7266912769
21
203.6130506868
31
0.0000000000
11
286.7256582629
21
203.6119735427
31
0.0000000000
0
SPLINE
5
463
100
AcDbEntity
8
0
100
AcDbSpline
62
7
6
CONTINUOUS
70
0
71
3
72
9
73
5
74
3
42
0.0000001000
43
0.0000001000
44
0.0000000001
40
0.0000000000
40
0.0000000000
40
0.0000000000
40
0.0000000000
40
0.7868749084
40
1.0000000000
40
1.0000000000
40
1.0000000000
40
1.0000000000
10
286.7256582629
20
203.6119735427
30
0.0000000000
10
286.7246636702
20
203.6109399140
30
0.0000000000
10
286.7234379918
20
203.6096761725
30
0.0000000000
10
286.7232436787
20
203.6094724436
30
0.0000000000
10
286.7232440925
20
203.6094720374
30
0.0000000000
11
286.7256582629
21
203.6119735427
31
0.0000000000
11
286.7233733516
21
203.6096074313
31
0.0000000000
11
286.7232440925
21
203.6094720374
31
0.0000000000
0
SPLINE
5
464
100
AcDbEntity
8
0
100
AcDbSpline
62
7
6
CONTINUOUS
70
0
71
3
72
12
73
8
74
6
42
0.0000001000
43
0.0000001000
44
0.0000000001
40
0.0000000000
40
0.0000000000
40
0.0000000000
40
0.0000000000
40
0.1263646239
40
0.3846060418
40
0.6359984329
40
0.8804239739
40
1.0000000000
40
1.0000000000
40
1.0000000000
40
1.0000000000
10
286.8330012901
20
203.8874048194
30
0.0000000000
10
286.8327926141
20
203.8851133177
30
0.0000000000
10
286.8321169378
20
203.8781425629
30
0.0000000000
10
286.8307951973
20
203.8666364343
30
0.0000000000
10
286.8289057726
20
203.8530353852
30
0.0000000000
10
286.8271068938
20
203.8419742247
30
0.0000000000
10
286.8259308696
20
203.8354511604
30
0.0000000000
10
286.8255324298
20
203.8333105618
30
0.0000000000
11
286.8330012901
21
203.8874048194
31
0.0000000000
11
286.8323352747
21
203.8805341195
31
0.0000000000
11
286.8307250282
21
203.8665196356
31
0.0000000000
11
286.8288351052
21
203.8529177527
31
0.0000000000
11
286.8266914409
21
203.8397389766
31
0.0000000000
11
286.8255324298
21
203.8333105618
31
0.0000000000
0
SPLINE
5
465
100
AcDbEntity
8
0
100
AcDbSpline
62
7
6
CONTINUOUS
70
0
71
3
72
14
73
10
74
8
42
0.0000001000
43
0.0000001000
44
0.0000000001
40
0.0000000000
40
0.0000000000
40
0.0000000000
40
0.0000000000
40
0.0945571956
40
0.2794206041
40
0.4586340825
40
0.6322437731
40
0.8003238146
40
0.9629735302
40
1.0000000000
40
1.0000000000
40
1.0000000000
40
1.0000000000
10
286.8255324298
20
203.8333105618
30
0.0000000000
10
286.8251398613
20
203.8312015068
30
0.0000000000
10
286.8239450627
20
203.8249756268
30
0.0000000000
10
286.8218151027
20
203.8147900038
30
0.0000000000
10
286.8190590225
20
203.8029058825
30
0.0000000000
10
286.8161448031
20
203.7914521214
30
0.0000000000
10
286.8130933439
20
203.7804236547
30
0.0000000000
10
286.8107053228
20
203.7724287741
30
0.0000000000
10
286.8093550910
20
203.7681045016
30
0.0000000000
10
286.8091028680
20
203.7673032217
30
0.0000000000
11
286.8255324298
21
203.8333105618
31
0.0000000000
11
286.8243194304
21
203.8269901040
31
0.0000000000
11
286.8217436508
21
203.8146745032
31
0.0000000000
11
286.8189876292
21
203.8027924077
31
0.0000000000
11
286.8160736562
21
203.7913412179
31
0.0000000000
11
286.8130226402
21
203.7803158026
31
0.0000000000
11
286.8098540006
21
203.7697087948
31
0.0000000000
11
286.8091028680
21
203.7673032217
31
0.0000000000
0
SPLINE
5
466
100
AcDbEntity
8
0
100
AcDbSpline
62
7
6
CONTINUOUS
70
0
71
3
72
8
73
4
74
2
42
0.0000001000
43
0.0000001000
44
0.0000000001
40
0.0000000000
40
0.0000000000
40
0.0000000000
40
0.0000000000
40
1.0000000000
40
1.0000000000
40
1.0000000000
40
1.0000000000
10
286.8091028680
20
203.7673032217
30
0.0000000000
10
286.8088147294
20
203.7663878426
30
0.0000000000
10
286.8085241815
20
203.7654732219
30
0.0000000000
10
286.8082312219
20
203.7645593745
30
0.0000000000
11
286.8091028680
21
203.7673032217
31
0.0000000000
11
286.8082312219
21
203.7645593745
31
0.0000000000
0
SPLINE
5
467
100
AcDbEntity
8
0
100
AcDbSpline
62
7
6
CONTINUOUS
70
0
71
3
72
8
73
4
74
2
42
0.0000001000
43
0.0000001000
44
0.0000000001
40
0.0000000000
40
0.0000000000
40
0.0000000000
40
0.0000000000
40
1.0000000000
40
1.0000000000
40
1.0000000000
40
1.0000000000
10
286.8332735890
20
203.8905465071
30
0.0000000000
10
286.8296857635
20
203.8488739579
30
0.0000000000
10
286.8216262100
20
203.8071729625
30
0.0000000000
10
286.8089340276
20
203.7669984379
30
0.0000000000
11
286.8332735890
21
203.8905465071
31
0.0000000000
11
286.8089340276
21
203.7669984379
31
0.0000000000
0
SPLINE
5
468
100
AcDbEntity
8
0
100
AcDbSpline
62
7
6
CONTINUOUS
70
0
71
3
72
10
73
6
74
4
42
0.0000001000
43
0.0000001000
44
0.0000000001
40
0.0000000000
40
0.0000000000
40
0.0000000000
40
0.0000000000
40
0.5350409709
40
0.8990581482
40
1.0000000000
40
1.0000000000
40
1.0000000000
40
1.0000000000
10
286.8089340276
20
203.7669984379
30
0.0000000000
10
286.7987812671
20
203.7348619371
30
0.0000000000
10
286.7767399523
20
203.6825025333
30
0.0000000000
10
286.7426555687
20
203.6298316308
30
0.0000000000
10
286.7227569449
20
203.6087701377
30
0.0000000000
10
286.7182231941
20
203.6043866150
30
0.0000000000
11
286.8089340276
21
203.7669984379
31
0.0000000000
11
286.7695004676
21
203.6743150766
31
0.0000000000
11
286.7312059426
21
203.6180765523
31
0.0000000000
11
286.7182231941
21
203.6043866150
31
0.0000000000
0
SPLINE
5
469
100
AcDbEntity
8
0
100
AcDbSpline
62
7
6
CONTINUOUS
70
0
71
3
72
10
73
6
74
4
42
0.0000001000
43
0.0000001000
44
0.0000000001
40
0.0000000000
40
0.0000000000
40
0.0000000000
40
0.0000000000
40
0.0892641054
40
0.6968972310
40
1.0000000000
40
1.0000000000
40
1.0000000000
40
1.0000000000
10
304.5882603125
20
203.3222162226
30
0.0000000000
10
304.5738456298
20
203.3244975469
30
0.0000000000
10
304.4617025853
20
203.3447728109
30
0.0000000000
10
304.3063871455
20
203.4013790776
30
0.0000000000
10
304.1807464858
20
203.4826547236
30
0.0000000000
10
304.1411887741
20
203.5125924795
30
0.0000000000
11
304.5882603125
21
203.3222162226
31
0.0000000000
11
304.5451813482
21
203.3300061491
31
0.0000000000
11
304.2661268701
21
203.4318480243
31
0.0000000000
11
304.1411887741
21
203.5125924795
31
0.0000000000
0
SPLINE
5
46A
100
AcDbEntity
8
0
100
AcDbSpline
62
7
6
CONTINUOUS
70
0
71
3
72
8
73
4
74
2
42
0.0000001000
43
0.0000001000
44
0.0000000001
40
0.0000000000
40
0.0000000000
40
0.0000000000
40
0.0000000000
40
1.0000000000
40
1.0000000000
40
1.0000000000
40
1.0000000000
10
304.1411887741
20
203.5125924795
30
0.0000000000
10
304.1015719477
20
203.5425749740
30
0.0000000000
10
304.0642187322
20
203.5754544483
30
0.0000000000
10
304.0296370181
20
203.6108252989
30
0.0000000000
11
304.1411887741
21
203.5125924795
31
0.0000000000
11
304.0296370181
21
203.6108252989
31
0.0000000000
0
SPLINE
5
46B
100
AcDbEntity
8
0
100
AcDbSpline
62
7
6
CONTINUOUS
70
0
71
3
72
8
73
4
74
2
42
0.0000001000
43
0.0000001000
44
0.0000000001
40
0.0000000000
40
0.0000000000
40
0.0000000000
40
0.0000000000
40
1.0000000000
40
1.0000000000
40
1.0000000000
40
1.0000000000
10
304.0199837737
20
203.6217479076
30
0.0000000000
10
304.0126516839
20
203.6305109706
30
0.0000000000
10
304.0058727922
20
203.6397205798
30
0.0000000000
10
303.9995741809
20
203.6492757087
30
0.0000000000
11
304.0199837737
21
203.6217479076
31
0.0000000000
11
303.9995741809
21
203.6492757087
31
0.0000000000
0
SPLINE
5
46C
100
AcDbEntity
8
0
100
AcDbSpline
62
7
6
CONTINUOUS
70
0
71
3
72
8
73
4
74
2
42
0.0000001000
43
0.0000001000
44
0.0000000001
40
0.0000000000
40
0.0000000000
40
0.0000000000
40
0.0000000000
40
1.0000000000
40
1.0000000000
40
1.0000000000
40
1.0000000000
10
303.9970255400
20
203.6532013667
30
0.0000000000
10
303.9861970198
20
203.6701354658
30
0.0000000000
10
303.9768176569
20
203.6880917124
30
0.0000000000
10
303.9684930999
20
203.7065237374
30
0.0000000000
11
303.9970255400
21
203.6532013667
31
0.0000000000
11
303.9684930999
21
203.7065237374
31
0.0000000000
0
SPLINE
5
46D
100
AcDbEntity
8
0
100
AcDbSpline
62
7
6
CONTINUOUS
70
0
71
3
72
8
73
4
74
2
42
0.0000001000
43
0.0000001000
44
0.0000000001
40
0.0000000000
40
0.0000000000
40
0.0000000000
40
0.0000000000
40
1.0000000000
40
1.0000000000
40
1.0000000000
40
1.0000000000
10
303.9684930999
20
203.7065237374
30
0.0000000000
10
303.9639250174
20
203.7166382710
30
0.0000000000
10
303.9596737774
20
203.7268952519
30
0.0000000000
10
303.9557386229
20
203.7372717476
30
0.0000000000
11
303.9684930999
21
203.7065237374
31
0.0000000000
11
303.9557386229
21
203.7372717476
31
0.0000000000
0
SPLINE
5
46E
100
AcDbEntity
8
0
100
AcDbSpline
62
7
6
CONTINUOUS
70
0
71
3
72
10
73
6
74
4
42
0.0000001000
43
0.0000001000
44
0.0000000001
40
0.0000000000
40
0.0000000000
40
0.0000000000
40
0.0000000000
40
0.0525010406
40
0.3973392641
40
1.0000000000
40
1.0000000000
40
1.0000000000
40
1.0000000000
10
304.0296370181
20
203.6108252989
30
0.0000000000
10
304.0262244917
20
203.6144811846
30
0.0000000000
10
304.0012400090
20
203.6428540824
30
0.0000000000
10
303.9535274896
20
203.7264675030
30
0.0000000000
10
303.9295920945
20
203.8153137295
30
0.0000000000
10
303.9228493237
20
203.8724498292
30
0.0000000000
11
304.0296370181
21
203.6108252989
31
0.0000000000
11
304.0197272301
21
203.6220637676
31
0.0000000000
11
303.9686464883
21
203.7061846565
31
0.0000000000
11
303.9228493237
21
203.8724498292
31
0.0000000000
0
SPLINE
5
46F
100
AcDbEntity
8
0
100
AcDbSpline
62
7
6
CONTINUOUS
70
0
71
3
72
8
73
4
74
2
42
0.0000001000
43
0.0000001000
44
0.0000000001
40
0.0000000000
40
0.0000000000
40
0.0000000000
40
0.0000000000
40
1.0000000000
40
1.0000000000
40
1.0000000000
40
1.0000000000
10
303.9228493237
20
203.8724498292
30
0.0000000000
10
303.9221718346
20
203.8781906563
30
0.0000000000
10
303.9215799699
20
203.8839377938
30
0.0000000000
10
303.9210736033
20
203.8896879271
30
0.0000000000
11
303.9228493237
21
203.8724498292
31
0.0000000000
11
303.9210736033
21
203.8896879271
31
0.0000000000
0
SPLINE
5
470
100
AcDbEntity
8
0
100
AcDbSpline
62
7
6
CONTINUOUS
70
0
71
3
72
10
73
6
74
4
42
0.0000001000
43
0.0000001000
44
0.0000000001
40
0.0000000000
40
0.0000000000
40
0.0000000000
40
0.0000000000
40
0.3340338999
40
0.6659582453
40
1.0000000000
40
1.0000000000
40
1.0000000000
40
1.0000000000
10
298.0437414701
20
198.5665665764
30
0.0000000000
10
297.4499156396
20
198.5665647826
30
0.0000000000
10
296.2660148538
20
198.5649858023
30
0.0000000000
10
294.4882731677
20
198.5649857512
30
0.0000000000
10
293.3043584181
20
198.5665647928
30
0.0000000000
10
292.7105186238
20
198.5665665764
30
0.0000000000
11
298.0437414701
21
198.5665665764
31
0.0000000000
11
296.2622643752
21
198.5653780419
31
0.0000000000
11
294.4920376102
21
198.5653780139
31
0.0000000000
11
292.7105186238
21
198.5665665764
31
0.0000000000
0
SPLINE
5
471
100
AcDbEntity
8
0
100
AcDbSpline
62
7
6
CONTINUOUS
70
0
71
3
72
10
73
6
74
4
42
0.0000001000
43
0.0000001000
44
0.0000000001
40
0.0000000000
40
0.0000000000
40
0.0000000000
40
0.0000000000
40
0.0220858887
40
0.5110472898
40
1.0000000000
40
1.0000000000
40
1.0000000000
40
1.0000000000
10
126.4005010096
20
121.7278192264
30
0.0000000000
10
126.3961713709
20
121.7283093869
30
0.0000000000
10
126.2960675213
20
121.7403094469
30
0.0000000000
10
126.1042701331
20
121.7936123941
30
0.0000000000
10
125.9392705834
20
121.8969152271
30
0.0000000000
10
125.8657823351
20
121.9593866320
30
0.0000000000
11
126.4005010096
21
121.7278192264
31
0.0000000000
11
126.3875229078
21
121.7293750624
31
0.0000000000
11
126.1099090222
21
121.8064073670
31
0.0000000000
11
125.8657823351
21
121.9593866320
31
0.0000000000
0
SPLINE
5
472
100
AcDbEntity
8
0
100
AcDbSpline
62
7
6
CONTINUOUS
70
0
71
3
72
8
73
4
74
2
42
0.0000001000
43
0.0000001000
44
0.0000000001
40
0.0000000000
40
0.0000000000
40
0.0000000000
40
0.0000000000
40
1.0000000000
40
1.0000000000
40
1.0000000000
40
1.0000000000
10
125.8657823351
20
121.9593866320
30
0.0000000000
10
125.8290785983
20
121.9905880017
30
0.0000000000
10
125.7946226104
20
122.0244885400
30
0.0000000000
10
125.7627944213
20
122.0606339889
30
0.0000000000
11
125.8657823351
21
121.9593866320
31
0.0000000000
11
125.7627944213
21
122.0606339889
31
0.0000000000
0
SPLINE
5
473
100
AcDbEntity
8
0
100
AcDbSpline
62
7
6
CONTINUOUS
70
0
71
3
72
8
73
4
74
2
42
0.0000001000
43
0.0000001000
44
0.0000000001
40
0.0000000000
40
0.0000000000
40
0.0000000000
40
0.0000000000
40
1.0000000000
40
1.0000000000
40
1.0000000000
40
1.0000000000
10
125.7627944213
20
122.0606339889
30
0.0000000000
10
125.7310441262
20
122.0966909782
30
0.0000000000
10
125.7019087835
20
122.1349819035
30
0.0000000000
10
125.6757656596
20
122.1750558341
30
0.0000000000
11
125.7627944213
21
122.0606339889
31
0.0000000000
11
125.6757656596
21
122.1750558341
31
0.0000000000
0
SPLINE
5
474
100
AcDbEntity
8
0
100
AcDbSpline
62
7
6
CONTINUOUS
70
0
71
3
72
8
73
4
74
2
42
0.0000001000
43
0.0000001000
44
0.0000000001
40
0.0000000000
40
0.0000000000
40
0.0000000000
40
0.0000000000
40
1.0000000000
40
1.0000000000
40
1.0000000000
40
1.0000000000
10
96.3618780463
20
122.1750557825
30
0.0000000000
10
96.3095281129
20
122.0948103084
30
0.0000000000
10
96.2451801456
20
122.0217142375
30
0.0000000000
10
96.1718633040
20
121.9593882224
30
0.0000000000
11
96.3618780463
21
122.1750557825
31
0.0000000000
11
96.1718633040
21
121.9593882224
31
0.0000000000
0
SPLINE
5
475
100
AcDbEntity
8
0
100
AcDbSpline
62
7
6
CONTINUOUS
70
0
71
3
72
10
73
6
74
4
42
0.0000001000
43
0.0000001000
44
0.0000000001
40
0.0000000000
40
0.0000000000
40
0.0000000000
40
0.0000000000
40
0.4889528224
40
0.9779140018
40
1.0000000000
40
1.0000000000
40
1.0000000000
40
1.0000000000
10
96.1718633040
20
121.9593882224
30
0.0000000000
10
96.0983748946
20
121.8969163590
30
0.0000000000
10
95.9333748672
20
121.7936127906
30
0.0000000000
10
95.7415767173
20
121.7403094763
30
0.0000000000
10
95.6414724803
20
121.7283093536
30
0.0000000000
10
95.6371428023
20
121.7278191883
30
0.0000000000
11
96.1718633040
21
121.9593882224
31
0.0000000000
11
95.9277358564
21
121.8064078324
31
0.0000000000
11
95.6501210215
21
121.7293750404
31
0.0000000000
11
95.6371428023
21
121.7278191883
31
0.0000000000
0
SPLINE
5
476
100
AcDbEntity
8
0
100
AcDbSpline
62
7
6
CONTINUOUS
70
0
71
3
72
10
73
6
74
4
42
0.0000001000
43
0.0000001000
44
0.0000000001
40
0.0000000000
40
0.0000000000
40
0.0000000000
40
0.0000000000
40
0.0220858887
40
0.5110472898
40
1.0000000000
40
1.0000000000
40
1.0000000000
40
1.0000000000
10
95.6371427494
20
103.4990987807
30
0.0000000000
10
95.6414723882
20
103.4986086202
30
0.0000000000
10
95.7415762378
20
103.4866085602
30
0.0000000000
10
95.9333736259
20
103.4333056130
30
0.0000000000
10
96.0983731756
20
103.3300027800
30
0.0000000000
10
96.1718614239
20
103.2675313751
30
0.0000000000
11
95.6371427494
21
103.4990987807
31
0.0000000000
11
95.6501208512
21
103.4975429447
31
0.0000000000
11
95.9277347368
21
103.4205106402
31
0.0000000000
11
96.1718614239
21
103.2675313751
31
0.0000000000
0
SPLINE
5
477
100
AcDbEntity
8
0
100
AcDbSpline
62
7
6
CONTINUOUS
70
0
71
3
72
8
73
4
74
2
42
0.0000001000
43
0.0000001000
44
0.0000000001
40
0.0000000000
40
0.0000000000
40
0.0000000000
40
0.0000000000
40
1.0000000000
40
1.0000000000
40
1.0000000000
40
1.0000000000
10
96.1718614239
20
103.2675313751
30
0.0000000000
10
96.2085651607
20
103.2363300054
30
0.0000000000
10
96.2430211486
20
103.2024294671
30
0.0000000000
10
96.2748493377
20
103.1662840182
30
0.0000000000
11
96.1718614239
21
103.2675313751
31
0.0000000000
11
96.2748493377
21
103.1662840182
31
0.0000000000
0
SPLINE
5
478
100
AcDbEntity
8
0
100
AcDbSpline
62
7
6
CONTINUOUS
70
0
71
3
72
8
73
4
74
2
42
0.0000001000
43
0.0000001000
44
0.0000000001
40
0.0000000000
40
0.0000000000
40
0.0000000000
40
0.0000000000
40
1.0000000000
40
1.0000000000
40
1.0000000000
40
1.0000000000
10
96.2748493377
20
103.1662840182
30
0.0000000000
10
96.3065996328
20
103.1302270289
30
0.0000000000
10
96.3357349755
20
103.0919361036
30
0.0000000000
10
96.3618780995
20
103.0518621730
30
0.0000000000
11
96.2748493377
21
103.1662840182
31
0.0000000000
11
96.3618780995
21
103.0518621730
31
0.0000000000
0
SPLINE
5
479
100
AcDbEntity
8
0
100
AcDbSpline
62
7
6
CONTINUOUS
70
0
71
3
72
8
73
4
74
2
42
0.0000001000
43
0.0000001000
44
0.0000000001
40
0.0000000000
40
0.0000000000
40
0.0000000000
40
0.0000000000
40
1.0000000000
40
1.0000000000
40
1.0000000000
40
1.0000000000
10
125.6757657127
20
103.0518622246
30
0.0000000000
10
125.7281156462
20
103.1321076987
30
0.0000000000
10
125.7924636134
20
103.2052037696
30
0.0000000000
10
125.8657804550
20
103.2675297848
30
0.0000000000
11
125.6757657127
21
103.0518622246
31
0.0000000000
11
125.8657804550
21
103.2675297848
31
0.0000000000
0
SPLINE
5
47A
100
AcDbEntity
8
0
100
AcDbSpline
62
7
6
CONTINUOUS
70
0
71
3
72
10
73
6
74
4
42
0.0000001000
43
0.0000001000
44
0.0000000001
40
0.0000000000
40
0.0000000000
40
0.0000000000
40
0.0000000000
40
0.4889528224
40
0.9779140018
40
1.0000000000
40
1.0000000000
40
1.0000000000
40
1.0000000000
10
125.8657804550
20
103.2675297848
30
0.0000000000
10
125.9392688644
20
103.3300016481
30
0.0000000000
10
126.1042688918
20
103.4333052166
30
0.0000000000
10
126.2960670417
20
103.4866085308
30
0.0000000000
10
126.3961712788
20
103.4986086535
30
0.0000000000
10
126.4005009567
20
103.4990988188
30
0.0000000000
11
125.8657804550
21
103.2675297848
31
0.0000000000
11
126.1099079026
21
103.4205101747
31
0.0000000000
11
126.3875227375
21
103.4975429667
31
0.0000000000
11
126.4005009567
21
103.4990988188
31
0.0000000000
0
SPLINE
5
47B
100
AcDbEntity
8
0
100
AcDbSpline
62
7
6
CONTINUOUS
70
0
71
3
72
17
73
13
74
11
42
0.0000001000
43
0.0000001000
44
0.0000000001
40
0.0000000000
40
0.0000000000
40
0.0000000000
40
0.0000000000
40
0.1160840422
40
0.2542394291
40
0.3849095152
40
0.5070371863
40
0.6197630531
40
0.7225172042
40
0.8149673433
40
0.8969400990
40
0.9683013538
40
1.0000000000
40
1.0000000000
40
1.0000000000
40
1.0000000000
10
89.7587140219
20
103.7474719479
30
0.0000000000
10
89.9781150240
20
103.7474781606
30
0.0000000000
10
90.4586343844
20
103.7456097920
30
0.0000000000
10
91.1860714118
20
103.7364681236
30
0.0000000000
10
91.9248137460
20
103.7203628481
30
0.0000000000
10
92.6153329692
20
103.6988587257
30
0.0000000000
10
93.2529012273
20
103.6728912921
30
0.0000000000
10
93.8341442534
20
103.6433849497
30
0.0000000000
10
94.3570719834
20
103.6112403369
30
0.0000000000
10
94.8202708408
20
103.5773584460
30
0.0000000000
10
95.1689873673
20
103.5472187534
30
0.0000000000
10
95.3624595022
20
103.5283770159
30
0.0000000000
10
95.4220259441
20
103.5223013612
30
0.0000000000
11
89.7587140219
21
103.7474719479
31
0.0000000000
11
90.4169117459
21
103.7449026685
31
0.0000000000
11
91.2001966580
21
103.7350517513
31
0.0000000000
11
91.9409237126
21
103.7188197520
31
0.0000000000
11
92.6330538211
21
103.6971570593
31
0.0000000000
11
93.2716791617
21
103.6710094247
31
0.0000000000
11
93.8535419381
21
103.6413077161
31
0.0000000000
11
94.3767386584
21
103.6089530618
31
0.0000000000
11
94.8402710224
21
103.5747984659
31
0.0000000000
11
95.2433735369
21
103.5397731525
31
0.0000000000
11
95.4220259441
21
103.5223013612
31
0.0000000000
0
SPLINE
5
47C
100
AcDbEntity
8
0
100
AcDbSpline
62
7
6
CONTINUOUS
70
0
71
3
72
8
73
4
74
2
42
0.0000001000
43
0.0000001000
44
0.0000000001
40
0.0000000000
40
0.0000000000
40
0.0000000000
40
0.0000000000
40
1.0000000000
40
1.0000000000
40
1.0000000000
40
1.0000000000
10
95.4220259441
20
103.5223013612
30
0.0000000000
10
95.4765870868
20
103.5167362368
30
0.0000000000
10
95.5311979449
20
103.5109358493
30
0.0000000000
10
95.5859590756
20
103.5048340687
30
0.0000000000
11
95.4220259441
21
103.5223013612
31
0.0000000000
11
95.5859590756
21
103.5048340687
31
0.0000000000
0
SPLINE
5
47D
100
AcDbEntity
8
0
100
AcDbSpline
62
7
6
CONTINUOUS
70
0
71
3
72
8
73
4
74
2
42
0.0000001000
43
0.0000001000
44
0.0000000001
40
0.0000000000
40
0.0000000000
40
0.0000000000
40
0.0000000000
40
1.0000000000
40
1.0000000000
40
1.0000000000
40
1.0000000000
10
95.5859590756
20
103.5048340687
30
0.0000000000
10
95.6030005212
20
103.5029352189
30
0.0000000000
10
95.6200565197
20
103.5010071813
30
0.0000000000
10
95.6371111951
20
103.4990532212
30
0.0000000000
11
95.5859590756
21
103.5048340687
31
0.0000000000
11
95.6371111951
21
103.4990532212
31
0.0000000000
0
SPLINE
5
47E
100
AcDbEntity
8
0
100
AcDbSpline
62
7
6
CONTINUOUS
70
0
71
3
72
9
73
5
74
3
42
0.0000001000
43
0.0000001000
44
0.0000000001
40
0.0000000000
40
0.0000000000
40
0.0000000000
40
0.0000000000
40
0.1940892303
40
1.0000000000
40
1.0000000000
40
1.0000000000
40
1.0000000000
10
88.3726605093
20
103.7787332704
30
0.0000000000
10
88.3920864256
20
103.7747063013
30
0.0000000000
10
88.4926073754
20
103.7559480020
30
0.0000000000
10
88.5950016582
20
103.7475574532
30
0.0000000000
10
88.6774004784
20
103.7475377273
30
0.0000000000
11
88.3726605093
21
103.7787332704
31
0.0000000000
11
88.4311770628
21
103.7678152933
31
0.0000000000
11
88.6774004784
21
103.7475377273
31
0.0000000000
0
SPLINE
5
47F
100
AcDbEntity
8
0
100
AcDbSpline
62
7
6
CONTINUOUS
70
0
71
3
72
8
73
4
74
2
42
0.0000001000
43
0.0000001000
44
0.0000000001
40
0.0000000000
40
0.0000000000
40
0.0000000000
40
0.0000000000
40
1.0000000000
40
1.0000000000
40
1.0000000000
40
1.0000000000
10
88.6774004621
20
121.4794493633
30
0.0000000000
10
88.5753307949
20
121.4794493633
30
0.0000000000
10
88.4728855231
20
121.4689213135
30
0.0000000000
10
88.3725964027
20
121.4481373192
30
0.0000000000
11
88.6774004621
21
121.4794493633
31
0.0000000000
11
88.3725964027
21
121.4481373192
31
0.0000000000
0
SPLINE
5
480
100
AcDbEntity
8
0
100
AcDbSpline
62
7
6
CONTINUOUS
70
0
71
3
72
9
73
5
74
3
42
0.0000001000
43
0.0000001000
44
0.0000000001
40
0.0000000000
40
0.0000000000
40
0.0000000000
40
0.0000000000
40
0.1761554858
40
1.0000000000
40
1.0000000000
40
1.0000000000
40
1.0000000000
10
95.6371125397
20
121.7278472058
30
0.0000000000
10
95.6253983554
20
121.7265056649
30
0.0000000000
10
95.5589082197
20
121.7189632930
30
0.0000000000
10
95.4926309002
20
121.7118691794
30
0.0000000000
10
95.4380758645
20
121.7062627071
30
0.0000000000
11
95.6371125397
21
121.7278472058
31
0.0000000000
11
95.6019797550
21
121.7238623143
31
0.0000000000
11
95.4380758645
21
121.7062627071
31
0.0000000000
0
SPLINE
5
481
100
AcDbEntity
8
0
100
AcDbSpline
62
7
6
CONTINUOUS
70
0
71
3
72
8
73
4
74
2
42
0.0000001000
43
0.0000001000
44
0.0000000001
40
0.0000000000
40
0.0000000000
40
0.0000000000
40
0.0000000000
40
1.0000000000
40
1.0000000000
40
1.0000000000
40
1.0000000000
10
95.4380758645
20
121.7062627071
30
0.0000000000
10
95.4230811381
20
121.7047217399
30
0.0000000000
10
95.4080899752
20
121.7031987506
30
0.0000000000
10
95.3931003561
20
121.7016923632
30
0.0000000000
11
95.4380758645
21
121.7062627071
31
0.0000000000
11
95.3931003561
21
121.7016923632
31
0.0000000000
0
SPLINE
5
482
100
AcDbEntity
8
0
100
AcDbSpline
62
7
6
CONTINUOUS
70
0
71
3
72
17
73
13
74
11
42
0.0000001000
43
0.0000001000
44
0.0000000001
40
0.0000000000
40
0.0000000000
40
0.0000000000
40
0.0000000000
40
0.0238591250
40
0.0956527527
40
0.1782210789
40
0.2714677338
40
0.3752232047
40
0.4891517628
40
0.6126745718
40
0.7449121989
40
0.8847795360
40
1.0000000000
40
1.0000000000
40
1.0000000000
40
1.0000000000
10
95.3931003561
20
121.7016923632
30
0.0000000000
10
95.3485136446
20
121.6972116048
30
0.0000000000
10
95.1698174350
20
121.6798368424
30
0.0000000000
10
94.8356862496
20
121.6507783926
30
0.0000000000
10
94.3714558583
20
121.6166347760
30
0.0000000000
10
93.8467315979
20
121.5842280410
30
0.0000000000
10
93.2628446296
20
121.5544684045
30
0.0000000000
10
92.6217919726
20
121.5282778737
30
0.0000000000
10
91.9269917701
20
121.5065977203
30
0.0000000000
10
91.1832554802
20
121.4903853093
30
0.0000000000
10
90.4550112856
20
121.4812813918
30
0.0000000000
10
89.9753645227
20
121.4794399895
30
0.0000000000
10
89.7587140640
20
121.4794460980
30
0.0000000000
11
95.3931003561
21
121.7016923632
31
0.0000000000
11
95.2593280424
21
121.6886545399
31
0.0000000000
11
94.8558853690
21
121.6533750889
31
0.0000000000
11
94.3913971193
21
121.6189594568
31
0.0000000000
11
93.8664125471
21
121.5863379420
31
0.0000000000
11
93.2819032680
21
121.5563793728
31
0.0000000000
11
92.6397825908
21
121.5300044848
31
0.0000000000
11
91.9433424687
21
121.5081626556
31
0.0000000000
11
91.1975793422
21
121.4918209556
31
0.0000000000
11
90.4086603291
21
121.4819510531
31
0.0000000000
11
89.7587140640
21
121.4794460980
31
0.0000000000
0
SPLINE
5
483
100
AcDbEntity
8
0
100
AcDbSpline
62
7
6
CONTINUOUS
70
0
71
3
72
17
73
13
74
11
42
0.0000001000
43
0.0000001000
44
0.0000000001
40
0.0000000000
40
0.0000000000
40
0.0000000000
40
0.0000000000
40
0.1160840422
40
0.2542394291
40
0.3849095152
40
0.5070371863
40
0.6197630531
40
0.7225172042
40
0.8149673433
40
0.8969400990
40
0.9683013538
40
1.0000000000
40
1.0000000000
40
1.0000000000
40
1.0000000000
10
132.2789297371
20
121.4794460592
30
0.0000000000
10
132.0595287350
20
121.4794398465
30
0.0000000000
10
131.5790093746
20
121.4813082151
30
0.0000000000
10
130.8515723472
20
121.4904498835
30
0.0000000000
10
130.1128300130
20
121.5065551590
30
0.0000000000
10
129.4223107898
20
121.5280592814
30
0.0000000000
10
128.7847425317
20
121.5540267150
30
0.0000000000
10
128.2034995057
20
121.5835330574
30
0.0000000000
10
127.6805717756
20
121.6156776703
30
0.0000000000
10
127.2173729182
20
121.6495595611
30
0.0000000000
10
126.8686563917
20
121.6796992537
30
0.0000000000
10
126.6751842568
20
121.6985409912
30
0.0000000000
10
126.6156178149
20
121.7046166459
30
0.0000000000
11
132.2789297371
21
121.4794460592
31
0.0000000000
11
131.6207320131
21
121.4820153386
31
0.0000000000
11
130.8374471010
21
121.4918662558
31
0.0000000000
11
130.0967200464
21
121.5080982551
31
0.0000000000
11
129.4045899379
21
121.5297609478
31
0.0000000000
11
128.7659645973
21
121.5559085824
31
0.0000000000
11
128.1841018210
21
121.5856102910
31
0.0000000000
11
127.6609051006
21
121.6179649453
31
0.0000000000
11
127.1973727367
21
121.6521195412
31
0.0000000000
11
126.7942702221
21
121.6871448546
31
0.0000000000
11
126.6156178149
21
121.7046166459
31
0.0000000000
0
SPLINE
5
484
100
AcDbEntity
8
0
100
AcDbSpline
62
7
6
CONTINUOUS
70
0
71
3
72
8
73
4
74
2
42
0.0000001000
43
0.0000001000
44
0.0000000001
40
0.0000000000
40
0.0000000000
40
0.0000000000
40
0.0000000000
40
1.0000000000
40
1.0000000000
40
1.0000000000
40
1.0000000000
10
126.6156178149
20
121.7046166459
30
0.0000000000
10
126.5610566722
20
121.7101817704
30
0.0000000000
10
126.5064458141
20
121.7159821578
30
0.0000000000
10
126.4516846834
20
121.7220839384
30
0.0000000000
11
126.6156178149
21
121.7046166459
31
0.0000000000
11
126.4516846834
21
121.7220839384
31
0.0000000000
0
SPLINE
5
485
100
AcDbEntity
8
0
100
AcDbSpline
62
7
6
CONTINUOUS
70
0
71
3
72
8
73
4
74
2
42
0.0000001000
43
0.0000001000
44
0.0000000001
40
0.0000000000
40
0.0000000000
40
0.0000000000
40
0.0000000000
40
1.0000000000
40
1.0000000000
40
1.0000000000
40
1.0000000000
10
126.4516846834
20
121.7220839384
30
0.0000000000
10
126.4346432378
20
121.7239827882
30
0.0000000000
10
126.4175872393
20
121.7259108258
30
0.0000000000
10
126.4005325639
20
121.7278647859
30
0.0000000000
11
126.4516846834
21
121.7220839384
31
0.0000000000
11
126.4005325639
21
121.7278647859
31
0.0000000000
0
SPLINE
5
486
100
AcDbEntity
8
0
100
AcDbSpline
62
7
6
CONTINUOUS
70
0
71
3
72
9
73
5
74
3
42
0.0000001000
43
0.0000001000
44
0.0000000001
40
0.0000000000
40
0.0000000000
40
0.0000000000
40
0.0000000000
40
0.1940885142
40
1.0000000000
40
1.0000000000
40
1.0000000000
40
1.0000000000
10
133.6649829829
20
121.4481847921
30
0.0000000000
10
133.6455571547
20
121.4522117391
30
0.0000000000
10
133.5450362927
20
121.4709700126
30
0.0000000000
10
133.4426421009
20
121.4793605539
30
0.0000000000
10
133.3602432807
20
121.4793802798
30
0.0000000000
11
133.6649829829
21
121.4481847921
31
0.0000000000
11
133.6064666962
21
121.4591027138
31
0.0000000000
11
133.3602432807
21
121.4793802798
31
0.0000000000
0
SPLINE
5
487
100
AcDbEntity
8
0
100
AcDbSpline
62
7
6
CONTINUOUS
70
0
71
3
72
8
73
4
74
2
42
0.0000001000
43
0.0000001000
44
0.0000000001
40
0.0000000000
40
0.0000000000
40
0.0000000000
40
0.0000000000
40
1.0000000000
40
1.0000000000
40
1.0000000000
40
1.0000000000
10
133.3602432969
20
103.7474686438
30
0.0000000000
10
133.4623129641
20
103.7474686438
30
0.0000000000
10
133.5647582359
20
103.7579966936
30
0.0000000000
10
133.6650473563
20
103.7787806879
30
0.0000000000
11
133.3602432969
21
103.7474686438
31
0.0000000000
11
133.6650473563
21
103.7787806879
31
0.0000000000
0
SPLINE
5
488
100
AcDbEntity
8
0
100
AcDbSpline
62
7
6
CONTINUOUS
70
0
71
3
72
9
73
5
74
3
42
0.0000001000
43
0.0000001000
44
0.0000000001
40
0.0000000000
40
0.0000000000
40
0.0000000000
40
0.0000000000
40
0.1761554858
40
1.0000000000
40
1.0000000000
40
1.0000000000
40
1.0000000000
10
126.4005312193
20
103.4990708013
30
0.0000000000
10
126.4122454036
20
103.5004123422
30
0.0000000000
10
126.4787355393
20
103.5079547141
30
0.0000000000
10
126.5450128588
20
103.5150488277
30
0.0000000000
10
126.5995678945
20
103.5206553000
30
0.0000000000
11
126.4005312193
21
103.4990708013
31
0.0000000000
11
126.4356640040
21
103.5030556928
31
0.0000000000
11
126.5995678945
21
103.5206553000
31
0.0000000000
0
SPLINE
5
489
100
AcDbEntity
8
0
100
AcDbSpline
62
7
6
CONTINUOUS
70
0
71
3
72
8
73
4
74
2
42
0.0000001000
43
0.0000001000
44
0.0000000001
40
0.0000000000
40
0.0000000000
40
0.0000000000
40
0.0000000000
40
1.0000000000
40
1.0000000000
40
1.0000000000
40
1.0000000000
10
126.5995678945
20
103.5206553000
30
0.0000000000
10
126.6145626209
20
103.5221962672
30
0.0000000000
10
126.6295537838
20
103.5237192565
30
0.0000000000
10
126.6445434029
20
103.5252256439
30
0.0000000000
11
126.5995678945
21
103.5206553000
31
0.0000000000
11
126.6445434029
21
103.5252256439
31
0.0000000000
0
SPLINE
5
48A
100
AcDbEntity
8
0
100
AcDbSpline
62
7
6
CONTINUOUS
70
0
71
3
72
17
73
13
74
11
42
0.0000001000
43
0.0000001000
44
0.0000000001
40
0.0000000000
40
0.0000000000
40
0.0000000000
40
0.0000000000
40
0.0238591250
40
0.0956527527
40
0.1782210789
40
0.2714677338
40
0.3752232047
40
0.4891517628
40
0.6126745718
40
0.7449121989
40
0.8847795360
40
1.0000000000
40
1.0000000000
40
1.0000000000
40
1.0000000000
10
126.6445434029
20
103.5252256439
30
0.0000000000
10
126.6891301144
20
103.5297064024
30
0.0000000000
10
126.8678263240
20
103.5470811648
30
0.0000000000
10
127.2019575094
20
103.5761396146
30
0.0000000000
10
127.6661879007
20
103.6102832311
30
0.0000000000
10
128.1909121611
20
103.6426899662
30
0.0000000000
10
128.7747991294
20
103.6724496026
30
0.0000000000
10
129.4158517864
20
103.6986401334
30
0.0000000000
10
130.1106519890
20
103.7203202868
30
0.0000000000
10
130.8543882788
20
103.7365326978
30
0.0000000000
10
131.5826324735
20
103.7456366153
30
0.0000000000
10
132.0622792363
20
103.7474780176
30
0.0000000000
10
132.2789296950
20
103.7474719092
30
0.0000000000
11
126.6445434029
21
103.5252256439
31
0.0000000000
11
126.7783157167
21
103.5382634672
31
0.0000000000
11
127.1817583900
21
103.5735429182
31
0.0000000000
11
127.6462466397
21
103.6079585503
31
0.0000000000
11
128.1712312119
21
103.6405800651
31
0.0000000000
11
128.7557404910
21
103.6705386343
31
0.0000000000
11
129.3978611682
21
103.6969135223
31
0.0000000000
11
130.0943012903
21
103.7187553515
31
0.0000000000
11
130.8400644168
21
103.7350970515
31
0.0000000000
11
131.6289834299
21
103.7449669541
31
0.0000000000
11
132.2789296950
21
103.7474719092
31
0.0000000000
0
SPLINE
5
48B
100
AcDbEntity
8
0
100
AcDbSpline
62
7
6
CONTINUOUS
70
0
71
3
72
10
73
6
74
4
42
0.0000001000
43
0.0000001000
44
0.0000000001
40
0.0000000000
40
0.0000000000
40
0.0000000000
40
0.0000000000
40
0.0872026347
40
0.7775258081
40
1.0000000000
40
1.0000000000
40
1.0000000000
40
1.0000000000
10
142.4668599471
20
119.6233715939
30
0.0000000000
10
142.4624975148
20
119.6245309444
30
0.0000000000
10
142.4235721665
20
119.6347598000
30
0.0000000000
10
142.3731983838
20
119.6466970073
30
0.0000000000
10
142.3269823943
20
119.6565136446
30
0.0000000000
10
142.3157058290
20
119.6588460772
30
0.0000000000
11
142.4668599471
21
119.6233715939
31
0.0000000000
11
142.4537632087
21
119.6268134422
31
0.0000000000
11
142.3494966913
21
119.6516643350
31
0.0000000000
11
142.3157058290
21
119.6588460772
31
0.0000000000
0
SPLINE
5
48C
100
AcDbEntity
8
0
100
AcDbSpline
62
7
6
CONTINUOUS
70
0
71
3
72
16
73
12
74
10
42
0.0000001000
43
0.0000001000
44
0.0000000001
40
0.0000000000
40
0.0000000000
40
0.0000000000
40
0.0000000000
40
0.0967450298
40
0.2712871099
40
0.4296992397
40
0.5736063471
40
0.7021618733
40
0.8139618257
40
0.9010008380
40
0.9687126184
40
1.0000000000
40
1.0000000000
40
1.0000000000
40
1.0000000000
10
143.7021651727
20
118.1259309499
30
0.0000000000
10
143.7021605917
20
118.1937772763
30
0.0000000000
10
143.6893537641
20
118.3841980362
30
0.0000000000
10
143.6121240448
20
118.6772806595
30
0.0000000000
10
143.4541087568
20
118.9737865391
30
0.0000000000
10
143.2588141464
20
119.2055777093
30
0.0000000000
10
143.0493012686
20
119.3757617645
30
0.0000000000
10
142.8498390273
20
119.4895637042
30
0.0000000000
10
142.6772582812
20
119.5605144385
30
0.0000000000
10
142.5532405824
20
119.5997586028
30
0.0000000000
10
142.4865424857
20
119.6181530178
30
0.0000000000
10
142.4654087146
20
119.6237590859
30
0.0000000000
11
143.7021651727
21
118.1259309499
31
0.0000000000
11
143.6884542737
21
118.3289061542
31
0.0000000000
11
143.5953505277
21
118.6827669422
31
0.0000000000
11
143.4391849761
21
118.9758470181
31
0.0000000000
11
143.2448646681
21
119.2066101111
31
0.0000000000
11
143.0357644838
21
119.3766308168
31
0.0000000000
11
142.8323512183
21
119.4930525644
31
0.0000000000
11
142.6638064310
21
119.5629550056
31
0.0000000000
11
142.5286304029
21
119.6062777785
31
0.0000000000
11
142.4654087146
21
119.6237590859
31
0.0000000000
0
SPLINE
5
48D
100
AcDbEntity
8
0
100
AcDbSpline
62
7
6
CONTINUOUS
70
0
71
3
72
10
73
6
74
4
42
0.0000001000
43
0.0000001000
44
0.0000000001
40
0.0000000000
40
0.0000000000
40
0.0000000000
40
0.0000000000
40
0.2675459965
40
0.9624151504
40
1.0000000000
40
1.0000000000
40
1.0000000000
40
1.0000000000
10
79.7219438230
20
119.6588473450
30
0.0000000000
10
79.7083814990
20
119.6560422074
30
0.0000000000
10
79.6596598703
20
119.6456384875
30
0.0000000000
10
79.6093136806
20
119.6335643252
30
0.0000000000
10
79.5726571707
20
119.6238695431
30
0.0000000000
10
79.5707767852
20
119.6233698103
30
0.0000000000
11
79.7219438230
21
119.6588473450
31
0.0000000000
11
79.6813135093
21
119.6501638335
31
0.0000000000
11
79.5764197041
21
119.6248622506
31
0.0000000000
11
79.5707767852
21
119.6233698103
31
0.0000000000
0
SPLINE
5
48E
100
AcDbEntity
8
0
100
AcDbSpline
62
7
6
CONTINUOUS
70
0
71
3
72
17
73
13
74
11
42
0.0000001000
43
0.0000001000
44
0.0000000001
40
0.0000000000
40
0.0000000000
40
0.0000000000
40
0.0000000000
40
0.0449193636
40
0.1145528292
40
0.1966307106
40
0.2972880067
40
0.4116584065
40
0.5369411117
40
0.6697528442
40
0.8073111451
40
0.9493336070
40
1.0000000000
40
1.0000000000
40
1.0000000000
40
1.0000000000
10
79.5714512839
20
119.6235534446
30
0.0000000000
10
79.5411052102
20
119.6154983518
30
0.0000000000
10
79.4640053262
20
119.5938635414
30
0.0000000000
10
79.3334957254
20
119.5504959329
30
0.0000000000
10
79.1712544218
20
119.4805500312
30
0.0000000000
10
78.9911244407
20
119.3759889862
30
0.0000000000
10
78.8042700561
20
119.2272566314
30
0.0000000000
10
78.6292305345
20
119.0328054473
30
0.0000000000
10
78.4830397411
20
118.7962341339
30
0.0000000000
10
78.3795111488
20
118.5253296844
30
0.0000000000
10
78.3401996667
20
118.2964306133
30
0.0000000000
10
78.3354470123
20
118.1614342092
30
0.0000000000
10
78.3354498755
20
118.1259434458
30
0.0000000000
11
79.5714512839
21
119.6235534446
31
0.0000000000
11
79.4808033631
21
119.5979729257
31
0.0000000000
11
79.3424220015
21
119.5514314808
31
0.0000000000
11
79.1845476450
21
119.4829427907
31
0.0000000000
11
79.0021342447
21
119.3768044505
31
0.0000000000
11
78.8145802291
21
119.2273855145
31
0.0000000000
11
78.6388779521
21
119.0321226991
31
0.0000000000
11
78.4925211733
21
118.7952242041
31
0.0000000000
11
78.3895662245
21
118.5258118332
31
0.0000000000
11
78.3392036362
21
118.2323275902
31
0.0000000000
11
78.3354498755
21
118.1259434458
31
0.0000000000
0
SPLINE
5
48F
100
AcDbEntity
8
0
100
AcDbSpline
62
7
6
CONTINUOUS
70
0
71
3
72
10
73
6
74
4
42
0.0000001000
43
0.0000001000
44
0.0000000001
40
0.0000000000
40
0.0000000000
40
0.0000000000
40
0.0000000000
40
0.0872031907
40
0.7775316711
40
1.0000000000
40
1.0000000000
40
1.0000000000
40
1.0000000000
10
79.5707837466
20
105.6035464312
30
0.0000000000
10
79.5751462089
20
105.6023870718
30
0.0000000000
10
79.6140718711
20
105.5921581261
30
0.0000000000
10
79.6644456829
20
105.5802209105
30
0.0000000000
10
79.7106616753
20
105.5704042998
30
0.0000000000
10
79.7219379506
20
105.5680719314
30
0.0000000000
11
79.5707837466
21
105.6035464312
31
0.0000000000
11
79.5838805753
21
105.6001045566
31
0.0000000000
11
79.6881479564
21
105.5752534716
31
0.0000000000
11
79.7219379506
21
105.5680719314
31
0.0000000000
0
SPLINE
5
490
100
AcDbEntity
8
0
100
AcDbSpline
62
7
6
CONTINUOUS
70
0
71
3
72
16
73
12
74
10
42
0.0000001000
43
0.0000001000
44
0.0000000001
40
0.0000000000
40
0.0000000000
40
0.0000000000
40
0.0000000000
40
0.0967752484
40
0.2713145147
40
0.4297095921
40
0.5736130077
40
0.7021614283
40
0.8139494238
40
0.9009688216
40
0.9687065261
40
1.0000000000
40
1.0000000000
40
1.0000000000
40
1.0000000000
10
78.3354849615
20
107.1009793146
30
0.0000000000
10
78.3354896577
20
107.0331111659
30
0.0000000000
10
78.3483021610
20
106.8426693088
30
0.0000000000
10
78.4255464466
20
106.5495806036
30
0.0000000000
10
78.5835630168
20
106.2530917124
30
0.0000000000
10
78.7788508833
20
106.0213170881
30
0.0000000000
10
78.9883566524
20
105.8511459574
30
0.0000000000
10
79.1877986381
20
105.7373600854
30
0.0000000000
10
79.3603751213
20
105.6664058190
30
0.0000000000
10
79.4844022406
20
105.6271586138
30
0.0000000000
10
79.5511227307
20
105.6087590932
30
0.0000000000
10
79.5722608712
20
105.6031521905
30
0.0000000000
11
78.3354849615
21
107.1009793146
31
0.0000000000
11
78.3492048125
21
106.8979392126
31
0.0000000000
11
78.4423224193
21
106.5440850378
31
0.0000000000
11
78.5984807131
21
106.2510384852
31
0.0000000000
11
78.7928020476
21
106.0202831085
31
0.0000000000
11
79.0018959227
21
105.8502747177
31
0.0000000000
11
79.2052904521
21
105.7338667886
31
0.0000000000
11
79.3737973967
21
105.6639764930
31
0.0000000000
11
79.5090261096
21
105.6206361868
31
0.0000000000
11
79.5722608712
21
105.6031521905
31
0.0000000000
0
SPLINE
5
491
100
AcDbEntity
8
0
100
AcDbSpline
62
7
6
CONTINUOUS
70
0
71
3
72
10
73
6
74
4
42
0.0000001000
43
0.0000001000
44
0.0000000001
40
0.0000000000
40
0.0000000000
40
0.0000000000
40
0.0000000000
40
0.2675509919
40
0.9624153934
40
1.0000000000
40
1.0000000000
40
1.0000000000
40
1.0000000000
10
142.3156997589
20
105.5680706181
30
0.0000000000
10
142.3292623444
20
105.5708758139
30
0.0000000000
10
142.3779840128
20
105.5812795684
30
0.0000000000
10
142.4283302363
20
105.5933537330
30
0.0000000000
10
142.4649865224
20
105.6030484475
30
0.0000000000
10
142.4668668971
20
105.6035481770
30
0.0000000000
11
142.3156997589
21
105.5680706181
31
0.0000000000
11
142.3563308548
21
105.5767543148
31
0.0000000000
11
142.4612240106
21
105.6020557466
31
0.0000000000
11
142.4668668971
21
105.6035481770
31
0.0000000000
0
SPLINE
5
492
100
AcDbEntity
8
0
100
AcDbSpline
62
7
6
CONTINUOUS
70
0
71
3
72
17
73
13
74
11
42
0.0000001000
43
0.0000001000
44
0.0000000001
40
0.0000000000
40
0.0000000000
40
0.0000000000
40
0.0000000000
40
0.0449193625
40
0.1145528264
40
0.1966307109
40
0.2972880097
40
0.4116584104
40
0.5369411150
40
0.6697528467
40
0.8073111469
40
0.9493336082
40
1.0000000000
40
1.0000000000
40
1.0000000000
40
1.0000000000
10
142.4661924738
20
105.6033645622
30
0.0000000000
10
142.4965385467
20
105.6114196549
30
0.0000000000
10
142.5736384288
20
105.6330544646
30
0.0000000000
10
142.7041480300
20
105.6764220725
30
0.0000000000
10
142.8663893365
20
105.7463679747
30
0.0000000000
10
143.0465193215
20
105.8509290223
30
0.0000000000
10
143.2333737069
20
105.9996613794
30
0.0000000000
10
143.4084132273
20
106.1941125640
30
0.0000000000
10
143.5546040189
20
106.4306838767
30
0.0000000000
10
143.6581326098
20
106.7015883250
30
0.0000000000
10
143.6974440911
20
106.9304873944
30
0.0000000000
10
143.7021967454
20
107.0654837972
30
0.0000000000
10
143.7021938822
20
107.1009745597
30
0.0000000000
11
142.4661924738
21
105.6033645622
31
0.0000000000
11
142.5568403924
21
105.6289450805
31
0.0000000000
11
142.6952217507
21
105.6754865235
31
0.0000000000
11
142.8530961134
21
105.7439752156
31
0.0000000000
11
143.0355095185
21
105.8501135589
31
0.0000000000
11
143.2230635347
21
105.9995324969
31
0.0000000000
11
143.3987658099
21
106.1947953124
31
0.0000000000
11
143.5451225866
21
106.4316938062
31
0.0000000000
11
143.6480775341
21
106.7011061761
31
0.0000000000
11
143.6984401216
21
106.9945904178
31
0.0000000000
11
143.7021938822
21
107.1009745597
31
0.0000000000
0
ENDSEC
0
SECTION
2
OBJECTS
0
DICTIONARY
5
493
100
AcDbDictionary
3
ACAD_GROUP
350
494
3
ACAD_MLINESTYLE
350
495
0
DICTIONARY
5
494
102
{ACAD_REACTORS
330
493
102
}
100
AcDbDictionary
0
DICTIONARY
5
495
102
{ACAD_REACTORS
330
493
102
}
100
AcDbDictionary
3
STANDARD
350
496
0
MLINESTYLE
5
496
102
{ACAD_REACTORS
330
495
102
}
100
AcDbMlineStyle
2
STANDARD
70
0
3

62
256
51
90.0
52
90.0
71
2
49
0.5
62
256
6
BYLAYER
49
-0.5
62
256
6
BYLAYER
0
ENDSEC
0
EOF
