999
DXF file: C:\Aktuell-Internet\CAD-Daten\2rs-m12.dxf
999
Pro/ENGINEER 2001400 by Parametric Technology Corporation
0
SECTION
2
HEADER
9
$ACADVER
1
AC1014
9
$EXTMAX
10
420.0000000000
20
297.0000000000
9
$EXTMIN
10
0.0000000000
20
0.0000000000
9
$LIMMIN
10
0.0000000000
20
0.0000000000
9
$LIMMAX
10
420.0000000000
20
297.0000000000
9
$VIEWCTR
10
210.0000000000
20
148.5000000000
9
$VIEWSIZE
40
297.0000000000
9
$CLAYER
8
0
9
$LTSCALE
40
23.1000000000
9
$CELTYPE
6
BYLAYER
9
$DIMSCALE
40
1
9
$DIMASZ
40
3.5000000000
9
$DIMEXO
40
2.6250000000
9
$DIMDLI
40
15.9600000000
9
$DIMEXE
40
7.5600000000
9
$DIMCEN
40
3.7800000000
9
$DIMLFAC
40
1.0000000000
9
$DIMTXT
40
3.5000000000
9
$DIMTOL
70
1
9
$DIMTFAC
40
0.6000000000
9
$DIMTP
40
0.0050000000
9
$DIMTM
40
0.0050000000
9
$HANDSEED
5
4C6
0
ENDSEC
0
SECTION
2
CLASSES
0
ENDSEC
0
SECTION
2
TABLES
0
TABLE
2
VPORT
5
8
100
AcDbSymbolTable
70
2
0
VPORT
5
1F4
100
AcDbSymbolTableRecord
100
AcDbViewportTableRecord
2
*ACTIVE
70
0
10
0.0
20
0.0
11
1.0
21
1.0
12
210.0000000000
22
148.5000000000
13
0.0
23
0.0
14
1.0
24
1.0
15
0.0
25
0.0
16
0.0
26
0.0
36
1.0
17
0.0
27
0.0
37
0.0
40
297.0000000000
41
1.4141414141
42
50.0
43
0.0
44
0.0
50
0.0
51
0.0
71
0
72
100
73
1
74
1
75
0
76
0
77
0
78
0
0
ENDTAB
0
TABLE
2
LTYPE
5
5
100
AcDbSymbolTable
70
6
0
LTYPE
5
14
100
AcDbSymbolTableRecord
100
AcDbLinetypeTableRecord
2
BYBLOCK
70
0
3

72
65
73
0
40
0.0
0
LTYPE
5
15
100
AcDbSymbolTableRecord
100
AcDbLinetypeTableRecord
2
BYLAYER
70
0
3

72
65
73
0
40
0.0
0
LTYPE
5
16
100
AcDbSymbolTableRecord
100
AcDbLinetypeTableRecord
2
CONTINUOUS
70
64
3
Solid line
72
65
73
0
40
0
0
LTYPE
5
1F5
100
AcDbSymbolTableRecord
100
AcDbLinetypeTableRecord
2
CENTER
70
64
3
____ _ ____ _ ____ _ ____ _ ____ _ ____ _ ____
72
65
73
4
40
0.6
49
0.375
74
0
49
-0.075
74
0
49
0.075
74
0
49
-0.075
74
0
0
LTYPE
5
1F6
100
AcDbSymbolTableRecord
100
AcDbLinetypeTableRecord
2
HIDDEN
70
64
3
- - - - - - - - - - - - - - - - - - - -
72
65
73
2
40
0.2
49
0.1
74
0
49
-0.1
74
0
0
LTYPE
5
1F7
100
AcDbSymbolTableRecord
100
AcDbLinetypeTableRecord
2
PHANTOM
70
64
3
_____ _ _ _____ _ _ _____ _ _ _____
72
65
73
6
40
0.8
49
0.45
74
0
49
-0.05
74
0
49
0.1
74
0
49
-0.05
74
0
49
0.1
74
0
49
-0.05
74
0
0
LTYPE
5
1F8
100
AcDbSymbolTableRecord
100
AcDbLinetypeTableRecord
2
DOT
70
64
3
. . . . . . . . . . . . . . . . . . . .
72
65
73
2
40
0.2
49
0.1
74
0
49
-0.1
74
0
0
LTYPE
5
1F9
100
AcDbSymbolTableRecord
100
AcDbLinetypeTableRecord
2
DASHED
70
64
3
- - - - - - - - - - - - - - - - - - - -
72
65
73
2
40
0.2
49
0.1
74
0
49
-0.1
74
0
0
ENDTAB
0
TABLE
2
LAYER
5
2
100
AcDbSymbolTable
70
36
0
LAYER
5
10
100
AcDbSymbolTableRecord
100
AcDbLayerTableRecord
2
0
70
0
62
7
6
CONTINUOUS
0
LAYER
5
1FA
100
AcDbSymbolTableRecord
100
AcDbLayerTableRecord
2
DEFAULT_1
70
0
62
7
6
CENTER
0
LAYER
5
1FB
100
AcDbSymbolTableRecord
100
AcDbLayerTableRecord
2
DEFAULT_2
70
0
62
8
6
HIDDEN
0
LAYER
5
1FC
100
AcDbSymbolTableRecord
100
AcDbLayerTableRecord
2
DEFAULT_3
70
0
62
7
6
PHANTOM
0
ENDTAB
0
TABLE
2
STYLE
5
3
100
AcDbSymbolTable
70
1
0
STYLE
5
11
100
AcDbSymbolTableRecord
100
AcDbTextStyleTableRecord
2
STANDARD
70
0
40
0.0
41
1.0
50
0.0
71
0
42
0.0
3
txt
4

0
STYLE
5
1FD
100
AcDbSymbolTableRecord
100
AcDbTextStyleTableRecord
2
TEXTSTYLE_0
70
0
40
0.0
41
0.80
50
0.0
71
0
42
0.2
3
txt
4

0
ENDTAB
0
TABLE
2
VIEW
5
6
100
AcDbSymbolTable
70
0
0
ENDTAB
0
TABLE
2
UCS
5
7
100
AcDbSymbolTable
70
0
0
ENDTAB
0
TABLE
2
APPID
5
9
100
AcDbSymbolTable
70
1
0
APPID
5
1FE
100
AcDbSymbolTableRecord
100
AcDbRegAppTableRecord
2
ACAD
70
0
0
ENDTAB
0
TABLE
2
DIMSTYLE
5
A
100
AcDbSymbolTable
70
1
0
DIMSTYLE
105
1FF
100
AcDbSymbolTableRecord
100
AcDbDimStyleTableRecord
2
STANDARD
70
0
3

4

5

6

7

40
1.0
41
0.18
42
0.0625
43
0.38
44
0.18
45
0.0
46
0.0
47
0.0050000000
48
0.0050000000
140
3.5000000000
141
0.09
142
0.0
143
25.4
144
1.0000000000
145
0.0
146
0.6000000000
147
0.09
71
1
72
0
73
1
74
1
75
0
76
0
77
0
78
0
170
0
171
2
172
0
173
0
174
0
175
0
176
0
177
0
178
0
270
2
271
3
272
4
273
2
274
2
340
11
275
0
280
0
281
0
282
0
283
1
284
0
285
0
286
0
287
3
288
0
0
ENDTAB
0
TABLE
2
BLOCK_RECORD
5
1
100
AcDbSymbolTable
70
0
0
BLOCK_RECORD
5
1B
100
AcDbSymbolTableRecord
100
AcDbBlockTableRecord
2
*MODEL_SPACE
0
BLOCK_RECORD
5
1C
100
AcDbSymbolTableRecord
100
AcDbBlockTableRecord
2
*PAPER_SPACE
0
ENDTAB
0
ENDSEC
0
SECTION
2
BLOCKS
0
BLOCK
5
1E
100
AcDbEntity
8
0
100
AcDbBlockBegin
2
*MODEL_SPACE
70
0
10
0.0
20
0.0
30
0.0
3
*MODEL_SPACE
1

0
ENDBLK
5
1F
100
AcDbEntity
8
0
100
AcDbBlockEnd
0
BLOCK
5
20
100
AcDbEntity
8
0
100
AcDbBlockBegin
2
*PAPER_SPACE
70
0
10
0.0
20
0.0
30
0.0
3
*PAPER_SPACE
1

0
ENDBLK
5
21
100
AcDbEntity
8
0
100
AcDbBlockEnd
0
ENDSEC
0
SECTION
2
ENTITIES
0
TEXT
5
200
100
AcDbEntity
8
0
100
AcDbText
62
2
6
CONTINUOUS
10
112.0820762322
20
113.6070707995
7
TEXTSTYLE_0
40
3.5000000000
1
RUD
72
5
11
120.7487425683
21
113.6070707995
100
AcDbText
0
TEXT
5
201
100
AcDbEntity
8
0
100
AcDbText
62
2
6
CONTINUOUS
10
111.7899664453
20
107.8520303741
7
TEXTSTYLE_0
40
3.5000000000
1
RS M12
72
5
11
127.7899658349
21
107.8520303741
100
AcDbText
0
TEXT
5
202
100
AcDbEntity
8
0
100
AcDbText
62
2
6
CONTINUOUS
10
293.7270469423
20
202.9030861831
7
TEXTSTYLE_0
40
3.5000000000
1
RUD
50
90.0000000000
72
5
11
293.7270469423
21
211.5697528498
100
AcDbText
0
TEXT
5
203
100
AcDbEntity
8
0
100
AcDbText
62
2
6
CONTINUOUS
10
300.2573451721
20
202.9991199806
7
TEXTSTYLE_0
40
3.5000000000
1
RS M12
50
90.0000000000
72
5
11
300.2573451721
21
218.9991199806
100
AcDbText
0
LINE
5
204
100
AcDbEntity
8
0
100
AcDbLine
62
7
6
CONTINUOUS
10
0.0000000000
20
0.0000000000
11
0.0000000000
21
297.0000000000
0
LINE
5
205
100
AcDbEntity
8
0
100
AcDbLine
62
7
6
CONTINUOUS
10
0.0000000000
20
0.0000000000
11
420.0000000000
21
0.0000000000
0
LINE
5
206
100
AcDbEntity
8
0
100
AcDbLine
62
7
6
CONTINUOUS
10
0.0000000000
20
297.0000000000
11
420.0000000000
21
297.0000000000
0
LINE
5
207
100
AcDbEntity
8
0
100
AcDbLine
62
7
6
CONTINUOUS
10
420.0000000000
20
0.0000000000
11
420.0000000000
21
297.0000000000
0
LINE
5
208
100
AcDbEntity
8
0
100
AcDbLine
62
7
6
CONTINUOUS
10
92.0759919193
20
241.3296644035
11
110.0621132405
21
248.7797597892
0
LINE
5
209
100
AcDbEntity
8
0
100
AcDbLine
62
7
6
CONTINUOUS
10
116.0188218214
20
177.0338442511
11
106.0188218214
21
177.0338442511
0
LINE
5
20A
100
AcDbEntity
8
0
100
AcDbLine
62
7
6
CONTINUOUS
10
117.0188218214
20
178.0338442511
11
105.0188218214
21
178.0338442511
0
LINE
5
20B
100
AcDbEntity
8
0
100
AcDbLine
62
7
6
CONTINUOUS
10
101.7772685148
20
243.7287161536
11
101.5751963713
21
243.6120493597
0
LINE
5
20C
100
AcDbEntity
8
0
100
AcDbLine
62
7
6
CONTINUOUS
10
97.2912570097
20
241.1387160010
11
97.0487700560
21
240.9987147040
0
LINE
5
20D
100
AcDbEntity
8
0
100
AcDbLine
62
7
6
CONTINUOUS
10
102.9919530012
20
243.3981535620
11
102.7494660475
21
243.2581541724
0
LINE
5
20E
100
AcDbEntity
8
0
100
AcDbLine
62
7
6
CONTINUOUS
10
104.7701922514
20
244.4248202032
11
104.5681196310
21
244.3081534094
0
LINE
5
20F
100
AcDbEntity
8
0
100
AcDbLine
62
7
6
CONTINUOUS
10
104.2043887236
20
244.0981543249
11
103.9619017698
21
243.9581530280
0
LINE
5
210
100
AcDbEntity
8
0
100
AcDbLine
62
7
6
CONTINUOUS
10
104.1108380415
20
243.7001879401
11
104.3533249952
21
243.8401892371
0
LINE
5
211
100
AcDbEntity
8
0
100
AcDbLine
62
7
6
CONTINUOUS
10
100.7966929533
20
243.0937884039
11
100.5244189360
21
243.0053827948
0
LINE
5
212
100
AcDbEntity
8
0
100
AcDbLine
62
7
6
CONTINUOUS
10
99.0184546568
20
242.0671217627
11
98.7461796858
21
241.9787161536
0
LINE
5
213
100
AcDbEntity
8
0
100
AcDbLine
62
7
6
CONTINUOUS
10
83.2729062833
20
221.9905528320
11
90.7230016690
21
239.9766741532
0
LINE
5
214
100
AcDbEntity
8
0
100
AcDbLine
62
7
6
CONTINUOUS
10
89.4770680525
20
231.7571184821
11
89.3305436232
21
231.4119293875
0
LINE
5
215
100
AcDbEntity
8
0
100
AcDbLine
62
7
6
CONTINUOUS
10
90.4376164534
20
234.0200264639
11
90.3399335005
21
233.7899000830
0
LINE
5
216
100
AcDbEntity
8
0
100
AcDbLine
62
7
6
CONTINUOUS
10
90.1120072462
20
233.2529394812
11
89.9654828169
21
232.9077494330
0
LINE
5
217
100
AcDbEntity
8
0
100
AcDbLine
62
7
6
CONTINUOUS
10
87.4582902052
20
227.0011770911
11
87.0675603010
21
226.0806720442
0
LINE
5
218
100
AcDbEntity
8
0
100
AcDbLine
62
7
6
CONTINUOUS
10
88.1583500960
20
228.6504147238
11
88.0769482710
21
228.4586427397
0
LINE
5
219
100
AcDbEntity
8
0
100
AcDbLine
62
7
6
CONTINUOUS
10
90.9097481825
20
235.1323034949
11
90.8446274855
21
234.9788859076
0
LINE
5
21A
100
AcDbEntity
8
0
100
AcDbLine
62
7
6
CONTINUOUS
10
91.0563946821
20
235.3416454977
11
90.9097481825
21
235.1323034949
0
LINE
5
21B
100
AcDbEntity
8
0
100
AcDbLine
62
7
6
CONTINUOUS
10
91.1382828810
20
234.9900305457
11
91.2686482527
21
235.1610195822
0
LINE
5
21C
100
AcDbEntity
8
0
100
AcDbLine
62
7
6
CONTINUOUS
10
88.2887154677
20
228.8214032835
11
88.1583500960
21
228.6504147238
0
LINE
5
21D
100
AcDbEntity
8
0
100
AcDbLine
62
7
6
CONTINUOUS
10
87.5886555769
20
227.1721651739
11
87.4582902052
21
227.0011770911
0
LINE
5
21E
100
AcDbEntity
8
0
100
AcDbLine
62
7
6
CONTINUOUS
10
98.7228308775
20
241.5524904913
11
98.8951159575
21
241.7207510657
0
LINE
5
21F
100
AcDbEntity
8
0
100
AcDbLine
62
7
6
CONTINUOUS
10
100.5010701277
20
242.5791571326
11
100.6733552076
21
242.7474177069
0
LINE
5
220
100
AcDbEntity
8
0
100
AcDbLine
62
7
6
CONTINUOUS
10
98.7461796858
20
241.9787161536
11
98.5334797957
21
241.7871229834
0
LINE
5
221
100
AcDbEntity
8
0
100
AcDbLine
62
7
6
CONTINUOUS
10
100.5244189360
20
243.0053827948
11
100.3117190458
21
242.8137896246
0
LINE
5
222
100
AcDbEntity
8
0
100
AcDbLine
62
7
6
CONTINUOUS
10
100.1461802580
20
239.5538447089
11
100.3588801481
21
239.7454378790
0
LINE
5
223
100
AcDbEntity
8
0
100
AcDbLine
62
7
6
CONTINUOUS
10
91.2194424727
20
235.4534962363
11
91.0563946821
21
235.3416454977
0
LINE
5
224
100
AcDbEntity
8
0
100
AcDbLine
62
7
6
CONTINUOUS
10
109.3737059691
20
244.3155024237
11
109.5592073061
21
244.4339068121
0
LINE
5
225
100
AcDbEntity
8
0
100
AcDbLine
62
7
6
CONTINUOUS
10
98.4996577360
20
239.9790384955
11
98.0955124952
21
239.7457049078
0
LINE
5
226
100
AcDbEntity
8
0
100
AcDbLine
62
7
6
CONTINUOUS
10
97.8530255415
20
239.6057036108
11
97.1659785368
21
239.2090380377
0
LINE
5
227
100
AcDbEntity
8
0
100
AcDbLine
62
7
6
CONTINUOUS
10
97.0618001082
20
238.7361471838
11
98.0317488768
21
239.2961466498
0
LINE
5
228
100
AcDbEntity
8
0
100
AcDbLine
62
7
6
CONTINUOUS
10
98.2742358305
20
239.4361460394
11
98.6783810713
21
239.6694796271
0
LINE
5
229
100
AcDbEntity
8
0
100
AcDbLine
62
7
6
CONTINUOUS
10
105.0086442091
20
242.7051432318
11
104.8469859221
21
242.6118090338
0
LINE
5
22A
100
AcDbEntity
8
0
100
AcDbLine
62
7
6
CONTINUOUS
10
98.4487706282
20
238.5738451666
11
98.6912575819
21
238.7138445563
0
LINE
5
22B
100
AcDbEntity
8
0
100
AcDbLine
62
7
6
CONTINUOUS
10
102.9751959898
20
241.1871779150
11
103.1772690870
21
241.3038447089
0
LINE
5
22C
100
AcDbEntity
8
0
100
AcDbLine
62
7
6
CONTINUOUS
10
103.8643156149
20
241.7005102820
11
104.1068030455
21
241.8405115790
0
LINE
5
22D
100
AcDbEntity
8
0
100
AcDbLine
62
7
6
CONTINUOUS
10
104.9150930502
20
242.3071768469
11
105.1575804808
21
242.4471781439
0
LINE
5
22E
100
AcDbEntity
8
0
100
AcDbLine
62
7
6
CONTINUOUS
10
104.7513404944
20
241.9374716467
11
104.5492678740
21
241.8208048529
0
LINE
5
22F
100
AcDbEntity
8
0
100
AcDbLine
62
7
6
CONTINUOUS
10
105.5150271513
20
241.8280623145
11
105.2725401976
21
241.6880610175
0
LINE
5
230
100
AcDbEntity
8
0
100
AcDbLine
62
7
6
CONTINUOUS
10
105.3916889288
20
241.4816897101
11
105.6341763594
21
241.6216890997
0
LINE
5
231
100
AcDbEntity
8
0
100
AcDbLine
62
7
6
CONTINUOUS
10
91.2686482527
20
235.1610195822
11
91.4154168226
21
235.2345154471
0
LINE
5
232
100
AcDbEntity
8
0
100
AcDbLine
62
7
6
CONTINUOUS
10
109.3273306944
20
244.6115153021
11
109.1882047512
21
244.5523131079
0
LINE
5
233
100
AcDbEntity
8
0
100
AcDbLine
62
7
6
CONTINUOUS
10
101.6521445372
20
240.4921038336
11
101.9244185545
21
240.5805113501
0
LINE
5
234
100
AcDbEntity
8
0
100
AcDbLine
62
7
6
CONTINUOUS
10
99.8739052870
20
239.4654371924
11
100.1461802580
21
239.5538447089
0
LINE
5
235
100
AcDbEntity
8
0
100
AcDbLine
62
7
6
CONTINUOUS
10
111.2750939884
20
243.3682615942
11
111.0895927184
21
243.3090594000
0
LINE
5
236
100
AcDbEntity
8
0
100
AcDbLine
62
7
6
CONTINUOUS
10
113.5011092283
20
243.3682615942
11
113.3156078913
21
243.3090594000
0
LINE
5
237
100
AcDbEntity
8
0
100
AcDbLine
62
7
6
CONTINUOUS
10
105.0188218214
20
178.0338442511
11
106.0188218214
21
177.0338442511
0
LINE
5
238
100
AcDbEntity
8
0
100
AcDbLine
62
7
6
CONTINUOUS
10
88.0769482710
20
228.4586427397
11
88.0607892134
21
228.2844417281
0
LINE
5
239
100
AcDbEntity
8
0
100
AcDbLine
62
7
6
CONTINUOUS
10
90.8446274855
20
234.9788859076
11
90.7796269514
21
234.6896212286
0
LINE
5
23A
100
AcDbEntity
8
0
100
AcDbLine
62
7
6
CONTINUOUS
10
87.4100571730
20
226.2068803496
11
87.7193871596
21
226.9356134123
0
LINE
5
23B
100
AcDbEntity
8
0
100
AcDbLine
62
7
6
CONTINUOUS
10
91.0731621840
20
234.8366129584
11
91.1382828810
21
234.9900305457
0
LINE
5
23C
100
AcDbEntity
8
0
100
AcDbLine
62
7
6
CONTINUOUS
10
88.3707257368
20
228.3339417166
11
88.4684086897
21
228.5640676207
0
LINE
5
23D
100
AcDbEntity
8
0
100
AcDbLine
62
7
6
CONTINUOUS
10
91.1227322676
20
234.1365969366
11
91.2041359999
21
234.3283684439
0
LINE
5
23E
100
AcDbEntity
8
0
100
AcDbLine
62
7
6
CONTINUOUS
10
88.8109074690
20
228.6902759261
11
88.9085904219
21
228.9204023070
0
LINE
5
23F
100
AcDbEntity
8
0
100
AcDbLine
62
7
6
CONTINUOUS
10
89.1538926222
20
228.2730977721
11
89.0562096693
21
228.0429713911
0
LINE
5
240
100
AcDbEntity
8
0
100
AcDbLine
62
7
6
CONTINUOUS
10
88.4538308241
20
226.6238596625
11
88.1445027449
21
225.8951270766
0
LINE
5
241
100
AcDbEntity
8
0
100
AcDbLine
62
7
6
CONTINUOUS
10
88.4382802107
20
225.7704255766
11
88.7150498488
21
226.4224498457
0
LINE
5
242
100
AcDbEntity
8
0
100
AcDbLine
62
7
6
CONTINUOUS
10
89.3499871351
20
227.9182698912
11
89.4476700880
21
228.1483962721
0
LINE
5
243
100
AcDbEntity
8
0
100
AcDbLine
62
7
6
CONTINUOUS
10
89.5788861372
20
227.3684580511
11
89.4812031843
21
227.1383316702
0
LINE
5
244
100
AcDbEntity
8
0
100
AcDbLine
62
7
6
CONTINUOUS
10
90.1821156599
20
227.8366425223
11
90.0518723585
21
227.5298078246
0
LINE
5
245
100
AcDbEntity
8
0
100
AcDbLine
62
7
6
CONTINUOUS
10
93.2104035475
20
234.8347084708
11
92.7545510389
21
233.7607863135
0
LINE
5
246
100
AcDbEntity
8
0
100
AcDbLine
62
7
6
CONTINUOUS
10
91.9574147322
20
231.2021887488
11
92.0876599409
21
231.5090239233
0
LINE
5
247
100
AcDbEntity
8
0
100
AcDbLine
62
7
6
CONTINUOUS
10
92.3155861952
20
232.0459854788
11
92.4132691481
21
232.2761109061
0
LINE
5
248
100
AcDbEntity
8
0
100
AcDbLine
62
7
6
CONTINUOUS
10
89.8735161879
20
226.2928297705
11
89.9874802687
21
226.5613100714
0
LINE
5
249
100
AcDbEntity
8
0
100
AcDbLine
62
7
6
CONTINUOUS
10
91.6318055250
20
230.4351017661
11
91.7294884779
21
230.6652281470
0
LINE
5
24A
100
AcDbEntity
8
0
100
AcDbLine
62
7
6
CONTINUOUS
10
92.6411954024
20
232.8130724615
11
92.7388783552
21
233.0431988425
0
LINE
5
24B
100
AcDbEntity
8
0
100
AcDbLine
62
7
6
CONTINUOUS
10
89.3688222029
20
225.1038444228
11
89.4665051558
21
225.3339703268
0
LINE
5
24C
100
AcDbEntity
8
0
100
AcDbLine
62
7
6
CONTINUOUS
10
92.8691216566
20
233.3500340170
11
93.4552174666
21
234.7307903952
0
LINE
5
24D
100
AcDbEntity
8
0
100
AcDbLine
62
7
6
CONTINUOUS
10
90.3456498243
20
227.4051063246
11
90.4758931257
21
227.7119414992
0
LINE
5
24E
100
AcDbEntity
8
0
100
AcDbLine
62
7
6
CONTINUOUS
10
89.2842579939
20
228.4440858549
11
89.1538926222
21
228.2730977721
0
LINE
5
24F
100
AcDbEntity
8
0
100
AcDbLine
62
7
6
CONTINUOUS
10
90.2152844526
20
227.2341182417
11
90.3456498243
21
227.4051063246
0
LINE
5
250
100
AcDbEntity
8
0
100
AcDbLine
62
7
6
CONTINUOUS
10
89.4476700880
20
228.1483962721
11
89.5617543318
21
228.2810304350
0
LINE
5
251
100
AcDbEntity
8
0
100
AcDbLine
62
7
6
CONTINUOUS
10
89.2359028914
20
227.7856362051
11
89.3499871351
21
227.9182698912
0
LINE
5
252
100
AcDbEntity
8
0
100
AcDbLine
62
7
6
CONTINUOUS
10
90.0518723585
20
227.5298078246
11
89.9377862074
21
227.3971741385
0
LINE
5
253
100
AcDbEntity
8
0
100
AcDbLine
62
7
6
CONTINUOUS
10
103.9619017698
20
243.9581530280
11
103.8300310232
21
243.8132269568
0
LINE
5
254
100
AcDbEntity
8
0
100
AcDbLine
62
7
6
CONTINUOUS
10
105.1405149557
20
242.8500693030
11
105.0086442091
21
242.7051432318
0
LINE
5
255
100
AcDbEntity
8
0
100
AcDbLine
62
7
6
CONTINUOUS
10
105.1575804808
20
242.4471781439
11
105.2894512274
21
242.5921042151
0
LINE
5
256
100
AcDbEntity
8
0
100
AcDbLine
62
7
6
CONTINUOUS
10
100.1695290663
20
239.9800684637
11
99.9972439863
21
239.8118097968
0
LINE
5
257
100
AcDbEntity
8
0
100
AcDbLine
62
7
6
CONTINUOUS
10
101.9477683165
20
241.0067351050
11
101.7754822828
21
240.8384764380
0
LINE
5
258
100
AcDbEntity
8
0
100
AcDbLine
62
7
6
CONTINUOUS
10
88.4684086897
20
228.5640676207
11
88.5662137129
21
228.6583473868
0
LINE
5
259
100
AcDbEntity
8
0
100
AcDbLine
62
7
6
CONTINUOUS
10
87.7193871596
20
226.9356134123
11
87.8171902754
21
227.0298931784
0
LINE
5
25A
100
AcDbEntity
8
0
100
AcDbLine
62
7
6
CONTINUOUS
10
89.0562096693
20
228.0429713911
11
88.9584046461
21
227.9486921019
0
LINE
5
25B
100
AcDbEntity
8
0
100
AcDbLine
62
7
6
CONTINUOUS
10
101.9244185545
20
240.5805113501
11
102.1371184446
21
240.7721045203
0
LINE
5
25C
100
AcDbEntity
8
0
100
AcDbLine
62
7
6
CONTINUOUS
10
89.4473057844
20
228.5559361166
11
89.2842579939
21
228.4440858549
0
LINE
5
25D
100
AcDbEntity
8
0
100
AcDbLine
62
7
6
CONTINUOUS
10
89.0728551008
20
227.6737859434
11
89.2359028914
21
227.7856362051
0
LINE
5
25E
100
AcDbEntity
8
0
100
AcDbLine
62
7
6
CONTINUOUS
10
111.3214692928
20
243.0130465216
11
111.5069705703
21
243.1314509100
0
LINE
5
25F
100
AcDbEntity
8
0
100
AcDbLine
62
7
6
CONTINUOUS
10
113.5474845030
20
243.0130465216
11
113.7329858400
21
243.1314509100
0
LINE
5
260
100
AcDbEntity
8
0
100
AcDbLine
62
7
6
CONTINUOUS
10
88.3708478071
20
228.1980946249
11
88.3707257368
21
228.3339417166
0
LINE
5
261
100
AcDbEntity
8
0
100
AcDbLine
62
7
6
CONTINUOUS
10
88.4537106611
20
226.7597067541
11
88.4538308241
21
226.6238596625
0
LINE
5
262
100
AcDbEntity
8
0
100
AcDbLine
62
7
6
CONTINUOUS
10
90.1982747175
20
228.0108440108
11
90.1821156599
21
227.8366425223
0
LINE
5
263
100
AcDbEntity
8
0
100
AcDbLine
62
7
6
CONTINUOUS
10
91.0407219984
20
234.6240580267
11
91.0731621840
21
234.8366129584
0
LINE
5
264
100
AcDbEntity
8
0
100
AcDbLine
62
7
6
CONTINUOUS
10
90.4758931257
20
227.7119414992
11
90.5083333113
21
227.9244969077
0
LINE
5
265
100
AcDbEntity
8
0
100
AcDbLine
62
7
6
CONTINUOUS
10
98.6611615278
20
241.3793051428
11
98.7228308775
21
241.5524904913
0
LINE
5
266
100
AcDbEntity
8
0
100
AcDbLine
62
7
6
CONTINUOUS
10
98.5334797957
20
241.7871229834
11
98.4207688429
21
241.5156767554
0
LINE
5
267
100
AcDbEntity
8
0
100
AcDbLine
62
7
6
CONTINUOUS
10
100.3117190458
20
242.8137896246
11
100.1990080931
21
242.5423433966
0
LINE
5
268
100
AcDbEntity
8
0
100
AcDbLine
62
7
6
CONTINUOUS
10
105.7660471060
20
241.7666151709
11
105.8575035193
21
241.8882086462
0
LINE
5
269
100
AcDbEntity
8
0
100
AcDbLine
62
7
6
CONTINUOUS
10
105.6468978979
20
241.9729883856
11
105.5150271513
21
241.8280623145
0
LINE
5
26A
100
AcDbEntity
8
0
100
AcDbLine
62
7
6
CONTINUOUS
10
105.6341763594
20
241.6216890997
11
105.7660471060
21
241.7666151709
0
LINE
5
26B
100
AcDbEntity
8
0
100
AcDbLine
62
7
6
CONTINUOUS
10
111.4142199316
20
243.4866678900
11
111.2750939884
21
243.3682615942
0
LINE
5
26C
100
AcDbEntity
8
0
100
AcDbLine
62
7
6
CONTINUOUS
10
113.6402350523
20
243.4866678900
11
113.5011092283
21
243.3682615942
0
LINE
5
26D
100
AcDbEntity
8
0
100
AcDbLine
62
7
6
CONTINUOUS
10
89.9869919874
20
227.1046970076
11
90.2152844526
21
227.2341182417
0
LINE
5
26E
100
AcDbEntity
8
0
100
AcDbLine
62
7
6
CONTINUOUS
10
89.5617543318
20
228.2810304350
11
89.7085229017
21
228.3545262999
0
LINE
5
26F
100
AcDbEntity
8
0
100
AcDbLine
62
7
6
CONTINUOUS
10
88.9584046461
20
227.9486921019
11
88.8116379835
21
227.8751962370
0
LINE
5
270
100
AcDbEntity
8
0
100
AcDbLine
62
7
6
CONTINUOUS
10
88.5007268049
20
228.9124696440
11
88.2887154677
21
228.8214032835
0
LINE
5
271
100
AcDbEntity
8
0
100
AcDbLine
62
7
6
CONTINUOUS
10
87.8006669142
20
227.2632320113
11
87.5886555769
21
227.1721651739
0
LINE
5
272
100
AcDbEntity
8
0
100
AcDbLine
62
7
6
CONTINUOUS
10
117.0188218214
20
190.0338442511
11
105.0188218214
21
190.0338442511
0
LINE
5
273
100
AcDbEntity
8
0
100
AcDbLine
62
7
6
CONTINUOUS
10
115.7188218214
20
191.3338442511
11
106.3188218214
21
191.3338442511
0
LINE
5
274
100
AcDbEntity
8
0
100
AcDbLine
62
7
6
CONTINUOUS
10
90.7357319965
20
202.0602806196
11
83.2729062833
21
220.0771356702
0
LINE
5
275
100
AcDbEntity
8
0
100
AcDbLine
62
7
6
CONTINUOUS
10
100.4394007780
20
242.4059717841
11
100.5010701277
21
242.5791571326
0
LINE
5
276
100
AcDbEntity
8
0
100
AcDbLine
62
7
6
CONTINUOUS
10
100.2311984160
20
240.1532557196
11
100.1695290663
21
239.9800684637
0
LINE
5
277
100
AcDbEntity
8
0
100
AcDbLine
62
7
6
CONTINUOUS
10
102.0094367125
20
241.1799223608
11
101.9477683165
21
241.0067351050
0
LINE
5
278
100
AcDbEntity
8
0
100
AcDbLine
62
7
6
CONTINUOUS
10
100.3588801481
20
239.7454378790
11
100.4715911009
21
240.0168821997
0
LINE
5
279
100
AcDbEntity
8
0
100
AcDbLine
62
7
6
CONTINUOUS
10
102.1371184446
20
240.7721045203
11
102.2498293974
21
241.0435488409
0
LINE
5
27A
100
AcDbEntity
8
0
100
AcDbLine
62
7
6
CONTINUOUS
10
104.0087543585
20
243.5036699957
11
104.1108380415
21
243.7001879401
0
LINE
5
27B
100
AcDbEntity
8
0
100
AcDbLine
62
7
6
CONTINUOUS
10
105.2894512274
20
242.5921042151
11
105.3404928305
21
242.6903631873
0
LINE
5
27C
100
AcDbEntity
8
0
100
AcDbLine
62
7
6
CONTINUOUS
10
109.4200813629
20
244.7299196906
11
109.3273306944
21
244.6115153021
0
LINE
5
27D
100
AcDbEntity
8
0
100
AcDbLine
62
7
6
CONTINUOUS
10
111.5069705703
20
243.1314509100
11
111.6924718477
21
243.3682615942
0
LINE
5
27E
100
AcDbEntity
8
0
100
AcDbLine
62
7
6
CONTINUOUS
10
96.0188218214
20
195.0338442511
11
126.0188218214
21
195.0338442511
0
LINE
5
27F
100
AcDbEntity
8
0
100
AcDbLine
62
7
6
CONTINUOUS
10
88.0607892134
20
228.2844417281
11
88.0935937025
21
228.0894572920
0
LINE
5
280
100
AcDbEntity
8
0
100
AcDbLine
62
7
6
CONTINUOUS
10
88.7148057081
20
226.6941430754
11
88.6820012190
21
226.8891275114
0
LINE
5
281
100
AcDbEntity
8
0
100
AcDbLine
62
7
6
CONTINUOUS
10
96.0188218214
20
195.0338442511
11
96.0188218214
21
197.1343057681
0
LINE
5
282
100
AcDbEntity
8
0
100
AcDbLine
62
7
6
CONTINUOUS
10
97.0487700560
20
240.9987147040
11
96.8830767729
21
239.0457041449
0
LINE
5
283
100
AcDbEntity
8
0
100
AcDbLine
62
7
6
CONTINUOUS
10
97.1659785368
20
239.2090380377
11
97.2870684721
21
240.5859720892
0
LINE
5
284
100
AcDbEntity
8
0
100
AcDbLine
62
7
6
CONTINUOUS
10
98.4207688429
20
241.5156767554
11
98.3888875105
21
241.2908976263
0
LINE
5
285
100
AcDbEntity
8
0
100
AcDbLine
62
7
6
CONTINUOUS
10
100.1990080931
20
242.5423433966
11
100.1671258070
21
242.3175642676
0
LINE
5
286
100
AcDbEntity
8
0
100
AcDbLine
62
7
6
CONTINUOUS
10
103.8300310232
20
243.8132269568
11
103.7683616736
21
243.6400416083
0
LINE
5
287
100
AcDbEntity
8
0
100
AcDbLine
62
7
6
CONTINUOUS
10
105.2021843054
20
243.0232546515
11
105.1405149557
21
242.8500693030
0
LINE
5
288
100
AcDbEntity
8
0
100
AcDbLine
62
7
6
CONTINUOUS
10
109.5592073061
20
244.4339068121
11
109.6983332493
21
244.6707174963
0
LINE
5
289
100
AcDbEntity
8
0
100
AcDbLine
62
7
6
CONTINUOUS
10
113.7329858400
20
243.1314509100
11
113.9184869387
21
243.3682615942
0
LINE
5
28A
100
AcDbEntity
8
0
100
AcDbLine
62
7
6
CONTINUOUS
10
88.4199334242
20
228.0414645857
11
88.3708478071
21
228.1980946249
0
LINE
5
28B
100
AcDbEntity
8
0
100
AcDbLine
62
7
6
CONTINUOUS
10
90.1491891005
20
228.1674740500
11
90.1982747175
21
228.0108440108
0
LINE
5
28C
100
AcDbEntity
8
0
100
AcDbLine
62
7
6
CONTINUOUS
10
90.5083333113
20
227.9244969077
11
90.4755288222
21
228.1194813437
0
LINE
5
28D
100
AcDbEntity
8
0
100
AcDbLine
62
7
6
CONTINUOUS
10
90.7796269514
20
234.6896212286
11
90.8124314406
21
234.4946367926
0
LINE
5
28E
100
AcDbEntity
8
0
100
AcDbLine
62
7
6
CONTINUOUS
10
100.4715911009
20
240.0168821997
11
100.5034724333
21
240.2416613287
0
LINE
5
28F
100
AcDbEntity
8
0
100
AcDbLine
62
7
6
CONTINUOUS
10
102.2498293974
20
241.0435488409
11
102.2817116835
21
241.2683279700
0
LINE
5
290
100
AcDbEntity
8
0
100
AcDbLine
62
7
6
CONTINUOUS
10
102.8496094801
20
241.8713667578
11
102.9027453520
21
242.2459986395
0
LINE
5
291
100
AcDbEntity
8
0
100
AcDbLine
62
7
6
CONTINUOUS
10
105.8575035193
20
241.8882086462
11
105.9191723921
21
242.0613939947
0
LINE
5
292
100
AcDbEntity
8
0
100
AcDbLine
62
7
6
CONTINUOUS
10
111.5069705703
20
243.6642744727
11
111.4142199316
21
243.4866678900
0
LINE
5
293
100
AcDbEntity
8
0
100
AcDbLine
62
7
6
CONTINUOUS
10
113.7329858400
20
243.6642744727
11
113.6402350523
21
243.4866678900
0
LINE
5
294
100
AcDbEntity
8
0
100
AcDbLine
62
7
6
CONTINUOUS
10
129.9160923475
20
201.1343057681
11
129.0852026329
21
201.1343057681
0
LINE
5
295
100
AcDbEntity
8
0
100
AcDbLine
62
7
6
CONTINUOUS
10
92.9524410100
20
201.1343057681
11
92.1215512953
21
201.1343057681
0
LINE
5
296
100
AcDbEntity
8
0
100
AcDbLine
62
7
6
CONTINUOUS
10
115.7188218214
20
191.3338442511
11
117.0188218214
21
190.0338442511
0
LINE
5
297
100
AcDbEntity
8
0
100
AcDbLine
62
7
6
CONTINUOUS
10
88.3883458235
20
226.8779823965
11
88.4537106611
21
226.7597067541
0
LINE
5
298
100
AcDbEntity
8
0
100
AcDbLine
62
7
6
CONTINUOUS
10
88.0935937025
20
228.0894572920
11
88.2243233778
21
227.8529055304
0
LINE
5
299
100
AcDbEntity
8
0
100
AcDbLine
62
7
6
CONTINUOUS
10
91.0898076155
20
234.4674275107
11
91.0407219984
21
234.6240580267
0
LINE
5
29A
100
AcDbEntity
8
0
100
AcDbLine
62
7
6
CONTINUOUS
10
98.6782275297
20
240.9764139838
11
98.6611615278
21
241.3793051428
0
LINE
5
29B
100
AcDbEntity
8
0
100
AcDbLine
62
7
6
CONTINUOUS
10
100.2141333677
20
240.5561468787
11
100.2311984160
21
240.1532557196
0
LINE
5
29C
100
AcDbEntity
8
0
100
AcDbLine
62
7
6
CONTINUOUS
10
100.4564658262
20
242.0030806250
11
100.4394007780
21
242.4059717841
0
LINE
5
29D
100
AcDbEntity
8
0
100
AcDbLine
62
7
6
CONTINUOUS
10
102.9346276381
20
242.4707777686
11
102.9919530012
21
243.3981535620
0
LINE
5
29E
100
AcDbEntity
8
0
100
AcDbLine
62
7
6
CONTINUOUS
10
102.7494660475
20
243.2581541724
11
102.6708861448
21
242.1809256262
0
LINE
5
29F
100
AcDbEntity
8
0
100
AcDbLine
62
7
6
CONTINUOUS
10
103.7683616736
20
243.6400416083
11
103.7364798643
21
243.4152624792
0
LINE
5
2A0
100
AcDbEntity
8
0
100
AcDbLine
62
7
6
CONTINUOUS
10
105.3404928305
20
242.6903631873
11
105.3617478468
21
242.8402159399
0
LINE
5
2A1
100
AcDbEntity
8
0
100
AcDbLine
62
7
6
CONTINUOUS
10
105.6787797072
20
242.1977675146
11
105.6468978979
21
241.9729883856
0
LINE
5
2A2
100
AcDbEntity
8
0
100
AcDbLine
62
7
6
CONTINUOUS
10
109.4664566376
20
244.9075281805
11
109.4200813629
21
244.7299196906
0
LINE
5
2A3
100
AcDbEntity
8
0
100
AcDbLine
62
7
6
CONTINUOUS
10
109.6983332493
20
244.6707174963
11
109.7447085240
21
244.8483259863
0
LINE
5
2A4
100
AcDbEntity
8
0
100
AcDbLine
62
7
6
CONTINUOUS
10
111.6924718477
20
243.3682615942
11
111.7852224567
21
243.6050722784
0
LINE
5
2A5
100
AcDbEntity
8
0
100
AcDbLine
62
7
6
CONTINUOUS
10
88.6820012190
20
226.8891275114
11
88.5349904158
21
227.0873248762
0
LINE
5
2A6
100
AcDbEntity
8
0
100
AcDbLine
62
7
6
CONTINUOUS
10
90.4755288222
20
228.1194813437
11
90.3447991469
21
228.3560331053
0
LINE
5
2A7
100
AcDbEntity
8
0
100
AcDbLine
62
7
6
CONTINUOUS
10
101.9923716643
20
241.5828135199
11
102.0094367125
21
241.1799223608
0
LINE
5
2A8
100
AcDbEntity
8
0
100
AcDbLine
62
7
6
CONTINUOUS
10
104.0172868826
20
243.3022234625
11
104.0087543585
21
243.5036699957
0
LINE
5
2A9
100
AcDbEntity
8
0
100
AcDbLine
62
7
6
CONTINUOUS
10
105.0188218214
20
190.0338442511
11
105.0188218214
21
178.0338442511
0
LINE
5
2AA
100
AcDbEntity
8
0
100
AcDbLine
62
7
6
CONTINUOUS
10
113.9184869387
20
243.3682615942
11
114.0112377264
21
243.6050722784
0
LINE
5
2AB
100
AcDbEntity
8
0
100
AcDbLine
62
7
6
CONTINUOUS
10
90.0348607161
20
228.3065335936
11
90.1491891005
21
228.1674740500
0
LINE
5
2AC
100
AcDbEntity
8
0
100
AcDbLine
62
7
6
CONTINUOUS
10
90.3399335005
20
233.7899000830
11
90.5849915602
21
233.4142887778
0
LINE
5
2AD
100
AcDbEntity
8
0
100
AcDbLine
62
7
6
CONTINUOUS
10
90.9766961195
20
233.2480204291
11
90.7316361525
21
233.6236317343
0
LINE
5
2AE
100
AcDbEntity
8
0
100
AcDbLine
62
7
6
CONTINUOUS
10
90.8124314406
20
234.4946367926
11
90.9431611159
21
234.2580855078
0
LINE
5
2AF
100
AcDbEntity
8
0
100
AcDbLine
62
7
6
CONTINUOUS
10
91.8560830214
20
235.0474627203
11
92.6243058302
21
233.4539511389
0
LINE
5
2B0
100
AcDbEntity
8
0
100
AcDbLine
62
7
6
CONTINUOUS
10
92.7545510389
20
233.7607863135
11
92.0843754866
21
235.1768839545
0
LINE
5
2B1
100
AcDbEntity
8
0
100
AcDbLine
62
7
6
CONTINUOUS
10
98.3888875105
20
241.2908976263
11
98.4272070982
21
241.0378592200
0
LINE
5
2B2
100
AcDbEntity
8
0
100
AcDbLine
62
7
6
CONTINUOUS
10
100.1671258070
20
242.3175642676
11
100.2054463484
21
242.0645258612
0
LINE
5
2B3
100
AcDbEntity
8
0
100
AcDbLine
62
7
6
CONTINUOUS
10
100.5034724333
20
240.2416613287
11
100.4651528456
21
240.4946997351
0
LINE
5
2B4
100
AcDbEntity
8
0
100
AcDbLine
62
7
6
CONTINUOUS
10
105.1936513044
20
243.2247011847
11
105.2021843054
21
243.0232546515
0
LINE
5
2B5
100
AcDbEntity
8
0
100
AcDbLine
62
7
6
CONTINUOUS
10
105.9191723921
20
242.0613939947
11
105.9106398680
21
242.2628405280
0
LINE
5
2B6
100
AcDbEntity
8
0
100
AcDbLine
62
7
6
CONTINUOUS
10
106.3188218214
20
195.0338442511
11
106.3188218214
21
191.3338442511
0
LINE
5
2B7
100
AcDbEntity
8
0
100
AcDbLine
62
7
6
CONTINUOUS
10
108.0288218119
20
245.7363627142
11
108.0288218119
21
242.9538443274
0
LINE
5
2B8
100
AcDbEntity
8
0
100
AcDbLine
62
7
6
CONTINUOUS
10
108.3070736982
20
242.9538443274
11
108.3070736982
21
244.1970980353
0
LINE
5
2B9
100
AcDbEntity
8
0
100
AcDbLine
62
7
6
CONTINUOUS
10
108.3070736982
20
244.5523131079
11
108.3070736982
21
245.4403498358
0
LINE
5
2BA
100
AcDbEntity
8
0
100
AcDbLine
62
7
6
CONTINUOUS
10
111.7852224567
20
243.6050722784
11
111.8315977909
21
243.9010851569
0
LINE
5
2BB
100
AcDbEntity
8
0
100
AcDbLine
62
7
6
CONTINUOUS
10
111.5533459046
20
243.9010851569
11
111.5069705703
21
243.6642744727
0
LINE
5
2BC
100
AcDbEntity
8
0
100
AcDbLine
62
7
6
CONTINUOUS
10
113.7793611147
20
243.9010851569
11
113.7329858400
21
243.6642744727
0
LINE
5
2BD
100
AcDbEntity
8
0
100
AcDbLine
62
7
6
CONTINUOUS
10
88.2577363112
20
226.9786875433
11
88.3883458235
21
226.8779823965
0
LINE
5
2BE
100
AcDbEntity
8
0
100
AcDbLine
62
7
6
CONTINUOUS
10
90.3447991469
20
228.3560331053
11
90.1815072157
21
228.5158760733
0
LINE
5
2BF
100
AcDbEntity
8
0
100
AcDbLine
62
7
6
CONTINUOUS
10
98.4272070982
20
241.0378592200
11
98.4761544325
21
240.8597471899
0
LINE
5
2C0
100
AcDbEntity
8
0
100
AcDbLine
62
7
6
CONTINUOUS
10
100.4651528456
20
240.4946997351
11
100.4162055113
21
240.6728136725
0
LINE
5
2C1
100
AcDbEntity
8
0
100
AcDbLine
62
7
6
CONTINUOUS
10
100.2054463484
20
242.0645258612
11
100.2543936827
21
241.8864138312
0
LINE
5
2C2
100
AcDbEntity
8
0
100
AcDbLine
62
7
6
CONTINUOUS
10
102.2817116835
20
241.2683279700
11
102.2433920958
21
241.5213663763
0
LINE
5
2C3
100
AcDbEntity
8
0
100
AcDbLine
62
7
6
CONTINUOUS
10
103.7364798643
20
243.4152624792
11
103.7556401350
21
243.2887423224
0
LINE
5
2C4
100
AcDbEntity
8
0
100
AcDbLine
62
7
6
CONTINUOUS
10
109.4664566376
20
245.0851347632
11
109.4664566376
21
244.9075281805
0
LINE
5
2C5
100
AcDbEntity
8
0
100
AcDbLine
62
7
6
CONTINUOUS
10
109.7447085240
20
244.8483259863
11
109.7447085240
21
245.0851347632
0
LINE
5
2C6
100
AcDbEntity
8
0
100
AcDbLine
62
7
6
CONTINUOUS
10
110.1620864131
20
245.7363627142
11
110.1620864131
21
243.9010851569
0
LINE
5
2C7
100
AcDbEntity
8
0
100
AcDbLine
62
7
6
CONTINUOUS
10
110.4403382995
20
243.9010851569
11
110.4403382995
21
245.7363627142
0
LINE
5
2C8
100
AcDbEntity
8
DEFAULT_1
100
AcDbLine
62
2
6
CENTER
10
111.0188218214
20
221.0338442511
11
111.0188218214
21
172.9697077185
0
LINE
5
2C9
100
AcDbEntity
8
DEFAULT_1
100
AcDbLine
62
2
6
CENTER
10
111.0188218214
20
221.0338442511
11
111.0188218214
21
239.0338442511
0
LINE
5
2CA
100
AcDbEntity
8
0
100
AcDbLine
62
7
6
CONTINUOUS
10
114.0112377264
20
243.6050722784
11
114.0576130011
21
243.9010851569
0
LINE
5
2CB
100
AcDbEntity
8
0
100
AcDbLine
62
7
6
CONTINUOUS
10
88.2243233778
20
227.8529055304
11
88.4038964369
21
227.7314169592
0
LINE
5
2CC
100
AcDbEntity
8
0
100
AcDbLine
62
7
6
CONTINUOUS
10
88.5349904158
20
227.0873248762
11
88.4043828108
21
227.1880300230
0
LINE
5
2CD
100
AcDbEntity
8
0
100
AcDbLine
62
7
6
CONTINUOUS
10
88.5505410292
20
227.9407594389
11
88.4199334242
21
228.0414645857
0
LINE
5
2CE
100
AcDbEntity
8
0
100
AcDbLine
62
7
6
CONTINUOUS
10
91.2041359999
20
234.3283684439
11
91.0898076155
21
234.4674275107
0
LINE
5
2CF
100
AcDbEntity
8
0
100
AcDbLine
62
7
6
CONTINUOUS
10
92.0843754866
20
235.1768839545
11
91.9700471022
21
235.3159439749
0
LINE
5
2D0
100
AcDbEntity
8
0
100
AcDbLine
62
7
6
CONTINUOUS
10
98.8165360548
20
240.6435225195
11
98.6782275297
21
240.9764139838
0
LINE
5
2D1
100
AcDbEntity
8
0
100
AcDbLine
62
7
6
CONTINUOUS
10
98.4761544325
20
240.8597471899
11
98.5846758940
21
240.5784475989
0
LINE
5
2D2
100
AcDbEntity
8
0
100
AcDbLine
62
7
6
CONTINUOUS
10
100.4162055113
20
240.6728136725
11
100.3076840498
21
240.9541113562
0
LINE
5
2D3
100
AcDbEntity
8
0
100
AcDbLine
62
7
6
CONTINUOUS
10
100.2543936827
20
241.8864138312
11
100.3629151442
21
241.6051142401
0
LINE
5
2D4
100
AcDbEntity
8
0
100
AcDbLine
62
7
6
CONTINUOUS
10
102.2433920958
20
241.5213663763
11
102.1944447615
21
241.6994803137
0
LINE
5
2D5
100
AcDbEntity
8
0
100
AcDbLine
62
7
6
CONTINUOUS
10
105.3617478468
20
242.8402159399
11
105.3425875761
21
242.9667360968
0
LINE
5
2D6
100
AcDbEntity
8
0
100
AcDbLine
62
7
6
CONTINUOUS
10
105.6596199133
20
242.3242857642
11
105.6787797072
21
242.1977675146
0
LINE
5
2D7
100
AcDbEntity
8
0
100
AcDbLine
62
7
6
CONTINUOUS
10
111.5533459046
20
245.7363627142
11
111.5533459046
21
243.9010851569
0
LINE
5
2D8
100
AcDbEntity
8
0
100
AcDbLine
62
7
6
CONTINUOUS
10
111.8315977909
20
243.9010851569
11
111.8315977909
21
245.7363627142
0
LINE
5
2D9
100
AcDbEntity
8
0
100
AcDbLine
62
7
6
CONTINUOUS
10
112.2026003458
20
245.7363627142
11
112.2026003458
21
242.9538443274
0
LINE
5
2DA
100
AcDbEntity
8
0
100
AcDbLine
62
7
6
CONTINUOUS
10
112.4808522322
20
243.3090594000
11
112.4808522322
21
245.3811476416
0
LINE
5
2DB
100
AcDbEntity
8
0
100
AcDbLine
62
7
6
CONTINUOUS
10
113.7793611147
20
244.7891218848
11
113.7793611147
21
243.9010851569
0
LINE
5
2DC
100
AcDbEntity
8
0
100
AcDbLine
62
7
6
CONTINUOUS
10
114.0576130011
20
243.9010851569
11
114.0576130011
21
244.7891218848
0
LINE
5
2DD
100
AcDbEntity
8
0
100
AcDbLine
62
7
6
CONTINUOUS
10
87.0675603010
20
226.0806720442
11
89.3688222029
21
225.1038444228
0
LINE
5
2DE
100
AcDbEntity
8
0
100
AcDbLine
62
7
6
CONTINUOUS
10
89.4665051558
20
225.3339703268
11
88.4382802107
21
225.7704255766
0
LINE
5
2DF
100
AcDbEntity
8
0
100
AcDbLine
62
7
6
CONTINUOUS
10
88.1445027449
20
225.8951270766
11
87.4100571730
21
226.2068803496
0
LINE
5
2E0
100
AcDbEntity
8
0
100
AcDbLine
62
7
6
CONTINUOUS
10
89.9654828169
20
232.9077494330
11
91.7777215101
21
231.4595244116
0
LINE
5
2E1
100
AcDbEntity
8
0
100
AcDbLine
62
7
6
CONTINUOUS
10
92.0876599409
20
231.5090239233
11
90.5039540388
21
232.8149769492
0
LINE
5
2E2
100
AcDbEntity
8
0
100
AcDbLine
62
7
6
CONTINUOUS
10
91.6927929976
20
235.2073061652
11
91.8560830214
21
235.0474627203
0
LINE
5
2E3
100
AcDbEntity
8
0
100
AcDbLine
62
7
6
CONTINUOUS
10
96.8830767729
20
239.0457041449
11
97.0618001082
21
238.7361471838
0
LINE
5
2E4
100
AcDbEntity
8
0
100
AcDbLine
62
7
6
CONTINUOUS
10
97.2870684721
20
240.5859720892
11
97.8530255415
21
239.6057036108
0
LINE
5
2E5
100
AcDbEntity
8
0
100
AcDbLine
62
7
6
CONTINUOUS
10
98.0317488768
20
239.2961466498
11
98.4487706282
21
238.5738451666
0
LINE
5
2E6
100
AcDbEntity
8
0
100
AcDbLine
62
7
6
CONTINUOUS
10
98.0955124952
20
239.7457049078
11
97.2912570097
21
241.1387160010
0
LINE
5
2E7
100
AcDbEntity
8
0
100
AcDbLine
62
7
6
CONTINUOUS
10
98.6912575819
20
238.7138445563
11
98.2742358305
21
239.4361460394
0
LINE
5
2E8
100
AcDbEntity
8
0
100
AcDbLine
62
7
6
CONTINUOUS
10
98.6783810713
20
239.6694796271
11
98.4996577360
21
239.9790384955
0
LINE
5
2E9
100
AcDbEntity
8
0
100
AcDbLine
62
7
6
CONTINUOUS
10
98.5846758940
20
240.5784475989
11
98.8527613737
21
240.1141112036
0
LINE
5
2EA
100
AcDbEntity
8
0
100
AcDbLine
62
7
6
CONTINUOUS
10
99.0250464537
20
240.2823717780
11
98.8165360548
21
240.6435225195
0
LINE
5
2EB
100
AcDbEntity
8
0
100
AcDbLine
62
7
6
CONTINUOUS
10
100.0758238890
20
240.8890383429
11
100.2141333677
21
240.5561468787
0
LINE
5
2EC
100
AcDbEntity
8
0
100
AcDbLine
62
7
6
CONTINUOUS
10
100.5947753050
20
241.6701891608
11
100.4564658262
21
242.0030806250
0
LINE
5
2ED
100
AcDbEntity
8
0
100
AcDbLine
62
7
6
CONTINUOUS
10
101.8540631392
20
241.9157049841
11
101.9923716643
21
241.5828135199
0
LINE
5
2EE
100
AcDbEntity
8
0
100
AcDbLine
62
7
6
CONTINUOUS
10
102.1944447615
20
241.6994803137
11
102.0859223463
21
241.9807779974
0
LINE
5
2EF
100
AcDbEntity
8
0
100
AcDbLine
62
7
6
CONTINUOUS
10
103.7556401350
20
243.2887423224
11
103.8343745329
21
243.0590384192
0
LINE
5
2F0
100
AcDbEntity
8
0
100
AcDbLine
62
7
6
CONTINUOUS
10
104.0662342169
20
243.1241114325
11
104.0172868826
21
243.3022234625
0
LINE
5
2F1
100
AcDbEntity
8
0
100
AcDbLine
62
7
6
CONTINUOUS
10
115.7188218214
20
195.0338442511
11
115.7188218214
21
191.3338442511
0
LINE
5
2F2
100
AcDbEntity
8
0
100
AcDbLine
62
7
6
CONTINUOUS
10
117.0188218214
20
190.0338442511
11
117.0188218214
21
178.0338442511
0
LINE
5
2F3
100
AcDbEntity
8
0
100
AcDbLine
62
7
6
CONTINUOUS
10
88.1108475783
20
227.0410382933
11
88.2577363112
21
226.9786875433
0
LINE
5
2F4
100
AcDbEntity
8
0
100
AcDbLine
62
7
6
CONTINUOUS
10
88.4043828108
20
227.1880300230
11
88.2085305311
21
227.2711646742
0
LINE
5
2F5
100
AcDbEntity
8
0
100
AcDbLine
62
7
6
CONTINUOUS
10
88.4038964369
20
227.7314169592
11
88.5997487166
21
227.6482827849
0
LINE
5
2F6
100
AcDbEntity
8
0
100
AcDbLine
62
7
6
CONTINUOUS
10
88.6484681227
20
227.8991925902
11
88.5505410292
21
227.9407594389
0
LINE
5
2F7
100
AcDbEntity
8
0
100
AcDbLine
62
7
6
CONTINUOUS
10
89.8879719832
20
228.3688843436
11
90.0348607161
21
228.3065335936
0
LINE
5
2F8
100
AcDbEntity
8
0
100
AcDbLine
62
7
6
CONTINUOUS
10
90.1815072157
20
228.5158760733
11
89.9366913893
21
228.6197941489
0
LINE
5
2F9
100
AcDbEntity
8
0
100
AcDbLine
62
7
6
CONTINUOUS
10
90.9431611159
20
234.2580855078
11
91.1227322676
21
234.1365969366
0
LINE
5
2FA
100
AcDbEntity
8
0
100
AcDbLine
62
7
6
CONTINUOUS
10
99.8673134901
20
241.2501890845
11
100.0758238890
21
240.8890383429
0
LINE
5
2FB
100
AcDbEntity
8
0
100
AcDbLine
62
7
6
CONTINUOUS
10
100.3076840498
20
240.9541113562
11
100.0395985701
21
241.4184477515
0
LINE
5
2FC
100
AcDbEntity
8
0
100
AcDbLine
62
7
6
CONTINUOUS
10
100.3629151442
20
241.6051142401
11
100.6309996702
21
241.1407778448
0
LINE
5
2FD
100
AcDbEntity
8
0
100
AcDbLine
62
7
6
CONTINUOUS
10
100.8032857039
20
241.3090384192
11
100.5947753050
21
241.6701891608
0
LINE
5
2FE
100
AcDbEntity
8
0
100
AcDbLine
62
7
6
CONTINUOUS
10
105.5808855154
20
242.5539915747
11
105.6596199133
21
242.3242857642
0
LINE
5
2FF
100
AcDbEntity
8
0
100
AcDbLine
62
7
6
CONTINUOUS
10
105.9106398680
20
242.2628405280
11
105.7829581358
21
242.6706583685
0
LINE
5
300
100
AcDbEntity
8
0
100
AcDbLine
62
7
6
CONTINUOUS
10
110.4867136337
20
243.6642744727
11
110.4403382995
21
243.9010851569
0
LINE
5
301
100
AcDbEntity
8
0
100
AcDbLine
62
7
6
CONTINUOUS
10
110.1620864131
20
243.9010851569
11
110.2084616878
21
243.6050722784
0
LINE
5
302
100
AcDbEntity
8
DEFAULT_1
100
AcDbLine
62
2
6
CENTER
10
111.0188218214
20
221.0338442511
11
93.0188218214
21
221.0338442511
0
LINE
5
303
100
AcDbEntity
8
DEFAULT_1
100
AcDbLine
62
2
6
CENTER
10
111.0188218214
20
221.0338442511
11
129.0188218214
21
221.0338442511
0
LINE
5
304
100
AcDbEntity
8
0
100
AcDbLine
62
7
6
CONTINUOUS
10
89.4812031843
20
227.1383316702
11
89.6933365919
21
227.0935518927
0
LINE
5
305
100
AcDbEntity
8
0
100
AcDbLine
62
7
6
CONTINUOUS
10
89.3305436232
20
231.4119293875
11
91.6318055250
21
230.4351017661
0
LINE
5
306
100
AcDbEntity
8
0
100
AcDbLine
62
7
6
CONTINUOUS
10
91.7294884779
20
230.6652281470
11
89.9178563215
21
231.4342196173
0
LINE
5
307
100
AcDbEntity
8
0
100
AcDbLine
62
7
6
CONTINUOUS
10
91.9700471022
20
235.3159439749
11
91.7904759504
21
235.4374325461
0
LINE
5
308
100
AcDbEntity
8
0
100
AcDbLine
62
7
6
CONTINUOUS
10
98.8527613737
20
240.1141112036
11
99.0421115019
21
239.8794787115
0
LINE
5
309
100
AcDbEntity
8
0
100
AcDbLine
62
7
6
CONTINUOUS
10
100.0395985701
20
241.4184477515
11
99.8502484419
21
241.6530802435
0
LINE
5
30A
100
AcDbEntity
8
0
100
AcDbLine
62
7
6
CONTINUOUS
10
99.2441845991
20
239.9961455054
11
99.0250464537
21
240.2823717780
0
LINE
5
30B
100
AcDbEntity
8
0
100
AcDbLine
62
7
6
CONTINUOUS
10
99.6481753447
20
241.5364134497
11
99.8673134901
21
241.2501890845
0
LINE
5
30C
100
AcDbEntity
8
0
100
AcDbLine
62
7
6
CONTINUOUS
10
101.0224238493
20
241.0228121466
11
100.8032857039
21
241.3090384192
0
LINE
5
30D
100
AcDbEntity
8
0
100
AcDbLine
62
7
6
CONTINUOUS
10
101.6455527403
20
242.2768557257
11
101.8540631392
21
241.9157049841
0
LINE
5
30E
100
AcDbEntity
8
0
100
AcDbLine
62
7
6
CONTINUOUS
10
102.0859223463
20
241.9807779974
11
101.8178378203
21
242.4451143927
0
LINE
5
30F
100
AcDbEntity
8
0
100
AcDbLine
62
7
6
CONTINUOUS
10
101.5751963713
20
243.6120493597
11
102.9751959898
21
241.1871779150
0
LINE
5
310
100
AcDbEntity
8
0
100
AcDbLine
62
7
6
CONTINUOUS
10
102.6708861448
20
242.1809256262
11
101.7772685148
21
243.7287161536
0
LINE
5
311
100
AcDbEntity
8
0
100
AcDbLine
62
7
6
CONTINUOUS
10
103.1772690870
20
241.3038447089
11
102.8496094801
21
241.8713667578
0
LINE
5
312
100
AcDbEntity
8
0
100
AcDbLine
62
7
6
CONTINUOUS
10
103.8343745329
20
243.0590384192
11
104.0726724722
21
242.6462938971
0
LINE
5
313
100
AcDbEntity
8
0
100
AcDbLine
62
7
6
CONTINUOUS
10
104.2449575522
20
242.8145525641
11
104.0662342169
21
243.1241114325
0
LINE
5
314
100
AcDbEntity
8
0
100
AcDbLine
62
7
6
CONTINUOUS
10
109.7910837986
20
242.9538443274
11
109.3737059691
21
244.3155024237
0
LINE
5
315
100
AcDbEntity
8
0
100
AcDbLine
62
7
6
CONTINUOUS
10
109.0954540827
20
244.1970980353
11
109.4664566376
21
242.9538443274
0
LINE
5
316
100
AcDbEntity
8
0
100
AcDbLine
62
7
6
CONTINUOUS
10
109.4200813629
20
245.2627432532
11
109.4664566376
21
245.0851347632
0
LINE
5
317
100
AcDbEntity
8
0
100
AcDbLine
62
7
6
CONTINUOUS
10
109.7447085240
20
245.0851347632
11
109.6983332493
21
245.2627432532
0
LINE
5
318
100
AcDbEntity
8
0
100
AcDbLine
62
7
6
CONTINUOUS
10
113.7329858400
20
245.0259325690
11
113.7793611147
21
244.7891218848
0
LINE
5
319
100
AcDbEntity
8
0
100
AcDbLine
62
7
6
CONTINUOUS
10
114.0576130011
20
244.7891218848
11
114.0112377264
21
245.0851347632
0
LINE
5
31A
100
AcDbEntity
8
0
100
AcDbLine
62
7
6
CONTINUOUS
10
106.3188218214
20
191.3338442511
11
105.0188218214
21
190.0338442511
0
LINE
5
31B
100
AcDbEntity
8
0
100
AcDbLine
62
7
6
CONTINUOUS
10
89.9874802687
20
226.5613100714
11
88.7148057081
21
226.6941430754
0
LINE
5
31C
100
AcDbEntity
8
0
100
AcDbLine
62
7
6
CONTINUOUS
10
88.7150498488
20
226.4224498457
11
89.8735161879
21
226.2928297705
0
LINE
5
31D
100
AcDbEntity
8
0
100
AcDbLine
62
7
6
CONTINUOUS
10
87.9476777174
20
227.0650346465
11
88.1108475783
21
227.0410382933
0
LINE
5
31E
100
AcDbEntity
8
0
100
AcDbLine
62
7
6
CONTINUOUS
10
88.2085305311
20
227.2711646742
11
88.0453606703
21
227.2951605505
0
LINE
5
31F
100
AcDbEntity
8
0
100
AcDbLine
62
7
6
CONTINUOUS
10
89.7420559981
20
227.3444616980
11
89.5788861372
21
227.3684580511
0
LINE
5
320
100
AcDbEntity
8
0
100
AcDbLine
62
7
6
CONTINUOUS
10
88.8116379835
20
227.8751962370
11
88.6484681227
21
227.8991925902
0
LINE
5
321
100
AcDbEntity
8
0
100
AcDbLine
62
7
6
CONTINUOUS
10
88.9085904219
20
228.9204023070
11
88.7454205610
21
228.9443986601
0
LINE
5
322
100
AcDbEntity
8
0
100
AcDbLine
62
7
6
CONTINUOUS
10
88.5997487166
20
227.6482827849
11
88.8118802168
21
227.6035025305
0
LINE
5
323
100
AcDbEntity
8
0
100
AcDbLine
62
7
6
CONTINUOUS
10
90.5039540388
20
232.8149769492
11
92.3155861952
21
232.0459854788
0
LINE
5
324
100
AcDbEntity
8
0
100
AcDbLine
62
7
6
CONTINUOUS
10
92.4132691481
20
232.2761109061
11
90.1120072462
21
233.2529394812
0
LINE
5
325
100
AcDbEntity
8
0
100
AcDbLine
62
7
6
CONTINUOUS
10
90.5849915602
20
233.4142887778
11
90.9766961195
21
233.2480204291
0
LINE
5
326
100
AcDbEntity
8
0
100
AcDbLine
62
7
6
CONTINUOUS
10
90.7316361525
20
233.6236317343
11
92.6411954024
21
232.8130724615
0
LINE
5
327
100
AcDbEntity
8
0
100
AcDbLine
62
7
6
CONTINUOUS
10
92.7388783552
20
233.0431988425
11
90.4376164534
21
234.0200264639
0
LINE
5
328
100
AcDbEntity
8
0
100
AcDbLine
62
7
6
CONTINUOUS
10
92.6243058302
20
233.4539511389
11
92.8691216566
21
233.3500340170
0
LINE
5
329
100
AcDbEntity
8
0
100
AcDbLine
62
7
6
CONTINUOUS
10
99.0421115019
20
239.8794787115
11
99.1718884565
21
239.7480337805
0
LINE
5
32A
100
AcDbEntity
8
0
100
AcDbLine
62
7
6
CONTINUOUS
10
99.8502484419
20
241.6530802435
11
99.7204714873
21
241.7845251746
0
LINE
5
32B
100
AcDbEntity
8
0
100
AcDbLine
62
7
6
CONTINUOUS
10
100.8203507521
20
240.9061453528
11
100.9501267531
21
240.7747004218
0
LINE
5
32C
100
AcDbEntity
8
0
100
AcDbLine
62
7
6
CONTINUOUS
10
100.6309996702
20
241.1407778448
11
100.8203507521
21
240.9061453528
0
LINE
5
32D
100
AcDbEntity
8
0
100
AcDbLine
62
7
6
CONTINUOUS
10
101.8178378203
20
242.4451143927
11
101.6284867384
21
242.6797468848
0
LINE
5
32E
100
AcDbEntity
8
0
100
AcDbLine
62
7
6
CONTINUOUS
10
101.4264145949
20
242.5630800909
11
101.6455527403
21
242.2768557257
0
LINE
5
32F
100
AcDbEntity
8
0
100
AcDbLine
62
7
6
CONTINUOUS
10
104.8957792380
20
243.7406313605
11
105.1936513044
21
243.2247011847
0
LINE
5
330
100
AcDbEntity
8
0
100
AcDbLine
62
7
6
CONTINUOUS
10
105.3425875761
20
242.9667360968
11
105.5808855154
21
242.5539915747
0
LINE
5
331
100
AcDbEntity
8
0
100
AcDbLine
62
7
6
CONTINUOUS
10
104.5681196310
20
244.3081534094
11
104.7468429663
21
243.9985964484
0
LINE
5
332
100
AcDbEntity
8
0
100
AcDbLine
62
7
6
CONTINUOUS
10
105.7829581358
20
242.6706583685
11
104.7701922514
21
244.4248202032
0
LINE
5
333
100
AcDbEntity
8
0
100
AcDbLine
62
7
6
CONTINUOUS
10
110.2084616878
20
243.6050722784
11
110.3012123563
21
243.3682615942
0
LINE
5
334
100
AcDbEntity
8
0
100
AcDbLine
62
7
6
CONTINUOUS
10
126.0188218214
20
195.0338442511
11
126.0188218214
21
197.1343057681
0
LINE
5
335
100
AcDbEntity
8
0
100
AcDbLine
62
7
6
CONTINUOUS
10
89.6933365919
20
227.0935518927
11
89.9869919874
21
227.1046970076
0
LINE
5
336
100
AcDbEntity
8
0
100
AcDbLine
62
7
6
CONTINUOUS
10
89.9366913893
20
228.6197941489
11
89.7082787611
21
228.6262195296
0
LINE
5
337
100
AcDbEntity
8
0
100
AcDbLine
62
7
6
CONTINUOUS
10
88.6967011549
20
228.6934888548
11
88.8109074690
21
228.6902759261
0
LINE
5
338
100
AcDbEntity
8
0
100
AcDbLine
62
7
6
CONTINUOUS
10
91.5948659041
20
235.2488730139
11
91.6927929976
21
235.2073061652
0
LINE
5
339
100
AcDbEntity
8
0
100
AcDbLine
62
7
6
CONTINUOUS
10
93.4552174666
20
234.7307903952
11
93.2104035475
21
234.8347084708
0
LINE
5
33A
100
AcDbEntity
8
0
100
AcDbLine
62
7
6
CONTINUOUS
10
91.7904759504
20
235.4374325461
11
91.6925488569
21
235.4789993948
0
LINE
5
33B
100
AcDbEntity
8
0
100
AcDbLine
62
7
6
CONTINUOUS
10
99.1718884565
20
239.7480337805
11
99.3718663313
21
239.5883276648
0
LINE
5
33C
100
AcDbEntity
8
0
100
AcDbLine
62
7
6
CONTINUOUS
10
100.9501267531
20
240.7747004218
11
101.1501046278
21
240.6149962134
0
LINE
5
33D
100
AcDbEntity
8
0
100
AcDbLine
62
7
6
CONTINUOUS
10
99.7204714873
20
241.7845251746
11
99.5204936125
21
241.9442312903
0
LINE
5
33E
100
AcDbEntity
8
0
100
AcDbLine
62
7
6
CONTINUOUS
10
101.6284867384
20
242.6797468848
11
101.4987107374
21
242.8111918158
0
LINE
5
33F
100
AcDbEntity
8
0
100
AcDbLine
62
7
6
CONTINUOUS
10
104.0726724722
20
242.6462938971
11
104.2322355368
21
242.4632551855
0
LINE
5
340
100
AcDbEntity
8
0
100
AcDbLine
62
7
6
CONTINUOUS
10
109.6983332493
20
245.2627432532
11
109.5592073061
21
245.4995539374
0
LINE
5
341
100
AcDbEntity
8
0
100
AcDbLine
62
7
6
CONTINUOUS
10
110.5794642427
20
243.4866678900
11
110.4867136337
21
243.6642744727
0
LINE
5
342
100
AcDbEntity
8
0
100
AcDbLine
62
7
6
CONTINUOUS
10
114.0112377264
20
245.0851347632
11
113.9184869387
21
245.3219454474
0
LINE
5
343
100
AcDbEntity
8
0
100
AcDbLine
62
7
6
CONTINUOUS
10
88.0453606703
20
227.2951605505
11
87.8006669142
21
227.2632320113
0
LINE
5
344
100
AcDbEntity
8
0
100
AcDbLine
62
7
6
CONTINUOUS
10
89.7085229017
20
228.3545262999
11
89.8879719832
21
228.3688843436
0
LINE
5
345
100
AcDbEntity
8
0
100
AcDbLine
62
7
6
CONTINUOUS
10
89.9178563215
20
231.4342196173
11
91.9574147322
21
231.2021887488
0
LINE
5
346
100
AcDbEntity
8
0
100
AcDbLine
62
7
6
CONTINUOUS
10
91.7777215101
20
231.4595244116
11
89.4770680525
21
231.7571184821
0
LINE
5
347
100
AcDbEntity
8
0
100
AcDbLine
62
7
6
CONTINUOUS
10
91.6925488569
20
235.4789993948
11
91.4804173567
21
235.5237791724
0
LINE
5
348
100
AcDbEntity
8
0
100
AcDbLine
62
7
6
CONTINUOUS
10
99.5845662214
20
239.7799208350
11
99.2441845991
21
239.9961455054
0
LINE
5
349
100
AcDbEntity
8
0
100
AcDbLine
62
7
6
CONTINUOUS
10
99.3077937224
20
241.7526381201
11
99.6481753447
21
241.5364134497
0
LINE
5
34A
100
AcDbEntity
8
0
100
AcDbLine
62
7
6
CONTINUOUS
10
101.3628045180
20
240.8065874762
11
101.0224238493
21
241.0228121466
0
LINE
5
34B
100
AcDbEntity
8
0
100
AcDbLine
62
7
6
CONTINUOUS
10
101.4987107374
20
242.8111918158
11
101.2987328627
21
242.9708979315
0
LINE
5
34C
100
AcDbEntity
8
0
100
AcDbLine
62
7
6
CONTINUOUS
10
104.5492678740
20
241.8208048529
11
104.8088203528
21
241.5579149908
0
LINE
5
34D
100
AcDbEntity
8
0
100
AcDbLine
62
7
6
CONTINUOUS
10
104.8811169722
20
241.8060267157
11
104.7513404944
21
241.9374716467
0
LINE
5
34E
100
AcDbEntity
8
0
100
AcDbLine
62
7
6
CONTINUOUS
10
104.3747340300
20
242.6831076331
11
104.2449575522
21
242.8145525641
0
LINE
5
34F
100
AcDbEntity
8
0
100
AcDbLine
62
7
6
CONTINUOUS
10
110.3012123563
20
243.3682615942
11
110.4867136337
21
243.1314509100
0
LINE
5
350
100
AcDbEntity
8
0
100
AcDbLine
62
7
6
CONTINUOUS
10
113.6402350523
20
245.2035410590
11
113.7329858400
21
245.0259325690
0
LINE
5
351
100
AcDbEntity
8
0
100
AcDbLine
62
7
6
CONTINUOUS
10
89.9377862074
20
227.3971741385
11
89.7420559981
21
227.3444616980
0
LINE
5
352
100
AcDbEntity
8
0
100
AcDbLine
62
7
6
CONTINUOUS
10
87.8171902754
20
227.0298931784
11
87.9476777174
21
227.0650346465
0
LINE
5
353
100
AcDbEntity
8
0
100
AcDbLine
62
7
6
CONTINUOUS
10
88.8118802168
20
227.6035025305
11
89.0728551008
21
227.6737859434
0
LINE
5
354
100
AcDbEntity
8
0
100
AcDbLine
62
7
6
CONTINUOUS
10
89.7082787611
20
228.6262195296
11
89.4473057844
21
228.5559361166
0
LINE
5
355
100
AcDbEntity
8
0
100
AcDbLine
62
7
6
CONTINUOUS
10
88.5662137129
20
228.6583473868
11
88.6967011549
21
228.6934888548
0
LINE
5
356
100
AcDbEntity
8
0
100
AcDbLine
62
7
6
CONTINUOUS
10
88.7454205610
20
228.9443986601
11
88.5007268049
21
228.9124696440
0
LINE
5
357
100
AcDbEntity
8
0
100
AcDbLine
62
7
6
CONTINUOUS
10
99.3718663313
20
239.5883276648
11
99.5824709990
21
239.5035498328
0
LINE
5
358
100
AcDbEntity
8
0
100
AcDbLine
62
7
6
CONTINUOUS
10
102.9027453520
20
242.2459986395
11
103.8643156149
21
241.7005102820
0
LINE
5
359
100
AcDbEntity
8
0
100
AcDbLine
62
7
6
CONTINUOUS
10
101.0860329725
20
242.7793047614
11
101.4264145949
21
242.5630800909
0
LINE
5
35A
100
AcDbEntity
8
0
100
AcDbLine
62
7
6
CONTINUOUS
10
105.0513077833
20
241.6979143805
11
104.8811169722
21
241.8060267157
0
LINE
5
35B
100
AcDbEntity
8
0
100
AcDbLine
62
7
6
CONTINUOUS
10
104.2322355368
20
242.4632551855
11
104.3322244742
21
242.3834021277
0
LINE
5
35C
100
AcDbEntity
8
0
100
AcDbLine
62
7
6
CONTINUOUS
10
104.4747229674
20
242.6032545752
11
104.3747340300
21
242.6831076331
0
LINE
5
35D
100
AcDbEntity
8
0
100
AcDbLine
62
7
6
CONTINUOUS
10
104.7468429663
20
243.9985964484
11
104.6468540289
21
244.0784475989
0
LINE
5
35E
100
AcDbEntity
8
0
100
AcDbLine
62
7
6
CONTINUOUS
10
109.3273306944
20
245.3811476416
11
109.4200813629
21
245.2627432532
0
LINE
5
35F
100
AcDbEntity
8
0
100
AcDbLine
62
7
6
CONTINUOUS
10
138.7647373596
20
220.0771356702
11
131.3019116463
21
202.0602806196
0
LINE
5
360
100
AcDbEntity
8
0
100
AcDbLine
62
7
6
CONTINUOUS
10
91.4154168226
20
235.2345154471
11
91.5948659041
21
235.2488730139
0
LINE
5
361
100
AcDbEntity
8
0
100
AcDbLine
62
7
6
CONTINUOUS
10
99.7653838255
20
239.7467348761
11
99.5845662214
21
239.7799208350
0
LINE
5
362
100
AcDbEntity
8
0
100
AcDbLine
62
7
6
CONTINUOUS
10
101.1501046278
20
240.6149962134
11
101.3607102492
21
240.5302164740
0
LINE
5
363
100
AcDbEntity
8
0
100
AcDbLine
62
7
6
CONTINUOUS
10
99.5204936125
20
241.9442312903
11
99.3098889448
21
242.0290091223
0
LINE
5
364
100
AcDbEntity
8
0
100
AcDbLine
62
7
6
CONTINUOUS
10
104.8088203528
20
241.5579149908
11
105.0194254973
21
241.4731352515
0
LINE
5
365
100
AcDbEntity
8
0
100
AcDbLine
62
7
6
CONTINUOUS
10
101.2987328627
20
242.9708979315
11
101.0881272413
21
243.0556757635
0
LINE
5
366
100
AcDbEntity
8
0
100
AcDbLine
62
7
6
CONTINUOUS
10
104.1068030455
20
241.8405115790
11
102.9346276381
21
242.4707777686
0
LINE
5
367
100
AcDbEntity
8
0
100
AcDbLine
62
7
6
CONTINUOUS
10
104.7255884268
20
243.8487436957
11
104.8957792380
21
243.7406313605
0
LINE
5
368
100
AcDbEntity
8
0
100
AcDbLine
62
7
6
CONTINUOUS
10
110.7185901858
20
243.3682615942
11
110.5794642427
21
243.4866678900
0
LINE
5
369
100
AcDbEntity
8
0
100
AcDbLine
62
7
6
CONTINUOUS
10
109.5592073061
20
245.4995539374
11
109.3737059691
21
245.6771605200
0
LINE
5
36A
100
AcDbEntity
8
0
100
AcDbLine
62
7
6
CONTINUOUS
10
113.9184869387
20
245.3219454474
11
113.7329858400
21
245.5587561316
0
LINE
5
36B
100
AcDbEntity
8
0
100
AcDbLine
62
7
6
CONTINUOUS
10
91.4804173567
20
235.5237791724
11
91.2194424727
21
235.4534962363
0
LINE
5
36C
100
AcDbEntity
8
0
100
AcDbLine
62
7
6
CONTINUOUS
10
99.5824709990
20
239.5035498328
11
99.8739052870
21
239.4654371924
0
LINE
5
36D
100
AcDbEntity
8
0
100
AcDbLine
62
7
6
CONTINUOUS
10
101.3607102492
20
240.5302164740
11
101.6521445372
21
240.4921038336
0
LINE
5
36E
100
AcDbEntity
8
0
100
AcDbLine
62
7
6
CONTINUOUS
10
99.3098889448
20
242.0290091223
11
99.0184546568
21
242.0671217627
0
LINE
5
36F
100
AcDbEntity
8
0
100
AcDbLine
62
7
6
CONTINUOUS
10
101.5436230757
20
240.7734015173
11
101.3628045180
21
240.8065874762
0
LINE
5
370
100
AcDbEntity
8
0
100
AcDbLine
62
7
6
CONTINUOUS
10
99.1269761183
20
241.7858240790
11
99.3077937224
21
241.7526381201
0
LINE
5
371
100
AcDbEntity
8
0
100
AcDbLine
62
7
6
CONTINUOUS
10
105.0194254973
20
241.4731352515
11
105.2002435782
21
241.4399492926
0
LINE
5
372
100
AcDbEntity
8
0
100
AcDbLine
62
7
6
CONTINUOUS
10
100.9052153685
20
242.8124907202
11
101.0860329725
21
242.7793047614
0
LINE
5
373
100
AcDbEntity
8
0
100
AcDbLine
62
7
6
CONTINUOUS
10
104.5428300955
20
242.2986223883
11
104.7236481764
21
242.2654364294
0
LINE
5
374
100
AcDbEntity
8
0
100
AcDbLine
62
7
6
CONTINUOUS
10
104.3322244742
20
242.3834021277
11
104.5428300955
21
242.2986223883
0
LINE
5
375
100
AcDbEntity
8
0
100
AcDbLine
62
7
6
CONTINUOUS
10
104.6468540289
20
244.0784475989
11
104.5064502813
21
244.1349680609
0
LINE
5
376
100
AcDbEntity
8
0
100
AcDbLine
62
7
6
CONTINUOUS
10
110.4867136337
20
243.1314509100
11
110.6722148814
21
243.0130465216
0
LINE
5
377
100
AcDbEntity
8
0
100
AcDbLine
62
7
6
CONTINUOUS
10
113.5011092283
20
245.3219454474
11
113.6402350523
21
245.2035410590
0
LINE
5
378
100
AcDbEntity
8
0
100
AcDbLine
62
7
6
CONTINUOUS
10
117.0188218214
20
178.0338442511
11
116.0188218214
21
177.0338442511
0
LINE
5
379
100
AcDbEntity
8
0
100
AcDbLine
62
7
6
CONTINUOUS
10
99.9972439863
20
239.8118097968
11
99.7653838255
21
239.7467348761
0
LINE
5
37A
100
AcDbEntity
8
0
100
AcDbLine
62
7
6
CONTINUOUS
10
101.7754822828
20
240.8384764380
11
101.5436230757
21
240.7734015173
0
LINE
5
37B
100
AcDbEntity
8
0
100
AcDbLine
62
7
6
CONTINUOUS
10
113.3156078913
20
242.9538443274
11
113.5474845030
21
243.0130465216
0
LINE
5
37C
100
AcDbEntity
8
0
100
AcDbLine
62
7
6
CONTINUOUS
10
111.0895927184
20
242.9538443274
11
111.3214692928
21
243.0130465216
0
LINE
5
37D
100
AcDbEntity
8
0
100
AcDbLine
62
7
6
CONTINUOUS
10
105.2002435782
20
241.4399492926
11
105.3916889288
21
241.4816897101
0
LINE
5
37E
100
AcDbEntity
8
0
100
AcDbLine
62
7
6
CONTINUOUS
10
104.7236481764
20
242.2654364294
11
104.9150930502
21
242.3071768469
0
LINE
5
37F
100
AcDbEntity
8
0
100
AcDbLine
62
7
6
CONTINUOUS
10
104.8469859221
20
242.6118090338
11
104.6555410483
21
242.5700686163
0
LINE
5
380
100
AcDbEntity
8
0
100
AcDbLine
62
7
6
CONTINUOUS
10
108.0288218119
20
242.9538443274
11
108.3070736982
21
242.9538443274
0
LINE
5
381
100
AcDbEntity
8
0
100
AcDbLine
62
7
6
CONTINUOUS
10
109.4664566376
20
242.9538443274
11
109.7910837986
21
242.9538443274
0
LINE
5
382
100
AcDbEntity
8
0
100
AcDbLine
62
7
6
CONTINUOUS
10
110.9040914558
20
242.9538443274
11
111.0895927184
21
242.9538443274
0
LINE
5
383
100
AcDbEntity
8
0
100
AcDbLine
62
7
6
CONTINUOUS
10
112.2026003458
20
242.9538443274
11
113.3156078913
21
242.9538443274
0
LINE
5
384
100
AcDbEntity
8
0
100
AcDbLine
62
7
6
CONTINUOUS
10
113.3156078913
20
243.3090594000
11
112.4808522322
21
243.3090594000
0
LINE
5
385
100
AcDbEntity
8
0
100
AcDbLine
62
7
6
CONTINUOUS
10
111.0895927184
20
243.3090594000
11
110.9040914558
21
243.3090594000
0
LINE
5
386
100
AcDbEntity
8
0
100
AcDbLine
62
7
6
CONTINUOUS
10
105.2725401976
20
241.6880610175
11
105.0513077833
21
241.6979143805
0
LINE
5
387
100
AcDbEntity
8
0
100
AcDbLine
62
7
6
CONTINUOUS
10
101.0881272413
20
243.0556757635
11
100.7966929533
21
243.0937884039
0
LINE
5
388
100
AcDbEntity
8
0
100
AcDbLine
62
7
6
CONTINUOUS
10
104.6555410483
20
242.5700686163
11
104.4747229674
21
242.6032545752
0
LINE
5
389
100
AcDbEntity
8
0
100
AcDbLine
62
7
6
CONTINUOUS
10
104.5447703459
20
243.8819296545
11
104.7255884268
21
243.8487436957
0
LINE
5
38A
100
AcDbEntity
8
0
100
AcDbLine
62
7
6
CONTINUOUS
10
110.6722148814
20
243.0130465216
11
110.9040914558
21
242.9538443274
0
LINE
5
38B
100
AcDbEntity
8
0
100
AcDbLine
62
7
6
CONTINUOUS
10
110.9040914558
20
243.3090594000
11
110.7185901858
21
243.3682615942
0
LINE
5
38C
100
AcDbEntity
8
0
100
AcDbLine
62
7
6
CONTINUOUS
10
109.1882047512
20
245.4403498358
11
109.3273306944
21
245.3811476416
0
LINE
5
38D
100
AcDbEntity
8
0
100
AcDbLine
62
7
6
CONTINUOUS
10
113.7329858400
20
245.5587561316
11
113.5474845030
21
245.6771605200
0
LINE
5
38E
100
AcDbEntity
8
0
100
AcDbLine
62
7
6
CONTINUOUS
10
131.3146419739
20
239.9766741532
11
138.7647373596
21
221.9905528320
0
LINE
5
38F
100
AcDbEntity
8
0
100
AcDbLine
62
7
6
CONTINUOUS
10
98.8951159575
20
241.7207510657
11
99.1269761183
21
241.7858240790
0
LINE
5
390
100
AcDbEntity
8
0
100
AcDbLine
62
7
6
CONTINUOUS
10
100.6733552076
20
242.7474177069
11
100.9052153685
21
242.8124907202
0
LINE
5
391
100
AcDbEntity
8
0
100
AcDbLine
62
7
6
CONTINUOUS
10
104.3533249952
20
243.8401892371
11
104.5447703459
21
243.8819296545
0
LINE
5
392
100
AcDbEntity
8
0
100
AcDbLine
62
7
6
CONTINUOUS
10
104.3958340742
20
244.1398947424
11
104.2043887236
21
244.0981543249
0
LINE
5
393
100
AcDbEntity
8
0
100
AcDbLine
62
7
6
CONTINUOUS
10
108.3070736982
20
244.1970980353
11
109.0954540827
21
244.1970980353
0
LINE
5
394
100
AcDbEntity
8
0
100
AcDbLine
62
7
6
CONTINUOUS
10
109.1882047512
20
244.5523131079
11
108.3070736982
21
244.5523131079
0
LINE
5
395
100
AcDbEntity
8
0
100
AcDbLine
62
7
6
CONTINUOUS
10
112.4808522322
20
245.3811476416
11
113.3156078913
21
245.3811476416
0
LINE
5
396
100
AcDbEntity
8
0
100
AcDbLine
62
7
6
CONTINUOUS
10
108.3070736982
20
245.4403498358
11
109.1882047512
21
245.4403498358
0
LINE
5
397
100
AcDbEntity
8
0
100
AcDbLine
62
7
6
CONTINUOUS
10
113.3156078913
20
245.7363627142
11
112.2026003458
21
245.7363627142
0
LINE
5
398
100
AcDbEntity
8
0
100
AcDbLine
62
7
6
CONTINUOUS
10
111.8315977909
20
245.7363627142
11
111.5533459046
21
245.7363627142
0
LINE
5
399
100
AcDbEntity
8
0
100
AcDbLine
62
7
6
CONTINUOUS
10
110.4403382995
20
245.7363627142
11
110.1620864131
21
245.7363627142
0
LINE
5
39A
100
AcDbEntity
8
0
100
AcDbLine
62
7
6
CONTINUOUS
10
109.1418294766
20
245.7363627142
11
108.0288218119
21
245.7363627142
0
LINE
5
39B
100
AcDbEntity
8
0
100
AcDbLine
62
7
6
CONTINUOUS
10
104.5064502813
20
244.1349680609
11
104.3958340742
21
244.1398947424
0
LINE
5
39C
100
AcDbEntity
8
0
100
AcDbLine
62
7
6
CONTINUOUS
10
109.3737059691
20
245.6771605200
11
109.1418294766
21
245.7363627142
0
LINE
5
39D
100
AcDbEntity
8
0
100
AcDbLine
62
7
6
CONTINUOUS
10
113.5474845030
20
245.6771605200
11
113.3156078913
21
245.7363627142
0
LINE
5
39E
100
AcDbEntity
8
0
100
AcDbLine
62
7
6
CONTINUOUS
10
113.3156078913
20
245.3811476416
11
113.5011092283
21
245.3219454474
0
LINE
5
39F
100
AcDbEntity
8
0
100
AcDbLine
62
7
6
CONTINUOUS
10
111.9755304023
20
248.7797597892
11
129.9616517235
21
241.3296644035
0
LINE
5
3A0
100
AcDbEntity
8
0
100
AcDbLine
62
7
6
CONTINUOUS
10
290.3771299929
20
177.0338442511
11
300.3771299929
21
177.0338442511
0
LINE
5
3A1
100
AcDbEntity
8
0
100
AcDbLine
62
7
6
CONTINUOUS
10
289.3771299929
20
178.0338442511
11
301.3771299929
21
178.0338442511
0
LINE
5
3A2
100
AcDbEntity
8
0
100
AcDbLine
62
7
6
CONTINUOUS
10
289.3771299929
20
178.0338442511
11
290.3771299929
21
177.0338442511
0
LINE
5
3A3
100
AcDbEntity
8
0
100
AcDbLine
62
7
6
CONTINUOUS
10
289.3771299929
20
190.0338442511
11
301.3771299929
21
190.0338442511
0
LINE
5
3A4
100
AcDbEntity
8
0
100
AcDbLine
62
7
6
CONTINUOUS
10
290.6771299929
20
191.3338442511
11
300.0771299929
21
191.3338442511
0
LINE
5
3A5
100
AcDbEntity
8
0
100
AcDbLine
62
7
6
CONTINUOUS
10
280.3773921721
20
195.0338442511
11
310.3768678138
21
195.0338442511
0
LINE
5
3A6
100
AcDbEntity
8
0
100
AcDbLine
62
7
6
CONTINUOUS
10
280.3771299929
20
195.0338442511
11
280.3771299929
21
202.0584675699
0
LINE
5
3A7
100
AcDbEntity
8
0
100
AcDbLine
62
7
6
CONTINUOUS
10
301.2598066265
20
201.1343057681
11
297.3502409029
21
201.1343057681
0
LINE
5
3A8
100
AcDbEntity
8
0
100
AcDbLine
62
7
6
CONTINUOUS
10
293.4040190829
20
201.1343057681
11
289.4944533593
21
201.1343057681
0
LINE
5
3A9
100
AcDbEntity
8
0
100
AcDbLine
62
7
6
CONTINUOUS
10
300.0771299929
20
191.3338442511
11
301.3771299929
21
190.0338442511
0
LINE
5
3AA
100
AcDbEntity
8
0
100
AcDbLine
62
7
6
CONTINUOUS
10
289.3771299929
20
247.4700609507
11
289.3771299929
21
221.5983832125
0
LINE
5
3AB
100
AcDbEntity
8
0
100
AcDbLine
62
7
6
CONTINUOUS
10
289.3771299929
20
190.0338442511
11
289.3771299929
21
178.0338442511
0
LINE
5
3AC
100
AcDbEntity
8
0
100
AcDbLine
62
7
6
CONTINUOUS
10
289.3346962003
20
220.4709023250
11
287.8538595502
21
200.8255917210
0
LINE
5
3AD
100
AcDbEntity
8
0
100
AcDbLine
62
7
6
CONTINUOUS
10
282.0642610628
20
204.0338442511
11
287.4980133967
21
204.8944660734
0
LINE
5
3AE
100
AcDbEntity
8
0
100
AcDbLine
62
7
6
CONTINUOUS
10
308.6899989230
20
204.0338442511
11
303.2559042091
21
204.8945203010
0
LINE
5
3AF
100
AcDbEntity
8
0
100
AcDbLine
62
7
6
CONTINUOUS
10
290.6771299929
20
195.0338442511
11
290.6771299929
21
191.3338442511
0
LINE
5
3B0
100
AcDbEntity
8
DEFAULT_1
100
AcDbLine
62
2
6
CENTER
10
295.3771299929
20
174.0338442511
11
295.3771299929
21
254.4907065834
0
LINE
5
3B1
100
AcDbEntity
8
0
100
AcDbLine
62
7
6
CONTINUOUS
10
300.0771299929
20
195.0338442511
11
300.0771299929
21
191.3338442511
0
LINE
5
3B2
100
AcDbEntity
8
0
100
AcDbLine
62
7
6
CONTINUOUS
10
302.9004004467
20
200.8255915740
11
301.4195637855
21
220.4709023250
0
LINE
5
3B3
100
AcDbEntity
8
0
100
AcDbLine
62
7
6
CONTINUOUS
10
301.3771299929
20
190.0338442511
11
301.3771299929
21
178.0338442511
0
LINE
5
3B4
100
AcDbEntity
8
0
100
AcDbLine
62
7
6
CONTINUOUS
10
301.3771299929
20
221.5983832125
11
301.3771299929
21
247.4700609580
0
LINE
5
3B5
100
AcDbEntity
8
0
100
AcDbLine
62
7
6
CONTINUOUS
10
301.6771299929
20
245.7363627142
11
301.6771299929
21
238.5738451666
0
LINE
5
3B6
100
AcDbEntity
8
0
100
AcDbLine
62
7
6
CONTINUOUS
10
301.6771299929
20
235.5237791724
11
301.6771299929
21
230.4351017661
0
LINE
5
3B7
100
AcDbEntity
8
0
100
AcDbLine
62
7
6
CONTINUOUS
10
301.6771299929
20
228.9443986601
11
301.6771299929
21
225.1038444228
0
LINE
5
3B8
100
AcDbEntity
8
0
100
AcDbLine
62
7
6
CONTINUOUS
10
290.6771299929
20
191.3338442511
11
289.3771299929
21
190.0338442511
0
LINE
5
3B9
100
AcDbEntity
8
0
100
AcDbLine
62
7
6
CONTINUOUS
10
301.3771299929
20
225.1038444228
11
301.6771299929
21
225.1038444228
0
LINE
5
3BA
100
AcDbEntity
8
0
100
AcDbLine
62
7
6
CONTINUOUS
10
301.3771299929
20
226.0806720442
11
301.6771299929
21
226.0806720442
0
LINE
5
3BB
100
AcDbEntity
8
0
100
AcDbLine
62
7
6
CONTINUOUS
10
310.3771299929
20
195.0338442511
11
310.3771299929
21
202.0584675699
0
LINE
5
3BC
100
AcDbEntity
8
0
100
AcDbLine
62
7
6
CONTINUOUS
10
301.3771299929
20
227.0011770911
11
301.6771299929
21
227.0011770911
0
LINE
5
3BD
100
AcDbEntity
8
0
100
AcDbLine
62
7
6
CONTINUOUS
10
301.3771299929
20
227.1721651739
11
301.6771299929
21
227.1721651739
0
LINE
5
3BE
100
AcDbEntity
8
0
100
AcDbLine
62
7
6
CONTINUOUS
10
301.3771299929
20
227.2632320113
11
301.6771299929
21
227.2632320113
0
LINE
5
3BF
100
AcDbEntity
8
0
100
AcDbLine
62
7
6
CONTINUOUS
10
301.3771299929
20
227.2951605505
11
301.6771299929
21
227.2951605505
0
LINE
5
3C0
100
AcDbEntity
8
0
100
AcDbLine
62
7
6
CONTINUOUS
10
301.3771299929
20
227.3684580511
11
301.6771299929
21
227.3684580511
0
LINE
5
3C1
100
AcDbEntity
8
0
100
AcDbLine
62
7
6
CONTINUOUS
10
301.3771299929
20
227.3971741385
11
301.6771299929
21
227.3971741385
0
LINE
5
3C2
100
AcDbEntity
8
0
100
AcDbLine
62
7
6
CONTINUOUS
10
301.3771299929
20
227.5298078246
11
301.6771299929
21
227.5298078246
0
LINE
5
3C3
100
AcDbEntity
8
0
100
AcDbLine
62
7
6
CONTINUOUS
10
301.3771299929
20
227.6035025305
11
301.6771299929
21
227.6035025305
0
LINE
5
3C4
100
AcDbEntity
8
0
100
AcDbLine
62
7
6
CONTINUOUS
10
301.3771299929
20
227.6482827849
11
301.6771299929
21
227.6482827849
0
LINE
5
3C5
100
AcDbEntity
8
0
100
AcDbLine
62
7
6
CONTINUOUS
10
301.3771299929
20
227.7314169592
11
301.6771299929
21
227.7314169592
0
LINE
5
3C6
100
AcDbEntity
8
0
100
AcDbLine
62
7
6
CONTINUOUS
10
301.3771299929
20
227.8529055304
11
301.6771299929
21
227.8529055304
0
LINE
5
3C7
100
AcDbEntity
8
0
100
AcDbLine
62
7
6
CONTINUOUS
10
301.3771299929
20
228.0894572920
11
301.6771299929
21
228.0894572920
0
LINE
5
3C8
100
AcDbEntity
8
0
100
AcDbLine
62
7
6
CONTINUOUS
10
301.3771299929
20
228.2844417281
11
301.6771299929
21
228.2844417281
0
LINE
5
3C9
100
AcDbEntity
8
0
100
AcDbLine
62
7
6
CONTINUOUS
10
301.3771299929
20
228.4586427397
11
301.6771299929
21
228.4586427397
0
LINE
5
3CA
100
AcDbEntity
8
0
100
AcDbLine
62
7
6
CONTINUOUS
10
301.3771299929
20
228.6504147238
11
301.6771299929
21
228.6504147238
0
LINE
5
3CB
100
AcDbEntity
8
0
100
AcDbLine
62
7
6
CONTINUOUS
10
301.3771299929
20
228.8214032835
11
301.6771299929
21
228.8214032835
0
LINE
5
3CC
100
AcDbEntity
8
0
100
AcDbLine
62
7
6
CONTINUOUS
10
301.3771299929
20
228.9124696440
11
301.6771299929
21
228.9124696440
0
LINE
5
3CD
100
AcDbEntity
8
0
100
AcDbLine
62
7
6
CONTINUOUS
10
301.3771299929
20
228.9443986601
11
301.6771299929
21
228.9443986601
0
LINE
5
3CE
100
AcDbEntity
8
0
100
AcDbLine
62
7
6
CONTINUOUS
10
301.3771299929
20
230.4351017661
11
301.6771299929
21
230.4351017661
0
LINE
5
3CF
100
AcDbEntity
8
0
100
AcDbLine
62
7
6
CONTINUOUS
10
301.3771299929
20
231.4119293875
11
301.6771299929
21
231.4119293875
0
LINE
5
3D0
100
AcDbEntity
8
0
100
AcDbLine
62
7
6
CONTINUOUS
10
301.3771299929
20
231.7571184821
11
301.6771299929
21
231.7571184821
0
LINE
5
3D1
100
AcDbEntity
8
0
100
AcDbLine
62
7
6
CONTINUOUS
10
301.3771299929
20
232.9077494330
11
301.6771299929
21
232.9077494330
0
LINE
5
3D2
100
AcDbEntity
8
0
100
AcDbLine
62
7
6
CONTINUOUS
10
301.3771299929
20
233.2529394812
11
301.6771299929
21
233.2529394812
0
LINE
5
3D3
100
AcDbEntity
8
0
100
AcDbLine
62
7
6
CONTINUOUS
10
301.3771299929
20
233.4142887778
11
301.6771299929
21
233.4142887778
0
LINE
5
3D4
100
AcDbEntity
8
0
100
AcDbLine
62
7
6
CONTINUOUS
10
301.3771299929
20
233.7899000830
11
301.6771299929
21
233.7899000830
0
LINE
5
3D5
100
AcDbEntity
8
0
100
AcDbLine
62
7
6
CONTINUOUS
10
301.3771299929
20
234.0200264639
11
301.6771299929
21
234.0200264639
0
LINE
5
3D6
100
AcDbEntity
8
0
100
AcDbLine
62
7
6
CONTINUOUS
10
301.3771299929
20
234.1365969366
11
301.6771299929
21
234.1365969366
0
LINE
5
3D7
100
AcDbEntity
8
0
100
AcDbLine
62
7
6
CONTINUOUS
10
301.3771299929
20
234.2580855078
11
301.6771299929
21
234.2580855078
0
LINE
5
3D8
100
AcDbEntity
8
0
100
AcDbLine
62
7
6
CONTINUOUS
10
301.3771299929
20
234.4946367926
11
301.6771299929
21
234.4946367926
0
LINE
5
3D9
100
AcDbEntity
8
0
100
AcDbLine
62
7
6
CONTINUOUS
10
301.3771299929
20
234.6896212286
11
301.6771299929
21
234.6896212286
0
LINE
5
3DA
100
AcDbEntity
8
0
100
AcDbLine
62
7
6
CONTINUOUS
10
301.3771299929
20
234.9788859076
11
301.6771299929
21
234.9788859076
0
LINE
5
3DB
100
AcDbEntity
8
0
100
AcDbLine
62
7
6
CONTINUOUS
10
301.3771299929
20
235.1323034949
11
301.6771299929
21
235.1323034949
0
LINE
5
3DC
100
AcDbEntity
8
0
100
AcDbLine
62
7
6
CONTINUOUS
10
301.3771299929
20
235.3416454977
11
301.6771299929
21
235.3416454977
0
LINE
5
3DD
100
AcDbEntity
8
0
100
AcDbLine
62
7
6
CONTINUOUS
10
301.3771299929
20
235.4534962363
11
301.6771299929
21
235.4534962363
0
LINE
5
3DE
100
AcDbEntity
8
0
100
AcDbLine
62
7
6
CONTINUOUS
10
301.3771299929
20
235.5237791724
11
301.6771299929
21
235.5237791724
0
LINE
5
3DF
100
AcDbEntity
8
0
100
AcDbLine
62
7
6
CONTINUOUS
10
301.3771299929
20
238.5738451666
11
301.6771299929
21
238.5738451666
0
LINE
5
3E0
100
AcDbEntity
8
0
100
AcDbLine
62
7
6
CONTINUOUS
10
301.3771299929
20
238.7361471838
11
301.6771299929
21
238.7361471838
0
LINE
5
3E1
100
AcDbEntity
8
0
100
AcDbLine
62
7
6
CONTINUOUS
10
301.3771299929
20
239.0457041449
11
301.6771299929
21
239.0457041449
0
LINE
5
3E2
100
AcDbEntity
8
0
100
AcDbLine
62
7
6
CONTINUOUS
10
301.3771299929
20
240.9987147040
11
301.6771299929
21
240.9987147040
0
LINE
5
3E3
100
AcDbEntity
8
0
100
AcDbLine
62
7
6
CONTINUOUS
10
301.3771299929
20
241.1387160010
11
301.6771299929
21
241.1387160010
0
LINE
5
3E4
100
AcDbEntity
8
0
100
AcDbLine
62
7
6
CONTINUOUS
10
301.3771299929
20
241.2908976263
11
301.6771299929
21
241.2908976263
0
LINE
5
3E5
100
AcDbEntity
8
0
100
AcDbLine
62
7
6
CONTINUOUS
10
301.3771299929
20
241.5156767554
11
301.6771299929
21
241.5156767554
0
LINE
5
3E6
100
AcDbEntity
8
0
100
AcDbLine
62
7
6
CONTINUOUS
10
301.3771299929
20
241.7871229834
11
301.6771299929
21
241.7871229834
0
LINE
5
3E7
100
AcDbEntity
8
0
100
AcDbLine
62
7
6
CONTINUOUS
10
301.3771299929
20
178.0338442511
11
300.3771299929
21
177.0338442511
0
LINE
5
3E8
100
AcDbEntity
8
0
100
AcDbLine
62
7
6
CONTINUOUS
10
301.3771299929
20
241.9787161536
11
301.6771299929
21
241.9787161536
0
LINE
5
3E9
100
AcDbEntity
8
0
100
AcDbLine
62
7
6
CONTINUOUS
10
301.3771299929
20
242.0671217627
11
301.6771299929
21
242.0671217627
0
LINE
5
3EA
100
AcDbEntity
8
0
100
AcDbLine
62
7
6
CONTINUOUS
10
301.3771299929
20
242.3175642676
11
301.6771299929
21
242.3175642676
0
LINE
5
3EB
100
AcDbEntity
8
0
100
AcDbLine
62
7
6
CONTINUOUS
10
301.3771299929
20
242.5423433966
11
301.6771299929
21
242.5423433966
0
LINE
5
3EC
100
AcDbEntity
8
0
100
AcDbLine
62
7
6
CONTINUOUS
10
301.3771299929
20
242.8137896246
11
301.6771299929
21
242.8137896246
0
LINE
5
3ED
100
AcDbEntity
8
0
100
AcDbLine
62
7
6
CONTINUOUS
10
301.3771299929
20
243.0053827948
11
301.6771299929
21
243.0053827948
0
LINE
5
3EE
100
AcDbEntity
8
0
100
AcDbLine
62
7
6
CONTINUOUS
10
301.3771299929
20
243.0937884039
11
301.6771299929
21
243.0937884039
0
LINE
5
3EF
100
AcDbEntity
8
0
100
AcDbLine
62
7
6
CONTINUOUS
10
301.3771299929
20
243.6120493597
11
301.6771299929
21
243.6120493597
0
LINE
5
3F0
100
AcDbEntity
8
0
100
AcDbLine
62
7
6
CONTINUOUS
10
301.3771248786
20
243.7287161523
11
301.6771299929
21
243.7287161536
0
LINE
5
3F1
100
AcDbEntity
8
0
100
AcDbLine
62
7
6
CONTINUOUS
10
301.3771299929
20
243.8132269568
11
301.6771299929
21
243.8132269568
0
LINE
5
3F2
100
AcDbEntity
8
0
100
AcDbLine
62
7
6
CONTINUOUS
10
301.3771299929
20
243.9581530280
11
301.6771299929
21
243.9581530280
0
LINE
5
3F3
100
AcDbEntity
8
0
100
AcDbLine
62
7
6
CONTINUOUS
10
301.3771299929
20
244.0981543249
11
301.6771299929
21
244.0981543249
0
LINE
5
3F4
100
AcDbEntity
8
0
100
AcDbLine
62
7
6
CONTINUOUS
10
301.3771299929
20
244.1398947424
11
301.6771299929
21
244.1398947424
0
LINE
5
3F5
100
AcDbEntity
8
0
100
AcDbLine
62
7
6
CONTINUOUS
10
301.3771299929
20
244.3081534094
11
301.6771299929
21
244.3081534094
0
LINE
5
3F6
100
AcDbEntity
8
0
100
AcDbLine
62
7
6
CONTINUOUS
10
301.3771299929
20
244.4248202032
11
301.6771299929
21
244.4248202032
0
LINE
5
3F7
100
AcDbEntity
8
0
100
AcDbLine
62
7
6
CONTINUOUS
10
301.3771299929
20
245.7363627142
11
301.6771299929
21
245.7363627142
0
LINE
5
3F8
100
AcDbEntity
8
0
100
AcDbLine
62
7
6
CONTINUOUS
10
299.8771299929
20
248.9700609580
11
290.8771299929
21
248.9700609580
0
LINE
5
3F9
100
AcDbEntity
8
0
100
AcDbLine
62
7
6
CONTINUOUS
10
83.0826051145
20
108.1037980780
11
83.0826051145
21
117.1231201160
0
LINE
5
3FA
100
AcDbEntity
8
0
100
AcDbLine
62
7
6
CONTINUOUS
10
87.0675603010
20
106.6134590964
11
87.0675603010
21
106.3134590964
0
LINE
5
3FB
100
AcDbEntity
8
0
100
AcDbLine
62
7
6
CONTINUOUS
10
87.4582902052
20
106.6134590964
11
87.4582902052
21
106.3134590964
0
LINE
5
3FC
100
AcDbEntity
8
0
100
AcDbLine
62
7
6
CONTINUOUS
10
87.5886555769
20
106.6134590964
11
87.5886555769
21
106.3134590964
0
LINE
5
3FD
100
AcDbEntity
8
0
100
AcDbLine
62
7
6
CONTINUOUS
10
87.8006669142
20
106.6134590964
11
87.8006669142
21
106.3134590964
0
LINE
5
3FE
100
AcDbEntity
8
0
100
AcDbLine
62
7
6
CONTINUOUS
10
88.0453606703
20
106.6134590964
11
88.0453606703
21
106.3134590964
0
LINE
5
3FF
100
AcDbEntity
8
0
100
AcDbLine
62
7
6
CONTINUOUS
10
88.0607892134
20
106.6134590964
11
88.0607892134
21
106.3134590964
0
LINE
5
400
100
AcDbEntity
8
0
100
AcDbLine
62
7
6
CONTINUOUS
10
88.0769482710
20
106.6134590964
11
88.0769482710
21
106.3134590964
0
LINE
5
401
100
AcDbEntity
8
0
100
AcDbLine
62
7
6
CONTINUOUS
10
88.1583500960
20
106.6134590964
11
88.1583500960
21
106.3134590964
0
LINE
5
402
100
AcDbEntity
8
0
100
AcDbLine
62
7
6
CONTINUOUS
10
88.2887154677
20
106.6134590964
11
88.2887154677
21
106.3134590964
0
LINE
5
403
100
AcDbEntity
8
0
100
AcDbLine
62
7
6
CONTINUOUS
10
88.5007268049
20
106.6134590964
11
88.5007268049
21
106.3134590964
0
LINE
5
404
100
AcDbEntity
8
0
100
AcDbLine
62
7
6
CONTINUOUS
10
88.7454205610
20
106.6134590964
11
88.7454205610
21
106.3134590964
0
LINE
5
405
100
AcDbEntity
8
0
100
AcDbLine
62
7
6
CONTINUOUS
10
88.9085904219
20
106.6134590964
11
88.9085904219
21
106.3134590964
0
LINE
5
406
100
AcDbEntity
8
0
100
AcDbLine
62
7
6
CONTINUOUS
10
88.9584046461
20
106.6134590964
11
88.9584046461
21
106.3134590964
0
LINE
5
407
100
AcDbEntity
8
0
100
AcDbLine
62
7
6
CONTINUOUS
10
89.0562096693
20
106.6134590964
11
89.0562096693
21
106.3134590964
0
LINE
5
408
100
AcDbEntity
8
0
100
AcDbLine
62
7
6
CONTINUOUS
10
89.1538926222
20
106.6134590964
11
89.1538926222
21
106.3134590964
0
LINE
5
409
100
AcDbEntity
8
0
100
AcDbLine
62
7
6
CONTINUOUS
10
89.2842579939
20
106.6134590964
11
89.2842579939
21
106.3134590964
0
LINE
5
40A
100
AcDbEntity
8
0
100
AcDbLine
62
7
6
CONTINUOUS
10
89.3305436232
20
106.6134590964
11
89.3305436232
21
106.3134590964
0
LINE
5
40B
100
AcDbEntity
8
0
100
AcDbLine
62
7
6
CONTINUOUS
10
89.4770680525
20
106.6134590964
11
89.4770680525
21
106.3134590964
0
LINE
5
40C
100
AcDbEntity
8
0
100
AcDbLine
62
7
6
CONTINUOUS
10
89.9654828169
20
106.6134590964
11
89.9654828169
21
106.3134590964
0
LINE
5
40D
100
AcDbEntity
8
0
100
AcDbLine
62
7
6
CONTINUOUS
10
90.1120072462
20
106.6134590964
11
90.1120072462
21
106.3134590964
0
LINE
5
40E
100
AcDbEntity
8
0
100
AcDbLine
62
7
6
CONTINUOUS
10
90.3399335005
20
106.6134590964
11
90.3399335005
21
106.3134590964
0
LINE
5
40F
100
AcDbEntity
8
0
100
AcDbLine
62
7
6
CONTINUOUS
10
90.4376164534
20
106.6134590964
11
90.4376164534
21
106.3134590964
0
LINE
5
410
100
AcDbEntity
8
0
100
AcDbLine
62
7
6
CONTINUOUS
10
90.7796269514
20
106.6134590964
11
90.7796269514
21
106.3134590964
0
LINE
5
411
100
AcDbEntity
8
0
100
AcDbLine
62
7
6
CONTINUOUS
10
90.8446274855
20
106.6134590964
11
90.8446274855
21
106.3134590964
0
LINE
5
412
100
AcDbEntity
8
0
100
AcDbLine
62
7
6
CONTINUOUS
10
90.9097481825
20
106.6134590964
11
90.9097481825
21
106.3134590964
0
LINE
5
413
100
AcDbEntity
8
0
100
AcDbLine
62
7
6
CONTINUOUS
10
91.0563946821
20
106.6134590964
11
91.0563946821
21
106.3134590964
0
LINE
5
414
100
AcDbEntity
8
0
100
AcDbLine
62
7
6
CONTINUOUS
10
91.2194424727
20
106.6134590964
11
91.2194424727
21
106.3134590964
0
LINE
5
415
100
AcDbEntity
8
0
100
AcDbLine
62
7
6
CONTINUOUS
10
91.4804173567
20
106.6134590964
11
91.4804173567
21
106.3134590964
0
LINE
5
416
100
AcDbEntity
8
0
100
AcDbLine
62
7
6
CONTINUOUS
10
91.6925488569
20
106.6134590964
11
91.6925488569
21
106.3134590964
0
LINE
5
417
100
AcDbEntity
8
0
100
AcDbLine
62
7
6
CONTINUOUS
10
91.7904759504
20
106.6134590964
11
91.7904759504
21
106.3134590964
0
LINE
5
418
100
AcDbEntity
8
0
100
AcDbLine
62
7
6
CONTINUOUS
10
91.9700471022
20
106.6134590964
11
91.9700471022
21
106.3134590964
0
LINE
5
419
100
AcDbEntity
8
0
100
AcDbLine
62
7
6
CONTINUOUS
10
92.0843754866
20
106.6134590964
11
92.0843754866
21
106.3134590964
0
LINE
5
41A
100
AcDbEntity
8
0
100
AcDbLine
62
7
6
CONTINUOUS
10
92.7545510389
20
106.6134590964
11
92.7545510389
21
106.3134590964
0
LINE
5
41B
100
AcDbEntity
8
0
100
AcDbLine
62
7
6
CONTINUOUS
10
93.2104035475
20
106.6134590964
11
93.2104035475
21
106.3134590964
0
LINE
5
41C
100
AcDbEntity
8
0
100
AcDbLine
62
7
6
CONTINUOUS
10
93.4552174666
20
106.6134590964
11
93.4552174666
21
106.3134590964
0
LINE
5
41D
100
AcDbEntity
8
0
100
AcDbLine
62
7
6
CONTINUOUS
10
98.3308450072
20
120.6144118123
11
98.3226327867
21
120.6013739679
0
LINE
5
41E
100
AcDbEntity
8
0
100
AcDbLine
62
7
6
CONTINUOUS
10
96.8830767729
20
106.6134590964
11
96.8830767729
21
106.3134590964
0
LINE
5
41F
100
AcDbEntity
8
0
100
AcDbLine
62
7
6
CONTINUOUS
10
97.0487700560
20
106.6134590964
11
97.0487700560
21
106.3134590964
0
LINE
5
420
100
AcDbEntity
8
0
100
AcDbLine
62
7
6
CONTINUOUS
10
97.2912570097
20
106.6134590964
11
97.2912570097
21
106.3134590964
0
LINE
5
421
100
AcDbEntity
8
0
100
AcDbLine
62
7
6
CONTINUOUS
10
98.0955124952
20
106.6134590964
11
98.0955124952
21
106.3134590964
0
LINE
5
422
100
AcDbEntity
8
0
100
AcDbLine
62
7
6
CONTINUOUS
10
98.3888875105
20
106.6134590964
11
98.3888875105
21
106.3134590964
0
LINE
5
423
100
AcDbEntity
8
0
100
AcDbLine
62
7
6
CONTINUOUS
10
98.4207688429
20
106.6134590964
11
98.4207688429
21
106.3134590964
0
LINE
5
424
100
AcDbEntity
8
0
100
AcDbLine
62
7
6
CONTINUOUS
10
98.5334797957
20
106.6134590964
11
98.5334797957
21
106.3134590964
0
LINE
5
425
100
AcDbEntity
8
0
100
AcDbLine
62
7
6
CONTINUOUS
10
98.7461796858
20
106.6134590964
11
98.7461796858
21
106.3134590964
0
LINE
5
426
100
AcDbEntity
8
0
100
AcDbLine
62
7
6
CONTINUOUS
10
99.0184546568
20
106.6134590964
11
99.0184546568
21
106.3134590964
0
LINE
5
427
100
AcDbEntity
8
0
100
AcDbLine
62
7
6
CONTINUOUS
10
99.3098889448
20
106.6134590964
11
99.3098889448
21
106.3134590964
0
LINE
5
428
100
AcDbEntity
8
0
100
AcDbLine
62
7
6
CONTINUOUS
10
99.5204936125
20
106.6134590964
11
99.5204936125
21
106.3134590964
0
LINE
5
429
100
AcDbEntity
8
0
100
AcDbLine
62
7
6
CONTINUOUS
10
99.7204714873
20
106.6134590964
11
99.7204714873
21
106.3134590964
0
LINE
5
42A
100
AcDbEntity
8
0
100
AcDbLine
62
7
6
CONTINUOUS
10
99.8502484419
20
106.6134590964
11
99.8502484419
21
106.3134590964
0
LINE
5
42B
100
AcDbEntity
8
0
100
AcDbLine
62
7
6
CONTINUOUS
10
100.0395985701
20
106.6134590964
11
100.0395985701
21
106.3134590964
0
LINE
5
42C
100
AcDbEntity
8
0
100
AcDbLine
62
7
6
CONTINUOUS
10
100.1671258070
20
106.6134590964
11
100.1671258070
21
106.3134590964
0
LINE
5
42D
100
AcDbEntity
8
0
100
AcDbLine
62
7
6
CONTINUOUS
10
100.1990080931
20
106.6134590964
11
100.1990080931
21
106.3134590964
0
LINE
5
42E
100
AcDbEntity
8
0
100
AcDbLine
62
7
6
CONTINUOUS
10
100.3117190458
20
106.6134590964
11
100.3117190458
21
106.3134590964
0
LINE
5
42F
100
AcDbEntity
8
0
100
AcDbLine
62
7
6
CONTINUOUS
10
100.5244189360
20
106.6134590964
11
100.5244189360
21
106.3134590964
0
LINE
5
430
100
AcDbEntity
8
0
100
AcDbLine
62
7
6
CONTINUOUS
10
137.5261102452
20
106.5910191376
11
130.1846518323
21
105.2550196759
0
LINE
5
431
100
AcDbEntity
8
0
100
AcDbLine
62
7
6
CONTINUOUS
10
91.8529918105
20
105.2550196759
11
84.5115333976
21
106.5910191376
0
LINE
5
432
100
AcDbEntity
8
0
100
AcDbLine
62
7
6
CONTINUOUS
10
100.7966929533
20
106.6134590964
11
100.7966929533
21
106.3134590964
0
LINE
5
433
100
AcDbEntity
8
0
100
AcDbLine
62
7
6
CONTINUOUS
10
101.0881272413
20
106.6134590964
11
101.0881272413
21
106.3134590964
0
LINE
5
434
100
AcDbEntity
8
0
100
AcDbLine
62
7
6
CONTINUOUS
10
101.2987328627
20
106.6134590964
11
101.2987328627
21
106.3134590964
0
LINE
5
435
100
AcDbEntity
8
0
100
AcDbLine
62
7
6
CONTINUOUS
10
101.4987107374
20
106.6134590964
11
101.4987107374
21
106.3134590964
0
LINE
5
436
100
AcDbEntity
8
0
100
AcDbLine
62
7
6
CONTINUOUS
10
101.5751963713
20
106.6134590964
11
101.5751963713
21
106.3134590964
0
LINE
5
437
100
AcDbEntity
8
0
100
AcDbLine
62
7
6
CONTINUOUS
10
101.7772685127
20
106.6134642106
11
101.7772685148
21
106.3134590964
0
LINE
5
438
100
AcDbEntity
8
0
100
AcDbLine
62
7
6
CONTINUOUS
10
102.6708861448
20
106.6134590964
11
102.6708861448
21
106.3134590964
0
LINE
5
439
100
AcDbEntity
8
0
100
AcDbLine
62
7
6
CONTINUOUS
10
102.7494660475
20
106.6134590964
11
102.7494660475
21
106.3134590964
0
LINE
5
43A
100
AcDbEntity
8
0
100
AcDbLine
62
7
6
CONTINUOUS
10
137.5851749384
20
106.6004961658
11
137.5836132683
21
106.6002803522
0
LINE
5
43B
100
AcDbEntity
8
0
100
AcDbLine
62
7
6
CONTINUOUS
10
124.4650213708
20
105.0730342699
11
124.4650912721
21
105.0730403036
0
LINE
5
43C
100
AcDbEntity
8
0
100
AcDbLine
62
7
6
CONTINUOUS
10
97.5725514449
20
105.0730401340
11
97.5726222159
21
105.0730340254
0
LINE
5
43D
100
AcDbEntity
8
0
100
AcDbLine
62
7
6
CONTINUOUS
10
84.4524686201
20
106.6004968960
11
84.4544280714
21
106.6002264081
0
LINE
5
43E
100
AcDbEntity
8
0
100
AcDbLine
62
7
6
CONTINUOUS
10
102.9919530012
20
106.6134590964
11
102.9919530012
21
106.3134590964
0
LINE
5
43F
100
AcDbEntity
8
0
100
AcDbLine
62
7
6
CONTINUOUS
10
103.7364798643
20
106.6134590964
11
103.7364798643
21
106.3134590964
0
LINE
5
440
100
AcDbEntity
8
0
100
AcDbLine
62
7
6
CONTINUOUS
10
103.7683616736
20
106.6134590964
11
103.7683616736
21
106.3134590964
0
LINE
5
441
100
AcDbEntity
8
0
100
AcDbLine
62
7
6
CONTINUOUS
10
103.8300310232
20
106.6134590964
11
103.8300310232
21
106.3134590964
0
LINE
5
442
100
AcDbEntity
8
0
100
AcDbLine
62
7
6
CONTINUOUS
10
103.9619017698
20
106.6134590964
11
103.9619017698
21
106.3134590964
0
LINE
5
443
100
AcDbEntity
8
0
100
AcDbLine
62
7
6
CONTINUOUS
10
104.2043887236
20
106.6134590964
11
104.2043887236
21
106.3134590964
0
LINE
5
444
100
AcDbEntity
8
0
100
AcDbLine
62
7
6
CONTINUOUS
10
104.3958340742
20
106.6134590964
11
104.3958340742
21
106.3134590964
0
LINE
5
445
100
AcDbEntity
8
0
100
AcDbLine
62
7
6
CONTINUOUS
10
104.5064502813
20
106.6134590964
11
104.5064502813
21
106.3134590964
0
LINE
5
446
100
AcDbEntity
8
0
100
AcDbLine
62
7
6
CONTINUOUS
10
104.5681196310
20
106.6134590964
11
104.5681196310
21
106.3134590964
0
LINE
5
447
100
AcDbEntity
8
0
100
AcDbLine
62
7
6
CONTINUOUS
10
104.7701922514
20
106.6134590964
11
104.7701922514
21
106.3134590964
0
LINE
5
448
100
AcDbEntity
8
0
100
AcDbLine
62
7
6
CONTINUOUS
10
129.9160923475
20
105.2307824628
11
129.0852026326
21
105.2307824628
0
LINE
5
449
100
AcDbEntity
8
0
100
AcDbLine
62
7
6
CONTINUOUS
10
92.9524410100
20
105.2307824628
11
92.1215512953
21
105.2307824628
0
LINE
5
44A
100
AcDbEntity
8
0
100
AcDbLine
62
7
6
CONTINUOUS
10
114.0576130011
20
106.3134590964
11
112.2026003458
21
106.3134590964
0
LINE
5
44B
100
AcDbEntity
8
0
100
AcDbLine
62
7
6
CONTINUOUS
10
111.8315977909
20
106.3134590964
11
110.1620864131
21
106.3134590964
0
LINE
5
44C
100
AcDbEntity
8
0
100
AcDbLine
62
7
6
CONTINUOUS
10
109.7910837986
20
106.3134590964
11
108.0288218119
21
106.3134590964
0
LINE
5
44D
100
AcDbEntity
8
0
100
AcDbLine
62
7
6
CONTINUOUS
10
105.9191723921
20
106.3134590964
11
96.8830767729
21
106.3134590964
0
LINE
5
44E
100
AcDbEntity
8
0
100
AcDbLine
62
7
6
CONTINUOUS
10
93.4552174666
20
106.3134590964
11
87.0675603010
21
106.3134590964
0
LINE
5
44F
100
AcDbEntity
8
0
100
AcDbLine
62
7
6
CONTINUOUS
10
105.7829581358
20
106.6134590964
11
105.7829581358
21
106.3134590964
0
LINE
5
450
100
AcDbEntity
8
0
100
AcDbLine
62
7
6
CONTINUOUS
10
105.9106398680
20
106.6134590964
11
105.9106398680
21
106.3134590964
0
LINE
5
451
100
AcDbEntity
8
0
100
AcDbLine
62
7
6
CONTINUOUS
10
105.9191723921
20
106.6134590964
11
105.9191723921
21
106.3134590964
0
LINE
5
452
100
AcDbEntity
8
0
100
AcDbLine
62
7
6
CONTINUOUS
10
84.7340526086
20
106.6134590964
11
137.3035910343
21
106.6134590964
0
LINE
5
453
100
AcDbEntity
8
0
100
AcDbLine
62
7
6
CONTINUOUS
10
108.0288218119
20
106.6134590964
11
108.0288218119
21
106.3134590964
0
LINE
5
454
100
AcDbEntity
8
0
100
AcDbLine
62
7
6
CONTINUOUS
10
109.1418294766
20
106.6134590964
11
109.1418294766
21
106.3134590964
0
LINE
5
455
100
AcDbEntity
8
0
100
AcDbLine
62
7
6
CONTINUOUS
10
109.3737059691
20
106.6134590964
11
109.3737059691
21
106.3134590964
0
LINE
5
456
100
AcDbEntity
8
0
100
AcDbLine
62
7
6
CONTINUOUS
10
109.5592073061
20
106.6134590964
11
109.5592073061
21
106.3134590964
0
LINE
5
457
100
AcDbEntity
8
0
100
AcDbLine
62
7
6
CONTINUOUS
10
109.6983332493
20
106.6134590964
11
109.6983332493
21
106.3134590964
0
LINE
5
458
100
AcDbEntity
8
0
100
AcDbLine
62
7
6
CONTINUOUS
10
109.7447085240
20
106.6134590964
11
109.7447085240
21
106.3134590964
0
LINE
5
459
100
AcDbEntity
8
0
100
AcDbLine
62
7
6
CONTINUOUS
10
109.7910837986
20
106.6134590964
11
109.7910837986
21
106.3134590964
0
LINE
5
45A
100
AcDbEntity
8
0
100
AcDbLine
62
7
6
CONTINUOUS
10
110.1620864131
20
106.6134590964
11
110.1620864131
21
106.3134590964
0
LINE
5
45B
100
AcDbEntity
8
0
100
AcDbLine
62
7
6
CONTINUOUS
10
110.4403382995
20
106.6134590964
11
110.4403382995
21
106.3134590964
0
LINE
5
45C
100
AcDbEntity
8
0
100
AcDbLine
62
7
6
CONTINUOUS
10
110.4867136337
20
106.6134590964
11
110.4867136337
21
106.3134590964
0
LINE
5
45D
100
AcDbEntity
8
0
100
AcDbLine
62
7
6
CONTINUOUS
10
110.5794642427
20
106.6134590964
11
110.5794642427
21
106.3134590964
0
LINE
5
45E
100
AcDbEntity
8
0
100
AcDbLine
62
7
6
CONTINUOUS
10
110.7185901858
20
106.6134590964
11
110.7185901858
21
106.3134590964
0
LINE
5
45F
100
AcDbEntity
8
0
100
AcDbLine
62
7
6
CONTINUOUS
10
110.9040914558
20
106.6134590964
11
110.9040914558
21
106.3134590964
0
LINE
5
460
100
AcDbEntity
8
DEFAULT_1
100
AcDbLine
62
2
6
CENTER
10
111.0188218214
20
112.6134590964
11
111.0188218214
21
94.6134590964
0
LINE
5
461
100
AcDbEntity
8
DEFAULT_1
100
AcDbLine
62
2
6
CENTER
10
111.0188218214
20
112.6134590964
11
111.0188218214
21
130.6134590964
0
LINE
5
462
100
AcDbEntity
8
0
100
AcDbLine
62
7
6
CONTINUOUS
10
111.0895927184
20
106.6134590964
11
111.0895927184
21
106.3134590964
0
LINE
5
463
100
AcDbEntity
8
0
100
AcDbLine
62
7
6
CONTINUOUS
10
111.2750939884
20
106.6134590964
11
111.2750939884
21
106.3134590964
0
LINE
5
464
100
AcDbEntity
8
DEFAULT_1
100
AcDbLine
62
2
6
CENTER
10
111.0188218214
20
112.6134590964
11
93.0188218214
21
112.6134590964
0
LINE
5
465
100
AcDbEntity
8
DEFAULT_1
100
AcDbLine
62
2
6
CENTER
10
111.0188218214
20
112.6134590964
11
129.0188218214
21
112.6134590964
0
LINE
5
466
100
AcDbEntity
8
0
100
AcDbLine
62
7
6
CONTINUOUS
10
111.4142199316
20
106.6134590964
11
111.4142199316
21
106.3134590964
0
LINE
5
467
100
AcDbEntity
8
0
100
AcDbLine
62
7
6
CONTINUOUS
10
111.5069705703
20
106.6134590964
11
111.5069705703
21
106.3134590964
0
LINE
5
468
100
AcDbEntity
8
0
100
AcDbLine
62
7
6
CONTINUOUS
10
111.5533459046
20
106.6134590964
11
111.5533459046
21
106.3134590964
0
LINE
5
469
100
AcDbEntity
8
0
100
AcDbLine
62
7
6
CONTINUOUS
10
111.8315977909
20
106.6134590964
11
111.8315977909
21
106.3134590964
0
LINE
5
46A
100
AcDbEntity
8
0
100
AcDbLine
62
7
6
CONTINUOUS
10
112.2026003458
20
106.6134590964
11
112.2026003458
21
106.3134590964
0
LINE
5
46B
100
AcDbEntity
8
0
100
AcDbLine
62
7
6
CONTINUOUS
10
113.3156078913
20
106.6134590964
11
113.3156078913
21
106.3134590964
0
LINE
5
46C
100
AcDbEntity
8
0
100
AcDbLine
62
7
6
CONTINUOUS
10
113.5474845030
20
106.6134590964
11
113.5474845030
21
106.3134590964
0
LINE
5
46D
100
AcDbEntity
8
0
100
AcDbLine
62
7
6
CONTINUOUS
10
113.7329858400
20
106.6134590964
11
113.7329858400
21
106.3134590964
0
LINE
5
46E
100
AcDbEntity
8
0
100
AcDbLine
62
7
6
CONTINUOUS
10
113.9184869387
20
106.6134590964
11
113.9184869387
21
106.3134590964
0
LINE
5
46F
100
AcDbEntity
8
0
100
AcDbLine
62
7
6
CONTINUOUS
10
114.0112377264
20
106.6134590964
11
114.0112377264
21
106.3134590964
0
LINE
5
470
100
AcDbEntity
8
0
100
AcDbLine
62
7
6
CONTINUOUS
10
114.0576130011
20
106.6134590964
11
114.0576130011
21
106.3134590964
0
LINE
5
471
100
AcDbEntity
8
0
100
AcDbLine
62
7
6
CONTINUOUS
10
137.3035910343
20
118.6134590964
11
84.7340526086
21
118.6134590964
0
LINE
5
472
100
AcDbEntity
8
0
100
AcDbLine
62
7
6
CONTINUOUS
10
97.5726222720
20
120.1538839229
11
97.5725523708
21
120.1538778892
0
LINE
5
473
100
AcDbEntity
8
0
100
AcDbLine
62
7
6
CONTINUOUS
10
92.1215512953
20
119.9961357300
11
92.9524410103
21
119.9961357300
0
LINE
5
474
100
AcDbEntity
8
0
100
AcDbLine
62
7
6
CONTINUOUS
10
129.0852026329
20
119.9961357300
11
129.9160923475
21
119.9961357300
0
LINE
5
475
100
AcDbEntity
8
0
100
AcDbLine
62
7
6
CONTINUOUS
10
124.4650921980
20
120.1538780587
11
124.4650214270
21
120.1538841674
0
LINE
5
476
100
AcDbEntity
8
0
100
AcDbLine
62
7
6
CONTINUOUS
10
84.5115333976
20
118.6358990551
11
91.8529918105
21
119.9718985169
0
LINE
5
477
100
AcDbEntity
8
0
100
AcDbLine
62
7
6
CONTINUOUS
10
84.4524687055
20
118.6264220272
11
84.4540353427
21
118.6266385241
0
LINE
5
478
100
AcDbEntity
8
0
100
AcDbLine
62
7
6
CONTINUOUS
10
137.5851750402
20
118.6264213622
11
137.5832206133
21
118.6266911589
0
LINE
5
479
100
AcDbEntity
8
0
100
AcDbLine
62
7
6
CONTINUOUS
10
130.1846518323
20
119.9718985169
11
137.5261102452
21
118.6358990551
0
LINE
5
47A
100
AcDbEntity
8
0
100
AcDbLine
62
7
6
CONTINUOUS
10
123.7067986356
20
104.6125063804
11
123.7150108561
21
104.6255442249
0
LINE
5
47B
100
AcDbEntity
8
0
100
AcDbLine
62
7
6
CONTINUOUS
10
123.7150108319
20
120.6013740064
11
123.7068145397
21
120.6143865914
0
LINE
5
47C
100
AcDbEntity
8
0
100
AcDbLine
62
7
6
CONTINUOUS
10
138.9550385283
20
108.1037985654
11
138.9550385283
21
117.1231196262
0
ARC
5
47D
100
AcDbEntity
8
0
100
AcDbCircle
62
7
6
CONTINUOUS
10
92.1219104044
20
202.6334388021
40
1.5000000000
100
AcDbArc
50
202.5000000000
51
268.9259361837
0
ARC
5
47E
100
AcDbEntity
8
0
100
AcDbCircle
62
7
6
CONTINUOUS
10
129.9157332385
20
202.6334388021
40
1.5000000000
100
AcDbArc
50
271.0740638163
51
337.0044298375
0
ARC
5
47F
100
AcDbEntity
8
0
100
AcDbCircle
62
7
6
CONTINUOUS
10
92.0188218214
20
197.1343057681
40
4.0000000000
100
AcDbArc
50
0.0000000000
51
88.9260843043
0
ARC
5
480
100
AcDbEntity
8
0
100
AcDbCircle
62
7
6
CONTINUOUS
10
130.0188218214
20
197.1343057681
40
4.0000000000
100
AcDbArc
50
91.0739156957
51
180.0000000000
0
CIRCLE
5
481
100
AcDbEntity
8
0
100
AcDbCircle
62
7
6
CONTINUOUS
10
111.0188218214
20
221.0338442511
40
15.0000000000
0
ARC
5
482
100
AcDbEntity
8
0
100
AcDbCircle
62
7
6
CONTINUOUS
10
129.0049431426
20
239.0199655723
40
2.5000000000
100
AcDbArc
50
22.5000000000
51
67.5000000000
0
ARC
5
483
100
AcDbEntity
8
0
100
AcDbCircle
62
7
6
CONTINUOUS
10
111.0188218214
20
246.4700609580
40
2.5000000000
100
AcDbArc
50
67.5000000000
51
112.5000000000
0
ARC
5
484
100
AcDbEntity
8
0
100
AcDbCircle
62
7
6
CONTINUOUS
10
93.0327005003
20
239.0199655723
40
2.5000000000
100
AcDbArc
50
112.5000000000
51
157.5000000000
0
ARC
5
485
100
AcDbEntity
8
0
100
AcDbCircle
62
7
6
CONTINUOUS
10
85.5826051145
20
221.0338442511
40
2.5000000000
100
AcDbArc
50
157.5000000000
51
202.5000000000
0
ARC
5
486
100
AcDbEntity
8
0
100
AcDbCircle
62
7
6
CONTINUOUS
10
136.4550385283
20
221.0338442511
40
2.5000000000
100
AcDbArc
50
337.5000000000
51
22.5000000000
0
ARC
5
487
100
AcDbEntity
8
0
100
AcDbCircle
62
7
6
CONTINUOUS
10
92.1215512953
20
202.6343057681
40
1.5000000000
100
AcDbArc
50
202.5000000000
51
270.0000000000
0
ARC
5
488
100
AcDbEntity
8
0
100
AcDbCircle
62
7
6
CONTINUOUS
10
129.9160923475
20
202.6343057681
40
1.5000000000
100
AcDbArc
50
270.0000000000
51
337.5000000000
0
ARC
5
489
100
AcDbEntity
8
DEFAULT_2
100
AcDbCircle
62
8
6
HIDDEN
10
295.3771299929
20
242.0338442511
40
6.0000000000
100
AcDbArc
50
180.0000000000
51
360.0000000000
0
ARC
5
48A
100
AcDbEntity
8
0
100
AcDbCircle
62
7
6
CONTINUOUS
10
290.8771299929
20
247.4700609580
40
1.5000000000
100
AcDbArc
50
90.0000000000
51
180.0000000000
0
ARC
5
48B
100
AcDbEntity
8
0
100
AcDbCircle
62
7
6
CONTINUOUS
10
299.8771299929
20
247.4700609580
40
1.5000000000
100
AcDbArc
50
0.0000000000
51
90.0000000000
0
ARC
5
48C
100
AcDbEntity
8
0
100
AcDbCircle
62
7
6
CONTINUOUS
10
282.3771299929
20
202.0584675699
40
2.0000000000
100
AcDbArc
50
99.0000000000
51
180.0000000000
0
ARC
5
48D
100
AcDbEntity
8
0
100
AcDbCircle
62
7
6
CONTINUOUS
10
308.3771299929
20
202.0584675699
40
2.0000000000
100
AcDbArc
50
0.0000000000
51
81.0000000000
0
ARC
5
48E
100
AcDbEntity
8
0
100
AcDbCircle
62
7
6
CONTINUOUS
10
316.3771299929
20
221.5983832125
40
15.0000000000
100
AcDbArc
50
180.0000000000
51
184.3107254215
0
ARC
5
48F
100
AcDbEntity
8
0
100
AcDbCircle
62
7
6
CONTINUOUS
10
274.3771299929
20
221.5983832125
40
15.0000000000
100
AcDbArc
50
355.6892745785
51
360.0000000000
0
ARC
5
490
100
AcDbEntity
8
0
100
AcDbCircle
62
7
6
CONTINUOUS
10
301.2598066265
20
202.6343057681
40
1.5000000000
100
AcDbArc
50
270.0000000000
51
4.3107254215
0
ARC
5
491
100
AcDbEntity
8
0
100
AcDbCircle
62
7
6
CONTINUOUS
10
289.4944533593
20
202.6343057681
40
1.5000000000
100
AcDbArc
50
175.6892745785
51
270.0000000000
0
ARC
5
492
100
AcDbEntity
8
0
100
AcDbCircle
62
7
6
CONTINUOUS
10
111.0188218214
20
112.6134590964
40
15.0000000000
100
AcDbArc
50
31.8079307578
51
148.1920692422
0
ARC
5
493
100
AcDbEntity
8
0
100
AcDbCircle
62
7
6
CONTINUOUS
10
111.0188218214
20
112.6134590964
40
15.0000000000
100
AcDbArc
50
211.8079307578
51
328.1920692422
0
SPLINE
5
494
100
AcDbEntity
8
0
100
AcDbSpline
62
7
6
CONTINUOUS
70
0
71
3
72
9
73
5
74
3
42
0.0000001000
43
0.0000001000
44
0.0000000001
40
0.0000000000
40
0.0000000000
40
0.0000000000
40
0.0000000000
40
0.4999999521
40
1.0000000000
40
1.0000000000
40
1.0000000000
40
1.0000000000
10
129.9161021351
20
201.1343057681
30
0.0000000000
10
129.9253551764
20
201.1342976556
30
0.0000000000
10
129.9623495776
20
201.1329086505
30
0.0000000000
10
129.9253551728
20
201.1342976601
30
0.0000000000
10
129.9161021298
20
201.1343057681
30
0.0000000000
11
129.9161021351
21
201.1343057681
31
0.0000000000
11
129.9438523761
21
201.1336031542
31
0.0000000000
11
129.9161021298
21
201.1343057681
31
0.0000000000
0
SPLINE
5
495
100
AcDbEntity
8
0
100
AcDbSpline
62
7
6
CONTINUOUS
70
0
71
3
72
9
73
5
74
3
42
0.0000001000
43
0.0000001000
44
0.0000000001
40
0.0000000000
40
0.0000000000
40
0.0000000000
40
0.0000000000
40
0.4999999521
40
1.0000000000
40
1.0000000000
40
1.0000000000
40
1.0000000000
10
92.1215415077
20
201.1343057681
30
0.0000000000
10
92.1122884665
20
201.1342976556
30
0.0000000000
10
92.0752940653
20
201.1329086505
30
0.0000000000
10
92.1122884700
20
201.1342976601
30
0.0000000000
10
92.1215415130
20
201.1343057681
30
0.0000000000
11
92.1215415077
21
201.1343057681
31
0.0000000000
11
92.0937912668
21
201.1336031542
31
0.0000000000
11
92.1215415130
21
201.1343057681
31
0.0000000000
0
SPLINE
5
496
100
AcDbEntity
8
0
100
AcDbSpline
62
7
6
CONTINUOUS
70
0
71
3
72
8
73
4
74
2
42
0.0000001000
43
0.0000001000
44
0.0000000001
40
0.0000000000
40
0.0000000000
40
0.0000000000
40
0.0000000000
40
1.0000000000
40
1.0000000000
40
1.0000000000
40
1.0000000000
10
288.0918335618
20
205.1995644663
30
0.0000000000
10
288.0645727220
20
205.1706670722
30
0.0000000000
10
288.0355060164
20
205.1433480054
30
0.0000000000
10
288.0048946817
20
205.1178253498
30
0.0000000000
11
288.0918335618
21
205.1995644663
31
0.0000000000
11
288.0048946817
21
205.1178253498
31
0.0000000000
0
SPLINE
5
497
100
AcDbEntity
8
0
100
AcDbSpline
62
7
6
CONTINUOUS
70
0
71
3
72
10
73
6
74
4
42
0.0000001000
43
0.0000001000
44
0.0000000001
40
0.0000000000
40
0.0000000000
40
0.0000000000
40
0.0000000000
40
0.2622232738
40
0.7467770233
40
1.0000000000
40
1.0000000000
40
1.0000000000
40
1.0000000000
10
288.0048946817
20
205.1178253498
30
0.0000000000
10
287.9687738548
20
205.0877090730
30
0.0000000000
10
287.8597817014
20
205.0090651393
30
0.0000000000
10
287.6951356115
20
204.9348100485
30
0.0000000000
10
287.5657169458
20
204.9052249952
30
0.0000000000
10
287.5208589009
20
204.8981152466
30
0.0000000000
11
288.0048946817
21
205.1178253498
31
0.0000000000
11
287.8905093728
21
205.0353385629
31
0.0000000000
11
287.6536200997
21
204.9285020931
31
0.0000000000
11
287.5208589009
21
204.8981152466
31
0.0000000000
0
SPLINE
5
498
100
AcDbEntity
8
0
100
AcDbSpline
62
7
6
CONTINUOUS
70
0
71
3
72
8
73
4
74
2
42
0.0000001000
43
0.0000001000
44
0.0000000001
40
0.0000000000
40
0.0000000000
40
0.0000000000
40
0.0000000000
40
1.0000000000
40
1.0000000000
40
1.0000000000
40
1.0000000000
10
288.0947758852
20
205.2026512224
30
0.0000000000
10
288.0938053162
20
205.2016138218
30
0.0000000000
10
288.0928246229
20
205.2005848122
30
0.0000000000
10
288.0918335618
20
205.1995644663
30
0.0000000000
11
288.0947758852
21
205.2026512224
31
0.0000000000
11
288.0918335618
21
205.1995644663
31
0.0000000000
0
SPLINE
5
499
100
AcDbEntity
8
0
100
AcDbSpline
62
7
6
CONTINUOUS
70
0
71
3
72
8
73
4
74
2
42
0.0000001000
43
0.0000001000
44
0.0000000001
40
0.0000000000
40
0.0000000000
40
0.0000000000
40
0.0000000000
40
1.0000000000
40
1.0000000000
40
1.0000000000
40
1.0000000000
10
288.2061578925
20
205.4993516543
30
0.0000000000
10
288.2036718265
20
205.4663926610
30
0.0000000000
10
288.1985947122
20
205.4334644024
30
0.0000000000
10
288.1908267431
20
205.4011909195
30
0.0000000000
11
288.2061578925
21
205.4993516543
31
0.0000000000
11
288.1908267431
21
205.4011909195
31
0.0000000000
0
SPLINE
5
49A
100
AcDbEntity
8
0
100
AcDbSpline
62
7
6
CONTINUOUS
70
0
71
3
72
11
73
7
74
5
42
0.0000001000
43
0.0000001000
44
0.0000000001
40
0.0000000000
40
0.0000000000
40
0.0000000000
40
0.0000000000
40
0.4022936455
40
0.8362604894
40
0.9437327921
40
1.0000000000
40
1.0000000000
40
1.0000000000
40
1.0000000000
10
288.1908267431
20
205.4011909195
30
0.0000000000
10
288.1836792659
20
205.3714953870
30
0.0000000000
10
288.1640859337
20
205.3109186893
30
0.0000000000
10
288.1304861581
20
205.2476307871
30
0.0000000000
10
288.1032277134
20
205.2116315019
30
0.0000000000
10
288.0948471329
20
205.2025603297
30
0.0000000000
10
288.0918335618
20
205.1995644663
30
0.0000000000
11
288.1908267431
21
205.4011909195
31
0.0000000000
11
288.1624721359
21
205.3142534947
31
0.0000000000
11
288.1153829803
21
205.2281120799
31
0.0000000000
11
288.1004990732
21
205.2088881107
31
0.0000000000
11
288.0918335618
21
205.1995644663
31
0.0000000000
0
SPLINE
5
49B
100
AcDbEntity
8
0
100
AcDbSpline
62
7
6
CONTINUOUS
70
0
71
3
72
55
73
51
74
49
42
0.0000001000
43
0.0000001000
44
0.0000000001
40
0.0000000000
40
0.0000000000
40
0.0000000000
40
0.0000000000
40
0.0095985000
40
0.0231460068
40
0.0342149866
40
0.0451260167
40
0.0578101475
40
0.0708722662
40
0.0838443144
40
0.0996541064
40
0.1119098715
40
0.1256330607
40
0.1406606845
40
0.1571083784
40
0.1751689766
40
0.1950517851
40
0.2169832408
40
0.2287929235
40
0.2412077404
40
0.2542610398
40
0.2679873099
40
0.2824221732
40
0.2976023728
40
0.3135657494
40
0.3303512072
40
0.3479984041
40
0.3665477459
40
0.3860395044
40
0.4063077305
40
0.4272325611
40
0.4488421726
40
0.4711645552
40
0.4942274127
40
0.5180580491
40
0.5426832399
40
0.5681290893
40
0.5944208702
40
0.6215828490
40
0.6496380928
40
0.6786082598
40
0.7085133724
40
0.7393715736
40
0.7711988669
40
0.8040088405
40
0.8378123772
40
0.8726173512
40
0.9084283141
40
0.9452461718
40
0.9830678560
40
1.0000000000
40
1.0000000000
40
1.0000000000
40
1.0000000000
10
302.6536613475
20
205.2089688497
30
0.0000000000
10
302.6544174767
20
205.2081481217
30
0.0000000000
10
302.6564778512
20
205.2059207303
30
0.0000000000
10
302.6608720487
20
205.2012032088
30
0.0000000000
10
302.6565254650
20
205.2058789427
30
0.0000000000
10
302.6543714782
20
205.2082065956
30
0.0000000000
10
302.6516160286
20
205.2114006151
30
0.0000000000
10
302.6489871377
20
205.2146655842
30
0.0000000000
10
302.6461397362
20
205.2182868204
30
0.0000000000
10
302.6434219278
20
205.2218704504
30
0.0000000000
10
302.6407028299
20
205.2255631770
30
0.0000000000
10
302.6380822902
20
205.2292197618
30
0.0000000000
10
302.6352484853
20
205.2332892664
30
0.0000000000
10
302.6322073999
20
205.2377935036
30
0.0000000000
10
302.6289438407
20
205.2427895014
30
0.0000000000
10
302.6254402418
20
205.2483463306
30
0.0000000000
10
302.6223876300
20
205.2533758298
30
0.0000000000
10
302.6198176182
20
205.2577389934
30
0.0000000000
10
302.6177747446
20
205.2612820289
30
0.0000000000
10
302.6156625463
20
205.2650275859
30
0.0000000000
10
302.6134803686
20
205.2689878666
30
0.0000000000
10
302.6112279318
20
205.2731755839
30
0.0000000000
10
302.6089053779
20
205.2776039706
30
0.0000000000
10
302.6065133274
20
205.2822867749
30
0.0000000000
10
302.6040529510
20
205.2872382287
30
0.0000000000
10
302.6015260422
20
205.2924730129
30
0.0000000000
10
302.5989351343
20
205.2980061381
30
0.0000000000
10
302.5962929164
20
205.3038322487
30
0.0000000000
10
302.5936189256
20
205.3099295600
30
0.0000000000
10
302.5909326257
20
205.3162745830
30
0.0000000000
10
302.5882444252
20
205.3228628821
30
0.0000000000
10
302.5855588728
20
205.3297049059
30
0.0000000000
10
302.5828812068
20
205.3368110475
30
0.0000000000
10
302.5802173949
20
205.3441915913
30
0.0000000000
10
302.5775741684
20
205.3518566499
30
0.0000000000
10
302.5749590556
20
205.3598160940
30
0.0000000000
10
302.5723804131
20
205.3680794734
30
0.0000000000
10
302.5698474525
20
205.3766559294
30
0.0000000000
10
302.5673702640
20
205.3855540989
30
0.0000000000
10
302.5649598328
20
205.3947820082
30
0.0000000000
10
302.5626280491
20
205.4043469595
30
0.0000000000
10
302.5603877100
20
205.4142554067
30
0.0000000000
10
302.5582525104
20
205.4245128246
30
0.0000000000
10
302.5562370229
20
205.4351235687
30
0.0000000000
10
302.5543566645
20
205.4460907292
30
0.0000000000
10
302.5526276478
20
205.4574159785
30
0.0000000000
10
302.5510669166
20
205.4690994163
30
0.0000000000
10
302.5496920599
20
205.4811394036
30
0.0000000000
10
302.5487470754
20
205.4911418165
30
0.0000000000
10
302.5482671464
20
205.4971297796
30
0.0000000000
10
302.5481268588
20
205.4989821227
30
0.0000000000
11
302.6536613475
21
205.2089688497
31
0.0000000000
11
302.6562832042
21
205.2061349804
31
0.0000000000
11
302.6593206556
21
205.2028707109
31
0.0000000000
11
302.6568417413
21
205.2055404130
31
0.0000000000
11
302.6544159175
21
205.2081883604
31
0.0000000000
11
302.6516898709
21
205.2113501478
31
0.0000000000
11
302.6489800378
21
205.2146876970
31
0.0000000000
11
302.6463434847
21
205.2180458221
31
0.0000000000
11
302.6431968812
21
205.2221900788
31
0.0000000000
11
302.6408050323
21
205.2254381552
31
0.0000000000
11
302.6381735664
21
205.2291091142
31
0.0000000000
11
302.6353468848
21
205.2331678118
31
0.0000000000
11
302.6323173139
21
205.2376540919
31
0.0000000000
11
302.6290659541
21
205.2426303280
31
0.0000000000
11
302.6255751428
21
205.2481655103
31
0.0000000000
11
302.6218291863
21
205.2543357041
31
0.0000000000
11
302.6198563774
21
205.2576847444
31
0.0000000000
11
302.6178152476
21
205.2612244888
31
0.0000000000
11
302.6157048154
21
205.2649666214
31
0.0000000000
11
302.6135244244
21
205.2689233384
31
0.0000000000
11
302.6112737899
21
205.2731073527
31
0.0000000000
11
302.6089530492
21
205.2775318966
31
0.0000000000
11
302.6065628169
21
205.2822107194
31
0.0000000000
11
302.6041042446
21
205.2871580807
31
0.0000000000
11
302.6015791227
21
205.2923886599
31
0.0000000000
11
302.5989899371
21
205.2979175518
31
0.0000000000
11
302.5963400477
21
205.3037599959
31
0.0000000000
11
302.5936607219
21
205.3098691327
31
0.0000000000
11
302.5909755603
21
205.3162110718
31
0.0000000000
11
302.5882884486
21
205.3227962746
31
0.0000000000
11
302.5856039287
21
205.3296351979
31
0.0000000000
11
302.5829272348
21
205.3367382462
31
0.0000000000
11
302.5802643297
21
205.3441157162
31
0.0000000000
11
302.5776219401
21
205.3517777351
31
0.0000000000
11
302.5750075900
21
205.3597341896
31
0.0000000000
11
302.5724296315
21
205.3679946476
31
0.0000000000
11
302.5698972728
21
205.3765682703
31
0.0000000000
11
302.5674206007
21
205.3854637164
31
0.0000000000
11
302.5650105979
21
205.3946890363
31
0.0000000000
11
302.5626791534
21
205.4042515579
31
0.0000000000
11
302.5604390636
21
205.4141577631
31
0.0000000000
11
302.5583040245
21
205.4244131563
31
0.0000000000
11
302.5562886115
21
205.4350221244
31
0.0000000000
11
302.5544082456
21
205.4459877904
31
0.0000000000
11
302.5526791462
21
205.4573118609
31
0.0000000000
11
302.5511182652
21
205.4689944696
31
0.0000000000
11
302.5497432045
21
205.4810340180
31
0.0000000000
11
302.5485721132
21
205.4934270155
31
0.0000000000
11
302.5481268588
21
205.4989821227
31
0.0000000000
0
SPLINE
5
49C
100
AcDbEntity
8
0
100
AcDbSpline
62
7
6
CONTINUOUS
70
0
71
3
72
8
73
4
74
2
42
0.0000001000
43
0.0000001000
44
0.0000000001
40
0.0000000000
40
0.0000000000
40
0.0000000000
40
0.0000000000
40
1.0000000000
40
1.0000000000
40
1.0000000000
40
1.0000000000
10
302.6536979787
20
205.2090009153
30
0.0000000000
10
302.6535937462
20
205.2091199886
30
0.0000000000
10
302.6534888133
20
205.2092403240
30
0.0000000000
10
302.6533833866
20
205.2093616849
30
0.0000000000
11
302.6536979787
21
205.2090009153
31
0.0000000000
11
302.6533833866
21
205.2093616849
31
0.0000000000
0
SPLINE
5
49D
100
AcDbEntity
8
0
100
AcDbSpline
62
7
6
CONTINUOUS
70
0
71
3
72
10
73
6
74
4
42
0.0000001000
43
0.0000001000
44
0.0000000001
40
0.0000000000
40
0.0000000000
40
0.0000000000
40
0.0000000000
40
0.2544597893
40
0.7400235204
40
1.0000000000
40
1.0000000000
40
1.0000000000
40
1.0000000000
10
303.2334013224
20
204.8981152548
30
0.0000000000
10
303.1883472199
20
204.9052561903
30
0.0000000000
10
303.0586056077
20
204.9349553326
30
0.0000000000
10
302.8940997923
20
205.0093061690
30
0.0000000000
10
302.7853788512
20
205.0878151033
30
0.0000000000
10
302.7495772902
20
205.1176489545
30
0.0000000000
11
303.2334013224
21
204.8981152548
31
0.0000000000
11
303.1000692552
21
204.9286744891
31
0.0000000000
11
302.8628959839
21
205.0358677430
31
0.0000000000
11
302.7495772902
21
205.1176489545
31
0.0000000000
0
SPLINE
5
49E
100
AcDbEntity
8
0
100
AcDbSpline
62
7
6
CONTINUOUS
70
0
71
3
72
8
73
4
74
2
42
0.0000001000
43
0.0000001000
44
0.0000000001
40
0.0000000000
40
0.0000000000
40
0.0000000000
40
0.0000000000
40
1.0000000000
40
1.0000000000
40
1.0000000000
40
1.0000000000
10
302.7495772902
20
205.1176489545
30
0.0000000000
10
302.7185710899
20
205.1434867766
30
0.0000000000
10
302.6891478021
20
205.1711675517
30
0.0000000000
10
302.6615784191
20
205.2004645255
30
0.0000000000
11
302.7495772902
21
205.1176489545
31
0.0000000000
11
302.6615784191
21
205.2004645255
31
0.0000000000
0
SPLINE
5
49F
100
AcDbEntity
8
0
100
AcDbSpline
62
7
6
CONTINUOUS
70
0
71
3
72
9
73
5
74
3
42
0.0000001000
43
0.0000001000
44
0.0000000001
40
0.0000000000
40
0.0000000000
40
0.0000000000
40
0.0000000000
40
0.2392444121
40
1.0000000000
40
1.0000000000
40
1.0000000000
40
1.0000000000
10
302.6537319570
20
205.2090303673
30
0.0000000000
10
302.6525731282
20
205.2103604634
30
0.0000000000
10
302.6477926826
20
205.2159715874
30
0.0000000000
10
302.6432679369
20
205.2217886000
30
0.0000000000
10
302.6399576809
20
205.2263154184
30
0.0000000000
11
302.6537319570
21
205.2090303673
31
0.0000000000
11
302.6503003742
21
205.2130571081
31
0.0000000000
11
302.6399576809
21
205.2263154184
31
0.0000000000
0
SPLINE
5
4A0
100
AcDbEntity
8
0
100
AcDbSpline
62
7
6
CONTINUOUS
70
0
71
3
72
8
73
4
74
2
42
0.0000001000
43
0.0000001000
44
0.0000000001
40
0.0000000000
40
0.0000000000
40
0.0000000000
40
0.0000000000
40
1.0000000000
40
1.0000000000
40
1.0000000000
40
1.0000000000
10
302.5507796745
20
205.4720954324
30
0.0000000000
10
302.5496924183
20
205.4811417625
30
0.0000000000
10
302.5488052129
20
205.4901993033
30
0.0000000000
10
302.5481166024
20
205.4992541037
30
0.0000000000
11
302.5507796745
21
205.4720954324
31
0.0000000000
11
302.5481166024
21
205.4992541037
31
0.0000000000
0
SPLINE
5
4A1
100
AcDbEntity
8
0
100
AcDbSpline
62
7
6
CONTINUOUS
70
0
71
3
72
9
73
5
74
3
42
0.0000001000
43
0.0000001000
44
0.0000000001
40
0.0000000000
40
0.0000000000
40
0.0000000000
40
0.0000000000
40
0.4999974869
40
1.0000000000
40
1.0000000000
40
1.0000000000
40
1.0000000000
10
297.3500930912
20
201.1343057681
30
0.0000000000
10
296.6924419756
20
201.1342894906
30
0.0000000000
10
295.3771332579
20
201.1329168133
30
0.0000000000
10
294.0618245401
20
201.1342894995
30
0.0000000000
10
293.4041668134
20
201.1343057681
30
0.0000000000
11
297.3500930912
21
201.1343057681
31
0.0000000000
11
295.3771398690
21
201.1336031542
31
0.0000000000
11
293.4041668134
21
201.1343057681
31
0.0000000000
0
SPLINE
5
4A2
100
AcDbEntity
8
0
100
AcDbSpline
62
7
6
CONTINUOUS
70
0
71
3
72
11
73
7
74
5
42
0.0000001000
43
0.0000001000
44
0.0000000001
40
0.0000000000
40
0.0000000000
40
0.0000000000
40
0.0000000000
40
0.0791862907
40
0.4475986569
40
0.8159995551
40
1.0000000000
40
1.0000000000
40
1.0000000000
40
1.0000000000
10
124.4650114692
20
120.1539069121
30
0.0000000000
10
124.4445396737
20
120.1556696400
30
0.0000000000
10
124.3291308810
20
120.1691924458
30
0.0000000000
10
124.1245767966
20
120.2305747903
30
0.0000000000
10
123.9226209070
20
120.3620797798
30
0.0000000000
10
123.8217426600
20
120.4645149665
30
0.0000000000
10
123.7907535786
20
120.5008003081
30
0.0000000000
11
124.4650114692
21
120.1539069121
31
0.0000000000
11
124.4038052189
21
120.1610849501
31
0.0000000000
11
124.1303499577
21
120.2430264144
31
0.0000000000
11
123.8911957786
21
120.3988865721
31
0.0000000000
11
123.7907535786
21
120.5008003081
31
0.0000000000
0
SPLINE
5
4A3
100
AcDbEntity
8
0
100
AcDbSpline
62
7
6
CONTINUOUS
70
0
71
3
72
8
73
4
74
2
42
0.0000001000
43
0.0000001000
44
0.0000000001
40
0.0000000000
40
0.0000000000
40
0.0000000000
40
0.0000000000
40
1.0000000000
40
1.0000000000
40
1.0000000000
40
1.0000000000
10
123.7907535786
20
120.5008003081
30
0.0000000000
10
123.7843231390
20
120.5083297569
30
0.0000000000
10
123.7780051975
20
120.5159524286
30
0.0000000000
10
123.7718029975
20
120.5236643269
30
0.0000000000
11
123.7907535786
21
120.5008003081
31
0.0000000000
11
123.7718029975
21
120.5236643269
31
0.0000000000
0
SPLINE
5
4A4
100
AcDbEntity
8
0
100
AcDbSpline
62
7
6
CONTINUOUS
70
0
71
3
72
8
73
4
74
2
42
0.0000001000
43
0.0000001000
44
0.0000000001
40
0.0000000000
40
0.0000000000
40
0.0000000000
40
0.0000000000
40
1.0000000000
40
1.0000000000
40
1.0000000000
40
1.0000000000
10
123.7718029975
20
120.5236643269
30
0.0000000000
10
123.7480525726
20
120.5531959224
30
0.0000000000
10
123.7259993772
20
120.5840359321
30
0.0000000000
10
123.7058255397
20
120.6159599435
30
0.0000000000
11
123.7718029975
21
120.5236643269
31
0.0000000000
11
123.7058255397
21
120.6159599435
31
0.0000000000
0
SPLINE
5
4A5
100
AcDbEntity
8
0
100
AcDbSpline
62
7
6
CONTINUOUS
70
0
71
3
72
8
73
4
74
2
42
0.0000001000
43
0.0000001000
44
0.0000000001
40
0.0000000000
40
0.0000000000
40
0.0000000000
40
0.0000000000
40
1.0000000000
40
1.0000000000
40
1.0000000000
40
1.0000000000
10
98.3317758312
20
120.6158926349
30
0.0000000000
10
98.3063322863
20
120.5756366599
30
0.0000000000
10
98.2779002118
20
120.5371047758
30
0.0000000000
10
98.2468448822
20
120.5007469960
30
0.0000000000
11
98.3317758312
21
120.6158926349
31
0.0000000000
11
98.2468448822
21
120.5007469960
31
0.0000000000
0
SPLINE
5
4A6
100
AcDbEntity
8
0
100
AcDbSpline
62
7
6
CONTINUOUS
70
0
71
3
72
11
73
7
74
5
42
0.0000001000
43
0.0000001000
44
0.0000000001
40
0.0000000000
40
0.0000000000
40
0.0000000000
40
0.0000000000
40
0.1840048172
40
0.5524140411
40
0.9208341247
40
1.0000000000
40
1.0000000000
40
1.0000000000
40
1.0000000000
10
98.2468448822
20
120.5007469960
30
0.0000000000
10
98.2158553608
20
120.4644662607
30
0.0000000000
10
98.1149773790
20
120.3620446677
30
0.0000000000
10
97.9130290773
20
120.2305590641
30
0.0000000000
10
97.7084931321
20
120.1691889765
30
0.0000000000
10
97.5930980676
20
120.1556688930
30
0.0000000000
10
97.5726334205
20
120.1539067573
30
0.0000000000
11
98.2468448822
21
120.5007469960
31
0.0000000000
11
98.1464028279
21
120.3988466483
31
0.0000000000
11
97.9072570811
21
120.2430091242
31
0.0000000000
11
97.6338183798
21
120.1610817035
31
0.0000000000
11
97.5726334205
21
120.1539067573
31
0.0000000000
0
SPLINE
5
4A7
100
AcDbEntity
8
0
100
AcDbSpline
62
7
6
CONTINUOUS
70
0
71
3
72
11
73
7
74
5
42
0.0000001000
43
0.0000001000
44
0.0000000001
40
0.0000000000
40
0.0000000000
40
0.0000000000
40
0.0000000000
40
0.0791862907
40
0.4475986569
40
0.8159995551
40
1.0000000000
40
1.0000000000
40
1.0000000000
40
1.0000000000
10
97.5726321737
20
105.0730112807
30
0.0000000000
10
97.5931039691
20
105.0712485527
30
0.0000000000
10
97.7085127619
20
105.0577257469
30
0.0000000000
10
97.9130668462
20
104.9963434025
30
0.0000000000
10
98.1150227359
20
104.8648384130
30
0.0000000000
10
98.2159009829
20
104.7624032263
30
0.0000000000
10
98.2468900642
20
104.7261178846
30
0.0000000000
11
97.5726321737
21
105.0730112807
31
0.0000000000
11
97.6338384239
21
105.0658332427
31
0.0000000000
11
97.9072936852
21
104.9838917784
31
0.0000000000
11
98.1464478643
21
104.8280316207
31
0.0000000000
11
98.2468900642
21
104.7261178846
31
0.0000000000
0
SPLINE
5
4A8
100
AcDbEntity
8
0
100
AcDbSpline
62
7
6
CONTINUOUS
70
0
71
3
72
8
73
4
74
2
42
0.0000001000
43
0.0000001000
44
0.0000000001
40
0.0000000000
40
0.0000000000
40
0.0000000000
40
0.0000000000
40
1.0000000000
40
1.0000000000
40
1.0000000000
40
1.0000000000
10
98.2468900642
20
104.7261178846
30
0.0000000000
10
98.2533205039
20
104.7185884359
30
0.0000000000
10
98.2596384454
20
104.7109657641
30
0.0000000000
10
98.2658406453
20
104.7032538659
30
0.0000000000
11
98.2468900642
21
104.7261178846
31
0.0000000000
11
98.2658406453
21
104.7032538659
31
0.0000000000
0
SPLINE
5
4A9
100
AcDbEntity
8
0
100
AcDbSpline
62
7
6
CONTINUOUS
70
0
71
3
72
8
73
4
74
2
42
0.0000001000
43
0.0000001000
44
0.0000000001
40
0.0000000000
40
0.0000000000
40
0.0000000000
40
0.0000000000
40
1.0000000000
40
1.0000000000
40
1.0000000000
40
1.0000000000
10
98.2658406453
20
104.7032538659
30
0.0000000000
10
98.2895910702
20
104.6737222704
30
0.0000000000
10
98.3116442656
20
104.6428822607
30
0.0000000000
10
98.3318181032
20
104.6109582493
30
0.0000000000
11
98.2658406453
21
104.7032538659
31
0.0000000000
11
98.3318181032
21
104.6109582493
31
0.0000000000
0
SPLINE
5
4AA
100
AcDbEntity
8
0
100
AcDbSpline
62
7
6
CONTINUOUS
70
0
71
3
72
8
73
4
74
2
42
0.0000001000
43
0.0000001000
44
0.0000000001
40
0.0000000000
40
0.0000000000
40
0.0000000000
40
0.0000000000
40
1.0000000000
40
1.0000000000
40
1.0000000000
40
1.0000000000
10
123.7058678116
20
104.6110255578
30
0.0000000000
10
123.7313113565
20
104.6512815329
30
0.0000000000
10
123.7597434310
20
104.6898134169
30
0.0000000000
10
123.7907987607
20
104.7261711967
30
0.0000000000
11
123.7058678116
21
104.6110255578
31
0.0000000000
11
123.7907987607
21
104.7261711967
31
0.0000000000
0
SPLINE
5
4AB
100
AcDbEntity
8
0
100
AcDbSpline
62
7
6
CONTINUOUS
70
0
71
3
72
11
73
7
74
5
42
0.0000001000
43
0.0000001000
44
0.0000000001
40
0.0000000000
40
0.0000000000
40
0.0000000000
40
0.0000000000
40
0.1840048172
40
0.5524140411
40
0.9208341247
40
1.0000000000
40
1.0000000000
40
1.0000000000
40
1.0000000000
10
123.7907987607
20
104.7261711967
30
0.0000000000
10
123.8217882820
20
104.7624519321
30
0.0000000000
10
123.9226662639
20
104.8648735251
30
0.0000000000
10
124.1246145655
20
104.9963591287
30
0.0000000000
10
124.3291505108
20
105.0577292162
30
0.0000000000
10
124.4445455753
20
105.0712492997
30
0.0000000000
10
124.4650102223
20
105.0730114354
30
0.0000000000
11
123.7907987607
21
104.7261711967
31
0.0000000000
11
123.8912408149
21
104.8280715444
31
0.0000000000
11
124.1303865617
21
104.9839090686
31
0.0000000000
11
124.4038252630
21
105.0658364893
31
0.0000000000
11
124.4650102223
21
105.0730114354
31
0.0000000000
0
SPLINE
5
4AC
100
AcDbEntity
8
0
100
AcDbSpline
62
7
6
CONTINUOUS
70
0
71
3
72
16
73
12
74
10
42
0.0000001000
43
0.0000001000
44
0.0000000001
40
0.0000000000
40
0.0000000000
40
0.0000000000
40
0.0000000000
40
0.1164032130
40
0.2574533964
40
0.3909314713
40
0.5159687027
40
0.6319664048
40
0.7385527274
40
0.8355110141
40
0.9227297397
40
1.0000000000
40
1.0000000000
40
1.0000000000
40
1.0000000000
10
92.9524410100
20
105.2307827663
30
0.0000000000
10
93.1254250786
20
105.2307832412
30
0.0000000000
10
93.5080215999
20
105.2295306688
30
0.0000000000
10
94.0889485215
20
105.2234460219
30
0.0000000000
10
94.6826383317
20
105.2125381989
30
0.0000000000
10
95.2390060912
20
105.1979165688
30
0.0000000000
10
95.7552977766
20
105.1801721675
30
0.0000000000
10
96.2297328086
20
105.1598545685
30
0.0000000000
10
96.6612537093
20
105.1374803163
30
0.0000000000
10
97.0490582120
20
105.1135589263
30
0.0000000000
10
97.2928521108
20
105.0958273361
30
0.0000000000
10
97.4073286521
20
105.0867362725
30
0.0000000000
11
92.9524410100
21
105.2307827663
31
0.0000000000
11
93.4713903373
21
105.2290874836
31
0.0000000000
11
94.1001885176
21
105.2224777464
31
0.0000000000
11
94.6951620083
21
105.2114984990
31
0.0000000000
11
95.2524114349
21
105.1967850641
31
0.0000000000
11
95.7692466553
21
105.1789338111
31
0.0000000000
11
96.2439923533
21
105.1584963406
31
0.0000000000
11
96.6756674484
21
105.1359883885
31
0.0000000000
11
97.0637606489
21
105.1118947641
31
0.0000000000
11
97.4073286521
21
105.0867362725
31
0.0000000000
0
SPLINE
5
4AD
100
AcDbEntity
8
0
100
AcDbSpline
62
7
6
CONTINUOUS
70
0
71
3
72
8
73
4
74
2
42
0.0000001000
43
0.0000001000
44
0.0000000001
40
0.0000000000
40
0.0000000000
40
0.0000000000
40
0.0000000000
40
1.0000000000
40
1.0000000000
40
1.0000000000
40
1.0000000000
10
97.4073286521
20
105.0867362725
30
0.0000000000
10
97.4624825432
20
105.0823562701
30
0.0000000000
10
97.5176253031
20
105.0777995099
30
0.0000000000
10
97.5727446359
20
105.0730291632
30
0.0000000000
11
97.4073286521
21
105.0867362725
31
0.0000000000
11
97.5727446359
21
105.0730291632
31
0.0000000000
0
SPLINE
5
4AE
100
AcDbEntity
8
0
100
AcDbSpline
62
7
6
CONTINUOUS
70
0
71
3
72
9
73
5
74
3
42
0.0000001000
43
0.0000001000
44
0.0000000001
40
0.0000000000
40
0.0000000000
40
0.0000000000
40
0.0000000000
40
0.0323347413
40
1.0000000000
40
1.0000000000
40
1.0000000000
40
1.0000000000
10
91.8527813013
20
105.2550548009
30
0.0000000000
10
91.8556458405
20
105.2545340994
30
0.0000000000
10
91.9442866377
20
105.2386896085
30
0.0000000000
10
92.0344533154
20
105.2308678288
30
0.0000000000
10
92.1215513129
20
105.2308412080
30
0.0000000000
11
91.8527813013
21
105.2550548009
31
0.0000000000
11
91.8613797903
21
105.2535178324
31
0.0000000000
11
92.1215513129
21
105.2308412080
31
0.0000000000
0
SPLINE
5
4AF
100
AcDbEntity
8
0
100
AcDbSpline
62
7
6
CONTINUOUS
70
0
71
3
72
8
73
4
74
2
42
0.0000001000
43
0.0000001000
44
0.0000000001
40
0.0000000000
40
0.0000000000
40
0.0000000000
40
0.0000000000
40
1.0000000000
40
1.0000000000
40
1.0000000000
40
1.0000000000
10
92.1215512953
20
119.9961357300
30
0.0000000000
10
92.0312483842
20
119.9961357300
30
0.0000000000
10
91.9406522378
20
119.9878956068
30
0.0000000000
10
91.8515160073
20
119.9716032510
30
0.0000000000
11
92.1215512953
21
119.9961357300
31
0.0000000000
11
91.8515160073
21
119.9716032510
31
0.0000000000
0
SPLINE
5
4B0
100
AcDbEntity
8
0
100
AcDbSpline
62
7
6
CONTINUOUS
70
0
71
3
72
8
73
4
74
2
42
0.0000001000
43
0.0000001000
44
0.0000000001
40
0.0000000000
40
0.0000000000
40
0.0000000000
40
0.0000000000
40
1.0000000000
40
1.0000000000
40
1.0000000000
40
1.0000000000
10
97.5727445946
20
120.1538897676
30
0.0000000000
10
97.5164336710
20
120.1490160950
30
0.0000000000
10
97.4600978640
20
120.1443649092
30
0.0000000000
10
97.4037506645
20
120.1398978805
30
0.0000000000
11
97.5727445946
21
120.1538897676
31
0.0000000000
11
97.4037506645
21
120.1398978805
31
0.0000000000
0
SPLINE
5
4B1
100
AcDbEntity
8
0
100
AcDbSpline
62
7
6
CONTINUOUS
70
0
71
3
72
16
73
12
74
10
42
0.0000001000
43
0.0000001000
44
0.0000000001
40
0.0000000000
40
0.0000000000
40
0.0000000000
40
0.0000000000
40
0.0775303004
40
0.1650243349
40
0.2622659586
40
0.3691457535
40
0.4854502209
40
0.6108103812
40
0.7446295738
40
0.8860402309
40
1.0000000000
40
1.0000000000
40
1.0000000000
40
1.0000000000
10
97.4037506645
20
120.1398978805
30
0.0000000000
10
97.2889796687
20
120.1307991969
30
0.0000000000
10
97.0445873861
20
120.1130587607
30
0.0000000000
10
96.6558783412
20
120.0891319769
30
0.0000000000
10
96.2234384762
20
120.0667655148
30
0.0000000000
10
95.7480720555
20
120.0464668628
30
0.0000000000
10
95.2308238733
20
120.0287528954
30
0.0000000000
10
94.6734611647
20
120.0141743015
30
0.0000000000
10
94.0787268756
20
120.0033235892
30
0.0000000000
10
93.5008531402
20
119.9973495302
30
0.0000000000
10
93.1216576143
20
119.9961349350
30
0.0000000000
10
92.9524410103
20
119.9961353985
30
0.0000000000
11
97.4037506645
21
120.1398978805
31
0.0000000000
11
97.0593004992
21
120.1147225444
31
0.0000000000
11
96.6702925329
21
120.0906234677
31
0.0000000000
11
96.2377016467
21
120.0681231642
31
0.0000000000
11
95.7620295180
21
120.0477050416
31
0.0000000000
11
95.2442424893
21
120.0298846142
31
0.0000000000
11
94.6860018390
21
120.0152145398
31
0.0000000000
11
94.0899866468
21
120.0042928640
31
0.0000000000
11
93.4600881158
21
119.9977577136
31
0.0000000000
11
92.9524410103
21
119.9961353985
31
0.0000000000
0
SPLINE
5
4B2
100
AcDbEntity
8
0
100
AcDbSpline
62
7
6
CONTINUOUS
70
0
71
3
72
16
73
12
74
10
42
0.0000001000
43
0.0000001000
44
0.0000000001
40
0.0000000000
40
0.0000000000
40
0.0000000000
40
0.0000000000
40
0.1164032130
40
0.2574533964
40
0.3909314713
40
0.5159687027
40
0.6319664048
40
0.7385527274
40
0.8355110141
40
0.9227297397
40
1.0000000000
40
1.0000000000
40
1.0000000000
40
1.0000000000
10
129.0852026329
20
119.9961354265
30
0.0000000000
10
128.9122185642
20
119.9961349516
30
0.0000000000
10
128.5296220430
20
119.9973875239
30
0.0000000000
10
127.9486951213
20
120.0034721709
30
0.0000000000
10
127.3550053111
20
120.0143799938
30
0.0000000000
10
126.7986375516
20
120.0290016240
30
0.0000000000
10
126.2823458662
20
120.0467460253
30
0.0000000000
10
125.8079108342
20
120.0670636243
30
0.0000000000
10
125.3763899336
20
120.0894378765
30
0.0000000000
10
124.9885854309
20
120.1133592665
30
0.0000000000
10
124.7447915320
20
120.1310908567
30
0.0000000000
10
124.6303149907
20
120.1401819203
30
0.0000000000
11
129.0852026329
21
119.9961354265
31
0.0000000000
11
128.5662533055
21
119.9978307092
31
0.0000000000
11
127.9374551253
21
120.0044404464
31
0.0000000000
11
127.3424816346
21
120.0154196938
31
0.0000000000
11
126.7852322079
21
120.0301331287
31
0.0000000000
11
126.2683969876
21
120.0479843817
31
0.0000000000
11
125.7936512895
21
120.0684218521
31
0.0000000000
11
125.3619761944
21
120.0909298043
31
0.0000000000
11
124.9738829939
21
120.1150234287
31
0.0000000000
11
124.6303149907
21
120.1401819203
31
0.0000000000
0
SPLINE
5
4B3
100
AcDbEntity
8
0
100
AcDbSpline
62
7
6
CONTINUOUS
70
0
71
3
72
8
73
4
74
2
42
0.0000001000
43
0.0000001000
44
0.0000000001
40
0.0000000000
40
0.0000000000
40
0.0000000000
40
0.0000000000
40
1.0000000000
40
1.0000000000
40
1.0000000000
40
1.0000000000
10
124.6303149907
20
120.1401819203
30
0.0000000000
10
124.5751610996
20
120.1445619227
30
0.0000000000
10
124.5200183397
20
120.1491186829
30
0.0000000000
10
124.4648990069
20
120.1538890296
30
0.0000000000
11
124.6303149907
21
120.1401819203
31
0.0000000000
11
124.4648990069
21
120.1538890296
31
0.0000000000
0
SPLINE
5
4B4
100
AcDbEntity
8
0
100
AcDbSpline
62
7
6
CONTINUOUS
70
0
71
3
72
9
73
5
74
3
42
0.0000001000
43
0.0000001000
44
0.0000000001
40
0.0000000000
40
0.0000000000
40
0.0000000000
40
0.0000000000
40
0.0323347413
40
1.0000000000
40
1.0000000000
40
1.0000000000
40
1.0000000000
10
130.1848623416
20
119.9718633919
30
0.0000000000
10
130.1819978023
20
119.9723840933
30
0.0000000000
10
130.0933570051
20
119.9882285843
30
0.0000000000
10
130.0031903274
20
119.9960503640
30
0.0000000000
10
129.9160923299
20
119.9960769848
30
0.0000000000
11
130.1848623416
21
119.9718633919
31
0.0000000000
11
130.1762638525
21
119.9734003603
31
0.0000000000
11
129.9160923299
21
119.9960769848
31
0.0000000000
0
SPLINE
5
4B5
100
AcDbEntity
8
0
100
AcDbSpline
62
7
6
CONTINUOUS
70
0
71
3
72
8
73
4
74
2
42
0.0000001000
43
0.0000001000
44
0.0000000001
40
0.0000000000
40
0.0000000000
40
0.0000000000
40
0.0000000000
40
1.0000000000
40
1.0000000000
40
1.0000000000
40
1.0000000000
10
129.9160923475
20
105.2307824628
30
0.0000000000
10
130.0063952587
20
105.2307824628
30
0.0000000000
10
130.0969914050
20
105.2390225860
30
0.0000000000
10
130.1861276356
20
105.2553149418
30
0.0000000000
11
129.9160923475
21
105.2307824628
31
0.0000000000
11
130.1861276356
21
105.2553149418
31
0.0000000000
0
SPLINE
5
4B6
100
AcDbEntity
8
0
100
AcDbSpline
62
7
6
CONTINUOUS
70
0
71
3
72
8
73
4
74
2
42
0.0000001000
43
0.0000001000
44
0.0000000001
40
0.0000000000
40
0.0000000000
40
0.0000000000
40
0.0000000000
40
1.0000000000
40
1.0000000000
40
1.0000000000
40
1.0000000000
10
124.4648990482
20
105.0730284252
30
0.0000000000
10
124.5212099718
20
105.0779020978
30
0.0000000000
10
124.5775457788
20
105.0825532836
30
0.0000000000
10
124.6338929783
20
105.0870203123
30
0.0000000000
11
124.4648990482
21
105.0730284252
31
0.0000000000
11
124.6338929783
21
105.0870203123
31
0.0000000000
0
SPLINE
5
4B7
100
AcDbEntity
8
0
100
AcDbSpline
62
7
6
CONTINUOUS
70
0
71
3
72
16
73
12
74
10
42
0.0000001000
43
0.0000001000
44
0.0000000001
40
0.0000000000
40
0.0000000000
40
0.0000000000
40
0.0000000000
40
0.0775303004
40
0.1650243349
40
0.2622659586
40
0.3691457535
40
0.4854502209
40
0.6108103812
40
0.7446295738
40
0.8860402309
40
1.0000000000
40
1.0000000000
40
1.0000000000
40
1.0000000000
10
124.6338929783
20
105.0870203123
30
0.0000000000
10
124.7486639741
20
105.0961189959
30
0.0000000000
10
124.9930562567
20
105.1138594321
30
0.0000000000
10
125.3817653017
20
105.1377862158
30
0.0000000000
10
125.8142051667
20
105.1601526780
30
0.0000000000
10
126.2895715873
20
105.1804513299
30
0.0000000000
10
126.8068197695
20
105.1981652974
30
0.0000000000
10
127.3641824781
20
105.2127438912
30
0.0000000000
10
127.9589167672
20
105.2235946036
30
0.0000000000
10
128.5367905026
20
105.2295686626
30
0.0000000000
10
128.9159860286
20
105.2307832578
30
0.0000000000
10
129.0852026325
20
105.2307827943
30
0.0000000000
11
124.6338929783
21
105.0870203123
31
0.0000000000
11
124.9783431436
21
105.1121956484
31
0.0000000000
11
125.3673511099
21
105.1362947251
31
0.0000000000
11
125.7999419962
21
105.1587950286
31
0.0000000000
11
126.2756141248
21
105.1792131511
31
0.0000000000
11
126.7934011535
21
105.1970335786
31
0.0000000000
11
127.3516418039
21
105.2117036530
31
0.0000000000
11
127.9476569960
21
105.2226253288
31
0.0000000000
11
128.5775555270
21
105.2291604791
31
0.0000000000
11
129.0852026325
21
105.2307827943
31
0.0000000000
0
SPLINE
5
4B8
100
AcDbEntity
8
0
100
AcDbSpline
62
7
6
CONTINUOUS
70
0
71
3
72
10
73
6
74
4
42
0.0000001000
43
0.0000001000
44
0.0000000001
40
0.0000000000
40
0.0000000000
40
0.0000000000
40
0.0000000000
40
0.2261125033
40
0.8484452624
40
1.0000000000
40
1.0000000000
40
1.0000000000
40
1.0000000000
10
137.5851750875
20
118.6264220172
30
0.0000000000
10
137.5807088153
20
118.6270420314
30
0.0000000000
10
137.5639611567
20
118.6294495476
30
0.0000000000
10
137.5442753311
20
118.6326424820
30
0.0000000000
10
137.5290833805
20
118.6353580060
30
0.0000000000
10
137.5261099502
20
118.6358991138
30
0.0000000000
11
137.5851750875
21
118.6264220172
31
0.0000000000
11
137.5717854589
21
118.6283466625
31
0.0000000000
11
137.5350352668
21
118.6343037923
31
0.0000000000
11
137.5261099502
21
118.6358991138
31
0.0000000000
0
SPLINE
5
4B9
100
AcDbEntity
8
0
100
AcDbSpline
62
7
6
CONTINUOUS
70
0
71
3
72
19
73
15
74
13
42
0.0000001000
43
0.0000001000
44
0.0000000001
40
0.0000000000
40
0.0000000000
40
0.0000000000
40
0.0000000000
40
0.0544664594
40
0.1725618958
40
0.2823423454
40
0.3872423817
40
0.4882965291
40
0.5853401181
40
0.6782795867
40
0.7670247632
40
0.8492720518
40
0.9209560164
40
0.9760727603
40
1.0000000000
40
1.0000000000
40
1.0000000000
40
1.0000000000
10
138.9550250972
20
117.1231182107
30
0.0000000000
10
138.9550263124
20
117.1636552707
30
0.0000000000
10
138.9498454324
20
117.2921177139
30
0.0000000000
10
138.9144229413
20
117.4998457469
30
0.0000000000
10
138.8320745616
20
117.7340817211
30
0.0000000000
10
138.7196914691
20
117.9409958584
30
0.0000000000
10
138.5828971209
20
118.1207739271
30
0.0000000000
10
138.4276795318
20
118.2723068178
30
0.0000000000
10
138.2601897766
20
118.3951080876
30
0.0000000000
10
138.0875115390
20
118.4890980507
30
0.0000000000
10
137.9192643619
20
118.5549778610
30
0.0000000000
10
137.7690894146
20
118.5954370875
30
0.0000000000
10
137.6589189086
20
118.6157159420
30
0.0000000000
10
137.6008271896
20
118.6242628005
30
0.0000000000
10
137.5832211434
20
118.6266949965
30
0.0000000000
11
138.9550250972
21
117.1231182107
31
0.0000000000
11
138.9501150977
21
117.2445998206
31
0.0000000000
11
138.9059130911
21
117.5040142873
31
0.0000000000
11
138.8247768531
21
117.7347918565
31
0.0000000000
11
138.7132185382
21
117.9402030393
31
0.0000000000
11
138.5768668086
21
118.1194075682
31
0.0000000000
11
138.4221406882
21
118.2704737313
31
0.0000000000
11
138.2551331994
21
118.3929404288
31
0.0000000000
11
138.0814618896
21
118.4875135068
31
0.0000000000
11
137.9108387978
21
118.5544207540
31
0.0000000000
11
137.7566794459
21
118.5962525048
31
0.0000000000
11
137.6359678198
21
118.6188970990
31
0.0000000000
11
137.5832211434
21
118.6266949965
31
0.0000000000
0
SPLINE
5
4BA
100
AcDbEntity
8
0
100
AcDbSpline
62
7
6
CONTINUOUS
70
0
71
3
72
10
73
6
74
4
42
0.0000001000
43
0.0000001000
44
0.0000000001
40
0.0000000000
40
0.0000000000
40
0.0000000000
40
0.0000000000
40
0.1891899584
40
0.8109777571
40
1.0000000000
40
1.0000000000
40
1.0000000000
40
1.0000000000
10
84.5115337758
20
118.6358991303
30
0.0000000000
10
84.5078219649
20
118.6352236511
30
0.0000000000
10
84.4918996556
20
118.6323903499
30
0.0000000000
10
84.4722088512
20
118.6292283656
30
0.0000000000
10
84.4562023527
20
118.6269403467
30
0.0000000000
10
84.4524687041
20
118.6264220368
30
0.0000000000
11
84.5115337758
21
118.6358991303
31
0.0000000000
11
84.5003905229
21
118.6339163505
31
0.0000000000
11
84.4636632395
21
118.6280221342
31
0.0000000000
11
84.4524687041
21
118.6264220368
31
0.0000000000
0
SPLINE
5
4BB
100
AcDbEntity
8
0
100
AcDbSpline
62
7
6
CONTINUOUS
70
0
71
3
72
8
73
4
74
2
42
0.0000001000
43
0.0000001000
44
0.0000000001
40
0.0000000000
40
0.0000000000
40
0.0000000000
40
0.0000000000
40
1.0000000000
40
1.0000000000
40
1.0000000000
40
1.0000000000
10
84.4540350371
20
118.6266403426
30
0.0000000000
10
84.4377798195
20
118.6243924211
30
0.0000000000
10
84.4215427142
20
118.6220124229
30
0.0000000000
10
84.4053298660
20
118.6194720873
30
0.0000000000
11
84.4540350371
21
118.6266403426
31
0.0000000000
11
84.4053298660
21
118.6194720873
31
0.0000000000
0
SPLINE
5
4BC
100
AcDbEntity
8
0
100
AcDbSpline
62
7
6
CONTINUOUS
70
0
71
3
72
19
73
15
74
13
42
0.0000001000
43
0.0000001000
44
0.0000000001
40
0.0000000000
40
0.0000000000
40
0.0000000000
40
0.0000000000
40
0.0512408872
40
0.1174798880
40
0.1940811591
40
0.2768953736
40
0.3639565692
40
0.4548528224
40
0.5495380801
40
0.6479456252
40
0.7499539203
40
0.8555469715
40
0.9646975713
40
1.0000000000
40
1.0000000000
40
1.0000000000
40
1.0000000000
10
84.4053298660
20
118.6194720873
30
0.0000000000
10
84.3685569806
20
118.6137102699
30
0.0000000000
10
84.2845339570
20
118.5986090453
30
0.0000000000
10
84.1477515944
20
118.5637656036
30
0.0000000000
10
83.9933846760
20
118.5077239637
30
0.0000000000
10
83.8327460467
20
118.4277406162
30
0.0000000000
10
83.6743565674
20
118.3229620036
30
0.0000000000
10
83.5241590216
20
118.1930211193
30
0.0000000000
10
83.3872448367
20
118.0378712597
30
0.0000000000
10
83.2688535609
20
117.8583137780
30
0.0000000000
10
83.1743567392
20
117.6562385250
30
0.0000000000
10
83.1090565522
20
117.4346742666
30
0.0000000000
10
83.0852950900
20
117.2538865569
30
0.0000000000
10
83.0826093134
20
117.1488004183
30
0.0000000000
10
83.0826107029
20
117.1231204248
30
0.0000000000
11
84.4053298660
21
118.6194720873
31
0.0000000000
11
84.2954941866
21
118.5993974052
31
0.0000000000
11
84.1556899348
21
118.5635119708
31
0.0000000000
11
83.9988254357
21
118.5064638418
31
0.0000000000
11
83.8373045493
21
118.4259982281
31
0.0000000000
11
83.6790920890
21
118.3213172089
31
0.0000000000
11
83.5293086611
21
118.1917227476
31
0.0000000000
11
83.3927965955
21
118.0370197870
31
0.0000000000
11
83.2747621480
21
117.8579970649
31
0.0000000000
11
83.1806088257
21
117.6566443767
31
0.0000000000
11
83.1155598965
21
117.4359410424
31
0.0000000000
11
83.0845814951
21
117.2001253043
31
0.0000000000
11
83.0826107029
21
117.1231204248
31
0.0000000000
0
SPLINE
5
4BD
100
AcDbEntity
8
0
100
AcDbSpline
62
7
6
CONTINUOUS
70
0
71
3
72
10
73
6
74
4
42
0.0000001000
43
0.0000001000
44
0.0000000001
40
0.0000000000
40
0.0000000000
40
0.0000000000
40
0.0000000000
40
0.2261692816
40
0.8485029040
40
1.0000000000
40
1.0000000000
40
1.0000000000
40
1.0000000000
10
84.4524685694
20
106.6004961730
30
0.0000000000
10
84.4569359620
20
106.5998760034
30
0.0000000000
10
84.4736847514
20
106.5974683039
30
0.0000000000
10
84.4933705644
20
106.5942753243
30
0.0000000000
10
84.5085613928
20
106.5915599813
30
0.0000000000
10
84.5115336914
20
106.5910190793
30
0.0000000000
11
84.4524685694
21
106.6004961730
31
0.0000000000
11
84.4658615545
21
106.5985710289
31
0.0000000000
11
84.5026117737
21
106.5926138047
31
0.0000000000
11
84.5115336914
21
106.5910190793
31
0.0000000000
0
SPLINE
5
4BE
100
AcDbEntity
8
0
100
AcDbSpline
62
7
6
CONTINUOUS
70
0
71
3
72
19
73
15
74
13
42
0.0000001000
43
0.0000001000
44
0.0000000001
40
0.0000000000
40
0.0000000000
40
0.0000000000
40
0.0000000000
40
0.0544539947
40
0.1725401072
40
0.2823149521
40
0.3872140388
40
0.4882714684
40
0.5853205667
40
0.6782657989
40
0.7670155389
40
0.8492651273
40
0.9209478839
40
0.9760729901
40
1.0000000000
40
1.0000000000
40
1.0000000000
40
1.0000000000
10
83.0826185681
20
108.1037980962
30
0.0000000000
10
83.0826173664
20
108.0632702598
30
0.0000000000
10
83.0877964660
20
107.9348238915
30
0.0000000000
10
83.1232104051
20
107.7271149484
30
0.0000000000
10
83.2055466720
20
107.4928869632
30
0.0000000000
10
83.3179205571
20
107.2859701786
30
0.0000000000
10
83.4547119705
20
107.1061819913
30
0.0000000000
10
83.6099330323
20
106.9546364913
30
0.0000000000
10
83.7774300044
20
106.8318243958
30
0.0000000000
10
83.9501155719
20
106.7378274153
30
0.0000000000
10
84.1183664497
20
106.6719446669
30
0.0000000000
10
84.2685480424
20
106.6314821331
30
0.0000000000
10
84.3787238144
20
106.6112022637
30
0.0000000000
10
84.4368216287
20
106.6026546927
30
0.0000000000
10
84.4544275385
20
106.6002225503
30
0.0000000000
11
83.0826185681
21
108.1037980962
31
0.0000000000
11
83.0875263787
21
107.9823440766
31
0.0000000000
11
83.1317185519
21
107.7229485776
31
0.0000000000
11
83.2128426234
21
107.4921795484
31
0.0000000000
11
83.3243919530
21
107.2867654623
31
0.0000000000
11
83.4607416203
21
107.1075497153
31
0.0000000000
11
83.6154721833
21
106.9564700268
31
0.0000000000
11
83.7824876630
21
106.8339919401
31
0.0000000000
11
83.9561669127
21
106.7394115092
31
0.0000000000
11
84.1267944992
21
106.6725008712
31
0.0000000000
11
84.2809511620
21
106.6306684996
31
0.0000000000
11
84.4016812620
21
106.6080202395
31
0.0000000000
11
84.4544275385
21
106.6002225503
31
0.0000000000
0
SPLINE
5
4BF
100
AcDbEntity
8
0
100
AcDbSpline
62
7
6
CONTINUOUS
70
0
71
3
72
10
73
6
74
4
42
0.0000001000
43
0.0000001000
44
0.0000000001
40
0.0000000000
40
0.0000000000
40
0.0000000000
40
0.0000000000
40
0.1891978101
40
0.8109855747
40
1.0000000000
40
1.0000000000
40
1.0000000000
40
1.0000000000
10
137.5261098639
20
106.5910190620
30
0.0000000000
10
137.5298218291
20
106.5916945692
30
0.0000000000
10
137.5457442936
20
106.5945278953
30
0.0000000000
10
137.5654351004
20
106.5976898730
30
0.0000000000
10
137.5814414454
20
106.5999778677
30
0.0000000000
10
137.5851749398
20
106.6004961562
30
0.0000000000
11
137.5261098639
21
106.5910190620
31
0.0000000000
11
137.5372535804
21
106.5930019223
31
0.0000000000
11
137.5739808664
21
106.5988961265
31
0.0000000000
11
137.5851749398
21
106.6004961562
31
0.0000000000
0
SPLINE
5
4C0
100
AcDbEntity
8
0
100
AcDbSpline
62
7
6
CONTINUOUS
70
0
71
3
72
8
73
4
74
2
42
0.0000001000
43
0.0000001000
44
0.0000000001
40
0.0000000000
40
0.0000000000
40
0.0000000000
40
0.0000000000
40
1.0000000000
40
1.0000000000
40
1.0000000000
40
1.0000000000
10
137.5836135747
20
106.6002784811
30
0.0000000000
10
137.5998701475
20
106.6025266205
30
0.0000000000
10
137.6161086022
20
106.6049068764
30
0.0000000000
10
137.6323227926
20
106.6074475040
30
0.0000000000
11
137.5836135747
21
106.6002784811
31
0.0000000000
11
137.6323227926
21
106.6074475040
31
0.0000000000
0
SPLINE
5
4C1
100
AcDbEntity
8
0
100
AcDbSpline
62
7
6
CONTINUOUS
70
0
71
3
72
19
73
15
74
13
42
0.0000001000
43
0.0000001000
44
0.0000000001
40
0.0000000000
40
0.0000000000
40
0.0000000000
40
0.0000000000
40
0.0512342569
40
0.1174780431
40
0.1940807159
40
0.2768950385
40
0.3639562511
40
0.4548525414
40
0.5495378162
40
0.6479453689
40
0.7499536856
40
0.8555467570
40
0.9646974020
40
1.0000000000
40
1.0000000000
40
1.0000000000
40
1.0000000000
10
137.6323227926
20
106.6074475040
30
0.0000000000
10
137.6690907631
20
106.6132087367
30
0.0000000000
10
137.7531121107
20
106.6283099251
30
0.0000000000
10
137.8898938220
20
106.6631527501
30
0.0000000000
10
138.0442642741
20
106.7191964889
30
0.0000000000
10
138.2049029345
20
106.7991808548
30
0.0000000000
10
138.3632914642
20
106.9039599222
30
0.0000000000
10
138.5134879900
20
107.0339010043
30
0.0000000000
10
138.6504011878
20
107.1890508316
30
0.0000000000
10
138.7687915712
20
107.3686080413
30
0.0000000000
10
138.8632876634
20
107.5706828141
30
0.0000000000
10
138.9285873439
20
107.7922464454
30
0.0000000000
10
138.9523486306
20
107.9730337073
30
0.0000000000
10
138.9550343671
20
108.0781196387
30
0.0000000000
10
138.9550329682
20
108.1037996664
30
0.0000000000
11
137.6323227926
21
106.6074475040
31
0.0000000000
11
137.7421438476
21
106.6275196951
31
0.0000000000
11
137.8819577685
21
106.6634073908
31
0.0000000000
11
138.0388243706
21
106.7204569842
31
0.0000000000
11
138.2003445000
21
106.8009232440
31
0.0000000000
11
138.3585559515
21
106.9056046654
31
0.0000000000
11
138.5083383883
21
107.0351993478
31
0.0000000000
11
138.6448494689
21
107.1899022746
31
0.0000000000
11
138.7628830211
21
107.3689247178
31
0.0000000000
11
138.8570356239
21
107.5702769449
31
0.0000000000
11
138.9220840448
21
107.7909796443
31
0.0000000000
11
138.9530621995
21
108.0267946838
31
0.0000000000
11
138.9550329682
21
108.1037996664
31
0.0000000000
0
ENDSEC
0
SECTION
2
OBJECTS
0
DICTIONARY
5
4C2
100
AcDbDictionary
3
ACAD_GROUP
350
4C3
3
ACAD_MLINESTYLE
350
4C4
0
DICTIONARY
5
4C3
102
{ACAD_REACTORS
330
4C2
102
}
100
AcDbDictionary
0
DICTIONARY
5
4C4
102
{ACAD_REACTORS
330
4C2
102
}
100
AcDbDictionary
3
STANDARD
350
4C5
0
MLINESTYLE
5
4C5
102
{ACAD_REACTORS
330
4C4
102
}
100
AcDbMlineStyle
2
STANDARD
70
0
3

62
256
51
90.0
52
90.0
71
2
49
0.5
62
256
6
BYLAYER
49
-0.5
62
256
6
BYLAYER
0
ENDSEC
0
EOF
