999
DXF file: C:\Aktuell-Internet\CAD-Daten\2rs-m10.dxf
999
Pro/ENGINEER 2001400 by Parametric Technology Corporation
0
SECTION
2
HEADER
9
$ACADVER
1
AC1014
9
$EXTMAX
10
420.0000000000
20
297.0000000000
9
$EXTMIN
10
0.0000000000
20
0.0000000000
9
$LIMMIN
10
0.0000000000
20
0.0000000000
9
$LIMMAX
10
420.0000000000
20
297.0000000000
9
$VIEWCTR
10
210.0000000000
20
148.5000000000
9
$VIEWSIZE
40
297.0000000000
9
$CLAYER
8
0
9
$LTSCALE
40
23.1000000000
9
$CELTYPE
6
BYLAYER
9
$DIMSCALE
40
1
9
$DIMASZ
40
3.5000000000
9
$DIMEXO
40
2.6250000000
9
$DIMDLI
40
15.9600000000
9
$DIMEXE
40
7.5600000000
9
$DIMCEN
40
3.7800000000
9
$DIMLFAC
40
1.0000000000
9
$DIMTXT
40
3.5000000000
9
$DIMTOL
70
1
9
$DIMTFAC
40
0.6000000000
9
$DIMTP
40
0.0050000000
9
$DIMTM
40
0.0050000000
9
$HANDSEED
5
4D9
0
ENDSEC
0
SECTION
2
CLASSES
0
ENDSEC
0
SECTION
2
TABLES
0
TABLE
2
VPORT
5
8
100
AcDbSymbolTable
70
2
0
VPORT
5
1F4
100
AcDbSymbolTableRecord
100
AcDbViewportTableRecord
2
*ACTIVE
70
0
10
0.0
20
0.0
11
1.0
21
1.0
12
210.0000000000
22
148.5000000000
13
0.0
23
0.0
14
1.0
24
1.0
15
0.0
25
0.0
16
0.0
26
0.0
36
1.0
17
0.0
27
0.0
37
0.0
40
297.0000000000
41
1.4141414141
42
50.0
43
0.0
44
0.0
50
0.0
51
0.0
71
0
72
100
73
1
74
1
75
0
76
0
77
0
78
0
0
ENDTAB
0
TABLE
2
LTYPE
5
5
100
AcDbSymbolTable
70
6
0
LTYPE
5
14
100
AcDbSymbolTableRecord
100
AcDbLinetypeTableRecord
2
BYBLOCK
70
0
3

72
65
73
0
40
0.0
0
LTYPE
5
15
100
AcDbSymbolTableRecord
100
AcDbLinetypeTableRecord
2
BYLAYER
70
0
3

72
65
73
0
40
0.0
0
LTYPE
5
16
100
AcDbSymbolTableRecord
100
AcDbLinetypeTableRecord
2
CONTINUOUS
70
64
3
Solid line
72
65
73
0
40
0
0
LTYPE
5
1F5
100
AcDbSymbolTableRecord
100
AcDbLinetypeTableRecord
2
CENTER
70
64
3
____ _ ____ _ ____ _ ____ _ ____ _ ____ _ ____
72
65
73
4
40
0.6
49
0.375
74
0
49
-0.075
74
0
49
0.075
74
0
49
-0.075
74
0
0
LTYPE
5
1F6
100
AcDbSymbolTableRecord
100
AcDbLinetypeTableRecord
2
HIDDEN
70
64
3
- - - - - - - - - - - - - - - - - - - -
72
65
73
2
40
0.2
49
0.1
74
0
49
-0.1
74
0
0
LTYPE
5
1F7
100
AcDbSymbolTableRecord
100
AcDbLinetypeTableRecord
2
PHANTOM
70
64
3
_____ _ _ _____ _ _ _____ _ _ _____
72
65
73
6
40
0.8
49
0.45
74
0
49
-0.05
74
0
49
0.1
74
0
49
-0.05
74
0
49
0.1
74
0
49
-0.05
74
0
0
LTYPE
5
1F8
100
AcDbSymbolTableRecord
100
AcDbLinetypeTableRecord
2
DOT
70
64
3
. . . . . . . . . . . . . . . . . . . .
72
65
73
2
40
0.2
49
0.1
74
0
49
-0.1
74
0
0
LTYPE
5
1F9
100
AcDbSymbolTableRecord
100
AcDbLinetypeTableRecord
2
DASHED
70
64
3
- - - - - - - - - - - - - - - - - - - -
72
65
73
2
40
0.2
49
0.1
74
0
49
-0.1
74
0
0
ENDTAB
0
TABLE
2
LAYER
5
2
100
AcDbSymbolTable
70
36
0
LAYER
5
10
100
AcDbSymbolTableRecord
100
AcDbLayerTableRecord
2
0
70
0
62
7
6
CONTINUOUS
0
LAYER
5
1FA
100
AcDbSymbolTableRecord
100
AcDbLayerTableRecord
2
DEFAULT_1
70
0
62
7
6
CENTER
0
LAYER
5
1FB
100
AcDbSymbolTableRecord
100
AcDbLayerTableRecord
2
DEFAULT_2
70
0
62
8
6
HIDDEN
0
LAYER
5
1FC
100
AcDbSymbolTableRecord
100
AcDbLayerTableRecord
2
DEFAULT_3
70
0
62
7
6
PHANTOM
0
ENDTAB
0
TABLE
2
STYLE
5
3
100
AcDbSymbolTable
70
1
0
STYLE
5
11
100
AcDbSymbolTableRecord
100
AcDbTextStyleTableRecord
2
STANDARD
70
0
40
0.0
41
1.0
50
0.0
71
0
42
0.0
3
txt
4

0
STYLE
5
1FD
100
AcDbSymbolTableRecord
100
AcDbTextStyleTableRecord
2
TEXTSTYLE_0
70
0
40
0.0
41
0.80
50
0.0
71
0
42
0.2
3
txt
4

0
ENDTAB
0
TABLE
2
VIEW
5
6
100
AcDbSymbolTable
70
0
0
ENDTAB
0
TABLE
2
UCS
5
7
100
AcDbSymbolTable
70
0
0
ENDTAB
0
TABLE
2
APPID
5
9
100
AcDbSymbolTable
70
1
0
APPID
5
1FE
100
AcDbSymbolTableRecord
100
AcDbRegAppTableRecord
2
ACAD
70
0
0
ENDTAB
0
TABLE
2
DIMSTYLE
5
A
100
AcDbSymbolTable
70
1
0
DIMSTYLE
105
1FF
100
AcDbSymbolTableRecord
100
AcDbDimStyleTableRecord
2
STANDARD
70
0
3

4

5

6

7

40
1.0
41
0.18
42
0.0625
43
0.38
44
0.18
45
0.0
46
0.0
47
0.0050000000
48
0.0050000000
140
3.5000000000
141
0.09
142
0.0
143
25.4
144
1.0000000000
145
0.0
146
0.6000000000
147
0.09
71
1
72
0
73
1
74
1
75
0
76
0
77
0
78
0
170
0
171
2
172
0
173
0
174
0
175
0
176
0
177
0
178
0
270
2
271
3
272
4
273
2
274
2
340
11
275
0
280
0
281
0
282
0
283
1
284
0
285
0
286
0
287
3
288
0
0
ENDTAB
0
TABLE
2
BLOCK_RECORD
5
1
100
AcDbSymbolTable
70
0
0
BLOCK_RECORD
5
1B
100
AcDbSymbolTableRecord
100
AcDbBlockTableRecord
2
*MODEL_SPACE
0
BLOCK_RECORD
5
1C
100
AcDbSymbolTableRecord
100
AcDbBlockTableRecord
2
*PAPER_SPACE
0
ENDTAB
0
ENDSEC
0
SECTION
2
BLOCKS
0
BLOCK
5
1E
100
AcDbEntity
8
0
100
AcDbBlockBegin
2
*MODEL_SPACE
70
0
10
0.0
20
0.0
30
0.0
3
*MODEL_SPACE
1

0
ENDBLK
5
1F
100
AcDbEntity
8
0
100
AcDbBlockEnd
0
BLOCK
5
20
100
AcDbEntity
8
0
100
AcDbBlockBegin
2
*PAPER_SPACE
70
0
10
0.0
20
0.0
30
0.0
3
*PAPER_SPACE
1

0
ENDBLK
5
21
100
AcDbEntity
8
0
100
AcDbBlockEnd
0
ENDSEC
0
SECTION
2
ENTITIES
0
TEXT
5
200
100
AcDbEntity
8
0
100
AcDbText
62
2
6
CONTINUOUS
10
102.7281221867
20
113.2457283919
7
TEXTSTYLE_0
40
3.5000000000
1
RUD
72
5
11
111.3947888534
21
113.2457283919
100
AcDbText
0
TEXT
5
201
100
AcDbEntity
8
0
100
AcDbText
62
2
6
CONTINUOUS
10
114.5023429625
20
108.2669150353
7
TEXTSTYLE_0
40
3.5000000000
1
RS M10
72
5
11
130.5023429625
21
108.2669150353
100
AcDbText
0
TEXT
5
202
100
AcDbEntity
8
0
100
AcDbText
62
2
6
CONTINUOUS
10
294.2093017768
20
204.4013912453
7
TEXTSTYLE_0
40
3.5000000000
1
RUD
50
90.0000000000
72
5
11
294.2093017768
21
213.0680579120
100
AcDbText
0
TEXT
5
203
100
AcDbEntity
8
0
100
AcDbText
62
2
6
CONTINUOUS
10
299.4049607524
20
204.2712210763
7
TEXTSTYLE_0
40
3.0000000000
1
RS M10
50
90.0000000000
72
5
11
299.4049607524
21
217.9855067906
100
AcDbText
0
LINE
5
204
100
AcDbEntity
8
0
100
AcDbLine
62
7
6
CONTINUOUS
10
0.0000000000
20
0.0000000000
11
0.0000000000
21
297.0000000000
0
LINE
5
205
100
AcDbEntity
8
0
100
AcDbLine
62
7
6
CONTINUOUS
10
0.0000000000
20
0.0000000000
11
420.0000000000
21
0.0000000000
0
LINE
5
206
100
AcDbEntity
8
0
100
AcDbLine
62
7
6
CONTINUOUS
10
0.0000000000
20
297.0000000000
11
420.0000000000
21
297.0000000000
0
LINE
5
207
100
AcDbEntity
8
0
100
AcDbLine
62
7
6
CONTINUOUS
10
420.0000000000
20
0.0000000000
11
420.0000000000
21
297.0000000000
0
LINE
5
208
100
AcDbEntity
8
0
100
AcDbLine
62
7
6
CONTINUOUS
10
114.9188218236
20
182.9486286517
11
107.1188218236
21
182.9486286517
0
LINE
5
209
100
AcDbEntity
8
0
100
AcDbLine
62
7
6
CONTINUOUS
10
95.3288010967
20
236.7210415789
11
110.2534549589
21
242.9030356224
0
LINE
5
20A
100
AcDbEntity
8
0
100
AcDbLine
62
7
6
CONTINUOUS
10
116.0188218236
20
184.0486286517
11
106.0188218236
21
184.0486286517
0
LINE
5
20B
100
AcDbEntity
8
0
100
AcDbLine
62
7
6
CONTINUOUS
10
94.7475534053
20
233.3913667777
11
94.6009076049
21
233.1820241326
0
LINE
5
20C
100
AcDbEntity
8
0
100
AcDbLine
62
7
6
CONTINUOUS
10
94.8457226963
20
233.0781062916
11
94.9760882814
21
233.2490951531
0
LINE
5
20D
100
AcDbEntity
8
0
100
AcDbLine
62
7
6
CONTINUOUS
10
99.6786443102
20
236.7855511979
11
99.4797687166
21
236.6166805145
0
LINE
5
20E
100
AcDbEntity
8
0
100
AcDbLine
62
7
6
CONTINUOUS
10
103.4891562231
20
238.9855512766
11
103.3303847779
21
238.8938845400
0
LINE
5
20F
100
AcDbEntity
8
0
100
AcDbLine
62
7
6
CONTINUOUS
10
101.6156544784
20
237.9038845400
11
100.5360095053
21
237.2805512242
0
LINE
5
210
100
AcDbEntity
8
0
100
AcDbLine
62
7
6
CONTINUOUS
10
99.8056613845
20
236.8588845400
11
99.6786443102
21
236.7855511979
0
LINE
5
211
100
AcDbEntity
8
0
100
AcDbLine
62
7
6
CONTINUOUS
10
99.7639113383
20
236.5645311096
11
99.8909283672
21
236.6378644255
0
LINE
5
212
100
AcDbEntity
8
0
100
AcDbLine
62
7
6
CONTINUOUS
10
100.8118021223
20
237.1695311358
11
101.7326757411
21
237.7011977675
0
LINE
5
213
100
AcDbEntity
8
0
100
AcDbLine
62
7
6
CONTINUOUS
10
99.4280228672
20
236.0463069745
11
99.5867941903
21
236.1379736406
0
LINE
5
214
100
AcDbEntity
8
0
100
AcDbLine
62
7
6
CONTINUOUS
10
105.8407383959
20
239.5324906358
11
105.6819673142
21
239.4408241090
0
LINE
5
215
100
AcDbEntity
8
0
100
AcDbLine
62
7
6
CONTINUOUS
10
105.3961789309
20
239.2758241090
11
105.2056533421
21
239.1658241090
0
LINE
5
216
100
AcDbEntity
8
0
100
AcDbLine
62
7
6
CONTINUOUS
10
104.4435509868
20
238.7258241090
11
104.2530253979
21
238.6158241090
0
LINE
5
217
100
AcDbEntity
8
0
100
AcDbLine
62
7
6
CONTINUOUS
10
101.6007213340
20
236.9764160318
11
101.4101957451
21
236.8664160318
0
LINE
5
218
100
AcDbEntity
8
0
100
AcDbLine
62
7
6
CONTINUOUS
10
105.3226746047
20
238.9631373366
11
105.5132001936
21
239.0731373366
0
LINE
5
219
100
AcDbEntity
8
0
100
AcDbLine
62
7
6
CONTINUOUS
10
101.5272170078
20
236.6637292593
11
101.7177425966
21
236.7737292593
0
LINE
5
21A
100
AcDbEntity
8
0
100
AcDbLine
62
7
6
CONTINUOUS
10
101.1445201367
20
236.2265798938
11
101.3667999600
21
236.3549132096
0
LINE
5
21B
100
AcDbEntity
8
0
100
AcDbLine
62
7
6
CONTINUOUS
10
94.9758450270
20
233.5207885029
11
94.7475534053
21
233.3913667777
0
LINE
5
21C
100
AcDbEntity
8
0
100
AcDbLine
62
7
6
CONTINUOUS
10
94.9760882814
20
233.2490951531
11
95.1228557090
21
233.3225911235
0
LINE
5
21D
100
AcDbEntity
8
0
100
AcDbLine
62
7
6
CONTINUOUS
10
109.3273306461
20
239.4462995135
11
109.1882046961
21
239.3870969887
0
LINE
5
21E
100
AcDbEntity
8
0
100
AcDbLine
62
7
6
CONTINUOUS
10
102.7187036132
20
238.4866804489
11
102.5047737719
21
238.4172178034
0
LINE
5
21F
100
AcDbEntity
8
0
100
AcDbLine
62
7
6
CONTINUOUS
10
100.0195912259
20
236.9283471855
11
99.8056613845
21
236.8588845400
0
LINE
5
220
100
AcDbEntity
8
0
100
AcDbLine
62
7
6
CONTINUOUS
10
88.0644148529
20
220.7139955164
11
94.2464088964
21
235.6386493787
0
LINE
5
221
100
AcDbEntity
8
0
100
AcDbLine
62
7
6
CONTINUOUS
10
94.1776156732
20
232.1848108339
11
94.0799328911
21
231.9546846206
0
LINE
5
222
100
AcDbEntity
8
0
100
AcDbLine
62
7
6
CONTINUOUS
10
93.8520063374
20
231.4177233097
11
93.7054821642
21
231.0725339897
0
LINE
5
223
100
AcDbEntity
8
0
100
AcDbLine
62
7
6
CONTINUOUS
10
93.2170682536
20
229.9219029229
11
93.0705440804
21
229.5767136028
0
LINE
5
224
100
AcDbEntity
8
0
100
AcDbLine
62
7
6
CONTINUOUS
10
91.8983507881
20
226.8151992619
11
91.8169484075
21
226.6234272712
0
LINE
5
225
100
AcDbEntity
8
0
100
AcDbLine
62
7
6
CONTINUOUS
10
91.1982908185
20
225.1659613264
11
90.8075596900
21
224.2454564729
0
LINE
5
226
100
AcDbEntity
8
0
100
AcDbLine
62
7
6
CONTINUOUS
10
91.1500575635
20
224.3716648453
11
91.4593863581
21
225.1003978177
0
LINE
5
227
100
AcDbEntity
8
0
100
AcDbLine
62
7
6
CONTINUOUS
10
92.1107265172
20
226.4987258620
11
92.2084092994
21
226.7288520754
0
LINE
5
228
100
AcDbEntity
8
0
100
AcDbLine
62
7
6
CONTINUOUS
10
92.5509071729
20
226.8550604478
11
92.6485899550
21
227.0851866612
0
LINE
5
229
100
AcDbEntity
8
0
100
AcDbLine
62
7
6
CONTINUOUS
10
96.7555239338
20
231.9958536680
11
96.9021697385
21
232.2051963113
0
LINE
5
22A
100
AcDbEntity
8
0
100
AcDbLine
62
7
6
CONTINUOUS
10
92.0287160937
20
226.9861874651
11
91.8983507881
21
226.8151992619
0
LINE
5
22B
100
AcDbEntity
8
0
100
AcDbLine
62
7
6
CONTINUOUS
10
91.3286561707
20
225.3369496392
11
91.1982908185
21
225.1659613264
0
LINE
5
22C
100
AcDbEntity
8
0
100
AcDbLine
62
7
6
CONTINUOUS
10
96.6573546128
20
232.3091141668
11
96.5269894003
21
232.1381261832
0
LINE
5
22D
100
AcDbEntity
8
0
100
AcDbLine
62
7
6
CONTINUOUS
10
93.0242570913
20
226.6088704852
11
92.8938916925
21
226.4378820626
0
LINE
5
22E
100
AcDbEntity
8
0
100
AcDbLine
62
7
6
CONTINUOUS
10
101.4236043222
20
236.5498586414
11
101.5272170078
21
236.6637292593
0
LINE
5
22F
100
AcDbEntity
8
0
100
AcDbLine
62
7
6
CONTINUOUS
10
99.6285442592
20
236.4323270841
11
99.7639113383
21
236.5645311096
0
LINE
5
230
100
AcDbEntity
8
0
100
AcDbLine
62
7
6
CONTINUOUS
10
102.4864282053
20
238.0823271496
11
102.6217950345
21
238.2145310309
0
LINE
5
231
100
AcDbEntity
8
0
100
AcDbLine
62
7
6
CONTINUOUS
10
101.4101957451
20
236.8664160318
11
101.2748287342
21
236.7342120456
0
LINE
5
232
100
AcDbEntity
8
0
100
AcDbLine
62
7
6
CONTINUOUS
10
92.2084092994
20
226.7288520754
11
92.3062137087
21
226.8231316139
0
LINE
5
233
100
AcDbEntity
8
0
100
AcDbLine
62
7
6
CONTINUOUS
10
102.5047737719
20
238.4172178034
11
102.3376524356
21
238.2666804489
0
LINE
5
234
100
AcDbEntity
8
0
100
AcDbLine
62
7
6
CONTINUOUS
10
103.6047737719
20
236.5119619151
11
103.7718951061
21
236.6624992731
0
LINE
5
235
100
AcDbEntity
8
0
100
AcDbLine
62
7
6
CONTINUOUS
10
109.3737060512
20
239.1502868893
11
109.5592072736
21
239.2686919390
0
LINE
5
236
100
AcDbEntity
8
0
100
AcDbLine
62
7
6
CONTINUOUS
10
101.5456839402
20
235.9717435941
11
101.3551584422
21
235.8617436465
0
LINE
5
237
100
AcDbEntity
8
0
100
AcDbLine
62
7
6
CONTINUOUS
10
106.0280937984
20
238.1813154525
11
105.9010768603
21
238.1079821891
0
LINE
5
238
100
AcDbEntity
8
0
100
AcDbLine
62
7
6
CONTINUOUS
10
102.1858276964
20
235.9629820842
11
101.9953021075
21
235.8529820842
0
LINE
5
239
100
AcDbEntity
8
0
100
AcDbLine
62
7
6
CONTINUOUS
10
101.2649540776
20
235.4313154525
11
100.3758346706
21
234.9179821236
0
LINE
5
23A
100
AcDbEntity
8
0
100
AcDbLine
62
7
6
CONTINUOUS
10
100.2388218236
20
234.5686286517
11
101.3819753566
21
235.2286286517
0
LINE
5
23B
100
AcDbEntity
8
0
100
AcDbLine
62
7
6
CONTINUOUS
10
102.1123233866
20
235.6502952834
11
102.3028489754
21
235.7602952834
0
LINE
5
23C
100
AcDbEntity
8
0
100
AcDbLine
62
7
6
CONTINUOUS
10
104.4303847779
20
236.9886286517
11
104.5891562231
21
237.0802953883
0
LINE
5
23D
100
AcDbEntity
8
0
100
AcDbLine
62
7
6
CONTINUOUS
10
105.1289784825
20
237.3919619151
11
105.3195040714
21
237.5019619151
0
LINE
5
23E
100
AcDbEntity
8
0
100
AcDbLine
62
7
6
CONTINUOUS
10
105.9545894886
20
237.8686286517
11
106.1451150774
21
237.9786286517
0
LINE
5
23F
100
AcDbEntity
8
0
100
AcDbLine
62
7
6
CONTINUOUS
10
105.8259267744
20
237.5781459561
11
105.6671553292
21
237.4864792195
0
LINE
5
240
100
AcDbEntity
8
0
100
AcDbLine
62
7
6
CONTINUOUS
10
106.4259661406
20
237.4921803410
11
106.2354405517
21
237.3821803410
0
LINE
5
241
100
AcDbEntity
8
0
100
AcDbLine
62
7
6
CONTINUOUS
10
106.3290575618
20
237.2200309230
11
106.5195831507
21
237.3300309230
0
LINE
5
242
100
AcDbEntity
8
0
100
AcDbLine
62
7
6
CONTINUOUS
10
96.5272326719
20
231.8664328261
11
96.7555239338
21
231.9958536680
0
LINE
5
243
100
AcDbEntity
8
0
100
AcDbLine
62
7
6
CONTINUOUS
10
96.5269894003
20
232.1381261832
11
96.3802219727
21
232.0646302128
0
LINE
5
244
100
AcDbEntity
8
0
100
AcDbLine
62
7
6
CONTINUOUS
10
103.3908439285
20
236.4424992731
11
103.6047737719
21
236.5119619151
0
LINE
5
245
100
AcDbEntity
8
0
100
AcDbLine
62
7
6
CONTINUOUS
10
111.2750940787
20
238.2030463671
11
111.0895927236
21
238.1438438423
0
LINE
5
246
100
AcDbEntity
8
0
100
AcDbLine
62
7
6
CONTINUOUS
10
113.5011090134
20
238.2030463671
11
113.3156079236
21
238.1438438423
0
LINE
5
247
100
AcDbEntity
8
0
100
AcDbLine
62
7
6
CONTINUOUS
10
106.0188218236
20
184.0486286517
11
107.1188218236
21
182.9486286517
0
LINE
5
248
100
AcDbEntity
8
0
100
AcDbLine
62
7
6
CONTINUOUS
10
91.8169484075
20
226.6234272712
11
91.8007896332
21
226.4492263737
0
LINE
5
249
100
AcDbEntity
8
0
100
AcDbLine
62
7
6
CONTINUOUS
10
94.6009076049
20
233.1820241326
11
94.5521878410
21
232.9311143510
0
LINE
5
24A
100
AcDbEntity
8
0
100
AcDbLine
62
7
6
CONTINUOUS
10
92.8938916925
20
226.4378820626
11
92.7962089104
21
226.2077558492
0
LINE
5
24B
100
AcDbEntity
8
0
100
AcDbLine
62
7
6
CONTINUOUS
10
92.1938317695
20
224.7886442367
11
91.8845029749
21
224.0599112643
0
LINE
5
24C
100
AcDbEntity
8
0
100
AcDbLine
62
7
6
CONTINUOUS
10
92.1782810846
20
223.9352098552
11
92.4550489596
21
224.5872341081
0
LINE
5
24D
100
AcDbEntity
8
0
100
AcDbLine
62
7
6
CONTINUOUS
10
93.0899870201
20
226.0830544401
11
93.1876698022
21
226.3131806535
0
LINE
5
24E
100
AcDbEntity
8
0
100
AcDbLine
62
7
6
CONTINUOUS
10
93.3188866601
20
225.5332423229
11
93.2212038314
21
225.3031159998
0
LINE
5
24F
100
AcDbEntity
8
0
100
AcDbLine
62
7
6
CONTINUOUS
10
93.9221151793
20
226.0014270870
11
93.7918715009
21
225.6945922090
0
LINE
5
250
100
AcDbEntity
8
0
100
AcDbLine
62
7
6
CONTINUOUS
10
93.1088218236
20
223.2686286517
11
93.2065046057
21
223.4987548650
0
LINE
5
251
100
AcDbEntity
8
0
100
AcDbLine
62
7
6
CONTINUOUS
10
93.6135161824
20
224.4576140508
11
93.7274794593
21
224.7260947062
0
LINE
5
252
100
AcDbEntity
8
0
100
AcDbLine
62
7
6
CONTINUOUS
10
94.0856496448
20
225.5698907853
11
94.2158933233
21
225.8767256633
0
LINE
5
253
100
AcDbEntity
8
0
100
AcDbLine
62
7
6
CONTINUOUS
10
95.3718062140
20
228.5998857816
11
95.4694889961
21
228.8300119950
0
LINE
5
254
100
AcDbEntity
8
0
100
AcDbLine
62
7
6
CONTINUOUS
10
95.6974155499
20
229.3669733058
11
95.8276593215
21
229.6738084033
0
LINE
5
255
100
AcDbEntity
8
0
100
AcDbLine
62
7
6
CONTINUOUS
10
96.0555856889
20
230.2107692752
11
96.1532684710
21
230.4408954885
0
LINE
5
256
100
AcDbEntity
8
0
100
AcDbLine
62
7
6
CONTINUOUS
10
96.3811950247
20
230.9778567993
11
96.4788778068
21
231.2079830127
0
LINE
5
257
100
AcDbEntity
8
0
100
AcDbLine
62
7
6
CONTINUOUS
10
99.4797687166
20
236.6166805145
11
99.3995601700
21
236.4622724765
0
LINE
5
258
100
AcDbEntity
8
0
100
AcDbLine
62
7
6
CONTINUOUS
10
93.9552843349
20
225.3989025840
11
94.0856496448
21
225.5698907853
0
LINE
5
259
100
AcDbEntity
8
0
100
AcDbLine
62
7
6
CONTINUOUS
10
93.1876698022
20
226.3131806535
11
93.3017547063
21
226.4458146340
0
LINE
5
25A
100
AcDbEntity
8
0
100
AcDbLine
62
7
6
CONTINUOUS
10
92.9759022091
20
225.9504206790
11
93.0899870201
21
226.0830544401
0
LINE
5
25B
100
AcDbEntity
8
0
100
AcDbLine
62
7
6
CONTINUOUS
10
93.7918715009
20
225.6945922090
11
93.6777865968
21
225.5619582284
0
LINE
5
25C
100
AcDbEntity
8
0
100
AcDbLine
62
7
6
CONTINUOUS
10
102.2894405636
20
236.0768528070
11
102.1858276964
21
235.9629820842
0
LINE
5
25D
100
AcDbEntity
8
0
100
AcDbLine
62
7
6
CONTINUOUS
10
105.2056533421
20
239.1658241090
11
105.1020406565
21
239.0519534911
0
LINE
5
25E
100
AcDbEntity
8
0
100
AcDbLine
62
7
6
CONTINUOUS
10
106.1317064840
20
238.2951860704
11
106.0280937984
21
238.1813154525
0
LINE
5
25F
100
AcDbEntity
8
0
100
AcDbLine
62
7
6
CONTINUOUS
10
106.1451150774
20
237.9786286517
11
106.2487277609
21
238.0924992731
0
LINE
5
260
100
AcDbEntity
8
0
100
AcDbLine
62
7
6
CONTINUOUS
10
106.5295788261
20
237.6060509589
11
106.4259661406
21
237.4921803410
0
LINE
5
261
100
AcDbEntity
8
0
100
AcDbLine
62
7
6
CONTINUOUS
10
102.3028489754
20
235.7602952834
11
102.4382161660
21
235.8924993780
0
LINE
5
262
100
AcDbEntity
8
0
100
AcDbLine
62
7
6
CONTINUOUS
10
103.6231196855
20
236.8468528070
11
103.4877524928
21
236.7146487159
0
LINE
5
263
100
AcDbEntity
8
0
100
AcDbLine
62
7
6
CONTINUOUS
10
91.4593863581
20
225.1003978177
11
91.5571907674
21
225.1946773562
0
LINE
5
264
100
AcDbEntity
8
0
100
AcDbLine
62
7
6
CONTINUOUS
10
92.7962089104
20
226.2077558492
11
92.6984045010
21
226.1134763107
0
LINE
5
265
100
AcDbEntity
8
0
100
AcDbLine
62
7
6
CONTINUOUS
10
93.1873049205
20
226.7207206781
11
93.0242570913
21
226.6088704852
0
LINE
5
266
100
AcDbEntity
8
0
100
AcDbLine
62
7
6
CONTINUOUS
10
92.8128542868
20
225.8385702667
11
92.9759022091
21
225.9504206790
0
LINE
5
267
100
AcDbEntity
8
0
100
AcDbLine
62
7
6
CONTINUOUS
10
111.3214692185
20
237.8478311817
11
111.5069705736
21
237.9662362470
0
LINE
5
268
100
AcDbEntity
8
0
100
AcDbLine
62
7
6
CONTINUOUS
10
93.3017547063
20
226.4458146340
11
93.4485221339
21
226.5193106043
0
LINE
5
269
100
AcDbEntity
8
0
100
AcDbLine
62
7
6
CONTINUOUS
10
92.6984045010
20
226.1134763107
11
92.5516370734
21
226.0399803404
0
LINE
5
26A
100
AcDbEntity
8
0
100
AcDbLine
62
7
6
CONTINUOUS
10
92.2407270344
20
227.0772543092
11
92.0287160937
21
226.9861874651
0
LINE
5
26B
100
AcDbEntity
8
0
100
AcDbLine
62
7
6
CONTINUOUS
10
92.1108481445
20
226.3628791872
11
92.1107265172
21
226.4987258620
0
LINE
5
26C
100
AcDbEntity
8
0
100
AcDbLine
62
7
6
CONTINUOUS
10
92.1937101422
20
224.9244909116
11
92.1938317695
21
224.7886442367
0
LINE
5
26D
100
AcDbEntity
8
0
100
AcDbLine
62
7
6
CONTINUOUS
10
93.9382740468
20
226.1756282039
11
93.9221151793
21
226.0014270870
0
LINE
5
26E
100
AcDbEntity
8
0
100
AcDbLine
62
7
6
CONTINUOUS
10
94.8132835203
20
232.8655511716
11
94.8457226963
21
233.0781062916
0
LINE
5
26F
100
AcDbEntity
8
0
100
AcDbLine
62
7
6
CONTINUOUS
10
94.2158933233
20
225.8767256633
11
94.2483326813
21
226.0892812241
0
LINE
5
270
100
AcDbEntity
8
0
100
AcDbLine
62
7
6
CONTINUOUS
10
96.9021697385
20
232.2051963113
11
96.9508894980
21
232.4561060947
0
LINE
5
271
100
AcDbEntity
8
0
100
AcDbLine
62
7
6
CONTINUOUS
10
99.5800899699
20
236.2962523751
11
99.6285442592
21
236.4323270841
0
LINE
5
272
100
AcDbEntity
8
0
100
AcDbLine
62
7
6
CONTINUOUS
10
101.2748287342
20
236.7342120456
11
101.1862702283
21
236.5209333504
0
LINE
5
273
100
AcDbEntity
8
0
100
AcDbLine
62
7
6
CONTINUOUS
10
102.3376524356
20
238.2666804489
11
102.2490939297
21
238.0534017537
0
LINE
5
274
100
AcDbEntity
8
0
100
AcDbLine
62
7
6
CONTINUOUS
10
106.6231958362
20
237.4439015409
11
106.6950547415
21
237.5394391052
0
LINE
5
275
100
AcDbEntity
8
0
100
AcDbLine
62
7
6
CONTINUOUS
10
109.4200813236
20
239.5647045633
11
109.3273306461
21
239.4462995135
0
LINE
5
276
100
AcDbEntity
8
0
100
AcDbLine
62
7
6
CONTINUOUS
10
106.5195831507
20
237.3300309230
11
106.6231958362
21
237.4439015409
0
LINE
5
277
100
AcDbEntity
8
0
100
AcDbLine
62
7
6
CONTINUOUS
10
111.4142200287
20
238.3214514583
11
111.2750940787
21
238.2030463671
0
LINE
5
278
100
AcDbEntity
8
0
100
AcDbLine
62
7
6
CONTINUOUS
10
113.6402349634
20
238.3214514583
11
113.5011090134
21
238.2030463671
0
LINE
5
279
100
AcDbEntity
8
0
100
AcDbLine
62
7
6
CONTINUOUS
10
113.5474846839
20
237.8478311817
11
113.7329857736
21
237.9662362470
0
LINE
5
27A
100
AcDbEntity
8
0
100
AcDbLine
62
7
6
CONTINUOUS
10
93.7269928866
20
225.2694813032
11
93.9552843349
21
225.3989025840
0
LINE
5
27B
100
AcDbEntity
8
0
100
AcDbLine
62
7
6
CONTINUOUS
10
91.5406670648
20
225.4280163737
11
91.3286561707
21
225.3369496392
0
LINE
5
27C
100
AcDbEntity
8
0
100
AcDbLine
62
7
6
CONTINUOUS
10
116.0188218236
20
194.2486286517
11
106.0188218236
21
194.2486286517
0
LINE
5
27D
100
AcDbEntity
8
0
100
AcDbLine
62
7
6
CONTINUOUS
10
114.8688218236
20
195.3986286517
11
107.1688218236
21
195.3986286517
0
LINE
5
27E
100
AcDbEntity
8
0
100
AcDbLine
62
7
6
CONTINUOUS
10
94.3077333373
20
204.1105576276
11
88.0644148529
21
219.1832617870
0
LINE
5
27F
100
AcDbEntity
8
0
100
AcDbLine
62
7
6
CONTINUOUS
10
96.6897941614
20
232.5216701647
11
96.6573546128
21
232.3091141668
0
LINE
5
280
100
AcDbEntity
8
0
100
AcDbLine
62
7
6
CONTINUOUS
10
100.4258135664
20
236.2980827159
11
100.1218005446
21
234.7713154525
0
LINE
5
281
100
AcDbEntity
8
0
100
AcDbLine
62
7
6
CONTINUOUS
10
100.3758346706
20
234.9179821236
11
100.6547976783
21
236.2681373366
0
LINE
5
282
100
AcDbEntity
8
0
100
AcDbLine
62
7
6
CONTINUOUS
10
101.3667999600
20
236.3549132096
11
101.4236043222
21
236.5498586414
0
LINE
5
283
100
AcDbEntity
8
0
100
AcDbLine
62
7
6
CONTINUOUS
10
102.4379739159
20
237.9462524407
11
102.4864282053
21
238.0823271496
0
LINE
5
284
100
AcDbEntity
8
0
100
AcDbLine
62
7
6
CONTINUOUS
10
102.3378948530
20
236.2129275160
11
102.2894405636
21
236.0768528070
0
LINE
5
285
100
AcDbEntity
8
0
100
AcDbLine
62
7
6
CONTINUOUS
10
103.6715739748
20
236.9829275160
11
103.6231196855
21
236.8468528070
0
LINE
5
286
100
AcDbEntity
8
0
100
AcDbLine
62
7
6
CONTINUOUS
10
102.4382161660
20
235.8924993780
11
102.5267746657
21
236.1057780839
0
LINE
5
287
100
AcDbEntity
8
0
100
AcDbLine
62
7
6
CONTINUOUS
10
103.7718951061
20
236.6624992731
11
103.8604537875
21
236.8757780839
0
LINE
5
288
100
AcDbEntity
8
0
100
AcDbLine
62
7
6
CONTINUOUS
10
105.2424661717
20
238.8087293642
11
105.3226746047
21
238.9631373366
0
LINE
5
289
100
AcDbEntity
8
0
100
AcDbLine
62
7
6
CONTINUOUS
10
106.2487277609
20
238.0924992731
11
106.2888321571
21
238.1697033678
0
LINE
5
28A
100
AcDbEntity
8
0
100
AcDbLine
62
7
6
CONTINUOUS
10
111.5069705736
20
237.9662362470
11
111.6924719287
21
238.2030463671
0
LINE
5
28B
100
AcDbEntity
8
0
100
AcDbLine
62
7
6
CONTINUOUS
10
98.5188218236
20
197.9486286517
11
123.5188218236
21
197.9486286517
0
LINE
5
28C
100
AcDbEntity
8
0
100
AcDbLine
62
7
6
CONTINUOUS
10
91.8007896332
20
226.4492263737
11
91.8335937839
21
226.2542416886
0
LINE
5
28D
100
AcDbEntity
8
0
100
AcDbLine
62
7
6
CONTINUOUS
10
92.4548057284
20
224.8589275127
11
92.4220015311
21
225.0539120881
0
LINE
5
28E
100
AcDbEntity
8
0
100
AcDbLine
62
7
6
CONTINUOUS
10
98.5188218236
20
197.9486286517
11
98.5188218236
21
199.9932410600
0
LINE
5
28F
100
AcDbEntity
8
0
100
AcDbLine
62
7
6
CONTINUOUS
10
99.3995601700
20
236.4622724765
11
99.3661601228
21
236.2267897263
0
LINE
5
290
100
AcDbEntity
8
0
100
AcDbLine
62
7
6
CONTINUOUS
10
105.1020406565
20
239.0519534911
11
105.0535863672
21
238.9158787822
0
LINE
5
291
100
AcDbEntity
8
0
100
AcDbLine
62
7
6
CONTINUOUS
10
106.1801611367
20
238.4312609892
11
106.1317064840
21
238.2951860704
0
LINE
5
292
100
AcDbEntity
8
0
100
AcDbLine
62
7
6
CONTINUOUS
10
106.6950547415
20
237.5394391052
11
106.7435090309
21
237.6755138142
0
LINE
5
293
100
AcDbEntity
8
0
100
AcDbLine
62
7
6
CONTINUOUS
10
109.5592072736
20
239.2686919390
11
109.6983332236
21
239.5055020384
0
LINE
5
294
100
AcDbEntity
8
0
100
AcDbLine
62
7
6
CONTINUOUS
10
113.7329857736
20
237.9662362470
11
113.9184868634
21
238.2030463671
0
LINE
5
295
100
AcDbEntity
8
0
100
AcDbLine
62
7
6
CONTINUOUS
10
92.1599327900
20
226.2062489441
11
92.1108481445
21
226.3628791872
0
LINE
5
296
100
AcDbEntity
8
0
100
AcDbLine
62
7
6
CONTINUOUS
10
93.8891893670
20
226.3322584615
11
93.9382740468
21
226.1756282039
0
LINE
5
297
100
AcDbEntity
8
0
100
AcDbLine
62
7
6
CONTINUOUS
10
94.2483326813
20
226.0892812241
11
94.2155284245
21
226.2842656952
0
LINE
5
298
100
AcDbEntity
8
0
100
AcDbLine
62
7
6
CONTINUOUS
10
99.5867941903
20
236.1379736406
11
99.5800899699
21
236.2962523751
0
LINE
5
299
100
AcDbEntity
8
0
100
AcDbLine
62
7
6
CONTINUOUS
10
102.2490939297
20
238.0534017537
11
102.2240438929
21
237.8767896903
0
LINE
5
29A
100
AcDbEntity
8
0
100
AcDbLine
62
7
6
CONTINUOUS
10
103.8604537875
20
236.8757780839
11
103.8855038162
21
237.0523901615
0
LINE
5
29B
100
AcDbEntity
8
0
100
AcDbLine
62
7
6
CONTINUOUS
10
104.3317094125
20
237.5262063445
11
104.3734592316
21
237.8205596438
0
LINE
5
29C
100
AcDbEntity
8
0
100
AcDbLine
62
7
6
CONTINUOUS
10
111.5069705736
20
238.4990590329
11
111.4142200287
21
238.3214514583
0
LINE
5
29D
100
AcDbEntity
8
0
100
AcDbLine
62
7
6
CONTINUOUS
10
92.1283450486
20
225.0427668223
11
92.1937101422
21
224.9244909116
0
LINE
5
29E
100
AcDbEntity
8
0
100
AcDbLine
62
7
6
CONTINUOUS
10
91.8335937839
20
226.2542416886
11
91.9643239713
21
226.0176898671
0
LINE
5
29F
100
AcDbEntity
8
0
100
AcDbLine
62
7
6
CONTINUOUS
10
94.5521878410
20
232.9311143510
11
94.6176747016
21
232.6769920946
0
LINE
5
2A0
100
AcDbEntity
8
0
100
AcDbLine
62
7
6
CONTINUOUS
10
100.6547976783
20
236.2681373366
11
100.6480934807
21
236.4264160842
0
LINE
5
2A1
100
AcDbEntity
8
0
100
AcDbLine
62
7
6
CONTINUOUS
10
102.3311905481
20
236.3712062396
11
102.3378948530
21
236.2129275160
0
LINE
5
2A2
100
AcDbEntity
8
0
100
AcDbLine
62
7
6
CONTINUOUS
10
102.4513823769
20
237.6296948318
11
102.4379739159
21
237.9462524407
0
LINE
5
2A3
100
AcDbEntity
8
0
100
AcDbLine
62
7
6
CONTINUOUS
10
102.5267746657
20
236.1057780839
11
102.5284204418
21
236.3229275160
0
LINE
5
2A4
100
AcDbEntity
8
0
100
AcDbLine
62
7
6
CONTINUOUS
10
104.3985092357
20
237.9971717640
11
104.4435509868
21
238.7258241090
0
LINE
5
2A5
100
AcDbEntity
8
0
100
AcDbLine
62
7
6
CONTINUOUS
10
104.2530253979
20
238.6158241090
11
104.1912838973
21
237.7694304715
0
LINE
5
2A6
100
AcDbEntity
8
0
100
AcDbLine
62
7
6
CONTINUOUS
10
105.0535863672
20
238.9158787822
11
105.0285363304
21
238.7392667187
0
LINE
5
2A7
100
AcDbEntity
8
0
100
AcDbLine
62
7
6
CONTINUOUS
10
106.2888321571
20
238.1697033678
11
106.3055319353
21
238.2874446106
0
LINE
5
2A8
100
AcDbEntity
8
0
100
AcDbLine
62
7
6
CONTINUOUS
10
106.5546292100
20
237.7826632605
11
106.5295788261
21
237.6060509589
0
LINE
5
2A9
100
AcDbEntity
8
0
100
AcDbLine
62
7
6
CONTINUOUS
10
109.4664565961
20
239.7423121378
11
109.4200813236
21
239.5647045633
0
LINE
5
2AA
100
AcDbEntity
8
0
100
AcDbLine
62
7
6
CONTINUOUS
10
109.6983332236
20
239.5055020384
11
109.7447084961
21
239.6831096130
0
LINE
5
2AB
100
AcDbEntity
8
0
100
AcDbLine
62
7
6
CONTINUOUS
10
111.6924719287
20
238.2030463671
11
111.7852224736
21
238.4398565080
0
LINE
5
2AC
100
AcDbEntity
8
0
100
AcDbLine
62
7
6
CONTINUOUS
10
113.7329857736
20
238.4990590329
11
113.6402349634
21
238.3214514583
0
LINE
5
2AD
100
AcDbEntity
8
0
100
AcDbLine
62
7
6
CONTINUOUS
10
126.8060307774
20
203.4932410600
11
126.0783449074
21
203.4932410600
0
LINE
5
2AE
100
AcDbEntity
8
0
100
AcDbLine
62
7
6
CONTINUOUS
10
95.9592987398
20
203.4932410600
11
95.2316128698
21
203.4932410600
0
LINE
5
2AF
100
AcDbEntity
8
0
100
AcDbLine
62
7
6
CONTINUOUS
10
114.8688218236
20
195.3986286517
11
116.0188218236
21
194.2486286517
0
LINE
5
2B0
100
AcDbEntity
8
0
100
AcDbLine
62
7
6
CONTINUOUS
10
92.4220015311
20
225.0539120881
11
92.2749908490
21
225.2521094675
0
LINE
5
2B1
100
AcDbEntity
8
0
100
AcDbLine
62
7
6
CONTINUOUS
10
94.2155284245
20
226.2842656952
11
94.0847982200
21
226.5208175239
0
LINE
5
2B2
100
AcDbEntity
8
0
100
AcDbLine
62
7
6
CONTINUOUS
10
94.8623681658
20
232.7089209285
11
94.8132835203
21
232.8655511716
0
LINE
5
2B3
100
AcDbEntity
8
0
100
AcDbLine
62
7
6
CONTINUOUS
10
96.6407095159
20
232.6783004078
11
96.6897941614
21
232.5216701647
0
LINE
5
2B4
100
AcDbEntity
8
0
100
AcDbLine
62
7
6
CONTINUOUS
10
96.9508894980
20
232.4561060947
11
96.8854029972
21
232.7102292344
0
LINE
5
2B5
100
AcDbEntity
8
0
100
AcDbLine
62
7
6
CONTINUOUS
10
103.6581653813
20
237.2994849348
11
103.6715739748
21
236.9829275160
0
LINE
5
2B6
100
AcDbEntity
8
0
100
AcDbLine
62
7
6
CONTINUOUS
10
106.0188218236
20
194.2486286517
11
106.0188218236
21
184.0486286517
0
LINE
5
2B7
100
AcDbEntity
8
0
100
AcDbLine
62
7
6
CONTINUOUS
10
113.9184868634
20
238.2030463671
11
114.0112376736
21
238.4398565080
0
LINE
5
2B8
100
AcDbEntity
8
0
100
AcDbLine
62
7
6
CONTINUOUS
10
93.7748612085
20
226.4713178307
11
93.8891893670
21
226.3322584615
0
LINE
5
2B9
100
AcDbEntity
8
0
100
AcDbLine
62
7
6
CONTINUOUS
10
94.6176747016
20
232.6769920946
11
94.7157223654
21
232.4995782834
0
LINE
5
2BA
100
AcDbEntity
8
0
100
AcDbLine
62
7
6
CONTINUOUS
10
100.3957051162
20
236.4968988180
11
100.4258135664
21
236.2980827159
0
LINE
5
2BB
100
AcDbEntity
8
0
100
AcDbLine
62
7
6
CONTINUOUS
10
102.2240438929
20
237.8767896903
11
102.2541524339
21
237.6779736406
0
LINE
5
2BC
100
AcDbEntity
8
0
100
AcDbLine
62
7
6
CONTINUOUS
10
105.2491702786
20
238.6504505641
11
105.2424661717
21
238.8087293642
0
LINE
5
2BD
100
AcDbEntity
8
0
100
AcDbLine
62
7
6
CONTINUOUS
10
106.1734566501
20
238.5895396079
11
106.1801611367
21
238.4312609892
0
LINE
5
2BE
100
AcDbEntity
8
0
100
AcDbLine
62
7
6
CONTINUOUS
10
106.7435090309
20
237.6755138142
11
106.7368045606
21
237.8337924045
0
LINE
5
2BF
100
AcDbEntity
8
0
100
AcDbLine
62
7
6
CONTINUOUS
10
107.1688218236
20
197.9486286517
11
107.1688218236
21
195.3986286517
0
LINE
5
2C0
100
AcDbEntity
8
0
100
AcDbLine
62
7
6
CONTINUOUS
10
108.0288218236
20
240.5711476517
11
108.0288218236
21
237.7886286517
0
LINE
5
2C1
100
AcDbEntity
8
0
100
AcDbLine
62
7
6
CONTINUOUS
10
108.3070737236
20
237.7886286517
11
108.3070737236
21
239.0318818395
0
LINE
5
2C2
100
AcDbEntity
8
0
100
AcDbLine
62
7
6
CONTINUOUS
10
108.3070737236
20
239.3870969887
11
108.3070737236
21
240.2751350274
0
LINE
5
2C3
100
AcDbEntity
8
0
100
AcDbLine
62
7
6
CONTINUOUS
10
111.7852224736
20
238.4398565080
11
111.8315978787
21
238.7358691323
0
LINE
5
2C4
100
AcDbEntity
8
0
100
AcDbLine
62
7
6
CONTINUOUS
10
111.5533459787
20
238.7358691323
11
111.5069705736
21
238.4990590329
0
LINE
5
2C5
100
AcDbEntity
8
0
100
AcDbLine
62
7
6
CONTINUOUS
10
113.7793609134
20
238.7358691323
11
113.7329857736
21
238.4990590329
0
LINE
5
2C6
100
AcDbEntity
8
0
100
AcDbLine
62
7
6
CONTINUOUS
10
94.0799328911
20
231.9546846206
11
94.3249912369
21
231.5790734299
0
LINE
5
2C7
100
AcDbEntity
8
0
100
AcDbLine
62
7
6
CONTINUOUS
10
94.7166955204
20
231.4128048262
11
94.4716370374
21
231.7884160751
0
LINE
5
2C8
100
AcDbEntity
8
0
100
AcDbLine
62
7
6
CONTINUOUS
10
96.8854029972
20
232.7102292344
11
96.7873553163
21
232.8876430529
0
LINE
5
2C9
100
AcDbEntity
8
0
100
AcDbLine
62
7
6
CONTINUOUS
10
99.3661601228
20
236.2267897263
11
99.4280228672
21
236.0463069745
0
LINE
5
2CA
100
AcDbEntity
8
0
100
AcDbLine
62
7
6
CONTINUOUS
10
100.6480934807
20
236.4264160842
11
100.5862307051
21
236.6068988180
0
LINE
5
2CB
100
AcDbEntity
8
0
100
AcDbLine
62
7
6
CONTINUOUS
10
102.5284204418
20
236.3229275160
11
102.4749076318
21
236.5622809486
0
LINE
5
2CC
100
AcDbEntity
8
0
100
AcDbLine
62
7
6
CONTINUOUS
10
103.8855038162
20
237.0523901615
11
103.8553954404
21
237.2512063445
0
LINE
5
2CD
100
AcDbEntity
8
0
100
AcDbLine
62
7
6
CONTINUOUS
10
109.4664565961
20
239.9199198783
11
109.4664565961
21
239.7423121378
0
LINE
5
2CE
100
AcDbEntity
8
0
100
AcDbLine
62
7
6
CONTINUOUS
10
109.7447084961
20
239.6831096130
11
109.7447084961
21
239.9199198783
0
LINE
5
2CF
100
AcDbEntity
8
0
100
AcDbLine
62
7
6
CONTINUOUS
10
110.1620863461
20
240.5711476517
11
110.1620863461
21
238.7358691323
0
LINE
5
2D0
100
AcDbEntity
8
0
100
AcDbLine
62
7
6
CONTINUOUS
10
110.4403383787
20
238.7358691323
11
110.4403383787
21
240.5711476517
0
LINE
5
2D1
100
AcDbEntity
8
DEFAULT_1
100
AcDbLine
62
2
6
CENTER
10
111.0188218236
20
219.9486286517
11
111.0188218236
21
181.8205004328
0
LINE
5
2D2
100
AcDbEntity
8
DEFAULT_1
100
AcDbLine
62
2
6
CENTER
10
111.0188218236
20
219.9486286517
11
111.0188218236
21
235.4486286517
0
LINE
5
2D3
100
AcDbEntity
8
0
100
AcDbLine
62
7
6
CONTINUOUS
10
114.0112376736
20
238.4398565080
11
114.0576128134
21
238.7358691323
0
LINE
5
2D4
100
AcDbEntity
8
0
100
AcDbLine
62
7
6
CONTINUOUS
10
91.9643239713
20
226.0176898671
11
92.1438956428
21
225.8962013718
0
LINE
5
2D5
100
AcDbEntity
8
0
100
AcDbLine
62
7
6
CONTINUOUS
10
91.9977364419
20
225.1434718592
11
92.1283450486
21
225.0427668223
0
LINE
5
2D6
100
AcDbEntity
8
0
100
AcDbLine
62
7
6
CONTINUOUS
10
92.2749908490
20
225.2521094675
11
92.1443822423
21
225.3528145044
0
LINE
5
2D7
100
AcDbEntity
8
0
100
AcDbLine
62
7
6
CONTINUOUS
10
92.2905415804
20
226.1055439588
11
92.1599327900
21
226.2062489441
0
LINE
5
2D8
100
AcDbEntity
8
0
100
AcDbLine
62
7
6
CONTINUOUS
10
94.0847982200
20
226.5208175239
11
93.9215070089
21
226.6806604759
0
LINE
5
2D9
100
AcDbEntity
8
0
100
AcDbLine
62
7
6
CONTINUOUS
10
95.0910244337
20
232.4308016930
11
94.8623681658
21
232.7089209285
0
LINE
5
2DA
100
AcDbEntity
8
0
100
AcDbLine
62
7
6
CONTINUOUS
10
102.2927321158
20
236.5111516714
11
102.3311905481
21
236.3712062396
0
LINE
5
2DB
100
AcDbEntity
8
0
100
AcDbLine
62
7
6
CONTINUOUS
10
102.2541524339
20
237.6779736406
11
102.2926109317
21
237.5380280952
0
LINE
5
2DC
100
AcDbEntity
8
0
100
AcDbLine
62
7
6
CONTINUOUS
10
103.8553954404
20
237.2512063445
11
103.8169368265
21
237.3911516714
0
LINE
5
2DD
100
AcDbEntity
8
0
100
AcDbLine
62
7
6
CONTINUOUS
10
105.0285363304
20
238.7392667187
11
105.0435903283
21
238.6398585365
0
LINE
5
2DE
100
AcDbEntity
8
0
100
AcDbLine
62
7
6
CONTINUOUS
10
106.3055319353
20
238.2874446106
11
106.2904779291
21
238.3868528070
0
LINE
5
2DF
100
AcDbEntity
8
0
100
AcDbLine
62
7
6
CONTINUOUS
10
106.5395744852
20
237.8820710231
11
106.5546292100
21
237.7826632605
0
LINE
5
2E0
100
AcDbEntity
8
0
100
AcDbLine
62
7
6
CONTINUOUS
10
111.5533459787
20
240.5711476517
11
111.5533459787
21
238.7358691323
0
LINE
5
2E1
100
AcDbEntity
8
0
100
AcDbLine
62
7
6
CONTINUOUS
10
111.8315978787
20
238.7358691323
11
111.8315978787
21
240.5711476517
0
LINE
5
2E2
100
AcDbEntity
8
0
100
AcDbLine
62
7
6
CONTINUOUS
10
112.2026003236
20
240.5711476517
11
112.2026003236
21
237.7886286517
0
LINE
5
2E3
100
AcDbEntity
8
0
100
AcDbLine
62
7
6
CONTINUOUS
10
112.4808522236
20
238.1438438423
11
112.4808522236
21
240.2159325025
0
LINE
5
2E4
100
AcDbEntity
8
0
100
AcDbLine
62
7
6
CONTINUOUS
10
113.7793609134
20
239.6239070881
11
113.7793609134
21
238.7358691323
0
LINE
5
2E5
100
AcDbEntity
8
0
100
AcDbLine
62
7
6
CONTINUOUS
10
90.8075596900
20
224.2454564729
11
93.1088218236
21
223.2686286517
0
LINE
5
2E6
100
AcDbEntity
8
0
100
AcDbLine
62
7
6
CONTINUOUS
10
93.2065046057
20
223.4987548650
11
92.1782810846
21
223.9352098552
0
LINE
5
2E7
100
AcDbEntity
8
0
100
AcDbLine
62
7
6
CONTINUOUS
10
91.8845029749
20
224.0599112643
11
91.1500575635
21
224.3716648453
0
LINE
5
2E8
100
AcDbEntity
8
0
100
AcDbLine
62
7
6
CONTINUOUS
10
94.7157223654
20
232.4995782834
11
94.8790136354
21
232.3397355654
0
LINE
5
2E9
100
AcDbEntity
8
0
100
AcDbLine
62
7
6
CONTINUOUS
10
96.4120529782
20
232.9564187218
11
96.6407095159
21
232.6783004078
0
LINE
5
2EA
100
AcDbEntity
8
0
100
AcDbLine
62
7
6
CONTINUOUS
10
100.1218005446
20
234.7713154525
11
100.2388218236
21
234.5686286517
0
LINE
5
2EB
100
AcDbEntity
8
0
100
AcDbLine
62
7
6
CONTINUOUS
10
100.3488965456
20
236.5779736406
11
100.3957051162
21
236.4968988180
0
LINE
5
2EC
100
AcDbEntity
8
0
100
AcDbLine
62
7
6
CONTINUOUS
10
101.3819753566
20
235.2286286517
11
101.2649540776
21
235.4313154525
0
LINE
5
2ED
100
AcDbEntity
8
0
100
AcDbLine
62
7
6
CONTINUOUS
10
100.5862307051
20
236.6068988180
11
100.5394221344
21
236.6879736406
0
LINE
5
2EE
100
AcDbEntity
8
0
100
AcDbLine
62
7
6
CONTINUOUS
10
102.5600535667
20
237.3681373366
11
102.4513823769
21
237.6296948318
0
LINE
5
2EF
100
AcDbEntity
8
0
100
AcDbLine
62
7
6
CONTINUOUS
10
103.5494943405
20
237.5610425917
11
103.6581653813
21
237.2994849348
0
LINE
5
2F0
100
AcDbEntity
8
0
100
AcDbLine
62
7
6
CONTINUOUS
10
102.2926109317
20
237.5380280952
11
102.3778780507
21
237.3170080594
0
LINE
5
2F1
100
AcDbEntity
8
0
100
AcDbLine
62
7
6
CONTINUOUS
10
103.8169368265
20
237.3911516714
11
103.7316696747
21
237.6121717640
0
LINE
5
2F2
100
AcDbEntity
8
0
100
AcDbLine
62
7
6
CONTINUOUS
10
105.0435903283
20
238.6398585365
11
105.1054531948
21
238.4593758551
0
LINE
5
2F3
100
AcDbEntity
8
0
100
AcDbLine
62
7
6
CONTINUOUS
10
105.2876288925
20
238.5105052372
11
105.2491702786
21
238.6504505641
0
LINE
5
2F4
100
AcDbEntity
8
0
100
AcDbLine
62
7
6
CONTINUOUS
10
114.0576128134
20
238.7358691323
11
114.0576128134
21
239.6239070881
0
LINE
5
2F5
100
AcDbEntity
8
0
100
AcDbLine
62
7
6
CONTINUOUS
10
114.8688218236
20
197.9486286517
11
114.8688218236
21
195.3986286517
0
LINE
5
2F6
100
AcDbEntity
8
0
100
AcDbLine
62
7
6
CONTINUOUS
10
116.0188218236
20
194.2486286517
11
116.0188218236
21
184.0486286517
0
LINE
5
2F7
100
AcDbEntity
8
0
100
AcDbLine
62
7
6
CONTINUOUS
10
91.8508472499
20
225.2058226220
11
91.9977364419
21
225.1434718592
0
LINE
5
2F8
100
AcDbEntity
8
0
100
AcDbLine
62
7
6
CONTINUOUS
10
92.1443822423
20
225.3528145044
11
91.9485300320
21
225.4359488353
0
LINE
5
2F9
100
AcDbEntity
8
0
100
AcDbLine
62
7
6
CONTINUOUS
10
92.1438956428
20
225.8962013718
11
92.3397478531
21
225.8130670408
0
LINE
5
2FA
100
AcDbEntity
8
0
100
AcDbLine
62
7
6
CONTINUOUS
10
92.3884676170
20
226.0639768224
11
92.2905415804
21
226.1055439588
0
LINE
5
2FB
100
AcDbEntity
8
0
100
AcDbLine
62
7
6
CONTINUOUS
10
93.7054821642
20
231.0725339897
11
95.5177222168
21
229.6243084906
0
LINE
5
2FC
100
AcDbEntity
8
0
100
AcDbLine
62
7
6
CONTINUOUS
10
95.8276593215
20
229.6738084033
11
94.2439537381
21
230.9797614145
0
LINE
5
2FD
100
AcDbEntity
8
0
100
AcDbLine
62
7
6
CONTINUOUS
10
96.7873553163
20
232.8876430529
11
96.6240640120
21
233.0474857854
0
LINE
5
2FE
100
AcDbEntity
8
0
100
AcDbLine
62
7
6
CONTINUOUS
10
100.5360095053
20
237.2805512242
11
101.1445201367
21
236.2265798938
0
LINE
5
2FF
100
AcDbEntity
8
0
100
AcDbLine
62
7
6
CONTINUOUS
10
101.1862702283
20
236.5209333504
11
100.8118021223
21
237.1695311358
0
LINE
5
300
100
AcDbEntity
8
0
100
AcDbLine
62
7
6
CONTINUOUS
10
102.2459236108
20
236.5922263804
11
102.2927321158
21
236.5111516714
0
LINE
5
301
100
AcDbEntity
8
0
100
AcDbLine
62
7
6
CONTINUOUS
10
101.7326757411
20
237.7011977675
11
101.6156544784
21
237.9038845400
0
LINE
5
302
100
AcDbEntity
8
0
100
AcDbLine
62
7
6
CONTINUOUS
10
102.4749076318
20
236.5622809486
11
102.3812906217
21
236.7244303666
0
LINE
5
303
100
AcDbEntity
8
0
100
AcDbLine
62
7
6
CONTINUOUS
10
102.3778780507
20
237.3170080594
11
102.5885163234
21
236.9521718689
0
LINE
5
304
100
AcDbEntity
8
0
100
AcDbLine
62
7
6
CONTINUOUS
10
102.7238833344
20
237.0843758551
11
102.5600535667
21
237.3681373366
0
LINE
5
305
100
AcDbEntity
8
0
100
AcDbLine
62
7
6
CONTINUOUS
10
106.4777119698
20
238.0625539356
11
106.5395744852
21
237.8820710231
0
LINE
5
306
100
AcDbEntity
8
0
100
AcDbLine
62
7
6
CONTINUOUS
10
106.7368045606
20
237.8337924045
11
106.6364830516
21
238.1542204624
0
LINE
5
307
100
AcDbEntity
8
0
100
AcDbLine
62
7
6
CONTINUOUS
10
109.4200813236
20
240.0975274528
11
109.4664565961
21
239.9199198783
0
LINE
5
308
100
AcDbEntity
8
0
100
AcDbLine
62
7
6
CONTINUOUS
10
110.4867135185
20
238.4990590329
11
110.4403383787
21
238.7358691323
0
LINE
5
309
100
AcDbEntity
8
0
100
AcDbLine
62
7
6
CONTINUOUS
10
110.1620863461
20
238.7358691323
11
110.2084617512
21
238.4398565080
0
LINE
5
30A
100
AcDbEntity
8
DEFAULT_1
100
AcDbLine
62
2
6
CENTER
10
111.0188218236
20
219.9486286517
11
95.5188218236
21
219.9486286517
0
LINE
5
30B
100
AcDbEntity
8
DEFAULT_1
100
AcDbLine
62
2
6
CENTER
10
111.0188218236
20
219.9486286517
11
126.5188218236
21
219.9486286517
0
LINE
5
30C
100
AcDbEntity
8
0
100
AcDbLine
62
7
6
CONTINUOUS
10
93.6279721536
20
226.5336685353
11
93.7748612085
21
226.4713178307
0
LINE
5
30D
100
AcDbEntity
8
0
100
AcDbLine
62
7
6
CONTINUOUS
10
93.9215070089
20
226.6806604759
11
93.6766919175
21
226.7845783168
0
LINE
5
30E
100
AcDbEntity
8
0
100
AcDbLine
62
7
6
CONTINUOUS
10
95.0096222395
20
232.2390301411
11
95.2381567430
21
232.0967576387
0
LINE
5
30F
100
AcDbEntity
8
0
100
AcDbLine
62
7
6
CONTINUOUS
10
94.8790136354
20
232.3397355654
11
95.0096222395
21
232.2390301411
0
LINE
5
310
100
AcDbEntity
8
0
100
AcDbLine
62
7
6
CONTINUOUS
10
96.6240640120
20
233.0474857854
11
96.4934555450
21
233.1481911515
0
LINE
5
311
100
AcDbEntity
8
0
100
AcDbLine
62
7
6
CONTINUOUS
10
100.5394221344
20
236.6879736406
11
100.4140508898
21
236.8317897427
0
LINE
5
312
100
AcDbEntity
8
0
100
AcDbLine
62
7
6
CONTINUOUS
10
103.3856645727
20
237.8448040732
11
103.5494943405
21
237.5610425917
0
LINE
5
313
100
AcDbEntity
8
0
100
AcDbLine
62
7
6
CONTINUOUS
10
103.7316696747
20
237.6121717640
11
103.5210314020
21
237.9770079545
0
LINE
5
314
100
AcDbEntity
8
0
100
AcDbLine
62
7
6
CONTINUOUS
10
103.3303847779
20
238.8938845400
11
104.4303847779
21
236.9886286517
0
LINE
5
315
100
AcDbEntity
8
0
100
AcDbLine
62
7
6
CONTINUOUS
10
104.5891562231
20
237.0802953883
11
104.3317094125
21
237.5262063445
0
LINE
5
316
100
AcDbEntity
8
0
100
AcDbLine
62
7
6
CONTINUOUS
10
104.1912838973
20
237.7694304715
11
103.4891562231
21
238.9855512766
0
LINE
5
317
100
AcDbEntity
8
0
100
AcDbLine
62
7
6
CONTINUOUS
10
105.1054531948
20
238.4593758551
11
105.2926872478
21
238.1350769624
0
LINE
5
318
100
AcDbEntity
8
0
100
AcDbLine
62
7
6
CONTINUOUS
10
105.4280544404
20
238.2672810535
11
105.2876288925
21
238.5105052372
0
LINE
5
319
100
AcDbEntity
8
0
100
AcDbLine
62
7
6
CONTINUOUS
10
109.7910839012
20
237.7886286517
11
109.3737060512
21
239.1502868893
0
LINE
5
31A
100
AcDbEntity
8
0
100
AcDbLine
62
7
6
CONTINUOUS
10
109.0954540848
20
239.0318818395
11
109.4664565961
21
237.7886286517
0
LINE
5
31B
100
AcDbEntity
8
0
100
AcDbLine
62
7
6
CONTINUOUS
10
109.7447084961
20
239.9199198783
11
109.6983332236
21
240.0975274528
0
LINE
5
31C
100
AcDbEntity
8
0
100
AcDbLine
62
7
6
CONTINUOUS
10
113.7329857736
20
239.8607171875
11
113.7793609134
21
239.6239070881
0
LINE
5
31D
100
AcDbEntity
8
0
100
AcDbLine
62
7
6
CONTINUOUS
10
114.0576128134
20
239.6239070881
11
114.0112376736
21
239.9199198783
0
LINE
5
31E
100
AcDbEntity
8
0
100
AcDbLine
62
7
6
CONTINUOUS
10
107.1688218236
20
195.3986286517
11
106.0188218236
21
194.2486286517
0
LINE
5
31F
100
AcDbEntity
8
0
100
AcDbLine
62
7
6
CONTINUOUS
10
93.7274794593
20
224.7260947062
11
92.4548057284
21
224.8589275127
0
LINE
5
320
100
AcDbEntity
8
0
100
AcDbLine
62
7
6
CONTINUOUS
10
92.4550489596
20
224.5872341081
11
93.6135161824
21
224.4576140508
0
LINE
5
321
100
AcDbEntity
8
0
100
AcDbLine
62
7
6
CONTINUOUS
10
91.6876777469
20
225.2298189942
11
91.8508472499
21
225.2058226220
0
LINE
5
322
100
AcDbEntity
8
0
100
AcDbLine
62
7
6
CONTINUOUS
10
91.9485300320
20
225.4359488353
11
91.7853605290
21
225.4599452076
0
LINE
5
323
100
AcDbEntity
8
0
100
AcDbLine
62
7
6
CONTINUOUS
10
93.4820561166
20
225.5092458409
11
93.3188866601
21
225.5332423229
0
LINE
5
324
100
AcDbEntity
8
0
100
AcDbLine
62
7
6
CONTINUOUS
10
92.5516370734
20
226.0399803404
11
92.3884676170
21
226.0639768224
0
LINE
5
325
100
AcDbEntity
8
0
100
AcDbLine
62
7
6
CONTINUOUS
10
93.2212038314
20
225.3031159998
11
93.4333363993
21
225.2583361691
0
LINE
5
326
100
AcDbEntity
8
0
100
AcDbLine
62
7
6
CONTINUOUS
10
92.3397478531
20
225.8130670408
11
92.5518803278
21
225.7682869907
0
LINE
5
327
100
AcDbEntity
8
0
100
AcDbLine
62
7
6
CONTINUOUS
10
93.0705440804
20
229.5767136028
11
95.3718062140
21
228.5998857816
0
LINE
5
328
100
AcDbEntity
8
0
100
AcDbLine
62
7
6
CONTINUOUS
10
95.4694889961
20
228.8300119950
11
93.6578570453
21
229.5990041343
0
LINE
5
329
100
AcDbEntity
8
0
100
AcDbLine
62
7
6
CONTINUOUS
10
94.2439537381
20
230.9797614145
11
96.0555856889
21
230.2107692752
0
LINE
5
32A
100
AcDbEntity
8
0
100
AcDbLine
62
7
6
CONTINUOUS
10
96.1532684710
20
230.4408954885
11
93.8520063374
21
231.4177233097
0
LINE
5
32B
100
AcDbEntity
8
0
100
AcDbLine
62
7
6
CONTINUOUS
10
95.3685223282
20
232.2677465002
11
95.0910244337
21
232.4308016930
0
LINE
5
32C
100
AcDbEntity
8
0
100
AcDbLine
62
7
6
CONTINUOUS
10
96.1345553878
20
233.1194748215
11
96.4120529782
21
232.9564187218
0
LINE
5
32D
100
AcDbEntity
8
0
100
AcDbLine
62
7
6
CONTINUOUS
10
96.4934555450
20
233.1481911515
11
96.2649206003
21
233.2904628052
0
LINE
5
32E
100
AcDbEntity
8
0
100
AcDbLine
62
7
6
CONTINUOUS
10
102.1439564950
20
236.6955051323
11
102.2459236108
21
236.5922263804
0
LINE
5
32F
100
AcDbEntity
8
0
100
AcDbLine
62
7
6
CONTINUOUS
10
102.5885163234
20
236.9521718689
11
102.7372917625
21
236.7678183031
0
LINE
5
330
100
AcDbEntity
8
0
100
AcDbLine
62
7
6
CONTINUOUS
10
103.5210314020
20
237.9770079545
11
103.3722559957
21
238.1613614635
0
LINE
5
331
100
AcDbEntity
8
0
100
AcDbLine
62
7
6
CONTINUOUS
10
102.8960632077
20
236.8594850397
11
102.7238833344
21
237.0843758551
0
LINE
5
332
100
AcDbEntity
8
0
100
AcDbLine
62
7
6
CONTINUOUS
10
103.2134845505
20
238.0696947269
11
103.3856645727
21
237.8448040732
0
LINE
5
333
100
AcDbEntity
8
0
100
AcDbLine
62
7
6
CONTINUOUS
10
105.6819673142
20
239.4408241090
11
105.8223928294
21
239.1975999821
0
LINE
5
334
100
AcDbEntity
8
0
100
AcDbLine
62
7
6
CONTINUOUS
10
105.9394140920
20
238.9949132096
11
106.1734566501
21
238.5895396079
0
LINE
5
335
100
AcDbEntity
8
0
100
AcDbLine
62
7
6
CONTINUOUS
10
106.2904779291
20
238.3868528070
11
106.4777119698
21
238.0625539356
0
LINE
5
336
100
AcDbEntity
8
0
100
AcDbLine
62
7
6
CONTINUOUS
10
106.6364830516
20
238.1542204624
11
105.8407383959
21
239.5324906358
0
LINE
5
337
100
AcDbEntity
8
0
100
AcDbLine
62
7
6
CONTINUOUS
10
110.2084617512
20
238.4398565080
11
110.3012124287
21
238.2030463671
0
LINE
5
338
100
AcDbEntity
8
0
100
AcDbLine
62
7
6
CONTINUOUS
10
123.5188218236
20
197.9486286517
11
123.5188218236
21
199.9932410600
0
LINE
5
339
100
AcDbEntity
8
0
100
AcDbLine
62
7
6
CONTINUOUS
10
93.4333363993
20
225.2583361691
11
93.7269928866
21
225.2694813032
0
LINE
5
33A
100
AcDbEntity
8
0
100
AcDbLine
62
7
6
CONTINUOUS
10
92.6485899550
20
227.0851866612
11
92.4854204986
21
227.1091831432
0
LINE
5
33B
100
AcDbEntity
8
0
100
AcDbLine
62
7
6
CONTINUOUS
10
94.3249912369
20
231.5790734299
11
94.7166955204
21
231.4128048262
0
LINE
5
33C
100
AcDbEntity
8
0
100
AcDbLine
62
7
6
CONTINUOUS
10
94.4716370374
20
231.7884160751
11
96.3811950247
21
230.9778567993
0
LINE
5
33D
100
AcDbEntity
8
0
100
AcDbLine
62
7
6
CONTINUOUS
10
96.4788778068
20
231.2079830127
11
94.1776156732
21
232.1848108339
0
LINE
5
33E
100
AcDbEntity
8
0
100
AcDbLine
62
7
6
CONTINUOUS
10
95.2381567430
20
232.0967576387
11
95.6788239076
21
231.9097055250
0
LINE
5
33F
100
AcDbEntity
8
0
100
AcDbLine
62
7
6
CONTINUOUS
10
95.7112634562
20
232.1222615229
11
95.3685223282
21
232.2677465002
0
LINE
5
340
100
AcDbEntity
8
0
100
AcDbLine
62
7
6
CONTINUOUS
10
95.7918142598
20
233.2649597988
11
96.1345553878
21
233.1194748215
0
LINE
5
341
100
AcDbEntity
8
0
100
AcDbLine
62
7
6
CONTINUOUS
10
96.2649206003
20
233.2904628052
11
95.8242534358
21
233.4775149189
0
LINE
5
342
100
AcDbEntity
8
0
100
AcDbLine
62
7
6
CONTINUOUS
10
101.3551584422
20
235.8617436465
11
101.5122839378
21
235.7362608319
0
LINE
5
343
100
AcDbEntity
8
0
100
AcDbLine
62
7
6
CONTINUOUS
10
101.7028096174
20
235.8462608843
11
101.5456839402
21
235.9717435941
0
LINE
5
344
100
AcDbEntity
8
0
100
AcDbLine
62
7
6
CONTINUOUS
10
102.3812906217
20
236.7244303666
11
102.2007608572
21
236.8904505641
0
LINE
5
345
100
AcDbEntity
8
0
100
AcDbLine
62
7
6
CONTINUOUS
10
102.7372917625
20
236.7678183031
11
102.8392588455
21
236.6645396079
0
LINE
5
346
100
AcDbEntity
8
0
100
AcDbLine
62
7
6
CONTINUOUS
10
103.3722559957
20
238.1613614635
11
103.2702890288
21
238.2646403772
0
LINE
5
347
100
AcDbEntity
8
0
100
AcDbLine
62
7
6
CONTINUOUS
10
105.2926872478
20
238.1350769624
11
105.4180584180
21
237.9912607794
0
LINE
5
348
100
AcDbEntity
8
0
100
AcDbLine
62
7
6
CONTINUOUS
10
109.6983332236
20
240.0975274528
11
109.5592072736
21
240.3343375523
0
LINE
5
349
100
AcDbEntity
8
0
100
AcDbLine
62
7
6
CONTINUOUS
10
110.5794643287
20
238.3214514583
11
110.4867135185
21
238.4990590329
0
LINE
5
34A
100
AcDbEntity
8
0
100
AcDbLine
62
7
6
CONTINUOUS
10
114.0112376736
20
239.9199198783
11
113.9184868634
21
240.1567299777
0
LINE
5
34B
100
AcDbEntity
8
0
100
AcDbLine
62
7
6
CONTINUOUS
10
91.7853605290
20
225.4599452076
11
91.5406670648
21
225.4280163737
0
LINE
5
34C
100
AcDbEntity
8
0
100
AcDbLine
62
7
6
CONTINUOUS
10
93.4485221339
20
226.5193106043
11
93.6279721536
21
226.5336685353
0
LINE
5
34D
100
AcDbEntity
8
0
100
AcDbLine
62
7
6
CONTINUOUS
10
93.6766919175
20
226.7845783168
11
93.4482788794
21
226.7910039540
0
LINE
5
34E
100
AcDbEntity
8
0
100
AcDbLine
62
7
6
CONTINUOUS
10
92.4367007347
20
226.8582733616
11
92.5509071729
21
226.8550604478
0
LINE
5
34F
100
AcDbEntity
8
0
100
AcDbLine
62
7
6
CONTINUOUS
10
93.6578570453
20
229.5990041343
11
95.6974155499
21
229.3669733058
0
LINE
5
350
100
AcDbEntity
8
0
100
AcDbLine
62
7
6
CONTINUOUS
10
95.5177222168
20
229.6243084906
11
93.2170682536
21
229.9219029229
0
LINE
5
351
100
AcDbEntity
8
0
100
AcDbLine
62
7
6
CONTINUOUS
10
95.6788239076
20
231.9097055250
11
95.9399196555
21
231.8441423165
0
LINE
5
352
100
AcDbEntity
8
0
100
AcDbLine
62
7
6
CONTINUOUS
10
96.0213218497
20
232.0359138683
11
95.7112634562
21
232.1222615229
0
LINE
5
353
100
AcDbEntity
8
0
100
AcDbLine
62
7
6
CONTINUOUS
10
95.4817555622
20
233.3513065464
11
95.7918142598
21
233.2649597988
0
LINE
5
354
100
AcDbEntity
8
0
100
AcDbLine
62
7
6
CONTINUOUS
10
101.5122839378
20
235.7362608319
11
101.7011638413
21
235.6291114522
0
LINE
5
355
100
AcDbEntity
8
0
100
AcDbLine
62
7
6
CONTINUOUS
10
100.2151752281
20
236.6629190199
11
100.3488965456
21
236.5779736406
0
LINE
5
356
100
AcDbEntity
8
0
100
AcDbLine
62
7
6
CONTINUOUS
10
102.0102352684
20
236.7804505641
11
102.1439564950
21
236.6955051323
0
LINE
5
357
100
AcDbEntity
8
0
100
AcDbLine
62
7
6
CONTINUOUS
10
102.8392588455
20
236.6645396079
11
102.9963843411
21
236.5390567932
0
LINE
5
358
100
AcDbEntity
8
0
100
AcDbLine
62
7
6
CONTINUOUS
10
103.2702890288
20
238.2646403772
11
103.1131633680
21
238.3901230586
0
LINE
5
359
100
AcDbEntity
8
0
100
AcDbLine
62
7
6
CONTINUOUS
10
105.6671553292
20
237.4864792195
11
105.8710895198
21
237.2799217866
0
LINE
5
35A
100
AcDbEntity
8
0
100
AcDbLine
62
7
6
CONTINUOUS
10
105.9278936839
20
237.4748671418
11
105.8259267744
21
237.5781459561
0
LINE
5
35B
100
AcDbEntity
8
0
100
AcDbLine
62
7
6
CONTINUOUS
10
105.5300213417
20
238.1640022534
11
105.4280544404
21
238.2672810535
0
LINE
5
35C
100
AcDbEntity
8
0
100
AcDbLine
62
7
6
CONTINUOUS
10
110.3012124287
20
238.2030463671
11
110.4867135185
21
237.9662362470
0
LINE
5
35D
100
AcDbEntity
8
0
100
AcDbLine
62
7
6
CONTINUOUS
10
109.3273306461
20
240.2159325025
11
109.4200813236
21
240.0975274528
0
LINE
5
35E
100
AcDbEntity
8
0
100
AcDbLine
62
7
6
CONTINUOUS
10
113.6402349634
20
240.0383249280
11
113.7329857736
21
239.8607171875
0
LINE
5
35F
100
AcDbEntity
8
0
100
AcDbLine
62
7
6
CONTINUOUS
10
93.6777865968
20
225.5619582284
11
93.4820561166
21
225.5092458409
0
LINE
5
360
100
AcDbEntity
8
0
100
AcDbLine
62
7
6
CONTINUOUS
10
91.5571907674
20
225.1946773562
11
91.6876777469
21
225.2298189942
0
LINE
5
361
100
AcDbEntity
8
0
100
AcDbLine
62
7
6
CONTINUOUS
10
92.5518803278
20
225.7682869907
11
92.8128542868
21
225.8385702667
0
LINE
5
362
100
AcDbEntity
8
0
100
AcDbLine
62
7
6
CONTINUOUS
10
93.4482788794
20
226.7910039540
11
93.1873049205
21
226.7207206781
0
LINE
5
363
100
AcDbEntity
8
0
100
AcDbLine
62
7
6
CONTINUOUS
10
92.4854204986
20
227.1091831432
11
92.2407270344
21
227.0772543092
0
LINE
5
364
100
AcDbEntity
8
0
100
AcDbLine
62
7
6
CONTINUOUS
10
95.9399196555
20
231.8441423165
11
96.1030892982
21
231.8201462734
0
LINE
5
365
100
AcDbEntity
8
0
100
AcDbLine
62
7
6
CONTINUOUS
10
95.8242534358
20
233.4775149189
11
95.5631581291
21
233.5430789762
0
LINE
5
366
100
AcDbEntity
8
0
100
AcDbLine
62
7
6
CONTINUOUS
10
102.2007608572
20
236.8904505641
11
102.0118810527
21
236.9975999821
0
LINE
5
367
100
AcDbEntity
8
0
100
AcDbLine
62
7
6
CONTINUOUS
10
103.1635058591
20
236.6895942526
11
102.8960632077
21
236.8594850397
0
LINE
5
368
100
AcDbEntity
8
0
100
AcDbLine
62
7
6
CONTINUOUS
10
102.9460420317
20
238.2395857041
11
103.2134845505
21
238.0696947269
0
LINE
5
369
100
AcDbEntity
8
0
100
AcDbLine
62
7
6
CONTINUOUS
10
106.0616151086
20
237.3899217866
11
105.9278936839
21
237.4748671418
0
LINE
5
36A
100
AcDbEntity
8
0
100
AcDbLine
62
7
6
CONTINUOUS
10
105.4180584180
20
237.9912607794
11
105.4966214301
21
237.9285195436
0
LINE
5
36B
100
AcDbEntity
8
0
100
AcDbLine
62
7
6
CONTINUOUS
10
105.6085840068
20
238.1012607794
11
105.5300213417
21
238.1640022534
0
LINE
5
36C
100
AcDbEntity
8
0
100
AcDbLine
62
7
6
CONTINUOUS
10
105.8223928294
20
239.1975999821
11
105.7438298172
21
239.2603412179
0
LINE
5
36D
100
AcDbEntity
8
0
100
AcDbLine
62
7
6
CONTINUOUS
10
133.9732287943
20
219.1832617870
11
127.7299103099
21
204.1105576276
0
LINE
5
36E
100
AcDbEntity
8
0
100
AcDbLine
62
7
6
CONTINUOUS
10
92.3062137087
20
226.8231316139
11
92.4367007347
21
226.8582733616
0
LINE
5
36F
100
AcDbEntity
8
0
100
AcDbLine
62
7
6
CONTINUOUS
10
96.3802219727
20
232.0646302128
11
96.0213218497
21
232.0359138683
0
LINE
5
370
100
AcDbEntity
8
0
100
AcDbLine
62
7
6
CONTINUOUS
10
96.1030892982
20
231.8201462734
11
96.3315022088
21
231.8137204313
0
LINE
5
371
100
AcDbEntity
8
0
100
AcDbLine
62
7
6
CONTINUOUS
10
95.3999883492
20
233.5670750774
11
95.1715754729
21
233.5735009050
0
LINE
5
372
100
AcDbEntity
8
0
100
AcDbLine
62
7
6
CONTINUOUS
10
95.5631581291
20
233.5430789762
11
95.3999883492
21
233.5670750774
0
LINE
5
373
100
AcDbEntity
8
0
100
AcDbLine
62
7
6
CONTINUOUS
10
100.4140508898
20
236.8317897427
11
100.1934167599
21
236.9206057924
0
LINE
5
374
100
AcDbEntity
8
0
100
AcDbLine
62
7
6
CONTINUOUS
10
102.9963843411
20
236.5390567932
11
103.1618599013
21
236.4724447156
0
LINE
5
375
100
AcDbEntity
8
0
100
AcDbLine
62
7
6
CONTINUOUS
10
105.3195040714
20
237.5019619151
11
104.3985092357
21
237.9971717640
0
LINE
5
376
100
AcDbEntity
8
0
100
AcDbLine
62
7
6
CONTINUOUS
10
104.3734592316
20
237.8205596438
11
105.1289784825
21
237.3919619151
0
LINE
5
377
100
AcDbEntity
8
0
100
AcDbLine
62
7
6
CONTINUOUS
10
105.8056930471
20
239.0798587463
11
105.9394140920
21
238.9949132096
0
LINE
5
378
100
AcDbEntity
8
0
100
AcDbLine
62
7
6
CONTINUOUS
10
110.7185902787
20
238.2030463671
11
110.5794643287
21
238.3214514583
0
LINE
5
379
100
AcDbEntity
8
0
100
AcDbLine
62
7
6
CONTINUOUS
10
109.5592072736
20
240.3343375523
11
109.3737060512
21
240.5119451268
0
LINE
5
37A
100
AcDbEntity
8
0
100
AcDbLine
62
7
6
CONTINUOUS
10
113.9184868634
20
240.1567299777
11
113.7329857736
21
240.3935400771
0
LINE
5
37B
100
AcDbEntity
8
0
100
AcDbLine
62
7
6
CONTINUOUS
10
96.3315022088
20
231.8137204313
11
96.5272326719
21
231.8664328261
0
LINE
5
37C
100
AcDbEntity
8
0
100
AcDbLine
62
7
6
CONTINUOUS
10
95.1228557090
20
233.3225911235
11
95.4817555622
21
233.3513065464
0
LINE
5
37D
100
AcDbEntity
8
0
100
AcDbLine
62
7
6
CONTINUOUS
10
101.7011638413
20
235.6291114522
11
101.9301478685
21
235.5991660097
0
LINE
5
37E
100
AcDbEntity
8
0
100
AcDbLine
62
7
6
CONTINUOUS
10
103.1618599013
20
236.4724447156
11
103.3908439285
21
236.4424992731
0
LINE
5
37F
100
AcDbEntity
8
0
100
AcDbLine
62
7
6
CONTINUOUS
10
102.0118810527
20
236.9975999821
11
101.7828970317
21
237.0275454139
0
LINE
5
380
100
AcDbEntity
8
0
100
AcDbLine
62
7
6
CONTINUOUS
10
101.8448809169
20
235.8201861753
11
101.7028096174
21
235.8462608843
0
LINE
5
381
100
AcDbEntity
8
0
100
AcDbLine
62
7
6
CONTINUOUS
10
100.0731039286
20
236.6889937289
11
100.2151752281
21
236.6629190199
0
LINE
5
382
100
AcDbEntity
8
0
100
AcDbLine
62
7
6
CONTINUOUS
10
101.8681639689
20
236.8065252731
11
102.0102352684
21
236.7804505641
0
LINE
5
383
100
AcDbEntity
8
0
100
AcDbLine
62
7
6
CONTINUOUS
10
103.3055771585
20
236.6635195436
11
103.1635058591
21
236.6895942526
0
LINE
5
384
100
AcDbEntity
8
0
100
AcDbLine
62
7
6
CONTINUOUS
10
106.0365650718
20
237.2133097231
11
106.1786363712
21
237.1872350141
0
LINE
5
385
100
AcDbEntity
8
0
100
AcDbLine
62
7
6
CONTINUOUS
10
105.8710895198
20
237.2799217866
11
106.0365650718
21
237.2133097231
0
LINE
5
386
100
AcDbEntity
8
0
100
AcDbLine
62
7
6
CONTINUOUS
10
103.1131633680
20
238.3901230586
11
102.9476878160
21
238.4567351220
0
LINE
5
387
100
AcDbEntity
8
0
100
AcDbLine
62
7
6
CONTINUOUS
10
105.4966214301
20
237.9285195436
11
105.6620969903
21
237.8619074660
0
LINE
5
388
100
AcDbEntity
8
0
100
AcDbLine
62
7
6
CONTINUOUS
10
105.7438298172
20
239.2603412179
11
105.6335130248
21
239.3047494001
0
LINE
5
389
100
AcDbEntity
8
0
100
AcDbLine
62
7
6
CONTINUOUS
10
110.4867135185
20
237.9662362470
11
110.6722148736
21
237.8478311817
0
LINE
5
38A
100
AcDbEntity
8
0
100
AcDbLine
62
7
6
CONTINUOUS
10
113.5011090134
20
240.1567299777
11
113.6402349634
21
240.0383249280
0
LINE
5
38B
100
AcDbEntity
8
0
100
AcDbLine
62
7
6
CONTINUOUS
10
116.0188218236
20
184.0486286517
11
114.9188218236
21
182.9486286517
0
LINE
5
38C
100
AcDbEntity
8
0
100
AcDbLine
62
7
6
CONTINUOUS
10
101.9301478685
20
235.5991660097
11
102.1123233866
21
235.6502952834
0
LINE
5
38D
100
AcDbEntity
8
0
100
AcDbLine
62
7
6
CONTINUOUS
10
103.4877524928
20
236.7146487159
11
103.3055771585
21
236.6635195436
0
LINE
5
38E
100
AcDbEntity
8
0
100
AcDbLine
62
7
6
CONTINUOUS
10
95.1715754729
20
233.5735009050
11
94.9758450270
21
233.5207885029
0
LINE
5
38F
100
AcDbEntity
8
0
100
AcDbLine
62
7
6
CONTINUOUS
10
113.3156079236
20
237.7886286517
11
113.5474846839
21
237.8478311817
0
LINE
5
390
100
AcDbEntity
8
0
100
AcDbLine
62
7
6
CONTINUOUS
10
111.0895927236
20
237.7886286517
11
111.3214692185
21
237.8478311817
0
LINE
5
391
100
AcDbEntity
8
0
100
AcDbLine
62
7
6
CONTINUOUS
10
101.9953021075
20
235.8529820842
11
101.8448809169
21
235.8201861753
0
LINE
5
392
100
AcDbEntity
8
0
100
AcDbLine
62
7
6
CONTINUOUS
10
106.1786363712
20
237.1872350141
11
106.3290575618
21
237.2200309230
0
LINE
5
393
100
AcDbEntity
8
0
100
AcDbLine
62
7
6
CONTINUOUS
10
101.7177425966
20
236.7737292593
11
101.8681639689
21
236.8065252731
0
LINE
5
394
100
AcDbEntity
8
0
100
AcDbLine
62
7
6
CONTINUOUS
10
105.8041682959
20
237.8358327463
11
105.9545894886
21
237.8686286517
0
LINE
5
395
100
AcDbEntity
8
0
100
AcDbLine
62
7
6
CONTINUOUS
10
108.0288218236
20
237.7886286517
11
108.3070737236
21
237.7886286517
0
LINE
5
396
100
AcDbEntity
8
0
100
AcDbLine
62
7
6
CONTINUOUS
10
109.4664565961
20
237.7886286517
11
109.7910839012
21
237.7886286517
0
LINE
5
397
100
AcDbEntity
8
0
100
AcDbLine
62
7
6
CONTINUOUS
10
110.9040913685
20
237.7886286517
11
111.0895927236
21
237.7886286517
0
LINE
5
398
100
AcDbEntity
8
0
100
AcDbLine
62
7
6
CONTINUOUS
10
112.2026003236
20
237.7886286517
11
113.3156079236
21
237.7886286517
0
LINE
5
399
100
AcDbEntity
8
0
100
AcDbLine
62
7
6
CONTINUOUS
10
113.3156079236
20
238.1438438423
11
112.4808522236
21
238.1438438423
0
LINE
5
39A
100
AcDbEntity
8
0
100
AcDbLine
62
7
6
CONTINUOUS
10
111.0895927236
20
238.1438438423
11
110.9040913685
21
238.1438438423
0
LINE
5
39B
100
AcDbEntity
8
0
100
AcDbLine
62
7
6
CONTINUOUS
10
100.1934167599
20
236.9206057924
11
100.0195912259
21
236.9283471855
0
LINE
5
39C
100
AcDbEntity
8
0
100
AcDbLine
62
7
6
CONTINUOUS
10
106.2354405517
20
237.3821803410
11
106.0616151086
21
237.3899217866
0
LINE
5
39D
100
AcDbEntity
8
0
100
AcDbLine
62
7
6
CONTINUOUS
10
102.9476878160
20
238.4567351220
11
102.7187036132
21
238.4866804489
0
LINE
5
39E
100
AcDbEntity
8
0
100
AcDbLine
62
7
6
CONTINUOUS
10
102.8039707322
20
238.2656604130
11
102.9460420317
21
238.2395857041
0
LINE
5
39F
100
AcDbEntity
8
0
100
AcDbLine
62
7
6
CONTINUOUS
10
105.6620969903
20
237.8619074660
11
105.8041682959
21
237.8358327463
0
LINE
5
3A0
100
AcDbEntity
8
0
100
AcDbLine
62
7
6
CONTINUOUS
10
105.7506553063
20
238.0751860704
11
105.6085840068
21
238.1012607794
0
LINE
5
3A1
100
AcDbEntity
8
0
100
AcDbLine
62
7
6
CONTINUOUS
10
105.6636213842
20
239.1059332455
11
105.8056930471
21
239.0798587463
0
LINE
5
3A2
100
AcDbEntity
8
0
100
AcDbLine
62
7
6
CONTINUOUS
10
110.6722148736
20
237.8478311817
11
110.9040913685
21
237.7886286517
0
LINE
5
3A3
100
AcDbEntity
8
0
100
AcDbLine
62
7
6
CONTINUOUS
10
110.9040913685
20
238.1438438423
11
110.7185902787
21
238.2030463671
0
LINE
5
3A4
100
AcDbEntity
8
0
100
AcDbLine
62
7
6
CONTINUOUS
10
109.1882046961
20
240.2751350274
11
109.3273306461
21
240.2159325025
0
LINE
5
3A5
100
AcDbEntity
8
0
100
AcDbLine
62
7
6
CONTINUOUS
10
113.7329857736
20
240.3935400771
11
113.5474846839
21
240.5119451268
0
LINE
5
3A6
100
AcDbEntity
8
0
100
AcDbLine
62
7
6
CONTINUOUS
10
127.7912347509
20
235.6386493787
11
133.9732287943
21
220.7139955164
0
LINE
5
3A7
100
AcDbEntity
8
0
100
AcDbLine
62
7
6
CONTINUOUS
10
101.7828970317
20
237.0275454139
11
101.6007213340
21
236.9764160318
0
LINE
5
3A8
100
AcDbEntity
8
0
100
AcDbLine
62
7
6
CONTINUOUS
10
99.8909283672
20
236.6378644255
11
100.0731039286
21
236.6889937289
0
LINE
5
3A9
100
AcDbEntity
8
0
100
AcDbLine
62
7
6
CONTINUOUS
10
102.6217950345
20
238.2145310309
11
102.8039707322
21
238.2656604130
0
LINE
5
3AA
100
AcDbEntity
8
0
100
AcDbLine
62
7
6
CONTINUOUS
10
105.9010768603
20
238.1079821891
11
105.7506553063
21
238.0751860704
0
LINE
5
3AB
100
AcDbEntity
8
0
100
AcDbLine
62
7
6
CONTINUOUS
10
105.5132001936
20
239.0731373366
11
105.6636213842
21
239.1059332455
0
LINE
5
3AC
100
AcDbEntity
8
0
100
AcDbLine
62
7
6
CONTINUOUS
10
105.5466001216
20
239.3086200179
11
105.3961789309
21
239.2758241090
0
LINE
5
3AD
100
AcDbEntity
8
0
100
AcDbLine
62
7
6
CONTINUOUS
10
108.3070737236
20
239.0318818395
11
109.0954540848
21
239.0318818395
0
LINE
5
3AE
100
AcDbEntity
8
0
100
AcDbLine
62
7
6
CONTINUOUS
10
109.1882046961
20
239.3870969887
11
108.3070737236
21
239.3870969887
0
LINE
5
3AF
100
AcDbEntity
8
0
100
AcDbLine
62
7
6
CONTINUOUS
10
112.4808522236
20
240.2159325025
11
113.3156079236
21
240.2159325025
0
LINE
5
3B0
100
AcDbEntity
8
0
100
AcDbLine
62
7
6
CONTINUOUS
10
108.3070737236
20
240.2751350274
11
109.1882046961
21
240.2751350274
0
LINE
5
3B1
100
AcDbEntity
8
0
100
AcDbLine
62
7
6
CONTINUOUS
10
113.3156079236
20
240.5711476517
11
112.2026003236
21
240.5711476517
0
LINE
5
3B2
100
AcDbEntity
8
0
100
AcDbLine
62
7
6
CONTINUOUS
10
111.8315978787
20
240.5711476517
11
111.5533459787
21
240.5711476517
0
LINE
5
3B3
100
AcDbEntity
8
0
100
AcDbLine
62
7
6
CONTINUOUS
10
110.4403383787
20
240.5711476517
11
110.1620863461
21
240.5711476517
0
LINE
5
3B4
100
AcDbEntity
8
0
100
AcDbLine
62
7
6
CONTINUOUS
10
109.1418294236
20
240.5711476517
11
108.0288218236
21
240.5711476517
0
LINE
5
3B5
100
AcDbEntity
8
0
100
AcDbLine
62
7
6
CONTINUOUS
10
105.6335130248
20
239.3047494001
11
105.5466001216
21
239.3086200179
0
LINE
5
3B6
100
AcDbEntity
8
0
100
AcDbLine
62
7
6
CONTINUOUS
10
109.3737060512
20
240.5119451268
11
109.1418294236
21
240.5711476517
0
LINE
5
3B7
100
AcDbEntity
8
0
100
AcDbLine
62
7
6
CONTINUOUS
10
113.5474846839
20
240.5119451268
11
113.3156079236
21
240.5711476517
0
LINE
5
3B8
100
AcDbEntity
8
0
100
AcDbLine
62
7
6
CONTINUOUS
10
113.3156079236
20
240.2159325025
11
113.5011090134
21
240.1567299777
0
LINE
5
3B9
100
AcDbEntity
8
0
100
AcDbLine
62
7
6
CONTINUOUS
10
111.7841886884
20
242.9030356224
11
126.7088425506
21
236.7210415789
0
LINE
5
3BA
100
AcDbEntity
8
0
100
AcDbLine
62
7
6
CONTINUOUS
10
291.4771305097
20
182.9486286517
11
299.2771305097
21
182.9486286517
0
LINE
5
3BB
100
AcDbEntity
8
0
100
AcDbLine
62
7
6
CONTINUOUS
10
290.3771305097
20
184.0486286517
11
300.3771305097
21
184.0486286517
0
LINE
5
3BC
100
AcDbEntity
8
0
100
AcDbLine
62
7
6
CONTINUOUS
10
290.3771305097
20
184.0486286517
11
291.4771305097
21
182.9486286517
0
LINE
5
3BD
100
AcDbEntity
8
0
100
AcDbLine
62
7
6
CONTINUOUS
10
290.3771305097
20
194.2486286517
11
300.3771305097
21
194.2486286517
0
LINE
5
3BE
100
AcDbEntity
8
0
100
AcDbLine
62
7
6
CONTINUOUS
10
291.5271305097
20
195.3986286517
11
299.2271305097
21
195.3986286517
0
LINE
5
3BF
100
AcDbEntity
8
0
100
AcDbLine
62
7
6
CONTINUOUS
10
282.8773489923
20
197.9486286517
11
307.8769120271
21
197.9486286517
0
LINE
5
3C0
100
AcDbEntity
8
0
100
AcDbLine
62
7
6
CONTINUOUS
10
282.8771305097
20
197.9486286517
11
282.8771305097
21
203.9670961408
0
LINE
5
3C1
100
AcDbEntity
8
0
100
AcDbLine
62
7
6
CONTINUOUS
10
300.7818288813
20
203.4932410600
11
297.9779435879
21
203.4932410600
0
LINE
5
3C2
100
AcDbEntity
8
0
100
AcDbLine
62
7
6
CONTINUOUS
10
292.7763563543
20
203.4932410600
11
289.9724321381
21
203.4932410600
0
LINE
5
3C3
100
AcDbEntity
8
0
100
AcDbLine
62
7
6
CONTINUOUS
10
299.2271305097
20
195.3986286517
11
300.3771305097
21
194.2486286517
0
LINE
5
3C4
100
AcDbEntity
8
0
100
AcDbLine
62
7
6
CONTINUOUS
10
290.3771305097
20
242.0552765495
11
290.3771305097
21
220.4028677013
0
LINE
5
3C5
100
AcDbEntity
8
0
100
AcDbLine
62
7
6
CONTINUOUS
10
290.3771305097
20
194.2486286517
11
290.3771305097
21
184.0486286517
0
LINE
5
3C6
100
AcDbEntity
8
0
100
AcDbLine
62
7
6
CONTINUOUS
10
290.3369812582
20
219.5081809886
11
288.8237120824
21
202.9072271090
0
LINE
5
3C7
100
AcDbEntity
8
0
100
AcDbLine
62
7
6
CONTINUOUS
10
284.1424788121
20
205.4486286517
11
288.4100821776
21
206.1245506222
0
LINE
5
3C8
100
AcDbEntity
8
0
100
AcDbLine
62
7
6
CONTINUOUS
10
306.6117822073
20
205.4486286517
11
302.3332529181
21
206.1262811186
0
LINE
5
3C9
100
AcDbEntity
8
0
100
AcDbLine
62
7
6
CONTINUOUS
10
291.5271305097
20
197.9486286517
11
291.5271305097
21
195.3986286517
0
LINE
5
3CA
100
AcDbEntity
8
DEFAULT_1
100
AcDbLine
62
2
6
CENTER
10
295.3771305097
20
244.4815582661
11
295.3771305097
21
183.9163998892
0
LINE
5
3CB
100
AcDbEntity
8
0
100
AcDbLine
62
7
6
CONTINUOUS
10
299.2271305097
20
197.9486286517
11
299.2271305097
21
195.3986286517
0
LINE
5
3CC
100
AcDbEntity
8
0
100
AcDbLine
62
7
6
CONTINUOUS
10
301.9305489369
20
202.9072271102
11
300.4172797612
21
219.5081809886
0
LINE
5
3CD
100
AcDbEntity
8
0
100
AcDbLine
62
7
6
CONTINUOUS
10
300.3771305097
20
194.2486286517
11
300.3771305097
21
184.0486286517
0
LINE
5
3CE
100
AcDbEntity
8
0
100
AcDbLine
62
7
6
CONTINUOUS
10
300.3771634993
20
220.3938398035
11
300.3771305097
21
242.0552765495
0
LINE
5
3CF
100
AcDbEntity
8
0
100
AcDbLine
62
7
6
CONTINUOUS
10
300.6771305097
20
240.5711476517
11
300.6771305097
21
234.5686286517
0
LINE
5
3D0
100
AcDbEntity
8
0
100
AcDbLine
62
7
6
CONTINUOUS
10
300.6771305097
20
233.5735009050
11
300.6771305097
21
228.5998857816
0
LINE
5
3D1
100
AcDbEntity
8
0
100
AcDbLine
62
7
6
CONTINUOUS
10
300.6771305097
20
227.1091831432
11
300.6771305097
21
223.2686286517
0
LINE
5
3D2
100
AcDbEntity
8
0
100
AcDbLine
62
7
6
CONTINUOUS
10
291.5271305097
20
195.3986286517
11
290.3771305097
21
194.2486286517
0
LINE
5
3D3
100
AcDbEntity
8
0
100
AcDbLine
62
7
6
CONTINUOUS
10
300.3771305097
20
223.2686286517
11
300.6771305097
21
223.2686286517
0
LINE
5
3D4
100
AcDbEntity
8
0
100
AcDbLine
62
7
6
CONTINUOUS
10
307.8771305097
20
197.9486286517
11
307.8771305097
21
203.9670961408
0
LINE
5
3D5
100
AcDbEntity
8
0
100
AcDbLine
62
7
6
CONTINUOUS
10
300.3771305097
20
228.5998857816
11
300.6771305097
21
228.5998857816
0
LINE
5
3D6
100
AcDbEntity
8
0
100
AcDbLine
62
7
6
CONTINUOUS
10
300.3771305097
20
231.5790734299
11
300.6771305097
21
231.5790734299
0
LINE
5
3D7
100
AcDbEntity
8
0
100
AcDbLine
62
7
6
CONTINUOUS
10
300.3771305097
20
231.9546846206
11
300.6771305097
21
231.9546846206
0
LINE
5
3D8
100
AcDbEntity
8
0
100
AcDbLine
62
7
6
CONTINUOUS
10
300.3771305097
20
232.1848108339
11
300.6771305097
21
232.1848108339
0
LINE
5
3D9
100
AcDbEntity
8
0
100
AcDbLine
62
7
6
CONTINUOUS
10
300.3771305097
20
232.2390301411
11
300.6771305097
21
232.2390301411
0
LINE
5
3DA
100
AcDbEntity
8
0
100
AcDbLine
62
7
6
CONTINUOUS
10
300.3771305097
20
232.3397355654
11
300.6771305097
21
232.3397355654
0
LINE
5
3DB
100
AcDbEntity
8
0
100
AcDbLine
62
7
6
CONTINUOUS
10
300.3771305097
20
232.4995782834
11
300.6771305097
21
232.4995782834
0
LINE
5
3DC
100
AcDbEntity
8
0
100
AcDbLine
62
7
6
CONTINUOUS
10
300.3771305097
20
232.6769920946
11
300.6771305097
21
232.6769920946
0
LINE
5
3DD
100
AcDbEntity
8
0
100
AcDbLine
62
7
6
CONTINUOUS
10
300.3771305097
20
232.9311143510
11
300.6771305097
21
232.9311143510
0
LINE
5
3DE
100
AcDbEntity
8
0
100
AcDbLine
62
7
6
CONTINUOUS
10
300.3771305097
20
233.1820241326
11
300.6771305097
21
233.1820241326
0
LINE
5
3DF
100
AcDbEntity
8
0
100
AcDbLine
62
7
6
CONTINUOUS
10
300.3771305097
20
233.3913667777
11
300.6771305097
21
233.3913667777
0
LINE
5
3E0
100
AcDbEntity
8
0
100
AcDbLine
62
7
6
CONTINUOUS
10
300.3771305097
20
233.5207885029
11
300.6771305097
21
233.5207885029
0
LINE
5
3E1
100
AcDbEntity
8
0
100
AcDbLine
62
7
6
CONTINUOUS
10
300.3771305097
20
233.5735009050
11
300.6771305097
21
233.5735009050
0
LINE
5
3E2
100
AcDbEntity
8
0
100
AcDbLine
62
7
6
CONTINUOUS
10
300.3771305097
20
234.5686286517
11
300.6771305097
21
234.5686286517
0
LINE
5
3E3
100
AcDbEntity
8
0
100
AcDbLine
62
7
6
CONTINUOUS
10
300.3771305097
20
234.7713154525
11
300.6771305097
21
234.7713154525
0
LINE
5
3E4
100
AcDbEntity
8
0
100
AcDbLine
62
7
6
CONTINUOUS
10
300.3771305097
20
184.0486286517
11
299.2771305097
21
182.9486286517
0
LINE
5
3E5
100
AcDbEntity
8
0
100
AcDbLine
62
7
6
CONTINUOUS
10
300.3771305097
20
236.0463069745
11
300.6771305097
21
236.0463069745
0
LINE
5
3E6
100
AcDbEntity
8
0
100
AcDbLine
62
7
6
CONTINUOUS
10
300.3771305097
20
236.2267897263
11
300.6771305097
21
236.2267897263
0
LINE
5
3E7
100
AcDbEntity
8
0
100
AcDbLine
62
7
6
CONTINUOUS
10
300.3771305097
20
236.4622724765
11
300.6771305097
21
236.4622724765
0
LINE
5
3E8
100
AcDbEntity
8
0
100
AcDbLine
62
7
6
CONTINUOUS
10
300.3771305097
20
236.6166805145
11
300.6771305097
21
236.6166805145
0
LINE
5
3E9
100
AcDbEntity
8
0
100
AcDbLine
62
7
6
CONTINUOUS
10
300.3771305097
20
236.7855511979
11
300.6771305097
21
236.7855511979
0
LINE
5
3EA
100
AcDbEntity
8
0
100
AcDbLine
62
7
6
CONTINUOUS
10
300.3771305097
20
236.8588845400
11
300.6771305097
21
236.8588845400
0
LINE
5
3EB
100
AcDbEntity
8
0
100
AcDbLine
62
7
6
CONTINUOUS
10
300.3771305097
20
236.9283471855
11
300.6771305097
21
236.9283471855
0
LINE
5
3EC
100
AcDbEntity
8
0
100
AcDbLine
62
7
6
CONTINUOUS
10
300.3771305097
20
237.2805512242
11
300.6771305097
21
237.2805512242
0
LINE
5
3ED
100
AcDbEntity
8
0
100
AcDbLine
62
7
6
CONTINUOUS
10
300.3771305097
20
237.9038845400
11
300.6771305097
21
237.9038845400
0
LINE
5
3EE
100
AcDbEntity
8
0
100
AcDbLine
62
7
6
CONTINUOUS
10
300.3771305097
20
238.0534017537
11
300.6771305097
21
238.0534017537
0
LINE
5
3EF
100
AcDbEntity
8
0
100
AcDbLine
62
7
6
CONTINUOUS
10
300.3771305097
20
238.2666804489
11
300.6771305097
21
238.2666804489
0
LINE
5
3F0
100
AcDbEntity
8
0
100
AcDbLine
62
7
6
CONTINUOUS
10
300.3771305097
20
238.4172178034
11
300.6771305097
21
238.4172178034
0
LINE
5
3F1
100
AcDbEntity
8
0
100
AcDbLine
62
7
6
CONTINUOUS
10
300.3771305097
20
238.4866804489
11
300.6771305097
21
238.4866804489
0
LINE
5
3F2
100
AcDbEntity
8
0
100
AcDbLine
62
7
6
CONTINUOUS
10
300.3771305097
20
239.0519534911
11
300.6771305097
21
239.0519534911
0
LINE
5
3F3
100
AcDbEntity
8
0
100
AcDbLine
62
7
6
CONTINUOUS
10
300.3771305097
20
239.1658241090
11
300.6771305097
21
239.1658241090
0
LINE
5
3F4
100
AcDbEntity
8
0
100
AcDbLine
62
7
6
CONTINUOUS
10
300.3771305097
20
239.2758241090
11
300.6771305097
21
239.2758241090
0
LINE
5
3F5
100
AcDbEntity
8
0
100
AcDbLine
62
7
6
CONTINUOUS
10
300.3771305097
20
239.3086200179
11
300.6771305097
21
239.3086200179
0
LINE
5
3F6
100
AcDbEntity
8
0
100
AcDbLine
62
7
6
CONTINUOUS
10
300.3771305097
20
239.4408241090
11
300.6771305097
21
239.4408241090
0
LINE
5
3F7
100
AcDbEntity
8
0
100
AcDbLine
62
7
6
CONTINUOUS
10
300.3771305097
20
239.5324906358
11
300.6771305097
21
239.5324906358
0
LINE
5
3F8
100
AcDbEntity
8
0
100
AcDbLine
62
7
6
CONTINUOUS
10
300.3771305097
20
240.5711476517
11
300.6771305097
21
240.5711476517
0
LINE
5
3F9
100
AcDbEntity
8
0
100
AcDbLine
62
7
6
CONTINUOUS
10
299.3771305097
20
243.0552765574
11
291.3771305097
21
243.0552765574
0
LINE
5
3FA
100
AcDbEntity
8
0
100
AcDbLine
62
7
6
CONTINUOUS
10
87.9121739179
20
108.6134585796
11
87.9121739179
21
116.6134585796
0
LINE
5
3FB
100
AcDbEntity
8
0
100
AcDbLine
62
7
6
CONTINUOUS
10
90.8075596900
20
107.6134585796
11
90.8075596900
21
107.3134585796
0
LINE
5
3FC
100
AcDbEntity
8
0
100
AcDbLine
62
7
6
CONTINUOUS
10
88.2521979729
20
117.3647453104
11
88.2496159695
21
117.3624691780
0
LINE
5
3FD
100
AcDbEntity
8
0
100
AcDbLine
62
7
6
CONTINUOUS
10
88.2522324646
20
107.8621415506
11
88.2496402579
21
107.8644264962
0
LINE
5
3FE
100
AcDbEntity
8
0
100
AcDbLine
62
7
6
CONTINUOUS
10
94.0799328911
20
107.6134585796
11
94.0799328911
21
107.3134585796
0
LINE
5
3FF
100
AcDbEntity
8
0
100
AcDbLine
62
7
6
CONTINUOUS
10
94.1776156732
20
107.6134585796
11
94.1776156732
21
107.3134585796
0
LINE
5
400
100
AcDbEntity
8
0
100
AcDbLine
62
7
6
CONTINUOUS
10
94.5521878410
20
107.6134585796
11
94.5521878410
21
107.3134585796
0
LINE
5
401
100
AcDbEntity
8
0
100
AcDbLine
62
7
6
CONTINUOUS
10
94.6009076049
20
107.6134585796
11
94.6009076049
21
107.3134585796
0
LINE
5
402
100
AcDbEntity
8
0
100
AcDbLine
62
7
6
CONTINUOUS
10
94.7475534053
20
107.6134585796
11
94.7475534053
21
107.3134585796
0
LINE
5
403
100
AcDbEntity
8
0
100
AcDbLine
62
7
6
CONTINUOUS
10
94.9758450270
20
107.6134585796
11
94.9758450270
21
107.3134585796
0
LINE
5
404
100
AcDbEntity
8
0
100
AcDbLine
62
7
6
CONTINUOUS
10
95.1715754729
20
107.6134585796
11
95.1715754729
21
107.3134585796
0
LINE
5
405
100
AcDbEntity
8
0
100
AcDbLine
62
7
6
CONTINUOUS
10
95.3999883492
20
107.6134585796
11
95.3999883492
21
107.3134585796
0
LINE
5
406
100
AcDbEntity
8
0
100
AcDbLine
62
7
6
CONTINUOUS
10
95.5631581291
20
107.6134585796
11
95.5631581291
21
107.3134585796
0
LINE
5
407
100
AcDbEntity
8
0
100
AcDbLine
62
7
6
CONTINUOUS
10
95.8242534358
20
107.6134585796
11
95.8242534358
21
107.3134585796
0
LINE
5
408
100
AcDbEntity
8
0
100
AcDbLine
62
7
6
CONTINUOUS
10
96.2649206003
20
107.6134585796
11
96.2649206003
21
107.3134585796
0
LINE
5
409
100
AcDbEntity
8
0
100
AcDbLine
62
7
6
CONTINUOUS
10
96.4934555450
20
107.6134585796
11
96.4934555450
21
107.3134585796
0
LINE
5
40A
100
AcDbEntity
8
0
100
AcDbLine
62
7
6
CONTINUOUS
10
96.6240640120
20
107.6134585796
11
96.6240640120
21
107.3134585796
0
LINE
5
40B
100
AcDbEntity
8
0
100
AcDbLine
62
7
6
CONTINUOUS
10
96.7873553163
20
107.6134585796
11
96.7873553163
21
107.3134585796
0
LINE
5
40C
100
AcDbEntity
8
0
100
AcDbLine
62
7
6
CONTINUOUS
10
96.8854029972
20
107.6134585796
11
96.8854029972
21
107.3134585796
0
LINE
5
40D
100
AcDbEntity
8
0
100
AcDbLine
62
7
6
CONTINUOUS
10
96.9508894980
20
107.6134585796
11
96.9508894980
21
107.3134585796
0
LINE
5
40E
100
AcDbEntity
8
0
100
AcDbLine
62
7
6
CONTINUOUS
10
99.3661601228
20
107.6134585796
11
99.3661601228
21
107.3134585796
0
LINE
5
40F
100
AcDbEntity
8
0
100
AcDbLine
62
7
6
CONTINUOUS
10
99.3995601700
20
107.6134585796
11
99.3995601700
21
107.3134585796
0
LINE
5
410
100
AcDbEntity
8
0
100
AcDbLine
62
7
6
CONTINUOUS
10
99.4797687166
20
107.6134585796
11
99.4797687166
21
107.3134585796
0
LINE
5
411
100
AcDbEntity
8
0
100
AcDbLine
62
7
6
CONTINUOUS
10
99.6786443102
20
107.6134585796
11
99.6786443102
21
107.3134585796
0
LINE
5
412
100
AcDbEntity
8
0
100
AcDbLine
62
7
6
CONTINUOUS
10
99.8056613845
20
107.6134585796
11
99.8056613845
21
107.3134585796
0
LINE
5
413
100
AcDbEntity
8
0
100
AcDbLine
62
7
6
CONTINUOUS
10
100.0195912259
20
107.6134585796
11
100.0195912259
21
107.3134585796
0
LINE
5
414
100
AcDbEntity
8
0
100
AcDbLine
62
7
6
CONTINUOUS
10
100.1934167599
20
107.6134585796
11
100.1934167599
21
107.3134585796
0
LINE
5
415
100
AcDbEntity
8
0
100
AcDbLine
62
7
6
CONTINUOUS
10
100.4140508898
20
107.6134585796
11
100.4140508898
21
107.3134585796
0
LINE
5
416
100
AcDbEntity
8
0
100
AcDbLine
62
7
6
CONTINUOUS
10
100.5360095053
20
107.6134585796
11
100.5360095053
21
107.3134585796
0
LINE
5
417
100
AcDbEntity
8
0
100
AcDbLine
62
7
6
CONTINUOUS
10
101.6156544784
20
107.6134585796
11
101.6156544784
21
107.3134585796
0
LINE
5
418
100
AcDbEntity
8
0
100
AcDbLine
62
7
6
CONTINUOUS
10
101.7326757411
20
107.6134585796
11
101.7326757411
21
107.3134585796
0
LINE
5
419
100
AcDbEntity
8
0
100
AcDbLine
62
7
6
CONTINUOUS
10
101.7828970317
20
107.6134585796
11
101.7828970317
21
107.3134585796
0
LINE
5
41A
100
AcDbEntity
8
0
100
AcDbLine
62
7
6
CONTINUOUS
10
102.0118810527
20
107.6134585796
11
102.0118810527
21
107.3134585796
0
LINE
5
41B
100
AcDbEntity
8
0
100
AcDbLine
62
7
6
CONTINUOUS
10
102.2007608572
20
107.6134585796
11
102.2007608572
21
107.3134585796
0
LINE
5
41C
100
AcDbEntity
8
0
100
AcDbLine
62
7
6
CONTINUOUS
10
102.2240438929
20
107.6134585796
11
102.2240438929
21
107.3134585796
0
LINE
5
41D
100
AcDbEntity
8
0
100
AcDbLine
62
7
6
CONTINUOUS
10
102.2490939297
20
107.6134585796
11
102.2490939297
21
107.3134585796
0
LINE
5
41E
100
AcDbEntity
8
0
100
AcDbLine
62
7
6
CONTINUOUS
10
102.3376524356
20
107.6134585796
11
102.3376524356
21
107.3134585796
0
LINE
5
41F
100
AcDbEntity
8
0
100
AcDbLine
62
7
6
CONTINUOUS
10
133.2642753008
20
107.6060906033
11
127.0209568164
21
106.2321298799
0
LINE
5
420
100
AcDbEntity
8
0
100
AcDbLine
62
7
6
CONTINUOUS
10
95.0166868308
20
106.2321298799
11
88.7733683488
21
107.6060906028
0
LINE
5
421
100
AcDbEntity
8
0
100
AcDbLine
62
7
6
CONTINUOUS
10
102.5047737719
20
107.6134585796
11
102.5047737719
21
107.3134585796
0
LINE
5
422
100
AcDbEntity
8
0
100
AcDbLine
62
7
6
CONTINUOUS
10
102.7187036132
20
107.6134585796
11
102.7187036132
21
107.3134585796
0
LINE
5
423
100
AcDbEntity
8
0
100
AcDbLine
62
7
6
CONTINUOUS
10
102.9476878160
20
107.6134585796
11
102.9476878160
21
107.3134585796
0
LINE
5
424
100
AcDbEntity
8
0
100
AcDbLine
62
7
6
CONTINUOUS
10
103.1131633680
20
107.6134585796
11
103.1131633680
21
107.3134585796
0
LINE
5
425
100
AcDbEntity
8
0
100
AcDbLine
62
7
6
CONTINUOUS
10
103.2702890288
20
107.6134585796
11
103.2702890288
21
107.3134585796
0
LINE
5
426
100
AcDbEntity
8
0
100
AcDbLine
62
7
6
CONTINUOUS
10
122.0868064920
20
106.0377961998
11
122.0868775645
21
106.0378040691
0
LINE
5
427
100
AcDbEntity
8
0
100
AcDbLine
62
7
6
CONTINUOUS
10
99.9507647848
20
106.0378041502
11
99.9508358393
21
106.0377962829
0
LINE
5
428
100
AcDbEntity
8
0
100
AcDbLine
62
7
6
CONTINUOUS
10
105.0285363304
20
107.6134585796
11
105.0285363304
21
107.3134585796
0
LINE
5
429
100
AcDbEntity
8
0
100
AcDbLine
62
7
6
CONTINUOUS
10
105.0535863672
20
107.6134585796
11
105.0535863672
21
107.3134585796
0
LINE
5
42A
100
AcDbEntity
8
0
100
AcDbLine
62
7
6
CONTINUOUS
10
105.1020406565
20
107.6134585796
11
105.1020406565
21
107.3134585796
0
LINE
5
42B
100
AcDbEntity
8
0
100
AcDbLine
62
7
6
CONTINUOUS
10
105.2056533421
20
107.6134585796
11
105.2056533421
21
107.3134585796
0
LINE
5
42C
100
AcDbEntity
8
0
100
AcDbLine
62
7
6
CONTINUOUS
10
105.3961789309
20
107.6134585796
11
105.3961789309
21
107.3134585796
0
LINE
5
42D
100
AcDbEntity
8
0
100
AcDbLine
62
7
6
CONTINUOUS
10
105.5466001216
20
107.6134585796
11
105.5466001216
21
107.3134585796
0
LINE
5
42E
100
AcDbEntity
8
0
100
AcDbLine
62
7
6
CONTINUOUS
10
105.6335130248
20
107.6134585796
11
105.6335130248
21
107.3134585796
0
LINE
5
42F
100
AcDbEntity
8
0
100
AcDbLine
62
7
6
CONTINUOUS
10
105.6819673142
20
107.6134585796
11
105.6819673142
21
107.3134585796
0
LINE
5
430
100
AcDbEntity
8
0
100
AcDbLine
62
7
6
CONTINUOUS
10
105.8407383959
20
107.6134585796
11
105.8407383959
21
107.3134585796
0
LINE
5
431
100
AcDbEntity
8
0
100
AcDbLine
62
7
6
CONTINUOUS
10
126.8060307774
20
106.2087602080
11
126.0783448825
21
106.2087602080
0
LINE
5
432
100
AcDbEntity
8
0
100
AcDbLine
62
7
6
CONTINUOUS
10
95.9592987398
20
106.2087602080
11
95.2316128698
21
106.2087602080
0
LINE
5
433
100
AcDbEntity
8
0
100
AcDbLine
62
7
6
CONTINUOUS
10
114.0576128134
20
107.3134585796
11
112.2026003236
21
107.3134585796
0
LINE
5
434
100
AcDbEntity
8
0
100
AcDbLine
62
7
6
CONTINUOUS
10
111.8315978787
20
107.3134585796
11
110.1620863461
21
107.3134585796
0
LINE
5
435
100
AcDbEntity
8
0
100
AcDbLine
62
7
6
CONTINUOUS
10
109.7910839012
20
107.3134585796
11
108.0288218236
21
107.3134585796
0
LINE
5
436
100
AcDbEntity
8
0
100
AcDbLine
62
7
6
CONTINUOUS
10
106.7435090309
20
107.3134585796
11
99.3661601228
21
107.3134585796
0
LINE
5
437
100
AcDbEntity
8
0
100
AcDbLine
62
7
6
CONTINUOUS
10
96.9508894980
20
107.3134585796
11
90.8075596900
21
107.3134585796
0
LINE
5
438
100
AcDbEntity
8
0
100
AcDbLine
62
7
6
CONTINUOUS
10
106.6364830516
20
107.6134585796
11
106.6364830516
21
107.3134585796
0
LINE
5
439
100
AcDbEntity
8
0
100
AcDbLine
62
7
6
CONTINUOUS
10
106.7368045606
20
107.6134585796
11
106.7368045606
21
107.3134585796
0
LINE
5
43A
100
AcDbEntity
8
0
100
AcDbLine
62
7
6
CONTINUOUS
10
106.7435090309
20
107.6134585796
11
106.7435090309
21
107.3134585796
0
LINE
5
43B
100
AcDbEntity
8
0
100
AcDbLine
62
7
6
CONTINUOUS
10
89.0179336925
20
107.6134585796
11
133.0197099547
21
107.6134585796
0
LINE
5
43C
100
AcDbEntity
8
0
100
AcDbLine
62
7
6
CONTINUOUS
10
108.0288218236
20
107.6134585796
11
108.0288218236
21
107.3134585796
0
LINE
5
43D
100
AcDbEntity
8
0
100
AcDbLine
62
7
6
CONTINUOUS
10
109.7910839012
20
107.6134585796
11
109.7910839012
21
107.3134585796
0
LINE
5
43E
100
AcDbEntity
8
0
100
AcDbLine
62
7
6
CONTINUOUS
10
110.1620863461
20
107.6134585796
11
110.1620863461
21
107.3134585796
0
LINE
5
43F
100
AcDbEntity
8
DEFAULT_1
100
AcDbLine
62
2
6
CENTER
10
111.0188218236
20
112.6134585796
11
111.0188218236
21
97.1134585796
0
LINE
5
440
100
AcDbEntity
8
DEFAULT_1
100
AcDbLine
62
2
6
CENTER
10
111.0188218236
20
112.6134585796
11
111.0188218236
21
128.1134585796
0
LINE
5
441
100
AcDbEntity
8
DEFAULT_1
100
AcDbLine
62
2
6
CENTER
10
111.0188218236
20
112.6134585796
11
85.9592121249
21
112.6134585796
0
LINE
5
442
100
AcDbEntity
8
DEFAULT_1
100
AcDbLine
62
2
6
CENTER
10
111.0188218236
20
112.6134585796
11
136.2646988642
21
112.6134585796
0
LINE
5
443
100
AcDbEntity
8
0
100
AcDbLine
62
7
6
CONTINUOUS
10
111.8315978787
20
107.6134585796
11
111.8315978787
21
107.3134585796
0
LINE
5
444
100
AcDbEntity
8
0
100
AcDbLine
62
7
6
CONTINUOUS
10
112.2026003236
20
107.6134585796
11
112.2026003236
21
107.3134585796
0
LINE
5
445
100
AcDbEntity
8
0
100
AcDbLine
62
7
6
CONTINUOUS
10
114.0576128134
20
107.6134585796
11
114.0576128134
21
107.3134585796
0
LINE
5
446
100
AcDbEntity
8
0
100
AcDbLine
62
7
6
CONTINUOUS
10
133.0197099547
20
117.6134585796
11
89.0179336925
21
117.6134585796
0
LINE
5
447
100
AcDbEntity
8
0
100
AcDbLine
62
7
6
CONTINUOUS
10
95.2316128698
20
119.0181569512
11
95.9592987648
21
119.0181569512
0
LINE
5
448
100
AcDbEntity
8
0
100
AcDbLine
62
7
6
CONTINUOUS
10
126.0783449074
20
119.0181569512
11
126.8060307774
21
119.0181569512
0
LINE
5
449
100
AcDbEntity
8
0
100
AcDbLine
62
7
6
CONTINUOUS
10
99.9508371552
20
119.1891209594
11
99.9507660828
21
119.1891130901
0
LINE
5
44A
100
AcDbEntity
8
0
100
AcDbLine
62
7
6
CONTINUOUS
10
122.0868788625
20
119.1891130090
11
122.0868078079
21
119.1891208763
0
LINE
5
44B
100
AcDbEntity
8
0
100
AcDbLine
62
7
6
CONTINUOUS
10
88.7733683464
20
117.6208265559
11
95.0166868308
21
118.9947872793
0
LINE
5
44C
100
AcDbEntity
8
0
100
AcDbLine
62
7
6
CONTINUOUS
10
127.0209568164
20
118.9947872793
11
133.2642752987
21
117.6208265564
0
LINE
5
44D
100
AcDbEntity
8
0
100
AcDbLine
62
7
6
CONTINUOUS
10
133.7879687557
20
107.8643958625
11
133.7853930233
21
107.8621256002
0
LINE
5
44E
100
AcDbEntity
8
0
100
AcDbLine
62
7
6
CONTINUOUS
10
133.7879681588
20
117.3625218246
11
133.7854696958
21
117.3647242079
0
LINE
5
44F
100
AcDbEntity
8
0
100
AcDbLine
62
7
6
CONTINUOUS
10
134.1254697293
20
108.6134585796
11
134.1254697293
21
116.6134585796
0
ARC
5
450
100
AcDbEntity
8
0
100
AcDbCircle
62
7
6
CONTINUOUS
10
95.2336520151
20
204.4883181279
40
1.0000000000
100
AcDbArc
50
202.5000000000
51
267.2633279617
0
ARC
5
451
100
AcDbEntity
8
0
100
AcDbCircle
62
7
6
CONTINUOUS
10
126.8039916321
20
204.4883181279
40
1.0000000000
100
AcDbArc
50
272.7366720383
51
337.5000000000
0
ARC
5
452
100
AcDbEntity
8
0
100
AcDbCircle
62
7
6
CONTINUOUS
10
95.0188218236
20
199.9932410600
40
3.5000000000
100
AcDbArc
50
0.0000000000
51
87.5653404648
0
ARC
5
453
100
AcDbEntity
8
0
100
AcDbCircle
62
7
6
CONTINUOUS
10
127.0188218236
20
199.9932410600
40
3.5000000000
100
AcDbArc
50
92.4346595352
51
180.0000000000
0
ARC
5
454
100
AcDbEntity
8
0
100
AcDbCircle
62
7
6
CONTINUOUS
10
125.9434756859
20
234.8732825139
40
2.0000000000
100
AcDbArc
50
22.5000000000
51
67.5000000000
0
ARC
5
455
100
AcDbEntity
8
0
100
AcDbCircle
62
7
6
CONTINUOUS
10
111.0188218236
20
241.0552765574
40
2.0000000000
100
AcDbArc
50
67.5000000000
51
112.5000000000
0
ARC
5
456
100
AcDbEntity
8
0
100
AcDbCircle
62
7
6
CONTINUOUS
10
96.0941679614
20
234.8732825139
40
2.0000000000
100
AcDbArc
50
112.5000000000
51
157.5000000000
0
ARC
5
457
100
AcDbEntity
8
0
100
AcDbCircle
62
7
6
CONTINUOUS
10
89.9121739179
20
219.9486286517
40
2.0000000000
100
AcDbArc
50
157.5000000000
51
202.5000000000
0
ARC
5
458
100
AcDbEntity
8
0
100
AcDbCircle
62
7
6
CONTINUOUS
10
132.1254697293
20
219.9486286517
40
2.0000000000
100
AcDbArc
50
337.5000000000
51
22.5000000000
0
CIRCLE
5
459
100
AcDbEntity
8
0
100
AcDbCircle
62
7
6
CONTINUOUS
10
111.0188218236
20
219.9486286517
40
12.5000000000
0
ARC
5
45A
100
AcDbEntity
8
0
100
AcDbCircle
62
7
6
CONTINUOUS
10
95.2316128698
20
204.4932410600
40
1.0000000000
100
AcDbArc
50
202.5000000000
51
270.0000000000
0
ARC
5
45B
100
AcDbEntity
8
0
100
AcDbCircle
62
7
6
CONTINUOUS
10
126.8060307774
20
204.4932410600
40
1.0000000000
100
AcDbArc
50
270.0000000000
51
337.5000000000
0
ARC
5
45C
100
AcDbEntity
8
DEFAULT_2
100
AcDbCircle
62
8
6
HIDDEN
10
295.3771305097
20
237.4486286517
40
5.0000000000
100
AcDbArc
50
180.0000000000
51
360.0000000000
0
ARC
5
45D
100
AcDbEntity
8
0
100
AcDbCircle
62
7
6
CONTINUOUS
10
302.4896723211
20
207.1139644621
40
0.9999995593
100
AcDbArc
50
215.0160652936
51
261.0000000008
0
ARC
5
45E
100
AcDbEntity
8
0
100
AcDbCircle
62
7
6
CONTINUOUS
10
291.3771305097
20
242.0552765574
40
1.0000000000
100
AcDbArc
50
90.0000000000
51
180.0000000000
0
ARC
5
45F
100
AcDbEntity
8
0
100
AcDbCircle
62
7
6
CONTINUOUS
10
299.3771305097
20
242.0552765574
40
1.0000000000
100
AcDbArc
50
0.0000000000
51
90.0000000000
0
ARC
5
460
100
AcDbEntity
8
0
100
AcDbCircle
62
7
6
CONTINUOUS
10
284.3771305097
20
203.9670961408
40
1.5000000000
100
AcDbArc
50
99.0000000000
51
180.0000000000
0
ARC
5
461
100
AcDbEntity
8
0
100
AcDbCircle
62
7
6
CONTINUOUS
10
306.3771305097
20
203.9670961408
40
1.5000000000
100
AcDbArc
50
0.0000000000
51
81.0000000000
0
ARC
5
462
100
AcDbEntity
8
0
100
AcDbCircle
62
7
6
CONTINUOUS
10
310.3771305097
20
220.4034635409
40
10.0000000000
100
AcDbArc
50
180.0000000000
51
185.2084342387
0
ARC
5
463
100
AcDbEntity
8
0
100
AcDbCircle
62
7
6
CONTINUOUS
10
280.3771305097
20
220.4033588333
40
9.9999913589
100
AcDbArc
50
354.7921632149
51
0.0005999302
0
ARC
5
464
100
AcDbEntity
8
0
100
AcDbCircle
62
7
6
CONTINUOUS
10
300.7818288813
20
204.4932410600
40
1.0000000000
100
AcDbArc
50
270.0000000000
51
5.2084342388
0
ARC
5
465
100
AcDbEntity
8
0
100
AcDbCircle
62
7
6
CONTINUOUS
10
289.9724321381
20
204.4932410600
40
1.0000000000
100
AcDbArc
50
174.7915657612
51
270.0000000000
0
ARC
5
466
100
AcDbEntity
8
0
100
AcDbCircle
62
7
6
CONTINUOUS
10
133.1254697293
20
116.6134585796
40
1.0000000000
100
AcDbArc
50
0.0000000000
51
48.4027857253
0
ARC
5
467
100
AcDbEntity
8
0
100
AcDbCircle
62
7
6
CONTINUOUS
10
88.9121739179
20
116.6134585796
40
1.0000000000
100
AcDbArc
50
131.6044440596
51
180.0000000000
0
ARC
5
468
100
AcDbEntity
8
0
100
AcDbCircle
62
7
6
CONTINUOUS
10
88.9121739179
20
108.6134585796
40
1.0000000000
100
AcDbArc
50
180.0000000000
51
228.3983966380
0
ARC
5
469
100
AcDbEntity
8
0
100
AcDbCircle
62
7
6
CONTINUOUS
10
133.1254697293
20
108.6134585796
40
1.0000000000
100
AcDbArc
50
311.5969866331
51
360.0000000000
0
ARC
5
46A
100
AcDbEntity
8
0
100
AcDbCircle
62
7
6
CONTINUOUS
10
111.0188218236
20
112.6134585796
40
12.5000000000
100
AcDbArc
50
213.5499037529
51
326.4500962471
0
ARC
5
46B
100
AcDbEntity
8
0
100
AcDbCircle
62
7
6
CONTINUOUS
10
111.0188218236
20
112.6134585796
40
12.5000000000
100
AcDbArc
50
33.5499037529
51
146.4500962471
0
SPLINE
5
46C
100
AcDbEntity
8
0
100
AcDbSpline
62
7
6
CONTINUOUS
70
0
71
3
72
20
73
16
74
14
42
0.0000001000
43
0.0000001000
44
0.0000000001
40
0.0000000000
40
0.0000000000
40
0.0000000000
40
0.0000000000
40
0.1273154068
40
0.2505954149
40
0.3610177754
40
0.4588952975
40
0.5465855724
40
0.6255938937
40
0.6965585115
40
0.7602280086
40
0.8174639935
40
0.8691688444
40
0.9162402740
40
0.9595506383
40
1.0000000000
40
1.0000000000
40
1.0000000000
40
1.0000000000
10
126.0783449074
20
203.4932410600
30
0.0000000000
10
125.8228279573
20
203.4932268357
30
0.0000000000
10
125.3188468163
20
203.4472874327
30
0.0000000000
10
124.6157859668
20
203.2600079667
30
0.0000000000
10
124.0038345931
20
202.9928678237
30
0.0000000000
10
123.4943921173
20
202.6843463347
30
0.0000000000
10
123.0754015477
20
202.3562509537
30
0.0000000000
10
122.7342957281
20
202.0215052504
30
0.0000000000
10
122.4613827488
20
201.6897973229
30
0.0000000000
10
122.2480560749
20
201.3684301786
30
0.0000000000
10
122.0857536632
20
201.0617564745
30
0.0000000000
10
121.9664197415
20
200.7717722987
30
0.0000000000
10
121.8828784520
20
200.4986967641
30
0.0000000000
10
121.8290301856
20
200.2413661981
30
0.0000000000
10
121.8091495824
20
200.0741959543
30
0.0000000000
10
121.8031048040
20
199.9932410600
30
0.0000000000
11
126.0783449074
21
203.4932410600
31
0.0000000000
11
125.3148509685
21
203.4248509052
31
0.0000000000
11
124.5973717564
21
203.2346802585
31
0.0000000000
11
123.9879651424
21
202.9689066906
31
0.0000000000
11
123.4839577435
21
202.6635192641
31
0.0000000000
11
123.0684971618
21
202.3377161913
31
0.0000000000
11
122.7293199460
21
202.0041761122
31
0.0000000000
11
122.4582580071
21
201.6738964764
31
0.0000000000
11
122.2466548451
21
201.3542426162
31
0.0000000000
11
122.0858267229
21
201.0494622459
31
0.0000000000
11
121.9676645546
21
200.7614503939
31
0.0000000000
11
121.8849909286
21
200.4903653089
31
0.0000000000
11
121.8317545655
21
200.2350908057
31
0.0000000000
11
121.8031048040
21
199.9932410600
31
0.0000000000
0
SPLINE
5
46D
100
AcDbEntity
8
0
100
AcDbSpline
62
7
6
CONTINUOUS
70
0
71
3
72
21
73
17
74
15
42
0.0000001000
43
0.0000001000
44
0.0000000001
40
0.0000000000
40
0.0000000000
40
0.0000000000
40
0.0000000000
40
0.0374623645
40
0.0773459182
40
0.1203644924
40
0.1672175636
40
0.2186193253
40
0.2752939123
40
0.3379490344
40
0.4072283857
40
0.4836507910
40
0.5679356331
40
0.6615543114
40
0.7662799909
40
0.8816333643
40
1.0000000000
40
1.0000000000
40
1.0000000000
40
1.0000000000
10
100.2345398450
20
199.9932410600
30
0.0000000000
10
100.2289409147
20
200.0682249440
30
0.0000000000
10
100.2110833449
20
200.2226359589
30
0.0000000000
10
100.1638586638
20
200.4598310743
30
0.0000000000
10
100.0917363657
20
200.7104129832
30
0.0000000000
10
99.9900041711
20
200.9754777001
30
0.0000000000
10
99.8531160920
20
201.2551608755
30
0.0000000000
10
99.6748148913
20
201.5483763849
30
0.0000000000
10
99.4483506551
20
201.8524489398
30
0.0000000000
10
99.1668424673
20
202.1626337544
30
0.0000000000
10
98.8232300962
20
202.4721095742
30
0.0000000000
10
98.4090824897
20
202.7722810835
30
0.0000000000
10
97.9136518580
20
203.0513478838
30
0.0000000000
10
97.3286119926
20
203.2892722918
30
0.0000000000
10
96.6668407971
20
203.4534108553
30
0.0000000000
10
96.1968784596
20
203.4932277914
30
0.0000000000
10
95.9592987398
20
203.4932410600
30
0.0000000000
11
100.2345398450
21
199.9932410600
31
0.0000000000
11
100.2087125375
21
200.2173355224
31
0.0000000000
11
100.1619517608
21
200.4528961135
31
0.0000000000
11
100.0904850287
21
200.7018766177
31
0.0000000000
11
99.9896280856
21
200.9653563887
31
0.0000000000
11
99.8538441743
21
201.2434952295
31
0.0000000000
11
99.6768515589
21
201.5352730647
31
0.0000000000
11
99.4518299240
21
201.8380957924
31
0.0000000000
11
99.1717838011
21
202.1472860493
31
0.0000000000
11
98.8300941590
21
202.4555201213
31
0.0000000000
11
98.4193094843
21
202.7535632292
31
0.0000000000
11
97.9281706767
21
203.0302642692
31
0.0000000000
11
97.3439301494
21
203.2675833614
31
0.0000000000
11
96.6695747722
21
203.4340374394
31
0.0000000000
11
95.9592987398
21
203.4932410600
31
0.0000000000
0
SPLINE
5
46E
100
AcDbEntity
8
0
100
AcDbSpline
62
7
6
CONTINUOUS
70
0
71
3
72
26
73
22
74
20
42
0.0000001000
43
0.0000001000
44
0.0000000001
40
0.0000000000
40
0.0000000000
40
0.0000000000
40
0.0000000000
40
0.0555494182
40
0.1503920790
40
0.2350016664
40
0.3101693080
40
0.3768366089
40
0.4359999238
40
0.4885443252
40
0.5347212919
40
0.5752728655
40
0.6109200626
40
0.6422007535
40
0.6694317153
40
0.6942571527
40
0.7216675458
40
0.7531435596
40
0.7904931021
40
0.8371379486
40
0.9004501083
40
1.0000000000
40
1.0000000000
40
1.0000000000
40
1.0000000000
10
289.1821842553
20
206.8397583645
30
0.0000000000
10
289.1813886084
20
206.8310303187
30
0.0000000000
10
289.1788015883
20
206.8074381932
30
0.0000000000
10
289.1729259807
20
206.7708146271
30
0.0000000000
10
289.1641688283
20
206.7315946149
30
0.0000000000
10
289.1544733680
20
206.6972000263
30
0.0000000000
10
289.1443542058
20
206.6671407206
30
0.0000000000
10
289.1341757461
20
206.6409006000
30
0.0000000000
10
289.1242219076
20
206.6180650980
30
0.0000000000
10
289.1147021896
20
206.5982613319
30
0.0000000000
10
289.1057631344
20
206.5811490460
30
0.0000000000
10
289.0974677808
20
206.5663610448
30
0.0000000000
10
289.0898580536
20
206.5536044517
30
0.0000000000
10
289.0828588961
20
206.5424760580
30
0.0000000000
10
289.0759583297
20
206.5320105870
30
0.0000000000
10
289.0684676027
20
206.5211353384
30
0.0000000000
10
289.0596008607
20
206.5088127212
30
0.0000000000
10
289.0486407186
20
206.4942634400
30
0.0000000000
10
289.0342099064
20
206.4760488368
30
0.0000000000
10
289.0129293129
20
206.4507578338
30
0.0000000000
10
288.9955905032
20
206.4317889820
30
0.0000000000
10
288.9847184872
20
206.4204551644
30
0.0000000000
11
289.1821842553
21
206.8397583645
31
0.0000000000
11
289.1793174525
21
206.8136232263
31
0.0000000000
11
289.1721994192
21
206.7693106067
31
0.0000000000
11
289.1634667000
21
206.7302362947
31
0.0000000000
11
289.1538095105
21
206.6960021134
31
0.0000000000
11
289.1437391449
21
206.6661048107
31
0.0000000000
11
289.1336105874
21
206.6400043869
31
0.0000000000
11
289.1236720262
21
206.6172123926
31
0.0000000000
11
289.1142022946
21
206.5975194570
31
0.0000000000
11
289.1053156561
21
206.5805116940
31
0.0000000000
11
289.0970617138
21
206.5658003150
31
0.0000000000
11
289.0894777825
21
206.5530883188
31
0.0000000000
11
289.0826162719
21
206.5421810265
31
0.0000000000
11
289.0761515727
21
206.5323720554
31
0.0000000000
11
289.0687975521
21
206.5216873362
31
0.0000000000
11
289.0601019758
21
206.5095942514
31
0.0000000000
11
289.0494723963
21
206.4954736630
31
0.0000000000
11
289.0357712763
21
206.4781678266
31
0.0000000000
11
289.0164898307
21
206.4552368144
31
0.0000000000
11
288.9847184872
21
206.4204551644
31
0.0000000000
0
SPLINE
5
46F
100
AcDbEntity
8
0
100
AcDbSpline
62
7
6
CONTINUOUS
70
0
71
3
72
12
73
8
74
6
42
0.0000001000
43
0.0000001000
44
0.0000000001
40
0.0000000000
40
0.0000000000
40
0.0000000000
40
0.0000000000
40
0.1331605270
40
0.3330984917
40
0.5710994381
40
0.8451652751
40
1.0000000000
40
1.0000000000
40
1.0000000000
40
1.0000000000
10
288.9847184872
20
206.4204551644
30
0.0000000000
10
288.9648535153
20
206.3997464048
30
0.0000000000
10
288.9128765997
20
206.3501230820
30
0.0000000000
10
288.8149323408
20
206.2750556177
30
0.0000000000
10
288.6806485899
20
206.1995983819
30
0.0000000000
10
288.5448214227
20
206.1505852962
30
0.0000000000
10
288.4540358276
20
206.1315185646
30
0.0000000000
10
288.4210159765
20
206.1262879559
30
0.0000000000
11
288.9847184872
21
206.4204551644
31
0.0000000000
11
288.9224735899
21
206.3610044760
31
0.0000000000
11
288.8198994532
21
206.2823832318
31
0.0000000000
11
288.6857834349
21
206.2070139335
31
0.0000000000
11
288.5191364632
21
206.1469080417
31
0.0000000000
11
288.4210159765
21
206.1262879559
31
0.0000000000
0
SPLINE
5
470
100
AcDbEntity
8
0
100
AcDbSpline
62
7
6
CONTINUOUS
70
0
71
3
72
8
73
4
74
2
42
0.0000001000
43
0.0000001000
44
0.0000000001
40
0.0000000000
40
0.0000000000
40
0.0000000000
40
0.0000000000
40
1.0000000000
40
1.0000000000
40
1.0000000000
40
1.0000000000
10
301.6671965629
20
206.5454069365
30
0.0000000000
10
301.6649712020
20
206.5488050077
30
0.0000000000
10
301.6627892569
20
206.5522308310
30
0.0000000000
10
301.6606500055
20
206.5556830519
30
0.0000000000
11
301.6671965629
21
206.5454069365
31
0.0000000000
11
301.6606500055
21
206.5556830519
31
0.0000000000
0
SPLINE
5
471
100
AcDbEntity
8
0
100
AcDbSpline
62
7
6
CONTINUOUS
70
0
71
3
72
9
73
5
74
3
42
0.0000001000
43
0.0000001000
44
0.0000000001
40
0.0000000000
40
0.0000000000
40
0.0000000000
40
0.0000000000
40
0.0180329451
40
1.0000000000
40
1.0000000000
40
1.0000000000
40
1.0000000000
10
301.6606500055
20
206.5556830519
30
0.0000000000
10
301.6606138786
20
206.5557413517
30
0.0000000000
10
301.6586111697
20
206.5589747338
30
0.0000000000
10
301.6566458930
20
206.5622312467
30
0.0000000000
10
301.6547515887
20
206.5654502858
30
0.0000000000
11
301.6606500055
21
206.5556830519
31
0.0000000000
11
301.6605416613
21
206.5558579741
31
0.0000000000
11
301.6547515887
21
206.5654502858
31
0.0000000000
0
SPLINE
5
472
100
AcDbEntity
8
0
100
AcDbSpline
62
7
6
CONTINUOUS
70
0
71
3
72
8
73
4
74
2
42
0.0000001000
43
0.0000001000
44
0.0000000001
40
0.0000000000
40
0.0000000000
40
0.0000000000
40
0.0000000000
40
1.0000000000
40
1.0000000000
40
1.0000000000
40
1.0000000000
10
301.6299238399
20
206.6130346315
30
0.0000000000
10
301.6242470947
20
206.6253465828
30
0.0000000000
10
301.6190014363
20
206.6378712570
30
0.0000000000
10
301.6141601629
20
206.6505585645
30
0.0000000000
11
301.6299238399
21
206.6130346315
31
0.0000000000
11
301.6141601629
21
206.6505585645
31
0.0000000000
0
SPLINE
5
473
100
AcDbEntity
8
0
100
AcDbSpline
62
7
6
CONTINUOUS
70
0
71
3
72
8
73
4
74
2
42
0.0000001000
43
0.0000001000
44
0.0000000001
40
0.0000000000
40
0.0000000000
40
0.0000000000
40
0.0000000000
40
1.0000000000
40
1.0000000000
40
1.0000000000
40
1.0000000000
10
301.6141601629
20
206.6505585645
30
0.0000000000
10
301.6093200731
20
206.6632427699
30
0.0000000000
10
301.6048837235
20
206.6760891920
30
0.0000000000
10
301.6008482587
20
206.6890657388
30
0.0000000000
11
301.6141601629
21
206.6505585645
31
0.0000000000
11
301.6008482587
21
206.6890657388
31
0.0000000000
0
SPLINE
5
474
100
AcDbEntity
8
0
100
AcDbSpline
62
7
6
CONTINUOUS
70
0
71
3
72
10
73
6
74
4
42
0.0000001000
43
0.0000001000
44
0.0000000001
40
0.0000000000
40
0.0000000000
40
0.0000000000
40
0.0000000000
40
0.0695687431
40
0.4673777008
40
1.0000000000
40
1.0000000000
40
1.0000000000
40
1.0000000000
10
301.6706826860
20
206.5401594508
30
0.0000000000
10
301.6672566654
20
206.5452430178
30
0.0000000000
10
301.6449103271
20
206.5798312180
30
0.0000000000
10
301.6064921060
20
206.6596474007
30
0.0000000000
10
301.5855771373
20
206.7398914751
30
0.0000000000
10
301.5783443581
20
206.7864418991
30
0.0000000000
11
301.6706826860
21
206.5401594508
31
0.0000000000
11
301.6607014779
21
206.5556000398
31
0.0000000000
11
301.6143824455
21
206.6499803796
31
0.0000000000
11
301.5783443581
21
206.7864418991
31
0.0000000000
0
SPLINE
5
475
100
AcDbEntity
8
0
100
AcDbSpline
62
7
6
CONTINUOUS
70
0
71
3
72
8
73
4
74
2
42
0.0000001000
43
0.0000001000
44
0.0000000001
40
0.0000000000
40
0.0000000000
40
0.0000000000
40
0.0000000000
40
1.0000000000
40
1.0000000000
40
1.0000000000
40
1.0000000000
10
301.5783443581
20
206.7864418991
30
0.0000000000
10
301.5761325093
20
206.8006774366
30
0.0000000000
10
301.5743639341
20
206.8149704854
30
0.0000000000
10
301.5730352016
20
206.8292825843
30
0.0000000000
11
301.5783443581
21
206.7864418991
31
0.0000000000
11
301.5730352016
21
206.8292825843
31
0.0000000000
0
SPLINE
5
476
100
AcDbEntity
8
0
100
AcDbSpline
62
7
6
CONTINUOUS
70
0
71
3
72
8
73
4
74
2
42
0.0000001000
43
0.0000001000
44
0.0000000001
40
0.0000000000
40
0.0000000000
40
0.0000000000
40
0.0000000000
40
1.0000000000
40
1.0000000000
40
1.0000000000
40
1.0000000000
10
290.3771081507
20
220.4025345484
30
0.0000000000
10
290.3771081467
20
220.4011168109
30
0.0000000000
10
290.3771078260
20
220.3996990733
30
0.0000000000
10
290.3771071947
20
220.3982813359
30
0.0000000000
11
290.3771081507
21
220.4025345484
31
0.0000000000
11
290.3771071947
21
220.3982813359
31
0.0000000000
0
SPLINE
5
477
100
AcDbEntity
8
0
100
AcDbSpline
62
7
6
CONTINUOUS
70
0
71
3
72
12
73
8
74
6
42
0.0000001000
43
0.0000001000
44
0.0000000001
40
0.0000000000
40
0.0000000000
40
0.0000000000
40
0.0000000000
40
0.0455478544
40
0.2889790042
40
0.5675939155
40
0.8542957569
40
1.0000000000
40
1.0000000000
40
1.0000000000
40
1.0000000000
10
290.3771071947
20
220.3982813359
30
0.0000000000
10
290.3771063814
20
220.3964549021
30
0.0000000000
10
290.3770979506
20
220.3848670684
30
0.0000000000
10
290.3770416604
20
220.3621070291
30
0.0000000000
10
290.3768591291
20
220.3296773182
30
0.0000000000
10
290.3766016211
20
220.3011670347
30
0.0000000000
10
290.3763998829
20
220.2838290445
30
0.0000000000
10
290.3763267812
20
220.2779868718
30
0.0000000000
11
290.3771071947
21
220.3982813359
31
0.0000000000
11
290.3771032212
21
220.3928020354
31
0.0000000000
11
290.3770307878
21
220.3635179246
31
0.0000000000
11
290.3768422149
21
220.3300017302
31
0.0000000000
11
290.3765307142
21
220.2955135732
31
0.0000000000
11
290.3763267812
21
220.2779868718
31
0.0000000000
0
SPLINE
5
478
100
AcDbEntity
8
0
100
AcDbSpline
62
7
6
CONTINUOUS
70
0
71
3
72
9
73
5
74
3
42
0.0000001000
43
0.0000001000
44
0.0000000001
40
0.0000000000
40
0.0000000000
40
0.0000000000
40
0.0000000000
40
0.8819375214
40
1.0000000000
40
1.0000000000
40
1.0000000000
40
1.0000000000
10
290.3763267812
20
220.2779868718
30
0.0000000000
10
290.3762528314
20
220.2720769223
30
0.0000000000
10
290.3761630370
20
220.2653758991
30
0.0000000000
10
290.3760665030
20
220.2586749720
30
0.0000000000
10
290.3760550120
20
220.2578838454
30
0.0000000000
11
290.3763267812
21
220.2779868718
31
0.0000000000
11
290.3760892031
21
220.2602572295
31
0.0000000000
11
290.3760550120
21
220.2578838454
31
0.0000000000
0
SPLINE
5
479
100
AcDbEntity
8
0
100
AcDbSpline
62
7
6
CONTINUOUS
70
0
71
3
72
8
73
4
74
2
42
0.0000001000
43
0.0000001000
44
0.0000000001
40
0.0000000000
40
0.0000000000
40
0.0000000000
40
0.0000000000
40
1.0000000000
40
1.0000000000
40
1.0000000000
40
1.0000000000
10
290.3760550120
20
220.2578838454
30
0.0000000000
10
290.3760099853
20
220.2547838658
30
0.0000000000
10
290.3759635162
20
220.2516839073
30
0.0000000000
10
290.3759156048
20
220.2485839710
30
0.0000000000
11
290.3760550120
21
220.2578838454
31
0.0000000000
11
290.3759156048
21
220.2485839710
31
0.0000000000
0
SPLINE
5
47A
100
AcDbEntity
8
0
100
AcDbSpline
62
7
6
CONTINUOUS
70
0
71
3
72
9
73
5
74
3
42
0.0000001000
43
0.0000001000
44
0.0000000001
40
0.0000000000
40
0.0000000000
40
0.0000000000
40
0.0000000000
40
0.5706987245
40
1.0000000000
40
1.0000000000
40
1.0000000000
40
1.0000000000
10
290.3759156048
20
220.2485839710
30
0.0000000000
10
290.3757896832
20
220.2404366664
30
0.0000000000
10
290.3755515812
20
220.2261609193
30
0.0000000000
10
290.3752828921
20
220.2118857196
30
0.0000000000
10
290.3751619068
20
220.2057574694
30
0.0000000000
11
290.3759156048
21
220.2485839710
31
0.0000000000
11
290.3755079521
21
220.2241425434
31
0.0000000000
11
290.3751619068
21
220.2057574694
31
0.0000000000
0
SPLINE
5
47B
100
AcDbEntity
8
0
100
AcDbSpline
62
7
6
CONTINUOUS
70
0
71
3
72
8
73
4
74
2
42
0.0000001000
43
0.0000001000
44
0.0000000001
40
0.0000000000
40
0.0000000000
40
0.0000000000
40
0.0000000000
40
1.0000000000
40
1.0000000000
40
1.0000000000
40
1.0000000000
10
290.3751619068
20
220.2057574694
30
0.0000000000
10
290.3750395142
20
220.1995579378
30
0.0000000000
10
290.3749113530
20
220.1933585200
30
0.0000000000
10
290.3747774235
20
220.1871592267
30
0.0000000000
11
290.3751619068
21
220.2057574694
31
0.0000000000
11
290.3747774235
21
220.1871592267
31
0.0000000000
0
SPLINE
5
47C
100
AcDbEntity
8
0
100
AcDbSpline
62
7
6
CONTINUOUS
70
0
71
3
72
10
73
6
74
4
42
0.0000001000
43
0.0000001000
44
0.0000000001
40
0.0000000000
40
0.0000000000
40
0.0000000000
40
0.0000000000
40
0.4793634715
40
0.9686818458
40
1.0000000000
40
1.0000000000
40
1.0000000000
40
1.0000000000
10
290.3747774235
20
220.1871592267
30
0.0000000000
10
290.3745050546
20
220.1745518902
30
0.0000000000
10
290.3739064523
20
220.1490764429
30
0.0000000000
10
290.3731879411
20
220.1227799091
30
0.0000000000
10
290.3727857234
20
220.1090897961
30
0.0000000000
10
290.3727614268
20
220.1082662897
30
0.0000000000
11
290.3747774235
21
220.1871592267
31
0.0000000000
11
290.3738887503
21
220.1493388532
31
0.0000000000
11
290.3728340113
21
220.1107368178
31
0.0000000000
11
290.3727614268
21
220.1082662897
31
0.0000000000
0
SPLINE
5
47D
100
AcDbEntity
8
0
100
AcDbSpline
62
7
6
CONTINUOUS
70
0
71
3
72
8
73
4
74
2
42
0.0000001000
43
0.0000001000
44
0.0000000001
40
0.0000000000
40
0.0000000000
40
0.0000000000
40
0.0000000000
40
1.0000000000
40
1.0000000000
40
1.0000000000
40
1.0000000000
10
290.3727614268
20
220.1082662897
30
0.0000000000
10
290.3726719076
20
220.1052321386
30
0.0000000000
10
290.3725810063
20
220.1021980283
30
0.0000000000
10
290.3724887232
20
220.0991639601
30
0.0000000000
11
290.3727614268
21
220.1082662897
31
0.0000000000
11
290.3724887232
21
220.0991639601
31
0.0000000000
0
SPLINE
5
47E
100
AcDbEntity
8
0
100
AcDbSpline
62
7
6
CONTINUOUS
70
0
71
3
72
11
73
7
74
5
42
0.0000001000
43
0.0000001000
44
0.0000000001
40
0.0000000000
40
0.0000000000
40
0.0000000000
40
0.0000000000
40
0.1868121245
40
0.4558311258
40
0.7285259326
40
1.0000000000
40
1.0000000000
40
1.0000000000
40
1.0000000000
10
290.3724887232
20
220.0991639601
30
0.0000000000
10
290.3722074646
20
220.0899167921
30
0.0000000000
10
290.3714898572
20
220.0673541824
30
0.0000000000
10
290.3702208131
20
220.0312978503
30
0.0000000000
10
290.3686423004
20
219.9910574396
30
0.0000000000
10
290.3674771157
20
219.9641338623
30
0.0000000000
10
290.3668687381
20
219.9507034998
30
0.0000000000
11
290.3724887232
21
220.0991639601
31
0.0000000000
11
290.3716064387
21
220.0714236629
31
0.0000000000
11
290.3702006026
21
220.0314807637
31
0.0000000000
11
290.3686125895
21
219.9909981595
31
0.0000000000
11
290.3668687381
21
219.9507034998
31
0.0000000000
0
SPLINE
5
47F
100
AcDbEntity
8
0
100
AcDbSpline
62
7
6
CONTINUOUS
70
0
71
3
72
12
73
8
74
6
42
0.0000001000
43
0.0000001000
44
0.0000000001
40
0.0000000000
40
0.0000000000
40
0.0000000000
40
0.0000000000
40
0.0042312218
40
0.2819031456
40
0.5628872682
40
0.8469975123
40
1.0000000000
40
1.0000000000
40
1.0000000000
40
1.0000000000
10
290.3668687381
20
219.9507034998
30
0.0000000000
10
290.3668592246
20
219.9504934826
30
0.0000000000
10
290.3662249506
20
219.9365012015
30
0.0000000000
10
290.3648997530
20
219.9085649186
30
0.0000000000
10
290.3627414553
20
219.8667467698
30
0.0000000000
10
290.3607523365
20
219.8311227924
30
0.0000000000
10
290.3594708843
20
219.8094422164
30
0.0000000000
10
290.3590136822
20
219.8018538899
30
0.0000000000
11
290.3668687381
21
219.9507034998
31
0.0000000000
11
290.3668401777
21
219.9500734489
31
0.0000000000
11
290.3648790261
21
219.9087307163
31
0.0000000000
11
290.3627202582
21
219.8669034567
31
0.0000000000
11
290.3603593205
21
219.8246204140
31
0.0000000000
11
290.3590136822
21
219.8018538899
31
0.0000000000
0
SPLINE
5
480
100
AcDbEntity
8
0
100
AcDbSpline
62
7
6
CONTINUOUS
70
0
71
3
72
11
73
7
74
5
42
0.0000001000
43
0.0000001000
44
0.0000000001
40
0.0000000000
40
0.0000000000
40
0.0000000000
40
0.0000000000
40
0.1396716362
40
0.4416195135
40
0.7461927768
40
1.0000000000
40
1.0000000000
40
1.0000000000
40
1.0000000000
10
290.3590136822
20
219.8018538899
30
0.0000000000
10
290.3586131613
20
219.7952063185
30
0.0000000000
10
290.3573257752
20
219.7741890196
30
0.0000000000
10
290.3550383211
20
219.7386836317
30
0.0000000000
10
290.3522233808
20
219.6977592646
30
0.0000000000
10
290.3502903056
20
219.6712055772
30
0.0000000000
10
290.3493897292
20
219.6591374538
30
0.0000000000
11
290.3590136822
21
219.8018538899
31
0.0000000000
11
290.3577921927
21
219.7819123895
31
0.0000000000
11
290.3550153375
21
219.7388106194
31
0.0000000000
11
290.3520257133
21
219.6953466499
31
0.0000000000
11
290.3493897292
21
219.6591374538
31
0.0000000000
0
SPLINE
5
481
100
AcDbEntity
8
0
100
AcDbSpline
62
7
6
CONTINUOUS
70
0
71
3
72
9
73
5
74
3
42
0.0000001000
43
0.0000001000
44
0.0000000001
40
0.0000000000
40
0.0000000000
40
0.0000000000
40
0.0000000000
40
0.7694469558
40
1.0000000000
40
1.0000000000
40
1.0000000000
40
1.0000000000
10
290.3493897292
20
219.6591374538
30
0.0000000000
10
290.3492010424
20
219.6566089676
30
0.0000000000
10
290.3489545684
20
219.6533229524
30
0.0000000000
10
290.3487064697
20
219.6500370596
30
0.0000000000
10
290.3486491835
20
219.6492794935
30
0.0000000000
11
290.3493897292
21
219.6591374538
31
0.0000000000
11
290.3488207832
21
219.6515522113
31
0.0000000000
11
290.3486491835
21
219.6492794935
31
0.0000000000
0
SPLINE
5
482
100
AcDbEntity
8
0
100
AcDbSpline
62
7
6
CONTINUOUS
70
0
71
3
72
8
73
4
74
2
42
0.0000001000
43
0.0000001000
44
0.0000000001
40
0.0000000000
40
0.0000000000
40
0.0000000000
40
0.0000000000
40
1.0000000000
40
1.0000000000
40
1.0000000000
40
1.0000000000
10
300.4081966316
20
219.6158453965
30
0.0000000000
10
300.4074121834
20
219.6257763801
30
0.0000000000
10
300.4066425805
20
219.6357085364
30
0.0000000000
10
300.4058878263
20
219.6456418209
30
0.0000000000
11
300.4081966316
21
219.6158453965
31
0.0000000000
11
300.4058878263
21
219.6456418209
31
0.0000000000
0
SPLINE
5
483
100
AcDbEntity
8
0
100
AcDbSpline
62
7
6
CONTINUOUS
70
0
71
3
72
8
73
4
74
2
42
0.0000001000
43
0.0000001000
44
0.0000000001
40
0.0000000000
40
0.0000000000
40
0.0000000000
40
0.0000000000
40
1.0000000000
40
1.0000000000
40
1.0000000000
40
1.0000000000
10
300.4058878263
20
219.6456418209
30
0.0000000000
10
300.4056221660
20
219.6491381636
30
0.0000000000
10
300.4053583453
20
219.6526346460
30
0.0000000000
10
300.4050963645
20
219.6561312663
30
0.0000000000
11
300.4058878263
21
219.6456418209
31
0.0000000000
11
300.4050963645
21
219.6561312663
31
0.0000000000
0
SPLINE
5
484
100
AcDbEntity
8
0
100
AcDbSpline
62
7
6
CONTINUOUS
70
0
71
3
72
9
73
5
74
3
42
0.0000001000
43
0.0000001000
44
0.0000000001
40
0.0000000000
40
0.0000000000
40
0.0000000000
40
0.0000000000
40
0.1574882661
40
1.0000000000
40
1.0000000000
40
1.0000000000
40
1.0000000000
10
300.4050963645
20
219.6561312663
30
0.0000000000
10
300.4049760093
20
219.6577376289
30
0.0000000000
10
300.4042142583
20
219.6679377008
30
0.0000000000
10
300.4034681631
20
219.6781389380
30
0.0000000000
10
300.4028506842
20
219.6867343985
30
0.0000000000
11
300.4050963645
21
219.6561312663
31
0.0000000000
11
300.4047364639
21
219.6609504411
31
0.0000000000
11
300.4028506842
21
219.6867343985
31
0.0000000000
0
SPLINE
5
485
100
AcDbEntity
8
0
100
AcDbSpline
62
7
6
CONTINUOUS
70
0
71
3
72
10
73
6
74
4
42
0.0000001000
43
0.0000001000
44
0.0000000001
40
0.0000000000
40
0.0000000000
40
0.0000000000
40
0.0000000000
40
0.1703274383
40
0.7295525671
40
1.0000000000
40
1.0000000000
40
1.0000000000
40
1.0000000000
10
300.3953949748
20
219.7994231567
30
0.0000000000
10
300.3950901682
20
219.8044620850
30
0.0000000000
10
300.3938009589
20
219.8260459918
30
0.0000000000
10
300.3921298321
20
219.8556367811
30
0.0000000000
10
300.3908339455
20
219.8801923370
30
0.0000000000
10
300.3904211550
20
219.8881971804
30
0.0000000000
11
300.3953949748
21
219.7994231567
31
0.0000000000
11
300.3944920065
21
219.8145406286
31
0.0000000000
11
300.3916884099
21
219.8641841626
31
0.0000000000
11
300.3904211550
21
219.8881971804
31
0.0000000000
0
SPLINE
5
486
100
AcDbEntity
8
0
100
AcDbSpline
62
7
6
CONTINUOUS
70
0
71
3
72
9
73
5
74
3
42
0.0000001000
43
0.0000001000
44
0.0000000001
40
0.0000000000
40
0.0000000000
40
0.0000000000
40
0.0000000000
40
0.5073750860
40
1.0000000000
40
1.0000000000
40
1.0000000000
40
1.0000000000
10
300.3904211550
20
219.8881971804
30
0.0000000000
10
300.3899954893
20
219.8964516985
30
0.0000000000
10
300.3891767114
20
219.9127218036
30
0.0000000000
10
300.3883977092
20
219.9289938606
30
0.0000000000
10
300.3880236072
20
219.9370103317
30
0.0000000000
11
300.3904211550
21
219.8881971804
31
0.0000000000
11
300.3891748737
21
219.9129622929
31
0.0000000000
11
300.3880236072
21
219.9370103317
31
0.0000000000
0
SPLINE
5
487
100
AcDbEntity
8
0
100
AcDbSpline
62
7
6
CONTINUOUS
70
0
71
3
72
8
73
4
74
2
42
0.0000001000
43
0.0000001000
44
0.0000000001
40
0.0000000000
40
0.0000000000
40
0.0000000000
40
0.0000000000
40
1.0000000000
40
1.0000000000
40
1.0000000000
40
1.0000000000
10
300.3880236072
20
219.9370103317
30
0.0000000000
10
300.3878033242
20
219.9417306806
30
0.0000000000
10
300.3875863885
20
219.9464511857
30
0.0000000000
10
300.3873728002
20
219.9511718423
30
0.0000000000
11
300.3880236072
21
219.9370103317
31
0.0000000000
11
300.3873728002
21
219.9511718423
31
0.0000000000
0
SPLINE
5
488
100
AcDbEntity
8
0
100
AcDbSpline
62
7
6
CONTINUOUS
70
0
71
3
72
9
73
5
74
3
42
0.0000001000
43
0.0000001000
44
0.0000000001
40
0.0000000000
40
0.0000000000
40
0.0000000000
40
0.0000000000
40
0.2199813292
40
1.0000000000
40
1.0000000000
40
1.0000000000
40
1.0000000000
10
300.3873728002
20
219.9511718423
30
0.0000000000
10
300.3872272321
20
219.9543891407
30
0.0000000000
10
300.3865725706
20
219.9690147854
30
0.0000000000
10
300.3859500414
20
219.9836418526
30
0.0000000000
10
300.3854840101
20
219.9950520366
30
0.0000000000
11
300.3873728002
21
219.9511718423
31
0.0000000000
11
300.3869407604
21
219.9608239471
31
0.0000000000
11
300.3854840101
21
219.9950520366
31
0.0000000000
0
SPLINE
5
489
100
AcDbEntity
8
0
100
AcDbSpline
62
7
6
CONTINUOUS
70
0
71
3
72
11
73
7
74
5
42
0.0000001000
43
0.0000001000
44
0.0000000001
40
0.0000000000
40
0.0000000000
40
0.0000000000
40
0.0000000000
40
0.1186133918
40
0.5480001387
40
0.9672761506
40
1.0000000000
40
1.0000000000
40
1.0000000000
40
1.0000000000
10
300.3854840101
20
219.9950520366
30
0.0000000000
10
300.3853114554
20
219.9992768187
30
0.0000000000
10
300.3845266284
20
220.0187960409
30
0.0000000000
10
300.3832423302
20
220.0532534553
30
0.0000000000
10
300.3822146259
20
220.0846561987
30
0.0000000000
10
300.3817265333
20
220.1007615960
30
0.0000000000
10
300.3816914006
20
220.1019275994
30
0.0000000000
11
300.3854840101
21
219.9950520366
31
0.0000000000
11
300.3849743881
21
220.0077267078
31
0.0000000000
11
300.3832640436
21
220.0536148600
31
0.0000000000
11
300.3817974112
21
220.0984296077
31
0.0000000000
11
300.3816914006
21
220.1019275994
31
0.0000000000
0
SPLINE
5
48A
100
AcDbEntity
8
0
100
AcDbSpline
62
7
6
CONTINUOUS
70
0
71
3
72
9
73
5
74
3
42
0.0000001000
43
0.0000001000
44
0.0000000001
40
0.0000000000
40
0.0000000000
40
0.0000000000
40
0.0000000000
40
0.9734847416
40
1.0000000000
40
1.0000000000
40
1.0000000000
40
1.0000000000
10
300.3816636097
20
220.1028513552
30
0.0000000000
10
300.3812704439
20
220.1159401331
30
0.0000000000
10
300.3808929909
20
220.1293862096
30
0.0000000000
10
300.3805426831
20
220.1428329944
30
0.0000000000
10
300.3805334137
20
220.1431895399
30
0.0000000000
11
300.3816636097
21
220.1028513552
31
0.0000000000
11
300.3805612792
21
220.1421199050
31
0.0000000000
11
300.3805334137
21
220.1431895399
31
0.0000000000
0
SPLINE
5
48B
100
AcDbEntity
8
0
100
AcDbSpline
62
7
6
CONTINUOUS
70
0
71
3
72
8
73
4
74
2
42
0.0000001000
43
0.0000001000
44
0.0000000001
40
0.0000000000
40
0.0000000000
40
0.0000000000
40
0.0000000000
40
1.0000000000
40
1.0000000000
40
1.0000000000
40
1.0000000000
10
300.3805334137
20
220.1431895399
30
0.0000000000
10
300.3803881149
20
220.1487784173
30
0.0000000000
10
300.3802475053
20
220.1543674167
30
0.0000000000
10
300.3801115854
20
220.1599565300
30
0.0000000000
11
300.3805334137
21
220.1431895399
31
0.0000000000
11
300.3801115854
21
220.1599565300
31
0.0000000000
0
SPLINE
5
48C
100
AcDbEntity
8
0
100
AcDbSpline
62
7
6
CONTINUOUS
70
0
71
3
72
8
73
4
74
2
42
0.0000001000
43
0.0000001000
44
0.0000000001
40
0.0000000000
40
0.0000000000
40
0.0000000000
40
0.0000000000
40
1.0000000000
40
1.0000000000
40
1.0000000000
40
1.0000000000
10
300.3801115854
20
220.1599565300
30
0.0000000000
10
300.3800288592
20
220.1633582829
30
0.0000000000
10
300.3799478703
20
220.1667600780
30
0.0000000000
10
300.3798686186
20
220.1701619136
30
0.0000000000
11
300.3801115854
21
220.1599565300
31
0.0000000000
11
300.3798686186
21
220.1701619136
31
0.0000000000
0
SPLINE
5
48D
100
AcDbEntity
8
0
100
AcDbSpline
62
7
6
CONTINUOUS
70
0
71
3
72
8
73
4
74
2
42
0.0000001000
43
0.0000001000
44
0.0000000001
40
0.0000000000
40
0.0000000000
40
0.0000000000
40
0.0000000000
40
1.0000000000
40
1.0000000000
40
1.0000000000
40
1.0000000000
10
300.3798686186
20
220.1701619136
30
0.0000000000
10
300.3797789508
20
220.1740108579
30
0.0000000000
10
300.3796915070
20
220.1778598539
30
0.0000000000
10
300.3796062872
20
220.1817088991
30
0.0000000000
11
300.3798686186
21
220.1701619136
31
0.0000000000
11
300.3796062872
21
220.1817088991
31
0.0000000000
0
SPLINE
5
48E
100
AcDbEntity
8
0
100
AcDbSpline
62
7
6
CONTINUOUS
70
0
71
3
72
9
73
5
74
3
42
0.0000001000
43
0.0000001000
44
0.0000000001
40
0.0000000000
40
0.0000000000
40
0.0000000000
40
0.0000000000
40
0.3412635128
40
1.0000000000
40
1.0000000000
40
1.0000000000
40
1.0000000000
10
300.3796062872
20
220.1817088991
30
0.0000000000
10
300.3795841110
20
220.1827105112
30
0.0000000000
10
300.3795195698
20
220.1856455316
30
0.0000000000
10
300.3794563217
20
220.1885805803
30
0.0000000000
10
300.3794152191
20
220.1905140159
30
0.0000000000
11
300.3796062872
21
220.1817088991
31
0.0000000000
11
300.3795402105
21
220.1847137452
31
0.0000000000
11
300.3794152191
21
220.1905140159
31
0.0000000000
0
SPLINE
5
48F
100
AcDbEntity
8
0
100
AcDbSpline
62
7
6
CONTINUOUS
70
0
71
3
72
8
73
4
74
2
42
0.0000001000
43
0.0000001000
44
0.0000000001
40
0.0000000000
40
0.0000000000
40
0.0000000000
40
0.0000000000
40
1.0000000000
40
1.0000000000
40
1.0000000000
40
1.0000000000
10
300.3794152191
20
220.1905140159
30
0.0000000000
10
300.3792543468
20
220.1980813299
30
0.0000000000
10
300.3791020711
20
220.2056488266
30
0.0000000000
10
300.3789583932
20
220.2132164865
30
0.0000000000
11
300.3794152191
21
220.1905140159
31
0.0000000000
11
300.3789583932
21
220.2132164865
31
0.0000000000
0
SPLINE
5
490
100
AcDbEntity
8
0
100
AcDbSpline
62
7
6
CONTINUOUS
70
0
71
3
72
9
73
5
74
3
42
0.0000001000
43
0.0000001000
44
0.0000000001
40
0.0000000000
40
0.0000000000
40
0.0000000000
40
0.0000000000
40
0.5156843507
40
1.0000000000
40
1.0000000000
40
1.0000000000
40
1.0000000000
10
300.3789583932
20
220.2132164865
30
0.0000000000
10
300.3788738355
20
220.2176702277
30
0.0000000000
10
300.3787156384
20
220.2263069017
30
0.0000000000
10
300.3785686402
20
220.2349437733
30
0.0000000000
10
300.3785000737
20
220.2391267884
30
0.0000000000
11
300.3789583932
21
220.2132164865
31
0.0000000000
11
300.3787136541
21
220.2265778755
31
0.0000000000
11
300.3785000737
21
220.2391267884
31
0.0000000000
0
SPLINE
5
491
100
AcDbEntity
8
0
100
AcDbSpline
62
7
6
CONTINUOUS
70
0
71
3
72
8
73
4
74
2
42
0.0000001000
43
0.0000001000
44
0.0000000001
40
0.0000000000
40
0.0000000000
40
0.0000000000
40
0.0000000000
40
1.0000000000
40
1.0000000000
40
1.0000000000
40
1.0000000000
10
300.3785000737
20
220.2391267884
30
0.0000000000
10
300.3784567562
20
220.2417694522
30
0.0000000000
10
300.3784144871
20
220.2444121332
30
0.0000000000
10
300.3783732667
20
220.2470548306
30
0.0000000000
11
300.3785000737
21
220.2391267884
31
0.0000000000
11
300.3783732667
21
220.2470548306
31
0.0000000000
0
SPLINE
5
492
100
AcDbEntity
8
0
100
AcDbSpline
62
7
6
CONTINUOUS
70
0
71
3
72
8
73
4
74
2
42
0.0000001000
43
0.0000001000
44
0.0000000001
40
0.0000000000
40
0.0000000000
40
0.0000000000
40
0.0000000000
40
1.0000000000
40
1.0000000000
40
1.0000000000
40
1.0000000000
10
300.3783732667
20
220.2470548306
30
0.0000000000
10
300.3783303838
20
220.2498041064
30
0.0000000000
10
300.3782886358
20
220.2525534000
30
0.0000000000
10
300.3782480228
20
220.2553027103
30
0.0000000000
11
300.3783732667
21
220.2470548306
31
0.0000000000
11
300.3782480228
21
220.2553027103
31
0.0000000000
0
SPLINE
5
493
100
AcDbEntity
8
0
100
AcDbSpline
62
7
6
CONTINUOUS
70
0
71
3
72
8
73
4
74
2
42
0.0000001000
43
0.0000001000
44
0.0000000001
40
0.0000000000
40
0.0000000000
40
0.0000000000
40
0.0000000000
40
1.0000000000
40
1.0000000000
40
1.0000000000
40
1.0000000000
10
300.3782480228
20
220.2553027103
30
0.0000000000
10
300.3782061038
20
220.2581404248
30
0.0000000000
10
300.3781653940
20
220.2609781571
30
0.0000000000
10
300.3781258933
20
220.2638159062
30
0.0000000000
11
300.3782480228
21
220.2553027103
31
0.0000000000
11
300.3781258933
21
220.2638159062
31
0.0000000000
0
SPLINE
5
494
100
AcDbEntity
8
0
100
AcDbSpline
62
7
6
CONTINUOUS
70
0
71
3
72
9
73
5
74
3
42
0.0000001000
43
0.0000001000
44
0.0000000001
40
0.0000000000
40
0.0000000000
40
0.0000000000
40
0.0000000000
40
0.1275023982
40
1.0000000000
40
1.0000000000
40
1.0000000000
40
1.0000000000
10
300.3781258933
20
220.2638159062
30
0.0000000000
10
300.3781105323
20
220.2649194502
30
0.0000000000
10
300.3779914900
20
220.2735745544
30
0.0000000000
10
300.3778836963
20
220.2822298114
30
0.0000000000
10
300.3777982137
20
220.2897815991
30
0.0000000000
11
300.3781258933
21
220.2638159062
31
0.0000000000
11
300.3780803588
21
220.2671265458
31
0.0000000000
11
300.3777982137
21
220.2897815991
31
0.0000000000
0
SPLINE
5
495
100
AcDbEntity
8
0
100
AcDbSpline
62
7
6
CONTINUOUS
70
0
71
3
72
9
73
5
74
3
42
0.0000001000
43
0.0000001000
44
0.0000000001
40
0.0000000000
40
0.0000000000
40
0.0000000000
40
0.0000000000
40
0.5731717218
40
1.0000000000
40
1.0000000000
40
1.0000000000
40
1.0000000000
10
300.3777982137
20
220.2897815991
30
0.0000000000
10
300.3777379782
20
220.2951029771
30
0.0000000000
10
300.3776403084
20
220.3043871513
30
0.0000000000
10
300.3775555915
20
220.3136714511
30
0.0000000000
10
300.3775217924
20
220.3176342729
30
0.0000000000
11
300.3777982137
21
220.2897815991
31
0.0000000000
11
300.3776302704
21
220.3057458706
31
0.0000000000
11
300.3775217924
21
220.3176342729
31
0.0000000000
0
SPLINE
5
496
100
AcDbEntity
8
0
100
AcDbSpline
62
7
6
CONTINUOUS
70
0
71
3
72
8
73
4
74
2
42
0.0000001000
43
0.0000001000
44
0.0000000001
40
0.0000000000
40
0.0000000000
40
0.0000000000
40
0.0000000000
40
1.0000000000
40
1.0000000000
40
1.0000000000
40
1.0000000000
10
300.3775217924
20
220.3176342729
30
0.0000000000
10
300.3774655233
20
220.3242316237
30
0.0000000000
10
300.3774157967
20
220.3308290302
30
0.0000000000
10
300.3773726161
20
220.3374264796
30
0.0000000000
11
300.3775217924
21
220.3176342729
31
0.0000000000
11
300.3773726161
21
220.3374264796
31
0.0000000000
0
SPLINE
5
497
100
AcDbEntity
8
0
100
AcDbSpline
62
7
6
CONTINUOUS
70
0
71
3
72
9
73
5
74
3
42
0.0000001000
43
0.0000001000
44
0.0000000001
40
0.0000000000
40
0.0000000000
40
0.0000000000
40
0.0000000000
40
0.1399439157
40
1.0000000000
40
1.0000000000
40
1.0000000000
40
1.0000000000
10
300.3773726161
20
220.3374264796
30
0.0000000000
10
300.3773623530
20
220.3389945510
30
0.0000000000
10
300.3772916581
20
220.3501995671
30
0.0000000000
10
300.3772398475
20
220.3614046981
30
0.0000000000
10
300.3772093523
20
220.3710417827
30
0.0000000000
11
300.3773726161
21
220.3374264796
31
0.0000000000
11
300.3773429362
21
220.3421307009
31
0.0000000000
11
300.3772093523
21
220.3710417827
31
0.0000000000
0
SPLINE
5
498
100
AcDbEntity
8
0
100
AcDbSpline
62
7
6
CONTINUOUS
70
0
71
3
72
9
73
5
74
3
42
0.0000001000
43
0.0000001000
44
0.0000000001
40
0.0000000000
40
0.0000000000
40
0.0000000000
40
0.0000000000
40
0.3031280471
40
1.0000000000
40
1.0000000000
40
1.0000000000
40
1.0000000000
10
300.3772093523
20
220.3710417827
30
0.0000000000
10
300.3772036509
20
220.3728435158
30
0.0000000000
10
300.3771864644
20
220.3787873225
30
0.0000000000
10
300.3771746348
20
220.3847311429
30
0.0000000000
10
300.3771690117
20
220.3888732279
30
0.0000000000
11
300.3772093523
21
220.3710417827
31
0.0000000000
11
300.3771937237
21
220.3764469861
31
0.0000000000
11
300.3771690117
21
220.3888732279
31
0.0000000000
0
SPLINE
5
499
100
AcDbEntity
8
0
100
AcDbSpline
62
7
6
CONTINUOUS
70
0
71
3
72
8
73
4
74
2
42
0.0000001000
43
0.0000001000
44
0.0000000001
40
0.0000000000
40
0.0000000000
40
0.0000000000
40
0.0000000000
40
1.0000000000
40
1.0000000000
40
1.0000000000
40
1.0000000000
10
300.3771690117
20
220.3888732279
30
0.0000000000
10
300.3771667642
20
220.3905287527
30
0.0000000000
10
300.3771649353
20
220.3921842780
30
0.0000000000
10
300.3771635262
20
220.3938398036
30
0.0000000000
11
300.3771690117
21
220.3888732279
31
0.0000000000
11
300.3771635262
21
220.3938398036
31
0.0000000000
0
SPLINE
5
49A
100
AcDbEntity
8
0
100
AcDbSpline
62
7
6
CONTINUOUS
70
0
71
3
72
17
73
13
74
11
42
0.0000001000
43
0.0000001000
44
0.0000000001
40
0.0000000000
40
0.0000000000
40
0.0000000000
40
0.0000000000
40
0.0449683170
40
0.1629685522
40
0.2796912016
40
0.3950153464
40
0.5088217001
40
0.6209934803
40
0.7314671034
40
0.8403321082
40
0.9473125097
40
1.0000000000
40
1.0000000000
40
1.0000000000
40
1.0000000000
10
300.4057905118
20
219.6469234917
30
0.0000000000
10
300.4052738876
20
219.6537343343
30
0.0000000000
10
300.4034269015
20
219.6784192571
30
0.0000000000
10
300.4004144260
20
219.7207958262
30
0.0000000000
10
300.3969279587
20
219.7738515525
30
0.0000000000
10
300.3937605540
20
219.8262891024
30
0.0000000000
10
300.3909051175
20
219.8780522707
30
0.0000000000
10
300.3883531212
20
219.9290936057
30
0.0000000000
10
300.3860938506
20
219.9793974206
30
0.0000000000
10
300.3841175341
20
220.0289239822
30
0.0000000000
10
300.3826917232
20
220.0696876459
30
0.0000000000
10
300.3819321631
20
220.0939283214
30
0.0000000000
10
300.3816911288
20
220.1019275913
30
0.0000000000
11
300.4057905118
21
219.6469234917
31
0.0000000000
11
300.4042615824
21
219.6673575934
31
0.0000000000
11
300.4004487586
21
219.7209926845
31
0.0000000000
11
300.3969611034
21
219.7740664876
31
0.0000000000
11
300.3937926210
21
219.8265218818
31
0.0000000000
11
300.3909362204
21
219.8783025295
31
0.0000000000
11
300.3883837531
21
219.9293532879
31
0.0000000000
11
300.3861251026
21
219.9796433036
31
0.0000000000
11
300.3841471232
21
220.0292115489
31
0.0000000000
11
300.3824430509
21
220.0779306728
31
0.0000000000
11
300.3816911288
21
220.1019275913
31
0.0000000000
0
SPLINE
5
49B
100
AcDbEntity
8
0
100
AcDbSpline
62
7
6
CONTINUOUS
70
0
71
3
72
9
73
5
74
3
42
0.0000001000
43
0.0000001000
44
0.0000000001
40
0.0000000000
40
0.0000000000
40
0.0000000000
40
0.0000000000
40
0.3373465977
40
1.0000000000
40
1.0000000000
40
1.0000000000
40
1.0000000000
10
300.3816911288
20
220.1019275913
30
0.0000000000
10
300.3814527364
20
220.1098391866
30
0.0000000000
10
300.3807739234
20
220.1332924495
30
0.0000000000
10
300.3801776923
20
220.1567480036
30
0.0000000000
10
300.3798188665
20
220.1722917432
30
0.0000000000
11
300.3816911288
21
220.1019275913
31
0.0000000000
11
300.3810041439
21
220.1256632042
31
0.0000000000
11
300.3798188665
21
220.1722917432
31
0.0000000000
0
SPLINE
5
49C
100
AcDbEntity
8
0
100
AcDbSpline
62
7
6
CONTINUOUS
70
0
71
3
72
13
73
9
74
7
42
0.0000001000
43
0.0000001000
44
0.0000000001
40
0.0000000000
40
0.0000000000
40
0.0000000000
40
0.0000000000
40
0.1999720153
40
0.3944879105
40
0.5837373732
40
0.7663147643
40
0.9254984342
40
1.0000000000
40
1.0000000000
40
1.0000000000
40
1.0000000000
10
300.3798188665
20
220.1722917432
30
0.0000000000
10
300.3794692590
20
220.1874361663
30
0.0000000000
10
300.3788475019
20
220.2173133730
30
0.0000000000
10
300.3781257601
20
220.2615273802
30
0.0000000000
10
300.3776127530
20
220.3044265067
30
0.0000000000
10
300.3773018506
20
220.3446509680
30
0.0000000000
10
300.3771810819
20
220.3761838755
30
0.0000000000
10
300.3771604455
20
220.3938861922
30
0.0000000000
10
300.3771588637
20
220.3995298969
30
0.0000000000
11
300.3798188665
21
220.1722917432
31
0.0000000000
11
300.3788733371
21
220.2177272394
31
0.0000000000
11
300.3781518424
21
220.2619267351
31
0.0000000000
11
300.3776375646
21
220.3049322028
31
0.0000000000
11
300.3773169630
21
220.3464232221
31
0.0000000000
11
300.3771783973
21
220.3825987933
31
0.0000000000
11
300.3771588637
21
220.3995298969
31
0.0000000000
0
SPLINE
5
49D
100
AcDbEntity
8
0
100
AcDbSpline
62
7
6
CONTINUOUS
70
0
71
3
72
8
73
4
74
2
42
0.0000001000
43
0.0000001000
44
0.0000000001
40
0.0000000000
40
0.0000000000
40
0.0000000000
40
0.0000000000
40
1.0000000000
40
1.0000000000
40
1.0000000000
40
1.0000000000
10
290.3368774945
20
219.5069896274
30
0.0000000000
10
290.3400467261
20
219.5421836012
30
0.0000000000
10
290.3430292855
20
219.5773952298
30
0.0000000000
10
290.3458249905
20
219.6126221329
30
0.0000000000
11
290.3368774945
21
219.5069896274
31
0.0000000000
11
290.3458249905
21
219.6126221329
31
0.0000000000
0
SPLINE
5
49E
100
AcDbEntity
8
0
100
AcDbSpline
62
7
6
CONTINUOUS
70
0
71
3
72
8
73
4
74
2
42
0.0000001000
43
0.0000001000
44
0.0000000001
40
0.0000000000
40
0.0000000000
40
0.0000000000
40
0.0000000000
40
1.0000000000
40
1.0000000000
40
1.0000000000
40
1.0000000000
10
290.3458249905
20
219.6126221329
30
0.0000000000
10
290.3468537460
20
219.6255848262
30
0.0000000000
10
290.3478572000
20
219.6385495877
30
0.0000000000
10
290.3488353435
20
219.6515162988
30
0.0000000000
11
290.3458249905
21
219.6126221329
31
0.0000000000
11
290.3488353435
21
219.6515162988
31
0.0000000000
0
SPLINE
5
49F
100
AcDbEntity
8
0
100
AcDbSpline
62
7
6
CONTINUOUS
70
0
71
3
72
8
73
4
74
2
42
0.0000001000
43
0.0000001000
44
0.0000000001
40
0.0000000000
40
0.0000000000
40
0.0000000000
40
0.0000000000
40
1.0000000000
40
1.0000000000
40
1.0000000000
40
1.0000000000
10
290.3494072165
20
219.6591361481
30
0.0000000000
10
290.3516489075
20
219.6891591073
30
0.0000000000
10
290.3537549151
20
219.7191923929
30
0.0000000000
10
290.3557251267
20
219.7492345331
30
0.0000000000
11
290.3494072165
21
219.6591361481
31
0.0000000000
11
290.3557251267
21
219.7492345331
31
0.0000000000
0
SPLINE
5
4A0
100
AcDbEntity
8
0
100
AcDbSpline
62
7
6
CONTINUOUS
70
0
71
3
72
8
73
4
74
2
42
0.0000001000
43
0.0000001000
44
0.0000000001
40
0.0000000000
40
0.0000000000
40
0.0000000000
40
0.0000000000
40
1.0000000000
40
1.0000000000
40
1.0000000000
40
1.0000000000
10
290.3557251267
20
219.7492345331
30
0.0000000000
10
290.3569476863
20
219.7678763428
30
0.0000000000
10
290.3581179581
20
219.7865215619
30
0.0000000000
10
290.3592359151
20
219.8051698388
30
0.0000000000
11
290.3557251267
21
219.7492345331
31
0.0000000000
11
290.3592359151
21
219.8051698388
31
0.0000000000
0
SPLINE
5
4A1
100
AcDbEntity
8
0
100
AcDbSpline
62
7
6
CONTINUOUS
70
0
71
3
72
8
73
4
74
2
42
0.0000001000
43
0.0000001000
44
0.0000000001
40
0.0000000000
40
0.0000000000
40
0.0000000000
40
0.0000000000
40
1.0000000000
40
1.0000000000
40
1.0000000000
40
1.0000000000
10
290.3592359151
20
219.8051698388
30
0.0000000000
10
290.3615171329
20
219.8432220926
30
0.0000000000
10
290.3635805257
20
219.8812870780
30
0.0000000000
10
290.3654259920
20
219.9193625493
30
0.0000000000
11
290.3592359151
21
219.8051698388
31
0.0000000000
11
290.3654259920
21
219.9193625493
31
0.0000000000
0
SPLINE
5
4A2
100
AcDbEntity
8
0
100
AcDbSpline
62
7
6
CONTINUOUS
70
0
71
3
72
8
73
4
74
2
42
0.0000001000
43
0.0000001000
44
0.0000000001
40
0.0000000000
40
0.0000000000
40
0.0000000000
40
0.0000000000
40
1.0000000000
40
1.0000000000
40
1.0000000000
40
1.0000000000
10
290.3654259920
20
219.9193625493
30
0.0000000000
10
290.3659272942
20
219.9297053646
30
0.0000000000
10
290.3664125160
20
219.9400489537
30
0.0000000000
10
290.3668816554
20
219.9503932715
30
0.0000000000
11
290.3654259920
21
219.9193625493
31
0.0000000000
11
290.3668816554
21
219.9503932715
31
0.0000000000
0
SPLINE
5
4A3
100
AcDbEntity
8
0
100
AcDbSpline
62
7
6
CONTINUOUS
70
0
71
3
72
8
73
4
74
2
42
0.0000001000
43
0.0000001000
44
0.0000000001
40
0.0000000000
40
0.0000000000
40
0.0000000000
40
0.0000000000
40
1.0000000000
40
1.0000000000
40
1.0000000000
40
1.0000000000
10
290.3668816554
20
219.9503932715
30
0.0000000000
10
290.3670105631
20
219.9532356297
30
0.0000000000
10
290.3671382565
20
219.9560780430
30
0.0000000000
10
290.3672647357
20
219.9589205103
30
0.0000000000
11
290.3668816554
21
219.9503932715
31
0.0000000000
11
290.3672647357
21
219.9589205103
31
0.0000000000
0
SPLINE
5
4A4
100
AcDbEntity
8
0
100
AcDbSpline
62
7
6
CONTINUOUS
70
0
71
3
72
8
73
4
74
2
42
0.0000001000
43
0.0000001000
44
0.0000000001
40
0.0000000000
40
0.0000000000
40
0.0000000000
40
0.0000000000
40
1.0000000000
40
1.0000000000
40
1.0000000000
40
1.0000000000
10
290.3721419234
20
220.0870358144
30
0.0000000000
10
290.3722882055
20
220.0916585229
30
0.0000000000
10
290.3724312775
20
220.0962813372
30
0.0000000000
10
290.3725711392
20
220.1009042534
30
0.0000000000
11
290.3721419234
21
220.0870358144
31
0.0000000000
11
290.3725711392
21
220.1009042534
31
0.0000000000
0
SPLINE
5
4A5
100
AcDbEntity
8
0
100
AcDbSpline
62
7
6
CONTINUOUS
70
0
71
3
72
8
73
4
74
2
42
0.0000001000
43
0.0000001000
44
0.0000000001
40
0.0000000000
40
0.0000000000
40
0.0000000000
40
0.0000000000
40
1.0000000000
40
1.0000000000
40
1.0000000000
40
1.0000000000
10
290.3725711392
20
220.1009042534
30
0.0000000000
10
290.3740601501
20
220.1501212452
30
0.0000000000
10
290.3751852941
20
220.1993498105
30
0.0000000000
10
290.3759464817
20
220.2485834936
30
0.0000000000
11
290.3725711392
21
220.1009042534
31
0.0000000000
11
290.3759464817
21
220.2485834936
31
0.0000000000
0
SPLINE
5
4A6
100
AcDbEntity
8
0
100
AcDbSpline
62
7
6
CONTINUOUS
70
0
71
3
72
8
73
4
74
2
42
0.0000001000
43
0.0000001000
44
0.0000000001
40
0.0000000000
40
0.0000000000
40
0.0000000000
40
0.0000000000
40
1.0000000000
40
1.0000000000
40
1.0000000000
40
1.0000000000
10
290.3759464817
20
220.2485834936
30
0.0000000000
10
290.3759944091
20
220.2516834413
30
0.0000000000
10
290.3760408936
20
220.2547834094
30
0.0000000000
10
290.3760859352
20
220.2578833960
30
0.0000000000
11
290.3759464817
21
220.2485834936
31
0.0000000000
11
290.3760859352
21
220.2578833960
31
0.0000000000
0
SPLINE
5
4A7
100
AcDbEntity
8
0
100
AcDbSpline
62
7
6
CONTINUOUS
70
0
71
3
72
8
73
4
74
2
42
0.0000001000
43
0.0000001000
44
0.0000000001
40
0.0000000000
40
0.0000000000
40
0.0000000000
40
0.0000000000
40
1.0000000000
40
1.0000000000
40
1.0000000000
40
1.0000000000
10
290.3763577952
20
220.2779864835
30
0.0000000000
10
290.3766047789
20
220.2977183330
30
0.0000000000
10
290.3767933037
20
220.3174507979
30
0.0000000000
10
290.3769233641
20
220.3371834625
30
0.0000000000
11
290.3763577952
21
220.2779864835
31
0.0000000000
11
290.3769233641
21
220.3371834625
31
0.0000000000
0
SPLINE
5
4A8
100
AcDbEntity
8
0
100
AcDbSpline
62
7
6
CONTINUOUS
70
0
71
3
72
8
73
4
74
2
42
0.0000001000
43
0.0000001000
44
0.0000000001
40
0.0000000000
40
0.0000000000
40
0.0000000000
40
0.0000000000
40
1.0000000000
40
1.0000000000
40
1.0000000000
40
1.0000000000
10
290.3769233641
20
220.3371834625
30
0.0000000000
10
290.3770676746
20
220.3590781522
30
0.0000000000
10
290.3771400073
20
220.3809730878
30
0.0000000000
10
290.3771403543
20
220.4028677014
30
0.0000000000
11
290.3769233641
21
220.3371834625
31
0.0000000000
11
290.3771403543
21
220.4028677014
31
0.0000000000
0
SPLINE
5
4A9
100
AcDbEntity
8
0
100
AcDbSpline
62
7
6
CONTINUOUS
70
0
71
3
72
11
73
7
74
5
42
0.0000001000
43
0.0000001000
44
0.0000000001
40
0.0000000000
40
0.0000000000
40
0.0000000000
40
0.0000000000
40
0.0623899754
40
0.4375145297
40
0.8126285211
40
1.0000000000
40
1.0000000000
40
1.0000000000
40
1.0000000000
10
122.0867747971
20
119.1891379625
30
0.0000000000
10
122.0717402823
20
119.1907999943
30
0.0000000000
10
121.9665799070
20
119.2048462353
30
0.0000000000
10
121.7764520731
20
119.2620868842
30
0.0000000000
10
121.5828746619
20
119.3846122252
30
0.0000000000
10
121.4846667850
20
119.4797652704
30
0.0000000000
10
121.4542645095
20
119.5134877866
30
0.0000000000
11
122.0867747971
21
119.1891379625
31
0.0000000000
11
122.0418052191
21
119.1951470630
31
0.0000000000
11
121.7816091632
21
119.2733864401
31
0.0000000000
11
121.5520842161
21
119.4187739527
31
0.0000000000
11
121.4542645095
21
119.5134877866
31
0.0000000000
0
SPLINE
5
4AA
100
AcDbEntity
8
0
100
AcDbSpline
62
7
6
CONTINUOUS
70
0
71
3
72
8
73
4
74
2
42
0.0000001000
43
0.0000001000
44
0.0000000001
40
0.0000000000
40
0.0000000000
40
0.0000000000
40
0.0000000000
40
1.0000000000
40
1.0000000000
40
1.0000000000
40
1.0000000000
10
121.4542645095
20
119.5134877866
30
0.0000000000
10
121.4503538815
20
119.5178254954
30
0.0000000000
10
121.4464815082
20
119.5221967214
30
0.0000000000
10
121.4426480779
20
119.5266006635
30
0.0000000000
11
121.4542645095
21
119.5134877866
31
0.0000000000
11
121.4426480779
21
119.5266006635
31
0.0000000000
0
SPLINE
5
4AB
100
AcDbEntity
8
0
100
AcDbSpline
62
7
6
CONTINUOUS
70
0
71
3
72
8
73
4
74
2
42
0.0000001000
43
0.0000001000
44
0.0000000001
40
0.0000000000
40
0.0000000000
40
0.0000000000
40
0.0000000000
40
1.0000000000
40
1.0000000000
40
1.0000000000
40
1.0000000000
10
121.4426480779
20
119.5266006635
30
0.0000000000
10
121.4166220180
20
119.5565000623
30
0.0000000000
10
121.3923909864
20
119.5879074659
30
0.0000000000
10
121.3701703652
20
119.6205721561
30
0.0000000000
11
121.4426480779
21
119.5266006635
31
0.0000000000
11
121.3701703652
21
119.6205721561
31
0.0000000000
0
SPLINE
5
4AC
100
AcDbEntity
8
0
100
AcDbSpline
62
7
6
CONTINUOUS
70
0
71
3
72
8
73
4
74
2
42
0.0000001000
43
0.0000001000
44
0.0000000001
40
0.0000000000
40
0.0000000000
40
0.0000000000
40
0.0000000000
40
1.0000000000
40
1.0000000000
40
1.0000000000
40
1.0000000000
10
100.6674993850
20
119.6206104713
30
0.0000000000
10
100.6420061969
20
119.5831313060
30
0.0000000000
10
100.6138663748
20
119.5473071351
30
0.0000000000
10
100.5834052182
20
119.5135166579
30
0.0000000000
11
100.6674993850
21
119.6206104713
31
0.0000000000
11
100.5834052182
21
119.5135166579
31
0.0000000000
0
SPLINE
5
4AD
100
AcDbEntity
8
0
100
AcDbSpline
62
7
6
CONTINUOUS
70
0
71
3
72
11
73
7
74
5
42
0.0000001000
43
0.0000001000
44
0.0000000001
40
0.0000000000
40
0.0000000000
40
0.0000000000
40
0.0000000000
40
0.1873713653
40
0.5624832975
40
0.9376032364
40
1.0000000000
40
1.0000000000
40
1.0000000000
40
1.0000000000
10
100.5834052182
20
119.5135166579
30
0.0000000000
10
100.5530026975
20
119.4797912254
30
0.0000000000
10
100.4547934546
20
119.3846300817
30
0.0000000000
10
100.2612103917
20
119.2620942263
30
0.0000000000
10
100.0710733502
20
119.2048479123
30
0.0000000000
10
99.9659070611
20
119.1908003627
30
0.0000000000
10
99.9508701333
20
119.1891380456
30
0.0000000000
11
100.5834052182
21
119.5135166579
31
0.0000000000
11
100.4855838622
21
119.4187944926
31
0.0000000000
11
100.2560520766
21
119.2733943998
31
0.0000000000
11
99.9958469041
21
119.1951483299
31
0.0000000000
11
99.9508701333
21
119.1891380456
31
0.0000000000
0
SPLINE
5
4AE
100
AcDbEntity
8
0
100
AcDbSpline
62
7
6
CONTINUOUS
70
0
71
3
72
11
73
7
74
5
42
0.0000001000
43
0.0000001000
44
0.0000000001
40
0.0000000000
40
0.0000000000
40
0.0000000000
40
0.0000000000
40
0.0623899754
40
0.4375145297
40
0.8126285211
40
1.0000000000
40
1.0000000000
40
1.0000000000
40
1.0000000000
10
99.9508688501
20
106.0377791967
30
0.0000000000
10
99.9659033649
20
106.0361171649
30
0.0000000000
10
100.0710637402
20
106.0220709239
30
0.0000000000
10
100.2611915741
20
105.9648302750
30
0.0000000000
10
100.4547689853
20
105.8423049340
30
0.0000000000
10
100.5529768623
20
105.7471518887
30
0.0000000000
10
100.5833791378
20
105.7134293725
30
0.0000000000
11
99.9508688501
21
106.0377791967
31
0.0000000000
11
99.9958384282
21
106.0317700962
31
0.0000000000
11
100.2560344840
21
105.9535307191
31
0.0000000000
11
100.4855594312
21
105.8081432065
31
0.0000000000
11
100.5833791378
21
105.7134293725
31
0.0000000000
0
SPLINE
5
4AF
100
AcDbEntity
8
0
100
AcDbSpline
62
7
6
CONTINUOUS
70
0
71
3
72
8
73
4
74
2
42
0.0000001000
43
0.0000001000
44
0.0000000001
40
0.0000000000
40
0.0000000000
40
0.0000000000
40
0.0000000000
40
1.0000000000
40
1.0000000000
40
1.0000000000
40
1.0000000000
10
100.5833791378
20
105.7134293725
30
0.0000000000
10
100.5872897658
20
105.7090916638
30
0.0000000000
10
100.5911621390
20
105.7047204378
30
0.0000000000
10
100.5949955693
20
105.7003164957
30
0.0000000000
11
100.5833791378
21
105.7134293725
31
0.0000000000
11
100.5949955693
21
105.7003164957
31
0.0000000000
0
SPLINE
5
4B0
100
AcDbEntity
8
0
100
AcDbSpline
62
7
6
CONTINUOUS
70
0
71
3
72
8
73
4
74
2
42
0.0000001000
43
0.0000001000
44
0.0000000001
40
0.0000000000
40
0.0000000000
40
0.0000000000
40
0.0000000000
40
1.0000000000
40
1.0000000000
40
1.0000000000
40
1.0000000000
10
100.5949955693
20
105.7003164957
30
0.0000000000
10
100.6210216292
20
105.6704170969
30
0.0000000000
10
100.6452526608
20
105.6390096933
30
0.0000000000
10
100.6674732820
20
105.6063450031
30
0.0000000000
11
100.5949955693
21
105.7003164957
31
0.0000000000
11
100.6674732820
21
105.6063450031
31
0.0000000000
0
SPLINE
5
4B1
100
AcDbEntity
8
0
100
AcDbSpline
62
7
6
CONTINUOUS
70
0
71
3
72
8
73
4
74
2
42
0.0000001000
43
0.0000001000
44
0.0000000001
40
0.0000000000
40
0.0000000000
40
0.0000000000
40
0.0000000000
40
1.0000000000
40
1.0000000000
40
1.0000000000
40
1.0000000000
10
121.3701442622
20
105.6063066879
30
0.0000000000
10
121.3956374504
20
105.6437858532
30
0.0000000000
10
121.4237772725
20
105.6796100241
30
0.0000000000
10
121.4542384291
20
105.7134005013
30
0.0000000000
11
121.3701442622
21
105.6063066879
31
0.0000000000
11
121.4542384291
21
105.7134005013
31
0.0000000000
0
SPLINE
5
4B2
100
AcDbEntity
8
0
100
AcDbSpline
62
7
6
CONTINUOUS
70
0
71
3
72
11
73
7
74
5
42
0.0000001000
43
0.0000001000
44
0.0000000001
40
0.0000000000
40
0.0000000000
40
0.0000000000
40
0.0000000000
40
0.1873713653
40
0.5624832975
40
0.9376032364
40
1.0000000000
40
1.0000000000
40
1.0000000000
40
1.0000000000
10
121.4542384291
20
105.7134005013
30
0.0000000000
10
121.4846409497
20
105.7471259338
30
0.0000000000
10
121.5828501926
20
105.8422870775
30
0.0000000000
10
121.7764332555
20
105.9648229329
30
0.0000000000
10
121.9665702970
20
106.0220692469
30
0.0000000000
10
122.0717365862
20
106.0361167965
30
0.0000000000
10
122.0867735139
20
106.0377791136
30
0.0000000000
11
121.4542384291
21
105.7134005013
31
0.0000000000
11
121.5520597850
21
105.8081226666
31
0.0000000000
11
121.7815915706
21
105.9535227594
31
0.0000000000
11
122.0417967431
21
106.0317688293
31
0.0000000000
11
122.0867735139
21
106.0377791136
31
0.0000000000
0
SPLINE
5
4B3
100
AcDbEntity
8
0
100
AcDbSpline
62
7
6
CONTINUOUS
70
0
71
3
72
16
73
12
74
10
42
0.0000001000
43
0.0000001000
44
0.0000000001
40
0.0000000000
40
0.0000000000
40
0.0000000000
40
0.0000000000
40
0.1276025837
40
0.2778739068
40
0.4196308573
40
0.5514657973
40
0.6722464801
40
0.7812449572
40
0.8780358439
40
0.9624510296
40
1.0000000000
40
1.0000000000
40
1.0000000000
40
1.0000000000
10
95.9592987383
20
106.2087621028
30
0.0000000000
10
96.1214417706
20
106.2087659011
30
0.0000000000
10
96.4745346705
20
106.2072127185
30
0.0000000000
10
97.0077092020
20
106.1997027421
30
0.0000000000
10
97.5461551226
20
106.1865723971
30
0.0000000000
10
98.0469827636
20
106.1691046005
30
0.0000000000
10
98.5060121750
20
106.1481631435
30
0.0000000000
10
98.9203160376
20
106.1245591686
30
0.0000000000
10
99.2882092134
20
106.0991223718
30
0.0000000000
10
99.5652346392
20
106.0762370206
30
0.0000000000
10
99.7195444747
20
106.0617029568
30
0.0000000000
10
99.7670287747
20
106.0570224338
30
0.0000000000
11
95.9592987383
21
106.2087621028
31
0.0000000000
11
96.4457228967
21
106.2066182736
31
0.0000000000
11
97.0185080259
21
106.1985388454
31
0.0000000000
11
97.5587303933
21
106.1852870746
31
0.0000000000
11
98.0609834558
21
106.1676780031
31
0.0000000000
11
98.5209215463
21
106.1465686825
31
0.0000000000
11
98.9357484167
21
106.1227893164
31
0.0000000000
11
99.3038291524
21
106.0971605205
31
0.0000000000
11
99.6245165936
21
106.0704839249
31
0.0000000000
11
99.7670287747
21
106.0570224338
31
0.0000000000
0
SPLINE
5
4B4
100
AcDbEntity
8
0
100
AcDbSpline
62
7
6
CONTINUOUS
70
0
71
3
72
8
73
4
74
2
42
0.0000001000
43
0.0000001000
44
0.0000000001
40
0.0000000000
40
0.0000000000
40
0.0000000000
40
0.0000000000
40
1.0000000000
40
1.0000000000
40
1.0000000000
40
1.0000000000
10
99.7670287747
20
106.0570224338
30
0.0000000000
10
99.8107298457
20
106.0527148233
30
0.0000000000
10
99.8544115212
20
106.0482327841
30
0.0000000000
10
99.8980664609
20
106.0435469030
30
0.0000000000
11
99.7670287747
21
106.0570224338
31
0.0000000000
11
99.8980664609
21
106.0435469030
31
0.0000000000
0
SPLINE
5
4B5
100
AcDbEntity
8
0
100
AcDbSpline
62
7
6
CONTINUOUS
70
0
71
3
72
8
73
4
74
2
42
0.0000001000
43
0.0000001000
44
0.0000000001
40
0.0000000000
40
0.0000000000
40
0.0000000000
40
0.0000000000
40
1.0000000000
40
1.0000000000
40
1.0000000000
40
1.0000000000
10
99.8980664609
20
106.0435469030
30
0.0000000000
10
99.9157070066
20
106.0416533830
30
0.0000000000
10
99.9333431866
20
106.0397265779
30
0.0000000000
10
99.9509756578
20
106.0377650207
30
0.0000000000
11
99.8980664609
21
106.0435469030
31
0.0000000000
11
99.9509756578
21
106.0377650207
31
0.0000000000
0
SPLINE
5
4B6
100
AcDbEntity
8
0
100
AcDbSpline
62
7
6
CONTINUOUS
70
0
71
3
72
9
73
5
74
3
42
0.0000001000
43
0.0000001000
44
0.0000000001
40
0.0000000000
40
0.0000000000
40
0.0000000000
40
0.0000000000
40
0.2637407672
40
1.0000000000
40
1.0000000000
40
1.0000000000
40
1.0000000000
10
95.0160354795
20
106.2322589405
30
0.0000000000
10
95.0346726773
20
106.2281468418
30
0.0000000000
10
95.1058024568
20
106.2145810168
30
0.0000000000
10
95.1783042473
20
106.2088203328
30
0.0000000000
10
95.2316128795
20
106.2088097760
30
0.0000000000
11
95.0160354795
21
106.2322589405
31
0.0000000000
11
95.0722877585
21
106.2215340389
31
0.0000000000
11
95.2316128795
21
106.2088097760
31
0.0000000000
0
SPLINE
5
4B7
100
AcDbEntity
8
0
100
AcDbSpline
62
7
6
CONTINUOUS
70
0
71
3
72
8
73
4
74
2
42
0.0000001000
43
0.0000001000
44
0.0000000001
40
0.0000000000
40
0.0000000000
40
0.0000000000
40
0.0000000000
40
1.0000000000
40
1.0000000000
40
1.0000000000
40
1.0000000000
10
95.2316128698
20
119.0181569512
30
0.0000000000
10
95.1594260370
20
119.0181569512
30
0.0000000000
10
95.0869570172
20
119.0102579054
30
0.0000000000
10
95.0162209130
20
118.9946767136
30
0.0000000000
11
95.2316128698
21
119.0181569512
31
0.0000000000
11
95.0162209130
21
118.9946767136
31
0.0000000000
0
SPLINE
5
4B8
100
AcDbEntity
8
0
100
AcDbSpline
62
7
6
CONTINUOUS
70
0
71
3
72
8
73
4
74
2
42
0.0000001000
43
0.0000001000
44
0.0000000001
40
0.0000000000
40
0.0000000000
40
0.0000000000
40
0.0000000000
40
1.0000000000
40
1.0000000000
40
1.0000000000
40
1.0000000000
10
99.9509754326
20
119.1891556703
30
0.0000000000
10
99.9403675326
20
119.1879720330
30
0.0000000000
10
99.9297596152
20
119.1868013832
30
0.0000000000
10
99.9191551023
20
119.1856441701
30
0.0000000000
11
99.9509754326
21
119.1891556703
31
0.0000000000
11
99.9191551023
21
119.1856441701
31
0.0000000000
0
SPLINE
5
4B9
100
AcDbEntity
8
0
100
AcDbSpline
62
7
6
CONTINUOUS
70
0
71
3
72
8
73
4
74
2
42
0.0000001000
43
0.0000001000
44
0.0000000001
40
0.0000000000
40
0.0000000000
40
0.0000000000
40
0.0000000000
40
1.0000000000
40
1.0000000000
40
1.0000000000
40
1.0000000000
10
99.9191551023
20
119.1856441701
30
0.0000000000
10
99.8754683864
20
119.1808768749
30
0.0000000000
10
99.8318394517
20
119.1763376168
30
0.0000000000
10
99.7882249192
20
119.1719843142
30
0.0000000000
11
99.9191551023
21
119.1856441701
31
0.0000000000
11
99.7882249192
21
119.1719843142
31
0.0000000000
0
SPLINE
5
4BA
100
AcDbEntity
8
0
100
AcDbSpline
62
7
6
CONTINUOUS
70
0
71
3
72
8
73
4
74
2
42
0.0000001000
43
0.0000001000
44
0.0000000001
40
0.0000000000
40
0.0000000000
40
0.0000000000
40
0.0000000000
40
1.0000000000
40
1.0000000000
40
1.0000000000
40
1.0000000000
10
99.7882249192
20
119.1719843142
30
0.0000000000
10
99.7785444960
20
119.1710180810
30
0.0000000000
10
99.7688647823
20
119.1700610086
30
0.0000000000
10
99.7591853039
20
119.1691126370
30
0.0000000000
11
99.7882249192
21
119.1719843142
31
0.0000000000
11
99.7591853039
21
119.1691126370
31
0.0000000000
0
SPLINE
5
4BB
100
AcDbEntity
8
0
100
AcDbSpline
62
7
6
CONTINUOUS
70
0
71
3
72
16
73
12
74
10
42
0.0000001000
43
0.0000001000
44
0.0000000001
40
0.0000000000
40
0.0000000000
40
0.0000000000
40
0.0000000000
40
0.0299858033
40
0.1146515642
40
0.2119755379
40
0.3218339217
40
0.4437996380
40
0.5771312246
40
0.7206633994
40
0.8729359538
40
1.0000000000
40
1.0000000000
40
1.0000000000
40
1.0000000000
10
99.7591853039
20
119.1691126370
30
0.0000000000
10
99.7213647811
20
119.1654070745
30
0.0000000000
10
99.5767706747
20
119.1517466428
30
0.0000000000
10
99.3087676285
20
119.1293388044
30
0.0000000000
10
98.9396163670
20
119.1035643328
30
0.0000000000
10
98.5228902166
20
119.0796049216
30
0.0000000000
10
98.0603248903
20
119.0583327992
30
0.0000000000
10
97.5548743468
20
119.0405835964
30
0.0000000000
10
97.0108453551
20
119.0272535194
30
0.0000000000
10
96.4746541074
20
119.0196998072
30
0.0000000000
10
96.1204276770
20
119.0181513316
30
0.0000000000
10
95.9592987681
20
119.0181550774
30
0.0000000000
11
99.7591853039
21
119.1691126370
31
0.0000000000
11
99.6457062131
21
119.1583670009
31
0.0000000000
11
99.3247493585
21
119.1313620552
31
0.0000000000
11
98.9554159417
21
119.1053809613
31
0.0000000000
11
98.5381832458
21
119.0812430569
31
0.0000000000
11
98.0746893531
21
119.0597962000
31
0.0000000000
11
97.5677765426
21
119.0419005754
31
0.0000000000
11
97.0219080415
21
119.0284443083
31
0.0000000000
11
96.4426806420
21
119.0202721230
31
0.0000000000
11
95.9592987681
21
119.0181550774
31
0.0000000000
0
SPLINE
5
4BC
100
AcDbEntity
8
0
100
AcDbSpline
62
7
6
CONTINUOUS
70
0
71
3
72
16
73
12
74
10
42
0.0000001000
43
0.0000001000
44
0.0000000001
40
0.0000000000
40
0.0000000000
40
0.0000000000
40
0.0000000000
40
0.1276025837
40
0.2778739068
40
0.4196308573
40
0.5514657973
40
0.6722464801
40
0.7812449572
40
0.8780358439
40
0.9624510296
40
1.0000000000
40
1.0000000000
40
1.0000000000
40
1.0000000000
10
126.0783449090
20
119.0181550564
30
0.0000000000
10
125.9162018766
20
119.0181512580
30
0.0000000000
10
125.5631089767
20
119.0197044407
30
0.0000000000
10
125.0299344453
20
119.0272144171
30
0.0000000000
10
124.4914885246
20
119.0403447621
30
0.0000000000
10
123.9906608837
20
119.0578125587
30
0.0000000000
10
123.5316314722
20
119.0787540157
30
0.0000000000
10
123.1173276097
20
119.1023579906
30
0.0000000000
10
122.7494344339
20
119.1277947873
30
0.0000000000
10
122.4724090081
20
119.1506801386
30
0.0000000000
10
122.3180991726
20
119.1652142024
30
0.0000000000
10
122.2706148725
20
119.1698947254
30
0.0000000000
11
126.0783449090
21
119.0181550564
31
0.0000000000
11
125.5919207505
21
119.0202988856
31
0.0000000000
11
125.0191356213
21
119.0283783138
31
0.0000000000
11
124.4789132539
21
119.0416300846
31
0.0000000000
11
123.9766601915
21
119.0592391560
31
0.0000000000
11
123.5167221010
21
119.0803484767
31
0.0000000000
11
123.1018952306
21
119.1041278428
31
0.0000000000
11
122.7338144949
21
119.1297566387
31
0.0000000000
11
122.4131270537
21
119.1564332343
31
0.0000000000
11
122.2706148725
21
119.1698947254
31
0.0000000000
0
SPLINE
5
4BD
100
AcDbEntity
8
0
100
AcDbSpline
62
7
6
CONTINUOUS
70
0
71
3
72
8
73
4
74
2
42
0.0000001000
43
0.0000001000
44
0.0000000001
40
0.0000000000
40
0.0000000000
40
0.0000000000
40
0.0000000000
40
1.0000000000
40
1.0000000000
40
1.0000000000
40
1.0000000000
10
122.2706148725
20
119.1698947254
30
0.0000000000
10
122.2269138015
20
119.1742023359
30
0.0000000000
10
122.1832321260
20
119.1786843751
30
0.0000000000
10
122.1395771863
20
119.1833702562
30
0.0000000000
11
122.2706148725
21
119.1698947254
31
0.0000000000
11
122.1395771863
21
119.1833702562
31
0.0000000000
0
SPLINE
5
4BE
100
AcDbEntity
8
0
100
AcDbSpline
62
7
6
CONTINUOUS
70
0
71
3
72
8
73
4
74
2
42
0.0000001000
43
0.0000001000
44
0.0000000001
40
0.0000000000
40
0.0000000000
40
0.0000000000
40
0.0000000000
40
1.0000000000
40
1.0000000000
40
1.0000000000
40
1.0000000000
10
122.1395771863
20
119.1833702562
30
0.0000000000
10
122.1219366406
20
119.1852637762
30
0.0000000000
10
122.1043004606
20
119.1871905813
30
0.0000000000
10
122.0866679894
20
119.1891521385
30
0.0000000000
11
122.1395771863
21
119.1833702562
31
0.0000000000
11
122.0866679894
21
119.1891521385
31
0.0000000000
0
SPLINE
5
4BF
100
AcDbEntity
8
0
100
AcDbSpline
62
7
6
CONTINUOUS
70
0
71
3
72
9
73
5
74
3
42
0.0000001000
43
0.0000001000
44
0.0000000001
40
0.0000000000
40
0.0000000000
40
0.0000000000
40
0.0000000000
40
0.2637407672
40
1.0000000000
40
1.0000000000
40
1.0000000000
40
1.0000000000
10
127.0216081677
20
118.9946582186
30
0.0000000000
10
127.0029709700
20
118.9987703174
30
0.0000000000
10
126.9318411904
20
119.0123361424
30
0.0000000000
10
126.8593394000
20
119.0180968263
30
0.0000000000
10
126.8060307678
20
119.0181073832
30
0.0000000000
11
127.0216081677
21
118.9946582186
31
0.0000000000
11
126.9653558887
21
119.0053831203
31
0.0000000000
11
126.8060307678
21
119.0181073832
31
0.0000000000
0
SPLINE
5
4C0
100
AcDbEntity
8
0
100
AcDbSpline
62
7
6
CONTINUOUS
70
0
71
3
72
8
73
4
74
2
42
0.0000001000
43
0.0000001000
44
0.0000000001
40
0.0000000000
40
0.0000000000
40
0.0000000000
40
0.0000000000
40
1.0000000000
40
1.0000000000
40
1.0000000000
40
1.0000000000
10
126.8060307774
20
106.2087602080
30
0.0000000000
10
126.8782176103
20
106.2087602080
30
0.0000000000
10
126.9506866300
20
106.2166592538
30
0.0000000000
10
127.0214227342
20
106.2322404456
30
0.0000000000
11
126.8060307774
21
106.2087602080
31
0.0000000000
11
127.0214227342
21
106.2322404456
31
0.0000000000
0
SPLINE
5
4C1
100
AcDbEntity
8
0
100
AcDbSpline
62
7
6
CONTINUOUS
70
0
71
3
72
8
73
4
74
2
42
0.0000001000
43
0.0000001000
44
0.0000000001
40
0.0000000000
40
0.0000000000
40
0.0000000000
40
0.0000000000
40
1.0000000000
40
1.0000000000
40
1.0000000000
40
1.0000000000
10
122.0866682146
20
106.0377614888
30
0.0000000000
10
122.0972761146
20
106.0389451262
30
0.0000000000
10
122.1078840321
20
106.0401157760
30
0.0000000000
10
122.1184885449
20
106.0412729891
30
0.0000000000
11
122.0866682146
21
106.0377614888
31
0.0000000000
11
122.1184885449
21
106.0412729891
31
0.0000000000
0
SPLINE
5
4C2
100
AcDbEntity
8
0
100
AcDbSpline
62
7
6
CONTINUOUS
70
0
71
3
72
8
73
4
74
2
42
0.0000001000
43
0.0000001000
44
0.0000000001
40
0.0000000000
40
0.0000000000
40
0.0000000000
40
0.0000000000
40
1.0000000000
40
1.0000000000
40
1.0000000000
40
1.0000000000
10
122.1184885449
20
106.0412729891
30
0.0000000000
10
122.1621752608
20
106.0460402843
30
0.0000000000
10
122.2058041955
20
106.0505795424
30
0.0000000000
10
122.2494187281
20
106.0549328449
30
0.0000000000
11
122.1184885449
21
106.0412729891
31
0.0000000000
11
122.2494187281
21
106.0549328449
31
0.0000000000
0
SPLINE
5
4C3
100
AcDbEntity
8
0
100
AcDbSpline
62
7
6
CONTINUOUS
70
0
71
3
72
8
73
4
74
2
42
0.0000001000
43
0.0000001000
44
0.0000000001
40
0.0000000000
40
0.0000000000
40
0.0000000000
40
0.0000000000
40
1.0000000000
40
1.0000000000
40
1.0000000000
40
1.0000000000
10
122.2494187281
20
106.0549328449
30
0.0000000000
10
122.2590991512
20
106.0558990782
30
0.0000000000
10
122.2687788649
20
106.0568561505
30
0.0000000000
10
122.2784583434
20
106.0578045222
30
0.0000000000
11
122.2494187281
21
106.0549328449
31
0.0000000000
11
122.2784583434
21
106.0578045222
31
0.0000000000
0
SPLINE
5
4C4
100
AcDbEntity
8
0
100
AcDbSpline
62
7
6
CONTINUOUS
70
0
71
3
72
16
73
12
74
10
42
0.0000001000
43
0.0000001000
44
0.0000000001
40
0.0000000000
40
0.0000000000
40
0.0000000000
40
0.0000000000
40
0.0299858033
40
0.1146515642
40
0.2119755379
40
0.3218339217
40
0.4437996380
40
0.5771312246
40
0.7206633994
40
0.8729359538
40
1.0000000000
40
1.0000000000
40
1.0000000000
40
1.0000000000
10
122.2784583434
20
106.0578045222
30
0.0000000000
10
122.3162788662
20
106.0615100847
30
0.0000000000
10
122.4608729725
20
106.0751705164
30
0.0000000000
10
122.7288760187
20
106.0975783548
30
0.0000000000
10
123.0980272803
20
106.1233528264
30
0.0000000000
10
123.5147534306
20
106.1473122376
30
0.0000000000
10
123.9773187569
20
106.1685843600
30
0.0000000000
10
124.4827693004
20
106.1863335628
30
0.0000000000
10
125.0267982922
20
106.1996636398
30
0.0000000000
10
125.5629895399
20
106.2072173520
30
0.0000000000
10
125.9172159702
20
106.2087658276
30
0.0000000000
10
126.0783448791
20
106.2087620818
30
0.0000000000
11
122.2784583434
21
106.0578045222
31
0.0000000000
11
122.3919374342
21
106.0685501583
31
0.0000000000
11
122.7128942888
21
106.0955551039
31
0.0000000000
11
123.0822277056
21
106.1215361979
31
0.0000000000
11
123.4994604014
21
106.1456741023
31
0.0000000000
11
123.9629542942
21
106.1671209592
31
0.0000000000
11
124.4698671047
21
106.1850165837
31
0.0000000000
11
125.0157356057
21
106.1984728509
31
0.0000000000
11
125.5949630052
21
106.2066450362
31
0.0000000000
11
126.0783448791
21
106.2087620818
31
0.0000000000
0
SPLINE
5
4C5
100
AcDbEntity
8
0
100
AcDbSpline
62
7
6
CONTINUOUS
70
0
71
3
72
8
73
4
74
2
42
0.0000001000
43
0.0000001000
44
0.0000000001
40
0.0000000000
40
0.0000000000
40
0.0000000000
40
0.0000000000
40
1.0000000000
40
1.0000000000
40
1.0000000000
40
1.0000000000
10
133.8510349938
20
117.3013667071
30
0.0000000000
10
133.8380728953
20
117.3151746137
30
0.0000000000
10
133.8247268065
20
117.3286223389
30
0.0000000000
10
133.8110200032
20
117.3416914361
30
0.0000000000
11
133.8510349938
21
117.3013667071
31
0.0000000000
11
133.8110200032
21
117.3416914361
31
0.0000000000
0
SPLINE
5
4C6
100
AcDbEntity
8
0
100
AcDbSpline
62
7
6
CONTINUOUS
70
0
71
3
72
8
73
4
74
2
42
0.0000001000
43
0.0000001000
44
0.0000000001
40
0.0000000000
40
0.0000000000
40
0.0000000000
40
0.0000000000
40
1.0000000000
40
1.0000000000
40
1.0000000000
40
1.0000000000
10
133.8110200032
20
117.3416914361
30
0.0000000000
10
133.8035262352
20
117.3488365582
30
0.0000000000
10
133.7959246491
20
117.3558685077
30
0.0000000000
10
133.7882190485
20
117.3627842703
30
0.0000000000
11
133.8110200032
21
117.3416914361
31
0.0000000000
11
133.7882190485
21
117.3627842703
31
0.0000000000
0
SPLINE
5
4C7
100
AcDbEntity
8
0
100
AcDbSpline
62
7
6
CONTINUOUS
70
0
71
3
72
8
73
4
74
2
42
0.0000001000
43
0.0000001000
44
0.0000000001
40
0.0000000000
40
0.0000000000
40
0.0000000000
40
0.0000000000
40
1.0000000000
40
1.0000000000
40
1.0000000000
40
1.0000000000
10
133.7882190485
20
117.3627842703
30
0.0000000000
10
133.7628590824
20
117.3855447940
30
0.0000000000
10
133.7363724945
20
117.4070468511
30
0.0000000000
10
133.7088948740
20
117.4271829839
30
0.0000000000
11
133.7882190485
21
117.3627842703
31
0.0000000000
11
133.7088948740
21
117.4271829839
31
0.0000000000
0
SPLINE
5
4C8
100
AcDbEntity
8
0
100
AcDbSpline
62
7
6
CONTINUOUS
70
0
71
3
72
10
73
6
74
4
42
0.0000001000
43
0.0000001000
44
0.0000000001
40
0.0000000000
40
0.0000000000
40
0.0000000000
40
0.0000000000
40
0.4298597555
40
0.7987154775
40
1.0000000000
40
1.0000000000
40
1.0000000000
40
1.0000000000
10
133.7088948740
20
117.4271829839
30
0.0000000000
10
133.6522790221
20
117.4686721774
30
0.0000000000
10
133.5392644626
20
117.5349877655
30
0.0000000000
10
133.3856868180
20
117.5913668651
30
0.0000000000
10
133.2954716692
20
117.6139790173
30
0.0000000000
10
133.2634179291
20
117.6210148645
30
0.0000000000
11
133.7088948740
21
117.4271829839
31
0.0000000000
11
133.5278374955
21
117.5338877335
31
0.0000000000
11
133.3588406425
21
117.5968248050
31
0.0000000000
11
133.2634179291
21
117.6210148645
31
0.0000000000
0
SPLINE
5
4C9
100
AcDbEntity
8
0
100
AcDbSpline
62
7
6
CONTINUOUS
70
0
71
3
72
10
73
6
74
4
42
0.0000001000
43
0.0000001000
44
0.0000000001
40
0.0000000000
40
0.0000000000
40
0.0000000000
40
0.0000000000
40
0.1955632904
40
0.5686758153
40
1.0000000000
40
1.0000000000
40
1.0000000000
40
1.0000000000
10
88.7741525685
20
117.6209992034
30
0.0000000000
10
88.7483159890
20
117.6153269584
30
0.0000000000
10
88.6735733068
20
117.5970417335
30
0.0000000000
10
88.5450879341
20
117.5538245630
30
0.0000000000
10
88.4476432163
20
117.5044098166
30
0.0000000000
10
88.3979390903
20
117.4737541438
30
0.0000000000
11
88.7741525685
21
117.6209992034
31
0.0000000000
11
88.6971073342
21
117.6020066330
31
0.0000000000
11
88.5538394658
21
117.5531888461
31
0.0000000000
11
88.3979390903
21
117.4737541438
31
0.0000000000
0
SPLINE
5
4CA
100
AcDbEntity
8
0
100
AcDbSpline
62
7
6
CONTINUOUS
70
0
71
3
72
8
73
4
74
2
42
0.0000001000
43
0.0000001000
44
0.0000000001
40
0.0000000000
40
0.0000000000
40
0.0000000000
40
0.0000000000
40
1.0000000000
40
1.0000000000
40
1.0000000000
40
1.0000000000
10
88.3979390903
20
117.4737541438
30
0.0000000000
10
88.3445783167
20
117.4408431856
30
0.0000000000
10
88.2941495600
20
117.4031371704
30
0.0000000000
10
88.2475707286
20
117.3611364528
30
0.0000000000
11
88.3979390903
21
117.4737541438
31
0.0000000000
11
88.2475707286
21
117.3611364528
31
0.0000000000
0
SPLINE
5
4CB
100
AcDbEntity
8
0
100
AcDbSpline
62
7
6
CONTINUOUS
70
0
71
3
72
8
73
4
74
2
42
0.0000001000
43
0.0000001000
44
0.0000000001
40
0.0000000000
40
0.0000000000
40
0.0000000000
40
0.0000000000
40
1.0000000000
40
1.0000000000
40
1.0000000000
40
1.0000000000
10
88.2475707286
20
117.3611364528
30
0.0000000000
10
88.2454945889
20
117.3592643715
30
0.0000000000
10
88.2434260979
20
117.3573837579
30
0.0000000000
10
88.2413653368
20
117.3554946562
30
0.0000000000
11
88.2475707286
21
117.3611364528
31
0.0000000000
11
88.2413653368
21
117.3554946562
31
0.0000000000
0
SPLINE
5
4CC
100
AcDbEntity
8
0
100
AcDbSpline
62
7
6
CONTINUOUS
70
0
71
3
72
8
73
4
74
2
42
0.0000001000
43
0.0000001000
44
0.0000000001
40
0.0000000000
40
0.0000000000
40
0.0000000000
40
0.0000000000
40
1.0000000000
40
1.0000000000
40
1.0000000000
40
1.0000000000
10
88.2413653368
20
117.3554946562
30
0.0000000000
10
88.2368870051
20
117.3513893650
30
0.0000000000
10
88.2324451786
20
117.3472439884
30
0.0000000000
10
88.2280405471
20
117.3430592382
30
0.0000000000
11
88.2413653368
21
117.3554946562
31
0.0000000000
11
88.2280405471
21
117.3430592382
31
0.0000000000
0
SPLINE
5
4CD
100
AcDbEntity
8
0
100
AcDbSpline
62
7
6
CONTINUOUS
70
0
71
3
72
8
73
4
74
2
42
0.0000001000
43
0.0000001000
44
0.0000000001
40
0.0000000000
40
0.0000000000
40
0.0000000000
40
0.0000000000
40
1.0000000000
40
1.0000000000
40
1.0000000000
40
1.0000000000
10
88.1866427973
20
107.9255140947
30
0.0000000000
10
88.1996076081
20
107.9117046492
30
0.0000000000
10
88.2129565108
20
107.8982555154
30
0.0000000000
10
88.2266662176
20
107.8851851479
30
0.0000000000
11
88.1866427973
21
107.9255140947
31
0.0000000000
11
88.2266662176
21
107.8851851479
31
0.0000000000
0
SPLINE
5
4CE
100
AcDbEntity
8
0
100
AcDbSpline
62
7
6
CONTINUOUS
70
0
71
3
72
8
73
4
74
2
42
0.0000001000
43
0.0000001000
44
0.0000000001
40
0.0000000000
40
0.0000000000
40
0.0000000000
40
0.0000000000
40
1.0000000000
40
1.0000000000
40
1.0000000000
40
1.0000000000
10
88.2266662176
20
107.8851851479
30
0.0000000000
10
88.2349679194
20
107.8772705882
30
0.0000000000
10
88.2434019180
20
107.8694949116
30
0.0000000000
10
88.2519630428
20
107.8618622154
30
0.0000000000
11
88.2266662176
21
107.8851851479
31
0.0000000000
11
88.2519630428
21
107.8618622154
31
0.0000000000
0
SPLINE
5
4CF
100
AcDbEntity
8
0
100
AcDbSpline
62
7
6
CONTINUOUS
70
0
71
3
72
8
73
4
74
2
42
0.0000001000
43
0.0000001000
44
0.0000000001
40
0.0000000000
40
0.0000000000
40
0.0000000000
40
0.0000000000
40
1.0000000000
40
1.0000000000
40
1.0000000000
40
1.0000000000
10
88.2519630428
20
107.8618622154
30
0.0000000000
10
88.2765601849
20
107.8399325607
30
0.0000000000
10
88.3022067314
20
107.8191831844
30
0.0000000000
10
88.3287800508
20
107.7997112668
30
0.0000000000
11
88.2519630428
21
107.8618622154
31
0.0000000000
11
88.3287800508
21
107.7997112668
31
0.0000000000
0
SPLINE
5
4D0
100
AcDbEntity
8
0
100
AcDbSpline
62
7
6
CONTINUOUS
70
0
71
3
72
10
73
6
74
4
42
0.0000001000
43
0.0000001000
44
0.0000000001
40
0.0000000000
40
0.0000000000
40
0.0000000000
40
0.0000000000
40
0.4299075210
40
0.7987758358
40
1.0000000000
40
1.0000000000
40
1.0000000000
40
1.0000000000
10
88.3287800508
20
107.7997112668
30
0.0000000000
10
88.3853994469
20
107.7582227269
30
0.0000000000
10
88.4984166886
20
107.6919117346
30
0.0000000000
10
88.6519846063
20
107.6355425074
30
0.0000000000
10
88.7421855703
20
107.6129351856
30
0.0000000000
10
88.7742272608
20
107.6059020145
30
0.0000000000
11
88.3287800508
21
107.7997112668
31
0.0000000000
11
88.5098480411
21
107.6930099860
31
0.0000000000
11
88.6788400710
21
107.6300815892
31
0.0000000000
11
88.7742272608
21
107.6059020145
31
0.0000000000
0
SPLINE
5
4D1
100
AcDbEntity
8
0
100
AcDbSpline
62
7
6
CONTINUOUS
70
0
71
3
72
10
73
6
74
4
42
0.0000001000
43
0.0000001000
44
0.0000000001
40
0.0000000000
40
0.0000000000
40
0.0000000000
40
0.0000000000
40
0.1956285730
40
0.5687308106
40
1.0000000000
40
1.0000000000
40
1.0000000000
40
1.0000000000
10
133.2634914789
20
107.6059179954
30
0.0000000000
10
133.2893396753
20
107.6115928007
30
0.0000000000
10
133.3640980560
20
107.6298828108
30
0.0000000000
10
133.4925968684
20
107.6731094961
30
0.0000000000
10
133.5900427292
20
107.7225303390
30
0.0000000000
10
133.6397448878
20
107.7531878796
30
0.0000000000
11
133.2634914789
21
107.6059179954
31
0.0000000000
11
133.3405711068
21
107.6249201079
31
0.0000000000
11
133.4838498876
21
107.6737472015
31
0.0000000000
11
133.6397448878
21
107.7531878796
31
0.0000000000
0
SPLINE
5
4D2
100
AcDbEntity
8
0
100
AcDbSpline
62
7
6
CONTINUOUS
70
0
71
3
72
8
73
4
74
2
42
0.0000001000
43
0.0000001000
44
0.0000000001
40
0.0000000000
40
0.0000000000
40
0.0000000000
40
0.0000000000
40
1.0000000000
40
1.0000000000
40
1.0000000000
40
1.0000000000
10
133.6397448878
20
107.7531878796
30
0.0000000000
10
133.6930795137
20
107.7860860173
30
0.0000000000
10
133.7434845812
20
107.8237746941
30
0.0000000000
10
133.7900434971
20
107.8657541701
30
0.0000000000
11
133.6397448878
21
107.7531878796
31
0.0000000000
11
133.7900434971
21
107.8657541701
31
0.0000000000
0
SPLINE
5
4D3
100
AcDbEntity
8
0
100
AcDbSpline
62
7
6
CONTINUOUS
70
0
71
3
72
8
73
4
74
2
42
0.0000001000
43
0.0000001000
44
0.0000000001
40
0.0000000000
40
0.0000000000
40
0.0000000000
40
0.0000000000
40
1.0000000000
40
1.0000000000
40
1.0000000000
40
1.0000000000
10
133.7900434971
20
107.8657541701
30
0.0000000000
10
133.7921398733
20
107.8676443510
30
0.0000000000
10
133.7942284520
20
107.8695432310
30
0.0000000000
10
133.7963091493
20
107.8714507643
30
0.0000000000
11
133.7900434971
21
107.8657541701
31
0.0000000000
11
133.7963091493
21
107.8714507643
31
0.0000000000
0
SPLINE
5
4D4
100
AcDbEntity
8
0
100
AcDbSpline
62
7
6
CONTINUOUS
70
0
71
3
72
8
73
4
74
2
42
0.0000001000
43
0.0000001000
44
0.0000000001
40
0.0000000000
40
0.0000000000
40
0.0000000000
40
0.0000000000
40
1.0000000000
40
1.0000000000
40
1.0000000000
40
1.0000000000
10
133.7963091493
20
107.8714507643
30
0.0000000000
10
133.8008092050
20
107.8755763072
30
0.0000000000
10
133.8052723958
20
107.8797423267
30
0.0000000000
10
133.8096980220
20
107.8839481009
30
0.0000000000
11
133.7963091493
21
107.8714507643
31
0.0000000000
11
133.8096980220
21
107.8839481009
31
0.0000000000
0
ENDSEC
0
SECTION
2
OBJECTS
0
DICTIONARY
5
4D5
100
AcDbDictionary
3
ACAD_GROUP
350
4D6
3
ACAD_MLINESTYLE
350
4D7
0
DICTIONARY
5
4D6
102
{ACAD_REACTORS
330
4D5
102
}
100
AcDbDictionary
0
DICTIONARY
5
4D7
102
{ACAD_REACTORS
330
4D5
102
}
100
AcDbDictionary
3
STANDARD
350
4D8
0
MLINESTYLE
5
4D8
102
{ACAD_REACTORS
330
4D7
102
}
100
AcDbMlineStyle
2
STANDARD
70
0
3

62
256
51
90.0
52
90.0
71
2
49
0.5
62
256
6
BYLAYER
49
-0.5
62
256
6
BYLAYER
0
ENDSEC
0
EOF
