999
DXF file: C:\Aktuell-Internet\CAD-Daten\2rs-m6.dxf
999
Pro/ENGINEER 2001400 by Parametric Technology Corporation
0
SECTION
2
HEADER
9
$ACADVER
1
AC1014
9
$EXTMAX
10
420.0000000000
20
297.0000000000
9
$EXTMIN
10
0.0000000000
20
0.0000000000
9
$LIMMIN
10
0.0000000000
20
0.0000000000
9
$LIMMAX
10
420.0000000000
20
297.0000000000
9
$VIEWCTR
10
210.0000000000
20
148.5000000000
9
$VIEWSIZE
40
297.0000000000
9
$CLAYER
8
0
9
$LTSCALE
40
23.1000000000
9
$CELTYPE
6
BYLAYER
9
$DIMSCALE
40
1
9
$DIMASZ
40
3.5000000000
9
$DIMEXO
40
2.6250000000
9
$DIMDLI
40
15.9600000000
9
$DIMEXE
40
7.5600000000
9
$DIMCEN
40
3.7800000000
9
$DIMLFAC
40
1.0000000000
9
$DIMTXT
40
3.5000000000
9
$DIMTOL
70
1
9
$DIMTFAC
40
0.6000000000
9
$DIMTP
40
0.0050000000
9
$DIMTM
40
0.0050000000
9
$HANDSEED
5
487
0
ENDSEC
0
SECTION
2
CLASSES
0
ENDSEC
0
SECTION
2
TABLES
0
TABLE
2
VPORT
5
8
100
AcDbSymbolTable
70
2
0
VPORT
5
1F4
100
AcDbSymbolTableRecord
100
AcDbViewportTableRecord
2
*ACTIVE
70
0
10
0.0
20
0.0
11
1.0
21
1.0
12
210.0000000000
22
148.5000000000
13
0.0
23
0.0
14
1.0
24
1.0
15
0.0
25
0.0
16
0.0
26
0.0
36
1.0
17
0.0
27
0.0
37
0.0
40
297.0000000000
41
1.4141414141
42
50.0
43
0.0
44
0.0
50
0.0
51
0.0
71
0
72
100
73
1
74
1
75
0
76
0
77
0
78
0
0
ENDTAB
0
TABLE
2
LTYPE
5
5
100
AcDbSymbolTable
70
6
0
LTYPE
5
14
100
AcDbSymbolTableRecord
100
AcDbLinetypeTableRecord
2
BYBLOCK
70
0
3

72
65
73
0
40
0.0
0
LTYPE
5
15
100
AcDbSymbolTableRecord
100
AcDbLinetypeTableRecord
2
BYLAYER
70
0
3

72
65
73
0
40
0.0
0
LTYPE
5
16
100
AcDbSymbolTableRecord
100
AcDbLinetypeTableRecord
2
CONTINUOUS
70
64
3
Solid line
72
65
73
0
40
0
0
LTYPE
5
1F5
100
AcDbSymbolTableRecord
100
AcDbLinetypeTableRecord
2
CENTER
70
64
3
____ _ ____ _ ____ _ ____ _ ____ _ ____ _ ____
72
65
73
4
40
0.6
49
0.375
74
0
49
-0.075
74
0
49
0.075
74
0
49
-0.075
74
0
0
LTYPE
5
1F6
100
AcDbSymbolTableRecord
100
AcDbLinetypeTableRecord
2
HIDDEN
70
64
3
- - - - - - - - - - - - - - - - - - - -
72
65
73
2
40
0.2
49
0.1
74
0
49
-0.1
74
0
0
LTYPE
5
1F7
100
AcDbSymbolTableRecord
100
AcDbLinetypeTableRecord
2
PHANTOM
70
64
3
_____ _ _ _____ _ _ _____ _ _ _____
72
65
73
6
40
0.8
49
0.45
74
0
49
-0.05
74
0
49
0.1
74
0
49
-0.05
74
0
49
0.1
74
0
49
-0.05
74
0
0
LTYPE
5
1F8
100
AcDbSymbolTableRecord
100
AcDbLinetypeTableRecord
2
DOT
70
64
3
. . . . . . . . . . . . . . . . . . . .
72
65
73
2
40
0.2
49
0.1
74
0
49
-0.1
74
0
0
LTYPE
5
1F9
100
AcDbSymbolTableRecord
100
AcDbLinetypeTableRecord
2
DASHED
70
64
3
- - - - - - - - - - - - - - - - - - - -
72
65
73
2
40
0.2
49
0.1
74
0
49
-0.1
74
0
0
ENDTAB
0
TABLE
2
LAYER
5
2
100
AcDbSymbolTable
70
36
0
LAYER
5
10
100
AcDbSymbolTableRecord
100
AcDbLayerTableRecord
2
0
70
0
62
7
6
CONTINUOUS
0
LAYER
5
1FA
100
AcDbSymbolTableRecord
100
AcDbLayerTableRecord
2
DEFAULT_1
70
0
62
7
6
CENTER
0
LAYER
5
1FB
100
AcDbSymbolTableRecord
100
AcDbLayerTableRecord
2
DEFAULT_2
70
0
62
8
6
HIDDEN
0
LAYER
5
1FC
100
AcDbSymbolTableRecord
100
AcDbLayerTableRecord
2
DEFAULT_3
70
0
62
7
6
PHANTOM
0
ENDTAB
0
TABLE
2
STYLE
5
3
100
AcDbSymbolTable
70
1
0
STYLE
5
11
100
AcDbSymbolTableRecord
100
AcDbTextStyleTableRecord
2
STANDARD
70
0
40
0.0
41
1.0
50
0.0
71
0
42
0.0
3
txt
4

0
STYLE
5
1FD
100
AcDbSymbolTableRecord
100
AcDbTextStyleTableRecord
2
TEXTSTYLE_0
70
0
40
0.0
41
0.80
50
0.0
71
0
42
0.2
3
txt
4

0
ENDTAB
0
TABLE
2
VIEW
5
6
100
AcDbSymbolTable
70
0
0
ENDTAB
0
TABLE
2
UCS
5
7
100
AcDbSymbolTable
70
0
0
ENDTAB
0
TABLE
2
APPID
5
9
100
AcDbSymbolTable
70
1
0
APPID
5
1FE
100
AcDbSymbolTableRecord
100
AcDbRegAppTableRecord
2
ACAD
70
0
0
ENDTAB
0
TABLE
2
DIMSTYLE
5
A
100
AcDbSymbolTable
70
1
0
DIMSTYLE
105
1FF
100
AcDbSymbolTableRecord
100
AcDbDimStyleTableRecord
2
STANDARD
70
0
3

4

5

6

7

40
1.0
41
0.18
42
0.0625
43
0.38
44
0.18
45
0.0
46
0.0
47
0.0050000000
48
0.0050000000
140
3.5000000000
141
0.09
142
0.0
143
25.4
144
1.0000000000
145
0.0
146
0.6000000000
147
0.09
71
1
72
0
73
1
74
1
75
0
76
0
77
0
78
0
170
0
171
2
172
0
173
0
174
0
175
0
176
0
177
0
178
0
270
2
271
3
272
4
273
2
274
2
340
11
275
0
280
0
281
0
282
0
283
1
284
0
285
0
286
0
287
3
288
0
0
ENDTAB
0
TABLE
2
BLOCK_RECORD
5
1
100
AcDbSymbolTable
70
0
0
BLOCK_RECORD
5
1B
100
AcDbSymbolTableRecord
100
AcDbBlockTableRecord
2
*MODEL_SPACE
0
BLOCK_RECORD
5
1C
100
AcDbSymbolTableRecord
100
AcDbBlockTableRecord
2
*PAPER_SPACE
0
ENDTAB
0
ENDSEC
0
SECTION
2
BLOCKS
0
BLOCK
5
1E
100
AcDbEntity
8
0
100
AcDbBlockBegin
2
*MODEL_SPACE
70
0
10
0.0
20
0.0
30
0.0
3
*MODEL_SPACE
1

0
ENDBLK
5
1F
100
AcDbEntity
8
0
100
AcDbBlockEnd
0
BLOCK
5
20
100
AcDbEntity
8
0
100
AcDbBlockBegin
2
*PAPER_SPACE
70
0
10
0.0
20
0.0
30
0.0
3
*PAPER_SPACE
1

0
ENDBLK
5
21
100
AcDbEntity
8
0
100
AcDbBlockEnd
0
ENDSEC
0
SECTION
2
ENTITIES
0
TEXT
5
200
100
AcDbEntity
8
0
100
AcDbText
62
2
6
CONTINUOUS
10
102.7281221867
20
113.2457283919
7
TEXTSTYLE_0
40
3.5000000000
1
RUD
72
5
11
111.3947885228
21
113.2457283919
100
AcDbText
0
TEXT
5
201
100
AcDbEntity
8
0
100
AcDbText
62
2
6
CONTINUOUS
10
114.5023429625
20
108.2669150353
7
TEXTSTYLE_0
40
3.5000000000
1
RS M6
72
5
11
128.5023424285
21
108.2669150353
100
AcDbText
0
TEXT
5
202
100
AcDbEntity
8
0
100
AcDbText
62
2
6
CONTINUOUS
10
294.2778738941
20
202.6625250267
7
TEXTSTYLE_0
40
3.5000000000
1
RUD
50
90.0000000000
72
5
11
294.2778738941
21
211.3291916933
100
AcDbText
0
TEXT
5
203
100
AcDbEntity
8
0
100
AcDbText
62
2
6
CONTINUOUS
10
299.9294998665
20
202.7298062882
7
TEXTSTYLE_0
40
3.5000000000
1
RS M6
50
90.0000000000
72
5
11
299.9294998665
21
216.7298062882
100
AcDbText
0
LINE
5
204
100
AcDbEntity
8
0
100
AcDbLine
62
7
6
CONTINUOUS
10
0.0000000000
20
0.0000000000
11
0.0000000000
21
297.0000000000
0
LINE
5
205
100
AcDbEntity
8
0
100
AcDbLine
62
7
6
CONTINUOUS
10
0.0000000000
20
0.0000000000
11
420.0000000000
21
0.0000000000
0
LINE
5
206
100
AcDbEntity
8
0
100
AcDbLine
62
7
6
CONTINUOUS
10
0.0000000000
20
297.0000000000
11
420.0000000000
21
297.0000000000
0
LINE
5
207
100
AcDbEntity
8
0
100
AcDbLine
62
7
6
CONTINUOUS
10
420.0000000000
20
0.0000000000
11
420.0000000000
21
297.0000000000
0
LINE
5
208
100
AcDbEntity
8
0
100
AcDbLine
62
7
6
CONTINUOUS
10
113.2188218236
20
184.4486286517
11
108.8188218236
21
184.4486286517
0
LINE
5
209
100
AcDbEntity
8
0
100
AcDbLine
62
7
6
CONTINUOUS
10
114.0188218236
20
185.2486286517
11
108.0188218236
21
185.2486286517
0
LINE
5
20A
100
AcDbEntity
8
0
100
AcDbLine
62
7
6
CONTINUOUS
10
94.4382248998
20
231.1626341220
11
94.3078595281
21
230.9916460391
0
LINE
5
20B
100
AcDbEntity
8
0
100
AcDbLine
62
7
6
CONTINUOUS
10
94.5689545751
20
230.9260818835
11
94.6667595983
21
231.0203621264
0
LINE
5
20C
100
AcDbEntity
8
0
100
AcDbLine
62
7
6
CONTINUOUS
10
102.7270537496
20
237.0455505725
11
102.5682822347
21
236.9538853045
0
LINE
5
20D
100
AcDbEntity
8
0
100
AcDbLine
62
7
6
CONTINUOUS
10
99.5198727727
20
235.1938850756
11
99.3293477178
21
235.0838844653
0
LINE
5
20E
100
AcDbEntity
8
0
100
AcDbLine
62
7
6
CONTINUOUS
10
103.6814485669
20
236.7858250018
11
103.4909230352
21
236.6758243914
0
LINE
5
20F
100
AcDbEntity
8
0
100
AcDbLine
62
7
6
CONTINUOUS
10
105.0786362767
20
237.5924904223
11
104.9198647619
21
237.5008232470
0
LINE
5
210
100
AcDbEntity
8
0
100
AcDbLine
62
7
6
CONTINUOUS
10
104.6340767026
20
237.3358242388
11
104.4435511708
21
237.2258236285
0
LINE
5
211
100
AcDbEntity
8
0
100
AcDbLine
62
7
6
CONTINUOUS
10
95.3288010967
20
235.2210415789
11
110.2534549589
21
241.4030356224
0
LINE
5
212
100
AcDbEntity
8
0
100
AcDbLine
62
7
6
CONTINUOUS
10
101.9566012502
20
236.5466797228
11
101.7426711202
21
236.4772179003
0
LINE
5
213
100
AcDbEntity
8
0
100
AcDbLine
62
7
6
CONTINUOUS
10
100.5594140172
20
235.7400143023
11
100.3454838872
21
235.6705505725
0
LINE
5
214
100
AcDbEntity
8
0
100
AcDbLine
62
7
6
CONTINUOUS
10
88.0644148529
20
219.2139955164
11
94.2464088964
21
234.1386493787
0
LINE
5
215
100
AcDbEntity
8
0
100
AcDbLine
62
7
6
CONTINUOUS
10
94.3078595281
20
230.9916460391
11
94.2427369237
21
230.8382284518
0
LINE
5
216
100
AcDbEntity
8
0
100
AcDbLine
62
7
6
CONTINUOUS
10
93.2170678258
20
228.4219028826
11
93.0705433965
21
228.0767137881
0
LINE
5
217
100
AcDbEntity
8
0
100
AcDbLine
62
7
6
CONTINUOUS
10
93.8520070195
20
229.9177238818
11
93.7054825902
21
229.5725338336
0
LINE
5
218
100
AcDbEntity
8
0
100
AcDbLine
62
7
6
CONTINUOUS
10
91.1982899785
20
223.6659614916
11
90.8075600744
21
222.7454564448
0
LINE
5
219
100
AcDbEntity
8
0
100
AcDbLine
62
7
6
CONTINUOUS
10
91.8983498693
20
225.3151991244
11
91.8169480443
21
225.1234271403
0
LINE
5
21A
100
AcDbEntity
8
0
100
AcDbLine
62
7
6
CONTINUOUS
10
94.4712716222
20
230.6959564562
11
94.5689545751
21
230.9260818835
0
LINE
5
21B
100
AcDbEntity
8
0
100
AcDbLine
62
7
6
CONTINUOUS
10
91.1500569463
20
222.8716647502
11
91.4593869329
21
223.6003978129
0
LINE
5
21C
100
AcDbEntity
8
0
100
AcDbLine
62
7
6
CONTINUOUS
10
92.1107274175
20
224.9987261172
11
92.2084084630
21
225.2288520213
0
LINE
5
21D
100
AcDbEntity
8
0
100
AcDbLine
62
7
6
CONTINUOUS
10
92.5509072423
20
225.3550603266
11
92.6485901952
21
225.5851867076
0
LINE
5
21E
100
AcDbEntity
8
0
100
AcDbLine
62
7
6
CONTINUOUS
10
94.9929772496
20
231.1082155581
11
95.0743790746
21
231.2999880191
0
LINE
5
21F
100
AcDbEntity
8
0
100
AcDbLine
62
7
6
CONTINUOUS
10
96.4136344075
20
229.6904117938
11
96.5439997792
21
229.8614008303
0
LINE
5
220
100
AcDbEntity
8
0
100
AcDbLine
62
7
6
CONTINUOUS
10
95.2868767858
20
230.8476679202
11
95.1565114141
21
230.6766798373
0
LINE
5
221
100
AcDbEntity
8
0
100
AcDbLine
62
7
6
CONTINUOUS
10
92.0287152410
20
225.4861876841
11
91.8983498693
21
225.3151991244
0
LINE
5
222
100
AcDbEntity
8
0
100
AcDbLine
62
7
6
CONTINUOUS
10
91.3286553502
20
223.8369495745
11
91.1982899785
21
223.6659614916
0
LINE
5
223
100
AcDbEntity
8
0
100
AcDbLine
62
7
6
CONTINUOUS
10
100.3271380544
20
235.3356602069
11
100.4625054479
21
235.4678642626
0
LINE
5
224
100
AcDbEntity
8
0
100
AcDbLine
62
7
6
CONTINUOUS
10
101.7243252874
20
236.1423275347
11
101.8596926809
21
236.2745315905
0
LINE
5
225
100
AcDbEntity
8
0
100
AcDbLine
62
7
6
CONTINUOUS
10
101.4638301015
20
234.1001865740
11
101.3284627080
21
233.9679825183
0
LINE
5
226
100
AcDbEntity
8
0
100
AcDbLine
62
7
6
CONTINUOUS
10
95.4176064611
20
230.6111156817
11
95.5154114843
21
230.7053959246
0
LINE
5
227
100
AcDbEntity
8
0
100
AcDbLine
62
7
6
CONTINUOUS
10
96.2829037786
20
229.9269640322
11
96.1850997091
21
229.8326847430
0
LINE
5
228
100
AcDbEntity
8
0
100
AcDbLine
62
7
6
CONTINUOUS
10
92.2084084630
20
225.2288520213
11
92.3062134862
21
225.3231317874
0
LINE
5
229
100
AcDbEntity
8
0
100
AcDbLine
62
7
6
CONTINUOUS
10
100.3454838872
20
235.6705505725
11
100.1783629537
21
235.5200130816
0
LINE
5
22A
100
AcDbEntity
8
0
100
AcDbLine
62
7
6
CONTINUOUS
10
101.7426711202
20
236.4772179003
11
101.5755501867
21
236.3266804095
0
LINE
5
22B
100
AcDbEntity
8
0
100
AcDbLine
62
7
6
CONTINUOUS
10
101.4454842687
20
233.7652952548
11
101.6126052022
21
233.9158327456
0
LINE
5
22C
100
AcDbEntity
8
0
100
AcDbLine
62
7
6
CONTINUOUS
10
104.5605722547
20
237.0231373187
11
104.7510977864
21
237.1331379290
0
LINE
5
22D
100
AcDbEntity
8
0
100
AcDbLine
62
7
6
CONTINUOUS
10
105.2659913182
20
236.2413151141
11
105.1389742971
21
236.1679813738
0
LINE
5
22E
100
AcDbEntity
8
0
100
AcDbLine
62
7
6
CONTINUOUS
10
104.3668762326
20
235.4519626971
11
104.5574017644
21
235.5619614001
0
LINE
5
22F
100
AcDbEntity
8
0
100
AcDbLine
62
7
6
CONTINUOUS
10
100.4293471456
20
233.1786281939
11
100.6198731542
21
233.2886288043
0
LINE
5
230
100
AcDbEntity
8
0
100
AcDbLine
62
7
6
CONTINUOUS
10
103.6682826162
20
235.0486290332
11
103.8270536542
21
235.1402962084
0
LINE
5
231
100
AcDbEntity
8
0
100
AcDbLine
62
7
6
CONTINUOUS
10
105.1924873471
20
235.9286281939
11
105.3830128789
21
236.0386288043
0
LINE
5
232
100
AcDbEntity
8
0
100
AcDbLine
62
7
6
CONTINUOUS
10
105.0638242841
20
235.6381466265
11
104.9050527692
21
235.5464794512
0
LINE
5
233
100
AcDbEntity
8
0
100
AcDbLine
62
7
6
CONTINUOUS
10
105.6638637662
20
235.5521805163
11
105.4733382344
21
235.4421799060
0
LINE
5
234
100
AcDbEntity
8
0
100
AcDbLine
62
7
6
CONTINUOUS
10
105.5669551969
20
235.2800304766
11
105.7574807286
21
235.3900310870
0
LINE
5
235
100
AcDbEntity
8
0
100
AcDbLine
62
7
6
CONTINUOUS
10
94.6665154577
20
231.2920553561
11
94.4382248998
21
231.1626341220
0
LINE
5
236
100
AcDbEntity
8
0
100
AcDbLine
62
7
6
CONTINUOUS
10
95.5151682973
20
230.9770891543
11
95.2868767858
21
230.8476679202
0
LINE
5
237
100
AcDbEntity
8
0
100
AcDbLine
62
7
6
CONTINUOUS
10
96.1853428960
20
229.5609915133
11
96.4136344075
21
229.6904117938
0
LINE
5
238
100
AcDbEntity
8
0
100
AcDbLine
62
7
6
CONTINUOUS
10
94.6667595983
20
231.0203621264
11
94.8135262609
21
231.0938579913
0
LINE
5
239
100
AcDbEntity
8
0
100
AcDbLine
62
7
6
CONTINUOUS
10
95.5154114843
20
230.7053959246
11
95.6621791005
21
230.7788917895
0
LINE
5
23A
100
AcDbEntity
8
0
100
AcDbLine
62
7
6
CONTINUOUS
10
109.3273306966
20
237.9462997790
11
109.1882047534
21
237.8870975848
0
LINE
5
23B
100
AcDbEntity
8
0
100
AcDbLine
62
7
6
CONTINUOUS
10
102.6287413717
20
234.5024998065
11
102.8426715017
21
234.5719616290
0
LINE
5
23C
100
AcDbEntity
8
0
100
AcDbLine
62
7
6
CONTINUOUS
10
101.2315541387
20
233.6958324786
11
101.4454842687
21
233.7652952548
0
LINE
5
23D
100
AcDbEntity
8
0
100
AcDbLine
62
7
6
CONTINUOUS
10
111.2750939906
20
236.7030460711
11
111.0895927206
21
236.6438438769
0
LINE
5
23E
100
AcDbEntity
8
0
100
AcDbLine
62
7
6
CONTINUOUS
10
113.5011092305
20
236.7030460711
11
113.3156078935
21
236.6438438769
0
LINE
5
23F
100
AcDbEntity
8
0
100
AcDbLine
62
7
6
CONTINUOUS
10
108.0188218236
20
185.2486286517
11
108.8188218236
21
184.4486286517
0
LINE
5
240
100
AcDbEntity
8
0
100
AcDbLine
62
7
6
CONTINUOUS
10
91.8169480443
20
225.1234271403
11
91.8007889867
21
224.9492261286
0
LINE
5
241
100
AcDbEntity
8
0
100
AcDbLine
62
7
6
CONTINUOUS
10
94.2427369237
20
230.8382284518
11
94.2102986455
21
230.6256725665
0
LINE
5
242
100
AcDbEntity
8
0
100
AcDbLine
62
7
6
CONTINUOUS
10
95.1565114141
20
230.6766798373
11
95.0751086354
21
230.4849073764
0
LINE
5
243
100
AcDbEntity
8
0
100
AcDbLine
62
7
6
CONTINUOUS
10
92.1938325048
20
223.2886440631
11
91.8845025182
21
222.5599114772
0
LINE
5
244
100
AcDbEntity
8
0
100
AcDbLine
62
7
6
CONTINUOUS
10
92.8938923955
20
224.9378821726
11
92.7962094426
21
224.7077557917
0
LINE
5
245
100
AcDbEntity
8
0
100
AcDbLine
62
7
6
CONTINUOUS
10
95.3036433339
20
230.3426353808
11
95.4176064611
21
230.6111156817
0
LINE
5
246
100
AcDbEntity
8
0
100
AcDbLine
62
7
6
CONTINUOUS
10
93.0899869085
20
224.5830542918
11
93.1876698613
21
224.8131806727
0
LINE
5
247
100
AcDbEntity
8
0
100
AcDbLine
62
7
6
CONTINUOUS
10
92.1782818914
20
222.4352097388
11
92.4550496221
21
223.0872342463
0
LINE
5
248
100
AcDbEntity
8
0
100
AcDbLine
62
7
6
CONTINUOUS
10
93.3188859105
20
224.0332424517
11
93.2212029577
21
223.8031160708
0
LINE
5
249
100
AcDbEntity
8
0
100
AcDbLine
62
7
6
CONTINUOUS
10
93.9221154332
20
224.5014269229
11
93.7918721318
21
224.1945922251
0
LINE
5
24A
100
AcDbEntity
8
0
100
AcDbLine
62
7
6
CONTINUOUS
10
96.3968669057
20
230.1954443331
11
96.2829037786
21
229.9269640322
0
LINE
5
24B
100
AcDbEntity
8
0
100
AcDbLine
62
7
6
CONTINUOUS
10
96.0555859685
20
228.7107698794
11
96.1532689214
21
228.9408953067
0
LINE
5
24C
100
AcDbEntity
8
0
100
AcDbLine
62
7
6
CONTINUOUS
10
95.6974154592
20
227.8669731494
11
95.8276597142
21
228.1738083239
0
LINE
5
24D
100
AcDbEntity
8
0
100
AcDbLine
62
7
6
CONTINUOUS
10
93.6135159612
20
222.9576141711
11
93.7274800420
21
223.2260944720
0
LINE
5
24E
100
AcDbEntity
8
0
100
AcDbLine
62
7
6
CONTINUOUS
10
95.3718062520
20
227.0998861666
11
95.4694892049
21
227.3300125476
0
LINE
5
24F
100
AcDbEntity
8
0
100
AcDbLine
62
7
6
CONTINUOUS
10
93.1088219762
20
221.7686285849
11
93.2065049291
21
221.9987549658
0
LINE
5
250
100
AcDbEntity
8
0
100
AcDbLine
62
7
6
CONTINUOUS
10
94.0856495977
20
224.0698907252
11
94.2158928991
21
224.3767258998
0
LINE
5
251
100
AcDbEntity
8
0
100
AcDbLine
62
7
6
CONTINUOUS
10
96.5439997792
20
229.8614008303
11
96.6254016042
21
230.0531723376
0
LINE
5
252
100
AcDbEntity
8
0
100
AcDbLine
62
7
6
CONTINUOUS
10
93.0242577672
20
225.1088702555
11
92.8938923955
21
224.9378821726
0
LINE
5
253
100
AcDbEntity
8
0
100
AcDbLine
62
7
6
CONTINUOUS
10
93.9552842260
20
223.8989026423
11
94.0856495977
21
224.0698907252
0
LINE
5
254
100
AcDbEntity
8
0
100
AcDbLine
62
7
6
CONTINUOUS
10
93.1876698613
20
224.8131806727
11
93.3017541051
21
224.9458148356
0
LINE
5
255
100
AcDbEntity
8
0
100
AcDbLine
62
7
6
CONTINUOUS
10
92.9759026647
20
224.4504206057
11
93.0899869085
21
224.5830542918
0
LINE
5
256
100
AcDbEntity
8
0
100
AcDbLine
62
7
6
CONTINUOUS
10
93.7918721318
20
224.1945922251
11
93.6777859807
21
224.0619585391
0
LINE
5
257
100
AcDbEntity
8
0
100
AcDbLine
62
7
6
CONTINUOUS
10
104.4435511708
20
237.2258236285
11
104.3399382711
21
237.1119530078
0
LINE
5
258
100
AcDbEntity
8
0
100
AcDbLine
62
7
6
CONTINUOUS
10
105.3696042180
20
236.3551857348
11
105.2659913182
21
236.2413151141
0
LINE
5
259
100
AcDbEntity
8
0
100
AcDbLine
62
7
6
CONTINUOUS
10
105.3830128789
20
236.0386288043
11
105.4866253019
21
236.1524994250
0
LINE
5
25A
100
AcDbEntity
8
0
100
AcDbLine
62
7
6
CONTINUOUS
10
102.8610173345
20
234.9068519946
11
102.7256499410
21
234.7746479388
0
LINE
5
25B
100
AcDbEntity
8
0
100
AcDbLine
62
7
6
CONTINUOUS
10
91.4593869329
20
223.6003978129
11
91.5571900487
21
223.6946775790
0
LINE
5
25C
100
AcDbEntity
8
0
100
AcDbLine
62
7
6
CONTINUOUS
10
92.7962094426
20
224.7077557917
11
92.6984044194
21
224.6134765025
0
LINE
5
25D
100
AcDbEntity
8
0
100
AcDbLine
62
7
6
CONTINUOUS
10
102.8426715017
20
234.5719616290
11
103.0097924352
21
234.7224991198
0
LINE
5
25E
100
AcDbEntity
8
0
100
AcDbLine
62
7
6
CONTINUOUS
10
93.1873055578
20
225.2207205172
11
93.0242577672
21
225.1088702555
0
LINE
5
25F
100
AcDbEntity
8
0
100
AcDbLine
62
7
6
CONTINUOUS
10
92.8128548742
20
224.3385703440
11
92.9759026647
21
224.4504206057
0
LINE
5
260
100
AcDbEntity
8
0
100
AcDbLine
62
7
6
CONTINUOUS
10
109.3737059713
20
237.6502869006
11
109.5592073083
21
237.7686912890
0
LINE
5
261
100
AcDbEntity
8
0
100
AcDbLine
62
7
6
CONTINUOUS
10
111.3214692950
20
236.3478309985
11
111.5069705725
21
236.4662353869
0
LINE
5
262
100
AcDbEntity
8
0
100
AcDbLine
62
7
6
CONTINUOUS
10
96.1850997091
20
229.8326847430
11
96.0383320928
21
229.7591888781
0
LINE
5
263
100
AcDbEntity
8
0
100
AcDbLine
62
7
6
CONTINUOUS
10
114.0188218236
20
192.9486286517
11
108.0188218236
21
192.9486286517
0
LINE
5
264
100
AcDbEntity
8
0
100
AcDbLine
62
7
6
CONTINUOUS
10
94.3077333373
20
202.6105576276
11
88.0644148529
21
217.6832617870
0
LINE
5
265
100
AcDbEntity
8
0
100
AcDbLine
62
7
6
CONTINUOUS
10
92.1108475805
20
224.8628790255
11
92.1107274175
21
224.9987261172
0
LINE
5
266
100
AcDbEntity
8
0
100
AcDbLine
62
7
6
CONTINUOUS
10
92.1937104345
20
223.4244911547
11
92.1938325048
21
223.2886440631
0
LINE
5
267
100
AcDbEntity
8
0
100
AcDbLine
62
7
6
CONTINUOUS
10
93.9382744909
20
224.6756284114
11
93.9221154332
21
224.5014269229
0
LINE
5
268
100
AcDbEntity
8
0
100
AcDbLine
62
7
6
CONTINUOUS
10
95.0751086354
20
230.4849073764
11
95.0426694036
21
230.2723524447
0
LINE
5
269
100
AcDbEntity
8
0
100
AcDbLine
62
7
6
CONTINUOUS
10
94.2158928991
20
224.3767258998
11
94.2483330846
21
224.5892813082
0
LINE
5
26A
100
AcDbEntity
8
0
100
AcDbLine
62
7
6
CONTINUOUS
10
100.2786837697
20
235.1995861407
11
100.3271380544
21
235.3356602069
0
LINE
5
26B
100
AcDbEntity
8
0
100
AcDbLine
62
7
6
CONTINUOUS
10
100.1783629537
20
235.5200130816
11
100.0898038030
21
235.3067352648
0
LINE
5
26C
100
AcDbEntity
8
0
100
AcDbLine
62
7
6
CONTINUOUS
10
101.5755501867
20
236.3266804095
11
101.4869919896
21
236.1134025927
0
LINE
5
26D
100
AcDbEntity
8
0
100
AcDbLine
62
7
6
CONTINUOUS
10
105.8610936284
20
235.5039017077
11
105.9329520345
21
235.5994388934
0
LINE
5
26E
100
AcDbEntity
8
0
100
AcDbLine
62
7
6
CONTINUOUS
10
105.7674766660
20
235.6660511370
11
105.6638637662
21
235.5521805163
0
LINE
5
26F
100
AcDbEntity
8
0
100
AcDbLine
62
7
6
CONTINUOUS
10
105.7574807286
20
235.3900310870
11
105.8610936284
21
235.5039017077
0
LINE
5
270
100
AcDbEntity
8
0
100
AcDbLine
62
7
6
CONTINUOUS
10
111.4142199338
20
236.8214523669
11
111.2750939906
21
236.7030460711
0
LINE
5
271
100
AcDbEntity
8
0
100
AcDbLine
62
7
6
CONTINUOUS
10
113.5474845052
20
236.3478309985
11
113.7329858423
21
236.4662353869
0
LINE
5
272
100
AcDbEntity
8
0
100
AcDbLine
62
7
6
CONTINUOUS
10
93.7269936681
20
223.7694814082
11
93.9552842260
21
223.8989026423
0
LINE
5
273
100
AcDbEntity
8
0
100
AcDbLine
62
7
6
CONTINUOUS
10
93.3017541051
20
224.9458148356
11
93.4485226751
21
225.0193107005
0
LINE
5
274
100
AcDbEntity
8
0
100
AcDbLine
62
7
6
CONTINUOUS
10
92.6984044194
20
224.6134765025
11
92.5516377568
21
224.5399806376
0
LINE
5
275
100
AcDbEntity
8
0
100
AcDbLine
62
7
6
CONTINUOUS
10
92.2407265783
20
225.5772540446
11
92.0287152410
21
225.4861876841
0
LINE
5
276
100
AcDbEntity
8
0
100
AcDbLine
62
7
6
CONTINUOUS
10
91.5406666875
20
223.9280164118
11
91.3286553502
21
223.8369495745
0
LINE
5
277
100
AcDbEntity
8
0
100
AcDbLine
62
7
6
CONTINUOUS
10
113.2188218236
20
193.7486286517
11
108.8188218236
21
193.7486286517
0
LINE
5
278
100
AcDbEntity
8
0
100
AcDbLine
62
7
6
CONTINUOUS
10
91.8007889867
20
224.9492261286
11
91.8335934758
21
224.7542416926
0
LINE
5
279
100
AcDbEntity
8
0
100
AcDbLine
62
7
6
CONTINUOUS
10
94.4713936925
20
230.5601093646
11
94.4712716222
21
230.6959564562
0
LINE
5
27A
100
AcDbEntity
8
0
100
AcDbLine
62
7
6
CONTINUOUS
10
95.3037654042
20
230.2067882891
11
95.3036433339
21
230.3426353808
0
LINE
5
27B
100
AcDbEntity
8
0
100
AcDbLine
62
7
6
CONTINUOUS
10
96.3967457891
20
230.3312914248
11
96.3968669057
21
230.1954443331
0
LINE
5
27C
100
AcDbEntity
8
0
100
AcDbLine
62
7
6
CONTINUOUS
10
96.6254016042
20
230.0531723376
11
96.6578408361
21
230.2657282229
0
LINE
5
27D
100
AcDbEntity
8
0
100
AcDbLine
62
7
6
CONTINUOUS
10
101.6758710027
20
236.0062515612
11
101.7243252874
21
236.1423275347
0
LINE
5
27E
100
AcDbEntity
8
0
100
AcDbLine
62
7
6
CONTINUOUS
10
101.5122843862
20
234.2362606402
11
101.4638301015
21
234.1001865740
0
LINE
5
27F
100
AcDbEntity
8
0
100
AcDbLine
62
7
6
CONTINUOUS
10
102.9094716192
20
235.0429279681
11
102.8610173345
21
234.9068519946
0
LINE
5
280
100
AcDbEntity
8
0
100
AcDbLine
62
7
6
CONTINUOUS
10
104.3399382711
20
237.1119530078
11
104.2914839864
21
236.9758789416
0
LINE
5
281
100
AcDbEntity
8
0
100
AcDbLine
62
7
6
CONTINUOUS
10
101.6126052022
20
233.9158327456
11
101.7011633992
21
234.1291115161
0
LINE
5
282
100
AcDbEntity
8
0
100
AcDbLine
62
7
6
CONTINUOUS
10
103.0097924352
20
234.7224991198
11
103.0983515859
21
234.9357788439
0
LINE
5
283
100
AcDbEntity
8
0
100
AcDbLine
62
7
6
CONTINUOUS
10
104.4803634763
20
236.8687298175
11
104.5605722547
21
237.0231373187
0
LINE
5
284
100
AcDbEntity
8
0
100
AcDbLine
62
7
6
CONTINUOUS
10
105.4866253019
20
236.1524994250
11
105.5267296911
21
236.2297031756
0
LINE
5
285
100
AcDbEntity
8
0
100
AcDbLine
62
7
6
CONTINUOUS
10
109.4200813651
20
238.0647041674
11
109.3273306966
21
237.9462997790
0
LINE
5
286
100
AcDbEntity
8
0
100
AcDbLine
62
7
6
CONTINUOUS
10
113.6402350545
20
236.8214523669
11
113.5011092305
21
236.7030460711
0
LINE
5
287
100
AcDbEntity
8
0
100
AcDbLine
62
7
6
CONTINUOUS
10
98.5188218236
20
196.4486286517
11
123.5188218236
21
196.4486286517
0
LINE
5
288
100
AcDbEntity
8
0
100
AcDbLine
62
7
6
CONTINUOUS
10
92.1599331975
20
224.7062489863
11
92.1108475805
21
224.8628790255
0
LINE
5
289
100
AcDbEntity
8
0
100
AcDbLine
62
7
6
CONTINUOUS
10
92.4548054815
20
223.3589274760
11
92.4220009923
21
223.5539119120
0
LINE
5
28A
100
AcDbEntity
8
0
100
AcDbLine
62
7
6
CONTINUOUS
10
94.2483330846
20
224.5892813082
11
94.2155285955
21
224.7842657443
0
LINE
5
28B
100
AcDbEntity
8
0
100
AcDbLine
62
7
6
CONTINUOUS
10
98.5188218236
20
196.4486286517
11
98.5188218236
21
198.4932410600
0
LINE
5
28C
100
AcDbEntity
8
0
100
AcDbLine
62
7
6
CONTINUOUS
10
99.3293477178
20
235.0838844653
11
99.3026515126
21
234.6901237841
0
LINE
5
28D
100
AcDbEntity
8
0
100
AcDbLine
62
7
6
CONTINUOUS
10
99.4898854375
20
234.3658239718
11
99.5165816427
21
234.7595856066
0
LINE
5
28E
100
AcDbEntity
8
0
100
AcDbLine
62
7
6
CONTINUOUS
10
100.0898038030
20
235.3067352648
11
100.0647536397
21
235.1301224108
0
LINE
5
28F
100
AcDbEntity
8
0
100
AcDbLine
62
7
6
CONTINUOUS
10
101.4869919896
20
236.1134025927
11
101.4619418264
21
235.9367897387
0
LINE
5
290
100
AcDbEntity
8
0
100
AcDbLine
62
7
6
CONTINUOUS
10
101.7011633992
20
234.1291115161
11
101.7262135625
21
234.3057234164
0
LINE
5
291
100
AcDbEntity
8
0
100
AcDbLine
62
7
6
CONTINUOUS
10
105.4180585027
20
236.4912617083
11
105.3696042180
21
236.3551857348
0
LINE
5
292
100
AcDbEntity
8
0
100
AcDbLine
62
7
6
CONTINUOUS
10
105.9329520345
20
235.5994388934
11
105.9814063192
21
235.7355129595
0
LINE
5
293
100
AcDbEntity
8
0
100
AcDbLine
62
7
6
CONTINUOUS
10
109.5592073083
20
237.7686912890
11
109.6983332515
21
238.0055019732
0
LINE
5
294
100
AcDbEntity
8
0
100
AcDbLine
62
7
6
CONTINUOUS
10
111.5069705725
20
236.4662353869
11
111.6924718499
21
236.7030460711
0
LINE
5
295
100
AcDbEntity
8
0
100
AcDbLine
62
7
6
CONTINUOUS
10
113.7329858423
20
236.4662353869
11
113.9184869409
21
236.7030460711
0
LINE
5
296
100
AcDbEntity
8
0
100
AcDbLine
62
7
6
CONTINUOUS
10
113.2188218236
20
193.7486286517
11
114.0188218236
21
192.9486286517
0
LINE
5
297
100
AcDbEntity
8
0
100
AcDbLine
62
7
6
CONTINUOUS
10
93.8891888738
20
224.8322584506
11
93.9382744909
21
224.6756284114
0
LINE
5
298
100
AcDbEntity
8
0
100
AcDbLine
62
7
6
CONTINUOUS
10
100.2920924306
20
234.8830273028
11
100.2786837697
21
235.1995861407
0
LINE
5
299
100
AcDbEntity
8
0
100
AcDbLine
62
7
6
CONTINUOUS
10
103.0983515859
20
234.9357788439
11
103.1234012723
21
235.1123897906
0
LINE
5
29A
100
AcDbEntity
8
0
100
AcDbLine
62
7
6
CONTINUOUS
10
103.5696068883
20
235.5862057086
11
103.6113568425
21
235.8805591937
0
LINE
5
29B
100
AcDbEntity
8
0
100
AcDbLine
62
7
6
CONTINUOUS
10
104.2914839864
20
236.9758789416
11
104.2664338231
21
236.7992660876
0
LINE
5
29C
100
AcDbEntity
8
0
100
AcDbLine
62
7
6
CONTINUOUS
10
111.5069705725
20
236.9990589495
11
111.4142199338
21
236.8214523669
0
LINE
5
29D
100
AcDbEntity
8
0
100
AcDbLine
62
7
6
CONTINUOUS
10
126.8060307774
20
201.9932410600
11
126.0783449074
21
201.9932410600
0
LINE
5
29E
100
AcDbEntity
8
0
100
AcDbLine
62
7
6
CONTINUOUS
10
95.9592987398
20
201.9932410600
11
95.2316128698
21
201.9932410600
0
LINE
5
29F
100
AcDbEntity
8
0
100
AcDbLine
62
7
6
CONTINUOUS
10
92.1283455968
20
223.5427667971
11
92.1937104345
21
223.4244911547
0
LINE
5
2A0
100
AcDbEntity
8
0
100
AcDbLine
62
7
6
CONTINUOUS
10
91.8335934758
20
224.7542416926
11
91.9643231511
21
224.5176899310
0
LINE
5
2A1
100
AcDbEntity
8
0
100
AcDbLine
62
7
6
CONTINUOUS
10
94.5204793096
20
230.4034788485
11
94.4713936925
21
230.5601093646
0
LINE
5
2A2
100
AcDbEntity
8
0
100
AcDbLine
62
7
6
CONTINUOUS
10
95.0426694036
20
230.2723524447
11
95.1408387304
21
229.9590914126
0
LINE
5
2A3
100
AcDbEntity
8
0
100
AcDbLine
62
7
6
CONTINUOUS
10
95.3528500676
20
230.0501587268
11
95.3037654042
21
230.2067882891
0
LINE
5
2A4
100
AcDbEntity
8
0
100
AcDbLine
62
7
6
CONTINUOUS
10
94.2102986455
20
230.6256725665
11
94.2757855535
21
230.3715507861
0
LINE
5
2A5
100
AcDbEntity
8
0
100
AcDbLine
62
7
6
CONTINUOUS
10
96.6578408361
20
230.2657282229
11
96.5923548818
21
230.5198500033
0
LINE
5
2A6
100
AcDbEntity
8
0
100
AcDbLine
62
7
6
CONTINUOUS
10
101.4988757253
20
234.5528175707
11
101.5122843862
21
234.2362606402
0
LINE
5
2A7
100
AcDbEntity
8
0
100
AcDbLine
62
7
6
CONTINUOUS
10
101.6892796636
20
235.6896946307
11
101.6758710027
21
236.0062515612
0
LINE
5
2A8
100
AcDbEntity
8
0
100
AcDbLine
62
7
6
CONTINUOUS
10
102.8960629583
20
235.3594848986
11
102.9094716192
21
235.0429279681
0
LINE
5
2A9
100
AcDbEntity
8
0
100
AcDbLine
62
7
6
CONTINUOUS
10
103.6364070058
20
236.0571720477
11
103.6814485669
21
236.7858250018
0
LINE
5
2AA
100
AcDbEntity
8
0
100
AcDbLine
62
7
6
CONTINUOUS
10
103.4909230352
20
236.6758243914
11
103.4291812062
21
235.8294308062
0
LINE
5
2AB
100
AcDbEntity
8
0
100
AcDbLine
62
7
6
CONTINUOUS
10
105.5267296911
20
236.2297031756
11
105.5434299588
21
236.3474438067
0
LINE
5
2AC
100
AcDbEntity
8
0
100
AcDbLine
62
7
6
CONTINUOUS
10
105.7925268293
20
235.8426639910
11
105.7674766660
21
235.6660511370
0
LINE
5
2AD
100
AcDbEntity
8
0
100
AcDbLine
62
7
6
CONTINUOUS
10
109.4664566398
20
238.2423126574
11
109.4200813651
21
238.0647041674
0
LINE
5
2AE
100
AcDbEntity
8
0
100
AcDbLine
62
7
6
CONTINUOUS
10
109.6983332515
20
238.0055019732
11
109.7447085262
21
238.1831104632
0
LINE
5
2AF
100
AcDbEntity
8
0
100
AcDbLine
62
7
6
CONTINUOUS
10
111.6924718499
20
236.7030460711
11
111.7852224589
21
236.9398567553
0
LINE
5
2B0
100
AcDbEntity
8
0
100
AcDbLine
62
7
6
CONTINUOUS
10
113.7329858423
20
236.9990589495
11
113.6402350545
21
236.8214523669
0
LINE
5
2B1
100
AcDbEntity
8
0
100
AcDbLine
62
7
6
CONTINUOUS
10
92.4220009923
20
223.5539119120
11
92.2749901891
21
223.7521092768
0
LINE
5
2B2
100
AcDbEntity
8
0
100
AcDbLine
62
7
6
CONTINUOUS
10
94.2155285955
20
224.7842657443
11
94.0847989202
21
225.0208175059
0
LINE
5
2B3
100
AcDbEntity
8
0
100
AcDbLine
62
7
6
CONTINUOUS
10
96.3476611257
20
230.4879219409
11
96.3967457891
21
230.3312914248
0
LINE
5
2B4
100
AcDbEntity
8
0
100
AcDbLine
62
7
6
CONTINUOUS
10
100.0647536397
20
235.1301224108
11
100.0948620916
21
234.9313061114
0
LINE
5
2B5
100
AcDbEntity
8
0
100
AcDbLine
62
7
6
CONTINUOUS
10
104.4870678067
20
236.7104503985
11
104.4803634763
21
236.8687298175
0
LINE
5
2B6
100
AcDbEntity
8
0
100
AcDbLine
62
7
6
CONTINUOUS
10
105.4113541723
20
236.6495392199
11
105.4180585027
21
236.4912617083
0
LINE
5
2B7
100
AcDbEntity
8
0
100
AcDbLine
62
7
6
CONTINUOUS
10
113.9184869409
20
236.7030460711
11
114.0112377286
21
236.9398567553
0
LINE
5
2B8
100
AcDbEntity
8
0
100
AcDbLine
62
7
6
CONTINUOUS
10
93.7748604894
20
224.9713179942
11
93.8891888738
21
224.8322584506
0
LINE
5
2B9
100
AcDbEntity
8
0
100
AcDbLine
62
7
6
CONTINUOUS
10
95.4182149053
20
229.9318821307
11
95.3528500676
21
230.0501587268
0
LINE
5
2BA
100
AcDbEntity
8
0
100
AcDbLine
62
7
6
CONTINUOUS
10
100.0948620916
20
234.9313061114
11
100.1333209157
21
234.7913620349
0
LINE
5
2BB
100
AcDbEntity
8
0
100
AcDbLine
62
7
6
CONTINUOUS
10
101.4619418264
20
235.9367897387
11
101.4920502782
21
235.7379734393
0
LINE
5
2BC
100
AcDbEntity
8
0
100
AcDbLine
62
7
6
CONTINUOUS
10
101.7262135625
20
234.3057234164
11
101.6961051107
21
234.5045387622
0
LINE
5
2BD
100
AcDbEntity
8
0
100
AcDbLine
62
7
6
CONTINUOUS
10
105.9814063192
20
235.7355129595
11
105.9747019887
21
235.8937923785
0
LINE
5
2BE
100
AcDbEntity
8
0
100
AcDbLine
62
7
6
CONTINUOUS
10
108.0188218236
20
192.9486286517
11
108.0188218236
21
185.2486286517
0
LINE
5
2BF
100
AcDbEntity
8
0
100
AcDbLine
62
7
6
CONTINUOUS
10
108.0288218141
20
239.0711471911
11
108.0288218141
21
236.2886288043
0
LINE
5
2C0
100
AcDbEntity
8
0
100
AcDbLine
62
7
6
CONTINUOUS
10
108.3070737005
20
236.2886288043
11
108.3070737005
21
237.5318825122
0
LINE
5
2C1
100
AcDbEntity
8
0
100
AcDbLine
62
7
6
CONTINUOUS
10
108.3070737005
20
237.8870975848
11
108.3070737005
21
238.7751343127
0
LINE
5
2C2
100
AcDbEntity
8
0
100
AcDbLine
62
7
6
CONTINUOUS
10
108.8188218236
20
196.4486286517
11
108.8188218236
21
193.7486286517
0
LINE
5
2C3
100
AcDbEntity
8
0
100
AcDbLine
62
7
6
CONTINUOUS
10
111.7852224589
20
236.9398567553
11
111.8315977931
21
237.2358696337
0
LINE
5
2C4
100
AcDbEntity
8
0
100
AcDbLine
62
7
6
CONTINUOUS
10
111.5533459068
20
237.2358696337
11
111.5069705725
21
236.9990589495
0
LINE
5
2C5
100
AcDbEntity
8
0
100
AcDbLine
62
7
6
CONTINUOUS
10
91.9977360845
20
223.6434719439
11
92.1283455968
21
223.5427667971
0
LINE
5
2C6
100
AcDbEntity
8
0
100
AcDbLine
62
7
6
CONTINUOUS
10
92.2749901891
20
223.7521092768
11
92.1443825841
21
223.8528144236
0
LINE
5
2C7
100
AcDbEntity
8
0
100
AcDbLine
62
7
6
CONTINUOUS
10
92.2905408025
20
224.6055438395
11
92.1599331975
21
224.7062489863
0
LINE
5
2C8
100
AcDbEntity
8
0
100
AcDbLine
62
7
6
CONTINUOUS
10
94.0847989202
20
225.0208175059
11
93.9215069890
21
225.1806604739
0
LINE
5
2C9
100
AcDbEntity
8
0
100
AcDbLine
62
7
6
CONTINUOUS
10
94.2757855535
20
230.3715507861
11
94.4227963567
21
230.1733534213
0
LINE
5
2CA
100
AcDbEntity
8
0
100
AcDbLine
62
7
6
CONTINUOUS
10
100.1333209157
20
234.7913620349
11
100.2185879827
21
234.5703422900
0
LINE
5
2CB
100
AcDbEntity
8
0
100
AcDbLine
62
7
6
CONTINUOUS
10
101.6961051107
20
234.5045387622
11
101.6576472402
21
234.6444847460
0
LINE
5
2CC
100
AcDbEntity
8
0
100
AcDbLine
62
7
6
CONTINUOUS
10
101.4920502782
20
235.7379734393
11
101.5305081487
21
235.5980274554
0
LINE
5
2CD
100
AcDbEntity
8
0
100
AcDbLine
62
7
6
CONTINUOUS
10
103.1234012723
20
235.1123897906
11
103.0932928205
21
235.3112060900
0
LINE
5
2CE
100
AcDbEntity
8
0
100
AcDbLine
62
7
6
CONTINUOUS
10
104.2664338231
20
236.7992660876
11
104.2814880491
21
236.6998588916
0
LINE
5
2CF
100
AcDbEntity
8
0
100
AcDbLine
62
7
6
CONTINUOUS
10
109.4664566398
20
238.4199192401
11
109.4664566398
21
238.2423126574
0
LINE
5
2D0
100
AcDbEntity
8
0
100
AcDbLine
62
7
6
CONTINUOUS
10
109.7447085262
20
238.1831104632
11
109.7447085262
21
238.4199192401
0
LINE
5
2D1
100
AcDbEntity
8
0
100
AcDbLine
62
7
6
CONTINUOUS
10
110.1620864153
20
239.0711471911
11
110.1620864153
21
237.2358696337
0
LINE
5
2D2
100
AcDbEntity
8
0
100
AcDbLine
62
7
6
CONTINUOUS
10
110.4403383017
20
237.2358696337
11
110.4403383017
21
239.0711471911
0
LINE
5
2D3
100
AcDbEntity
8
DEFAULT_1
100
AcDbLine
62
2
6
CENTER
10
111.0188218236
20
218.4486286517
11
111.0188218236
21
182.4163998892
0
LINE
5
2D4
100
AcDbEntity
8
DEFAULT_1
100
AcDbLine
62
2
6
CENTER
10
111.0188218236
20
218.4486286517
11
111.0188218236
21
233.9486286517
0
LINE
5
2D5
100
AcDbEntity
8
0
100
AcDbLine
62
7
6
CONTINUOUS
10
114.0112377286
20
236.9398567553
11
114.0576130033
21
237.2358696337
0
LINE
5
2D6
100
AcDbEntity
8
0
100
AcDbLine
62
7
6
CONTINUOUS
10
113.7793611169
20
237.2358696337
11
113.7329858423
21
236.9990589495
0
LINE
5
2D7
100
AcDbEntity
8
0
100
AcDbLine
62
7
6
CONTINUOUS
10
91.9643231511
20
224.5176899310
11
92.1438962102
21
224.3962013598
0
LINE
5
2D8
100
AcDbEntity
8
0
100
AcDbLine
62
7
6
CONTINUOUS
10
94.6348057866
20
230.2644197817
11
94.5204793096
21
230.4034788485
0
LINE
5
2D9
100
AcDbEntity
8
0
100
AcDbLine
62
7
6
CONTINUOUS
10
96.2333327413
20
230.6269810076
11
96.3476611257
21
230.4879219409
0
LINE
5
2DA
100
AcDbEntity
8
0
100
AcDbLine
62
7
6
CONTINUOUS
10
96.5923548818
20
230.5198500033
11
96.4453440786
21
230.7180473681
0
LINE
5
2DB
100
AcDbEntity
8
0
100
AcDbLine
62
7
6
CONTINUOUS
10
100.4007636190
20
234.6214706774
11
100.2920924306
21
234.8830273028
0
LINE
5
2DC
100
AcDbEntity
8
0
100
AcDbLine
62
7
6
CONTINUOUS
10
101.3902045369
20
234.8143761035
11
101.4988757253
21
234.5528175707
0
LINE
5
2DD
100
AcDbEntity
8
0
100
AcDbLine
62
7
6
CONTINUOUS
10
101.7979508519
20
235.4281380053
11
101.6892796636
21
235.6896946307
0
LINE
5
2DE
100
AcDbEntity
8
0
100
AcDbLine
62
7
6
CONTINUOUS
10
101.6576472402
20
234.6444847460
11
101.5723801732
21
234.8655044909
0
LINE
5
2DF
100
AcDbEntity
8
0
100
AcDbLine
62
7
6
CONTINUOUS
10
101.5305081487
20
235.5980274554
11
101.6157752156
21
235.3770077105
0
LINE
5
2E0
100
AcDbEntity
8
0
100
AcDbLine
62
7
6
CONTINUOUS
10
103.0932928205
20
235.3112060900
11
103.0548344732
21
235.4511520739
0
LINE
5
2E1
100
AcDbEntity
8
0
100
AcDbLine
62
7
6
CONTINUOUS
10
104.5255266309
20
236.5705044146
11
104.4870678067
21
236.7104503985
0
LINE
5
2E2
100
AcDbEntity
8
0
100
AcDbLine
62
7
6
CONTINUOUS
10
105.5434299588
20
236.3474438067
11
105.5283757329
21
236.4468529101
0
LINE
5
2E3
100
AcDbEntity
8
0
100
AcDbLine
62
7
6
CONTINUOUS
10
105.7774726033
20
235.9420711871
11
105.7925268293
21
235.8426639910
0
LINE
5
2E4
100
AcDbEntity
8
0
100
AcDbLine
62
7
6
CONTINUOUS
10
111.5533459068
20
239.0711471911
11
111.5533459068
21
237.2358696337
0
LINE
5
2E5
100
AcDbEntity
8
0
100
AcDbLine
62
7
6
CONTINUOUS
10
111.8315977931
20
237.2358696337
11
111.8315977931
21
239.0711471911
0
LINE
5
2E6
100
AcDbEntity
8
0
100
AcDbLine
62
7
6
CONTINUOUS
10
112.2026003480
20
239.0711471911
11
112.2026003480
21
236.2886288043
0
LINE
5
2E7
100
AcDbEntity
8
0
100
AcDbLine
62
7
6
CONTINUOUS
10
112.4808522344
20
236.6438438769
11
112.4808522344
21
238.7159321185
0
LINE
5
2E8
100
AcDbEntity
8
0
100
AcDbLine
62
7
6
CONTINUOUS
10
113.2188218236
20
196.4486286517
11
113.2188218236
21
193.7486286517
0
LINE
5
2E9
100
AcDbEntity
8
0
100
AcDbLine
62
7
6
CONTINUOUS
10
113.7793611169
20
238.1239063616
11
113.7793611169
21
237.2358696337
0
LINE
5
2EA
100
AcDbEntity
8
0
100
AcDbLine
62
7
6
CONTINUOUS
10
90.8075600744
20
222.7454564448
11
93.1088219762
21
221.7686285849
0
LINE
5
2EB
100
AcDbEntity
8
0
100
AcDbLine
62
7
6
CONTINUOUS
10
93.2065049291
20
221.9987549658
11
92.1782818914
21
222.4352097388
0
LINE
5
2EC
100
AcDbEntity
8
0
100
AcDbLine
62
7
6
CONTINUOUS
10
91.8845025182
20
222.5599114772
11
91.1500569463
21
222.8716647502
0
LINE
5
2ED
100
AcDbEntity
8
0
100
AcDbLine
62
7
6
CONTINUOUS
10
91.8508473516
20
223.7058226939
11
91.9977360845
21
223.6434719439
0
LINE
5
2EE
100
AcDbEntity
8
0
100
AcDbLine
62
7
6
CONTINUOUS
10
92.1443825841
20
223.8528144236
11
91.9485303045
21
223.9359490748
0
LINE
5
2EF
100
AcDbEntity
8
0
100
AcDbLine
62
7
6
CONTINUOUS
10
93.7054825902
20
229.5725338336
11
95.5177222371
21
228.1243088122
0
LINE
5
2F0
100
AcDbEntity
8
0
100
AcDbLine
62
7
6
CONTINUOUS
10
95.8276597142
20
228.1738083239
11
94.2439538121
21
229.4797613497
0
LINE
5
2F1
100
AcDbEntity
8
0
100
AcDbLine
62
7
6
CONTINUOUS
10
94.4227963567
20
230.1733534213
11
94.6350499273
21
229.9927265521
0
LINE
5
2F2
100
AcDbEntity
8
0
100
AcDbLine
62
7
6
CONTINUOUS
10
99.3026515126
20
234.6901237841
11
99.4898854375
21
234.3658239718
0
LINE
5
2F3
100
AcDbEntity
8
0
100
AcDbLine
62
7
6
CONTINUOUS
10
99.5165816427
20
234.7595856066
11
100.4293471456
21
233.1786281939
0
LINE
5
2F4
100
AcDbEntity
8
0
100
AcDbLine
62
7
6
CONTINUOUS
10
100.6198731542
20
233.2886288043
11
99.5198727727
21
235.1938850756
0
LINE
5
2F5
100
AcDbEntity
8
0
100
AcDbLine
62
7
6
CONTINUOUS
10
100.2185879827
20
234.5703422900
11
100.4292260289
21
234.2055055972
0
LINE
5
2F6
100
AcDbEntity
8
0
100
AcDbLine
62
7
6
CONTINUOUS
10
100.5645934224
20
234.3377086993
11
100.4007636190
21
234.6214706774
0
LINE
5
2F7
100
AcDbEntity
8
0
100
AcDbLine
62
7
6
CONTINUOUS
10
101.2263747335
20
235.0981380816
11
101.3902045369
21
234.8143761035
0
LINE
5
2F8
100
AcDbEntity
8
0
100
AcDbLine
62
7
6
CONTINUOUS
10
101.5723801732
20
234.8655044909
11
101.3617411733
21
235.2303421374
0
LINE
5
2F9
100
AcDbEntity
8
0
100
AcDbLine
62
7
6
CONTINUOUS
10
102.7873917699
20
235.6210434313
11
102.8960629583
21
235.3594848986
0
LINE
5
2FA
100
AcDbEntity
8
0
100
AcDbLine
62
7
6
CONTINUOUS
10
103.0548344732
20
235.4511520739
11
102.9695674062
21
235.6721718188
0
LINE
5
2FB
100
AcDbEntity
8
0
100
AcDbLine
62
7
6
CONTINUOUS
10
104.2814880491
20
236.6998588916
11
104.3433509946
21
236.5193760272
0
LINE
5
2FC
100
AcDbEntity
8
0
100
AcDbLine
62
7
6
CONTINUOUS
10
105.7156096578
20
236.1225540515
11
105.7774726033
21
235.9420711871
0
LINE
5
2FD
100
AcDbEntity
8
0
100
AcDbLine
62
7
6
CONTINUOUS
10
105.9747019887
20
235.8937923785
11
105.8743811727
21
236.2142212268
0
LINE
5
2FE
100
AcDbEntity
8
0
100
AcDbLine
62
7
6
CONTINUOUS
10
114.0188218236
20
192.9486286517
11
114.0188218236
21
185.2486286517
0
LINE
5
2FF
100
AcDbEntity
8
0
100
AcDbLine
62
7
6
CONTINUOUS
10
114.0576130033
20
237.2358696337
11
114.0576130033
21
238.1239063616
0
LINE
5
300
100
AcDbEntity
8
0
100
AcDbLine
62
7
6
CONTINUOUS
10
92.1438962102
20
224.3962013598
11
92.3397484899
21
224.3130671855
0
LINE
5
301
100
AcDbEntity
8
0
100
AcDbLine
62
7
6
CONTINUOUS
10
92.3884678960
20
224.5639769908
11
92.2905408025
21
224.6055438395
0
LINE
5
302
100
AcDbEntity
8
0
100
AcDbLine
62
7
6
CONTINUOUS
10
93.6279717565
20
225.0336687442
11
93.7748604894
21
224.9713179942
0
LINE
5
303
100
AcDbEntity
8
0
100
AcDbLine
62
7
6
CONTINUOUS
10
93.9215069890
20
225.1806604739
11
93.6766911626
21
225.2845785494
0
LINE
5
304
100
AcDbEntity
8
0
100
AcDbLine
62
7
6
CONTINUOUS
10
94.7654152990
20
230.1637146350
11
94.6348057866
21
230.2644197817
0
LINE
5
305
100
AcDbEntity
8
0
100
AcDbLine
62
7
6
CONTINUOUS
10
95.5488234639
20
229.8311779376
11
95.4182149053
21
229.9318821307
0
LINE
5
306
100
AcDbEntity
8
0
100
AcDbLine
62
7
6
CONTINUOUS
10
96.1027241826
20
230.7276861544
11
96.2333327413
21
230.6269810076
0
LINE
5
307
100
AcDbEntity
8
0
100
AcDbLine
62
7
6
CONTINUOUS
10
96.4453440786
20
230.7180473681
11
96.2330895543
21
230.8986742373
0
LINE
5
308
100
AcDbEntity
8
0
100
AcDbLine
62
7
6
CONTINUOUS
10
100.4292260289
20
234.2055055972
11
100.5780020833
21
234.0211517687
0
LINE
5
309
100
AcDbEntity
8
0
100
AcDbLine
62
7
6
CONTINUOUS
10
100.7367735982
20
234.1128179904
11
100.5645934224
21
234.3377086993
0
LINE
5
30A
100
AcDbEntity
8
0
100
AcDbLine
62
7
6
CONTINUOUS
10
101.6157752156
20
235.3770077105
11
101.8264142156
21
235.0121719714
0
LINE
5
30B
100
AcDbEntity
8
0
100
AcDbLine
62
7
6
CONTINUOUS
10
101.9617806554
20
235.1443760272
11
101.7979508519
21
235.4281380053
0
LINE
5
30C
100
AcDbEntity
8
0
100
AcDbLine
62
7
6
CONTINUOUS
10
102.6235619664
20
235.9048035021
11
102.7873917699
21
235.6210434313
0
LINE
5
30D
100
AcDbEntity
8
0
100
AcDbLine
62
7
6
CONTINUOUS
10
102.9695674062
20
235.6721718188
11
102.7589293599
21
236.0370075579
0
LINE
5
30E
100
AcDbEntity
8
0
100
AcDbLine
62
7
6
CONTINUOUS
10
102.5682822347
20
236.9538853045
11
103.6682826162
21
235.0486290332
0
LINE
5
30F
100
AcDbEntity
8
0
100
AcDbLine
62
7
6
CONTINUOUS
10
103.4291812062
20
235.8294308062
11
102.7270537496
21
237.0455505725
0
LINE
5
310
100
AcDbEntity
8
0
100
AcDbLine
62
7
6
CONTINUOUS
10
103.8270536542
20
235.1402962084
11
103.5696068883
21
235.5862057086
0
LINE
5
311
100
AcDbEntity
8
0
100
AcDbLine
62
7
6
CONTINUOUS
10
109.0954540849
20
237.5318825122
11
109.4664566398
21
236.2886288043
0
LINE
5
312
100
AcDbEntity
8
0
100
AcDbLine
62
7
6
CONTINUOUS
10
109.4200813651
20
238.5975277301
11
109.4664566398
21
238.4199192401
0
LINE
5
313
100
AcDbEntity
8
0
100
AcDbLine
62
7
6
CONTINUOUS
10
109.7447085262
20
238.4199192401
11
109.6983332515
21
238.5975277301
0
LINE
5
314
100
AcDbEntity
8
0
100
AcDbLine
62
7
6
CONTINUOUS
10
110.4867136359
20
236.9990589495
11
110.4403383017
21
237.2358696337
0
LINE
5
315
100
AcDbEntity
8
0
100
AcDbLine
62
7
6
CONTINUOUS
10
110.1620864153
20
237.2358696337
11
110.2084616900
21
236.9398567553
0
LINE
5
316
100
AcDbEntity
8
DEFAULT_1
100
AcDbLine
62
2
6
CENTER
10
111.0188218236
20
218.4486286517
11
95.5188218236
21
218.4486286517
0
LINE
5
317
100
AcDbEntity
8
DEFAULT_1
100
AcDbLine
62
2
6
CENTER
10
111.0188218236
20
218.4486286517
11
126.5188218236
21
218.4486286517
0
LINE
5
318
100
AcDbEntity
8
0
100
AcDbLine
62
7
6
CONTINUOUS
10
93.2212029577
20
223.8031160708
11
93.4333363652
21
223.7583362933
0
LINE
5
319
100
AcDbEntity
8
0
100
AcDbLine
62
7
6
CONTINUOUS
10
92.3397484899
20
224.3130671855
11
92.5518799901
21
224.2682869311
0
LINE
5
31A
100
AcDbEntity
8
0
100
AcDbLine
62
7
6
CONTINUOUS
10
93.0705433965
20
228.0767137881
11
95.3718062520
21
227.0998861666
0
LINE
5
31B
100
AcDbEntity
8
0
100
AcDbLine
62
7
6
CONTINUOUS
10
95.4694892049
20
227.3300125476
11
93.6578580022
21
228.0990040179
0
LINE
5
31C
100
AcDbEntity
8
0
100
AcDbLine
62
7
6
CONTINUOUS
10
94.6350499273
20
229.9927265521
11
94.9615098119
21
229.8088867541
0
LINE
5
31D
100
AcDbEntity
8
0
100
AcDbLine
62
7
6
CONTINUOUS
10
95.0429125905
20
230.0006592150
11
94.7654152990
21
230.1637146350
0
LINE
5
31E
100
AcDbEntity
8
0
100
AcDbLine
62
7
6
CONTINUOUS
10
100.5780020833
20
234.0211517687
11
100.6799689412
21
233.9178726550
0
LINE
5
31F
100
AcDbEntity
8
0
100
AcDbLine
62
7
6
CONTINUOUS
10
101.3617411733
20
235.2303421374
11
101.2129660726
21
235.4146950122
0
LINE
5
320
100
AcDbEntity
8
0
100
AcDbLine
62
7
6
CONTINUOUS
10
101.8264142156
20
235.0121719714
11
101.9751893163
21
234.8278190966
0
LINE
5
321
100
AcDbEntity
8
0
100
AcDbLine
62
7
6
CONTINUOUS
10
101.0541945577
20
235.3230278369
11
101.2263747335
21
235.0981380816
0
LINE
5
322
100
AcDbEntity
8
0
100
AcDbLine
62
7
6
CONTINUOUS
10
102.1339608312
20
234.9194843646
11
101.9617806554
21
235.1443760272
0
LINE
5
323
100
AcDbEntity
8
0
100
AcDbLine
62
7
6
CONTINUOUS
10
102.4513827443
20
236.1296951647
11
102.6235619664
21
235.9048035021
0
LINE
5
324
100
AcDbEntity
8
0
100
AcDbLine
62
7
6
CONTINUOUS
10
104.3433509946
20
236.5193760272
11
104.5305849195
21
236.1950771685
0
LINE
5
325
100
AcDbEntity
8
0
100
AcDbLine
62
7
6
CONTINUOUS
10
104.6659518361
20
236.3272812243
11
104.5255266309
21
236.5705044146
0
LINE
5
326
100
AcDbEntity
8
0
100
AcDbLine
62
7
6
CONTINUOUS
10
105.1773115278
20
237.0549137469
11
105.4113541723
21
236.6495392199
0
LINE
5
327
100
AcDbEntity
8
0
100
AcDbLine
62
7
6
CONTINUOUS
10
105.5283757329
20
236.4468529101
11
105.7156096578
21
236.1225540515
0
LINE
5
328
100
AcDbEntity
8
0
100
AcDbLine
62
7
6
CONTINUOUS
10
104.9198647619
20
237.5008232470
11
105.0602904439
21
237.2576000567
0
LINE
5
329
100
AcDbEntity
8
0
100
AcDbLine
62
7
6
CONTINUOUS
10
105.8743811727
20
236.2142212268
11
105.0786362767
21
237.5924904223
0
LINE
5
32A
100
AcDbEntity
8
0
100
AcDbLine
62
7
6
CONTINUOUS
10
109.7910838008
20
236.2886288043
11
109.3737059713
21
237.6502869006
0
LINE
5
32B
100
AcDbEntity
8
0
100
AcDbLine
62
7
6
CONTINUOUS
10
113.7329858423
20
238.3607170458
11
113.7793611169
21
238.1239063616
0
LINE
5
32C
100
AcDbEntity
8
0
100
AcDbLine
62
7
6
CONTINUOUS
10
114.0576130033
20
238.1239063616
11
114.0112377286
21
238.4199192401
0
LINE
5
32D
100
AcDbEntity
8
0
100
AcDbLine
62
7
6
CONTINUOUS
10
93.7274800420
20
223.2260944720
11
92.4548054815
21
223.3589274760
0
LINE
5
32E
100
AcDbEntity
8
0
100
AcDbLine
62
7
6
CONTINUOUS
10
92.4550496221
20
223.0872342463
11
93.6135159612
21
222.9576141711
0
LINE
5
32F
100
AcDbEntity
8
0
100
AcDbLine
62
7
6
CONTINUOUS
10
91.6876774907
20
223.7298190470
11
91.8508473516
21
223.7058226939
0
LINE
5
330
100
AcDbEntity
8
0
100
AcDbLine
62
7
6
CONTINUOUS
10
91.9485303045
20
223.9359490748
11
91.7853604436
21
223.9599449511
0
LINE
5
331
100
AcDbEntity
8
0
100
AcDbLine
62
7
6
CONTINUOUS
10
93.4820557714
20
224.0092460986
11
93.3188859105
21
224.0332424517
0
LINE
5
332
100
AcDbEntity
8
0
100
AcDbLine
62
7
6
CONTINUOUS
10
92.5516377568
20
224.5399806376
11
92.3884678960
21
224.5639769908
0
LINE
5
333
100
AcDbEntity
8
0
100
AcDbLine
62
7
6
CONTINUOUS
10
92.6485901952
20
225.5851867076
11
92.4854203344
21
225.6091830607
0
LINE
5
334
100
AcDbEntity
8
0
100
AcDbLine
62
7
6
CONTINUOUS
10
94.2439538121
20
229.4797613497
11
96.0555859685
21
228.7107698794
0
LINE
5
335
100
AcDbEntity
8
0
100
AcDbLine
62
7
6
CONTINUOUS
10
96.1532689214
20
228.9408953067
11
93.8520070195
21
229.9177238818
0
LINE
5
336
100
AcDbEntity
8
0
100
AcDbLine
62
7
6
CONTINUOUS
10
94.9615098119
20
229.8088867541
11
95.3042517781
21
229.6634018298
0
LINE
5
337
100
AcDbEntity
8
0
100
AcDbLine
62
7
6
CONTINUOUS
10
95.1408387304
20
229.9590914126
11
95.0429125905
21
230.0006592150
0
LINE
5
338
100
AcDbEntity
8
0
100
AcDbLine
62
7
6
CONTINUOUS
10
95.6957131505
20
229.7688267108
11
95.5488234639
21
229.8311779376
0
LINE
5
339
100
AcDbEntity
8
0
100
AcDbLine
62
7
6
CONTINUOUS
10
100.6799689412
20
233.9178726550
11
100.8370944143
21
233.7923900958
0
LINE
5
33A
100
AcDbEntity
8
0
100
AcDbLine
62
7
6
CONTINUOUS
10
101.2129660726
20
235.4146950122
11
101.1109992147
21
235.5179741259
0
LINE
5
33B
100
AcDbEntity
8
0
100
AcDbLine
62
7
6
CONTINUOUS
10
101.9751893163
20
234.8278190966
11
102.0771561742
21
234.7245399829
0
LINE
5
33C
100
AcDbEntity
8
0
100
AcDbLine
62
7
6
CONTINUOUS
10
102.7589293599
20
236.0370075579
11
102.6101533056
21
236.2213623400
0
LINE
5
33D
100
AcDbEntity
8
0
100
AcDbLine
62
7
6
CONTINUOUS
10
110.2084616900
20
236.9398567553
11
110.3012123585
21
236.7030460711
0
LINE
5
33E
100
AcDbEntity
8
0
100
AcDbLine
62
7
6
CONTINUOUS
10
123.5188218236
20
196.4486286517
11
123.5188218236
21
198.4932410600
0
LINE
5
33F
100
AcDbEntity
8
0
100
AcDbLine
62
7
6
CONTINUOUS
10
108.8188218236
20
193.7486286517
11
108.0188218236
21
192.9486286517
0
LINE
5
340
100
AcDbEntity
8
0
100
AcDbLine
62
7
6
CONTINUOUS
10
93.4333363652
20
223.7583362933
11
93.7269936681
21
223.7694814082
0
LINE
5
341
100
AcDbEntity
8
0
100
AcDbLine
62
7
6
CONTINUOUS
10
93.6766911626
20
225.2845785494
11
93.4482785344
21
225.2910039302
0
LINE
5
342
100
AcDbEntity
8
0
100
AcDbLine
62
7
6
CONTINUOUS
10
92.4367009282
20
225.3582732554
11
92.5509072423
21
225.3550603266
0
LINE
5
343
100
AcDbEntity
8
0
100
AcDbLine
62
7
6
CONTINUOUS
10
95.3042517781
20
229.6634018298
11
95.6632729650
21
229.5562717791
0
LINE
5
344
100
AcDbEntity
8
0
100
AcDbLine
62
7
6
CONTINUOUS
10
95.9558354497
20
230.7900364276
11
96.1027241826
21
230.7276861544
0
LINE
5
345
100
AcDbEntity
8
0
100
AcDbLine
62
7
6
CONTINUOUS
10
96.2330895543
20
230.8986742373
11
95.9882746816
21
231.0025923129
0
LINE
5
346
100
AcDbEntity
8
0
100
AcDbLine
62
7
6
CONTINUOUS
10
101.0042153478
20
233.9429275866
11
100.7367735982
21
234.1128179904
0
LINE
5
347
100
AcDbEntity
8
0
100
AcDbLine
62
7
6
CONTINUOUS
10
102.0771561742
20
234.7245399829
11
102.2342816472
21
234.5990574237
0
LINE
5
348
100
AcDbEntity
8
0
100
AcDbLine
62
7
6
CONTINUOUS
10
101.1109992147
20
235.5179741259
11
100.9538737417
21
235.6434566851
0
LINE
5
349
100
AcDbEntity
8
0
100
AcDbLine
62
7
6
CONTINUOUS
10
102.6101533056
20
236.2213623400
11
102.5081864476
21
236.3246395465
0
LINE
5
34A
100
AcDbEntity
8
0
100
AcDbLine
62
7
6
CONTINUOUS
10
104.9050527692
20
235.5464794512
11
105.1089869619
21
235.3399212237
0
LINE
5
34B
100
AcDbEntity
8
0
100
AcDbLine
62
7
6
CONTINUOUS
10
105.1657911420
20
235.5348675128
11
105.0638242841
21
235.6381466265
0
LINE
5
34C
100
AcDbEntity
8
0
100
AcDbLine
62
7
6
CONTINUOUS
10
104.7679191709
20
236.2240021105
11
104.6659518361
21
236.3272812243
0
LINE
5
34D
100
AcDbEntity
8
0
100
AcDbLine
62
7
6
CONTINUOUS
10
104.5305849195
20
236.1950771685
11
104.6559563756
21
236.0512611743
0
LINE
5
34E
100
AcDbEntity
8
0
100
AcDbLine
62
7
6
CONTINUOUS
10
109.6983332515
20
238.5975277301
11
109.5592073083
21
238.8343384143
0
LINE
5
34F
100
AcDbEntity
8
0
100
AcDbLine
62
7
6
CONTINUOUS
10
110.5794642449
20
236.8214523669
11
110.4867136359
21
236.9990589495
0
LINE
5
350
100
AcDbEntity
8
0
100
AcDbLine
62
7
6
CONTINUOUS
10
114.0112377286
20
238.4199192401
11
113.9184869409
21
238.6567299243
0
LINE
5
351
100
AcDbEntity
8
0
100
AcDbLine
62
7
6
CONTINUOUS
10
91.7853604436
20
223.9599449511
11
91.5406666875
21
223.9280164118
0
LINE
5
352
100
AcDbEntity
8
0
100
AcDbLine
62
7
6
CONTINUOUS
10
92.4854203344
20
225.6091830607
11
92.2407265783
21
225.5772540446
0
LINE
5
353
100
AcDbEntity
8
0
100
AcDbLine
62
7
6
CONTINUOUS
10
93.4485226751
20
225.0193107005
11
93.6279717565
21
225.0336687442
0
LINE
5
354
100
AcDbEntity
8
0
100
AcDbLine
62
7
6
CONTINUOUS
10
95.6632729650
20
229.5562717791
11
95.9406491399
21
229.5290624972
0
LINE
5
355
100
AcDbEntity
8
0
100
AcDbLine
62
7
6
CONTINUOUS
10
93.6578580022
20
228.0990040179
11
95.6974154592
21
227.8669731494
0
LINE
5
356
100
AcDbEntity
8
0
100
AcDbLine
62
7
6
CONTINUOUS
10
95.5177222371
20
228.1243088122
11
93.2170678258
21
228.4219028826
0
LINE
5
357
100
AcDbEntity
8
0
100
AcDbLine
62
7
6
CONTINUOUS
10
95.8588820577
20
229.7448303576
11
95.6957131505
21
229.7688267108
0
LINE
5
358
100
AcDbEntity
8
0
100
AcDbLine
62
7
6
CONTINUOUS
10
100.7867518544
20
235.4929191943
11
101.0541945577
21
235.3230278369
0
LINE
5
359
100
AcDbEntity
8
0
100
AcDbLine
62
7
6
CONTINUOUS
10
102.4014035344
20
234.7495949145
11
102.1339608312
21
234.9194843646
0
LINE
5
35A
100
AcDbEntity
8
0
100
AcDbLine
62
7
6
CONTINUOUS
10
102.1839400411
20
236.2995865222
11
102.4513827443
21
236.1296951647
0
LINE
5
35B
100
AcDbEntity
8
0
100
AcDbLine
62
7
6
CONTINUOUS
10
102.5081864476
20
236.3246395465
11
102.3510609746
21
236.4501221057
0
LINE
5
35C
100
AcDbEntity
8
0
100
AcDbLine
62
7
6
CONTINUOUS
10
104.6559563756
20
236.0512611743
11
104.7345191121
21
235.9885189410
0
LINE
5
35D
100
AcDbEntity
8
0
100
AcDbLine
62
7
6
CONTINUOUS
10
104.8464819074
20
236.1612617846
11
104.7679191709
21
236.2240021105
0
LINE
5
35E
100
AcDbEntity
8
0
100
AcDbLine
62
7
6
CONTINUOUS
10
110.3012123585
20
236.7030460711
11
110.4867136359
21
236.4662353869
0
LINE
5
35F
100
AcDbEntity
8
0
100
AcDbLine
62
7
6
CONTINUOUS
10
109.3273306966
20
238.7159321185
11
109.4200813651
21
238.5975277301
0
LINE
5
360
100
AcDbEntity
8
0
100
AcDbLine
62
7
6
CONTINUOUS
10
113.6402350545
20
238.5383255358
11
113.7329858423
21
238.3607170458
0
LINE
5
361
100
AcDbEntity
8
0
100
AcDbLine
62
7
6
CONTINUOUS
10
93.6777859807
20
224.0619585391
11
93.4820557714
21
224.0092460986
0
LINE
5
362
100
AcDbEntity
8
0
100
AcDbLine
62
7
6
CONTINUOUS
10
91.5571900487
20
223.6946775790
11
91.6876774907
21
223.7298190470
0
LINE
5
363
100
AcDbEntity
8
0
100
AcDbLine
62
7
6
CONTINUOUS
10
92.5518799901
20
224.2682869311
11
92.8128548742
21
224.3385703440
0
LINE
5
364
100
AcDbEntity
8
0
100
AcDbLine
62
7
6
CONTINUOUS
10
93.4482785344
20
225.2910039302
11
93.1873055578
21
225.2207205172
0
LINE
5
365
100
AcDbEntity
8
0
100
AcDbLine
62
7
6
CONTINUOUS
10
92.3062134862
20
225.3231317874
11
92.4367009282
21
225.3582732554
0
LINE
5
366
100
AcDbEntity
8
0
100
AcDbLine
62
7
6
CONTINUOUS
10
95.9882746816
20
231.0025923129
11
95.7108985067
21
231.0298015948
0
LINE
5
367
100
AcDbEntity
8
0
100
AcDbLine
62
7
6
CONTINUOUS
10
95.7926655889
20
230.8140327807
11
95.9558354497
21
230.7900364276
0
LINE
5
368
100
AcDbEntity
8
0
100
AcDbLine
62
7
6
CONTINUOUS
10
95.0743790746
20
231.2999880191
11
94.9112092138
21
231.3239843722
0
LINE
5
369
100
AcDbEntity
8
0
100
AcDbLine
62
7
6
CONTINUOUS
10
100.8370944143
20
233.7923900958
11
101.0025702596
21
233.7257778521
0
LINE
5
36A
100
AcDbEntity
8
0
100
AcDbLine
62
7
6
CONTINUOUS
10
102.2342816472
20
234.5990574237
11
102.3997574926
21
234.5324451800
0
LINE
5
36B
100
AcDbEntity
8
0
100
AcDbLine
62
7
6
CONTINUOUS
10
100.9538737417
20
235.6434566851
11
100.7883978963
21
235.7100689288
0
LINE
5
36C
100
AcDbEntity
8
0
100
AcDbLine
62
7
6
CONTINUOUS
10
104.5574017644
20
235.5619614001
11
103.6364070058
21
236.0571720477
0
LINE
5
36D
100
AcDbEntity
8
0
100
AcDbLine
62
7
6
CONTINUOUS
10
103.6113568425
20
235.8805591937
11
104.3668762326
21
235.4519626971
0
LINE
5
36E
100
AcDbEntity
8
0
100
AcDbLine
62
7
6
CONTINUOUS
10
105.2995124936
20
235.4499218341
11
105.1657911420
21
235.5348675128
0
LINE
5
36F
100
AcDbEntity
8
0
100
AcDbLine
62
7
6
CONTINUOUS
10
105.0435906530
20
237.1398594256
11
105.1773115278
21
237.0549137469
0
LINE
5
370
100
AcDbEntity
8
0
100
AcDbLine
62
7
6
CONTINUOUS
10
105.0602904439
20
237.2576000567
11
104.9817277074
21
237.3203422900
0
LINE
5
371
100
AcDbEntity
8
0
100
AcDbLine
62
7
6
CONTINUOUS
10
133.9732287943
20
217.6832617870
11
127.7299103099
21
202.6105576276
0
LINE
5
372
100
AcDbEntity
8
0
100
AcDbLine
62
7
6
CONTINUOUS
10
95.9406491399
20
229.5290624972
11
96.1853428960
21
229.5609915133
0
LINE
5
373
100
AcDbEntity
8
0
100
AcDbLine
62
7
6
CONTINUOUS
10
96.0383320928
20
229.7591888781
11
95.8588820577
21
229.7448303576
0
LINE
5
374
100
AcDbEntity
8
0
100
AcDbLine
62
7
6
CONTINUOUS
10
94.8135262609
20
231.0938579913
11
94.9929772496
21
231.1082155581
0
LINE
5
375
100
AcDbEntity
8
0
100
AcDbLine
62
7
6
CONTINUOUS
10
101.0025702596
20
233.7257778521
11
101.2315541387
21
233.6958324786
0
LINE
5
376
100
AcDbEntity
8
0
100
AcDbLine
62
7
6
CONTINUOUS
10
101.1462870717
20
233.9168531771
11
101.0042153478
21
233.9429275866
0
LINE
5
377
100
AcDbEntity
8
0
100
AcDbLine
62
7
6
CONTINUOUS
10
102.5434743047
20
234.7235195513
11
102.4014035344
21
234.7495949145
0
LINE
5
378
100
AcDbEntity
8
0
100
AcDbLine
62
7
6
CONTINUOUS
10
105.1089869619
20
235.3399212237
11
105.2744628072
21
235.2733089801
0
LINE
5
379
100
AcDbEntity
8
0
100
AcDbLine
62
7
6
CONTINUOUS
10
102.3510609746
20
236.4501221057
11
102.1855851293
21
236.5167343493
0
LINE
5
37A
100
AcDbEntity
8
0
100
AcDbLine
62
7
6
CONTINUOUS
10
104.7345191121
20
235.9885189410
11
104.8999944806
21
235.9219066973
0
LINE
5
37B
100
AcDbEntity
8
0
100
AcDbLine
62
7
6
CONTINUOUS
10
110.4867136359
20
236.4662353869
11
110.6722148836
21
236.3478309985
0
LINE
5
37C
100
AcDbEntity
8
0
100
AcDbLine
62
7
6
CONTINUOUS
10
110.7185901880
20
236.7030460711
11
110.5794642449
21
236.8214523669
0
LINE
5
37D
100
AcDbEntity
8
0
100
AcDbLine
62
7
6
CONTINUOUS
10
109.5592073083
20
238.8343384143
11
109.3737059713
21
239.0119449969
0
LINE
5
37E
100
AcDbEntity
8
0
100
AcDbLine
62
7
6
CONTINUOUS
10
113.9184869409
20
238.6567299243
11
113.7329858423
21
238.8935406085
0
LINE
5
37F
100
AcDbEntity
8
0
100
AcDbLine
62
7
6
CONTINUOUS
10
114.0188218236
20
185.2486286517
11
113.2188218236
21
184.4486286517
0
LINE
5
380
100
AcDbEntity
8
0
100
AcDbLine
62
7
6
CONTINUOUS
10
95.6621791005
20
230.7788917895
11
95.7926655889
21
230.8140327807
0
LINE
5
381
100
AcDbEntity
8
0
100
AcDbLine
62
7
6
CONTINUOUS
10
95.7108985067
20
231.0298015948
11
95.5151682973
21
230.9770891543
0
LINE
5
382
100
AcDbEntity
8
0
100
AcDbLine
62
7
6
CONTINUOUS
10
113.3156078935
20
236.2886288043
11
113.5474845052
21
236.3478309985
0
LINE
5
383
100
AcDbEntity
8
0
100
AcDbLine
62
7
6
CONTINUOUS
10
94.9112092138
20
231.3239843722
11
94.6665154577
21
231.2920553561
0
LINE
5
384
100
AcDbEntity
8
0
100
AcDbLine
62
7
6
CONTINUOUS
10
105.4733382344
20
235.4421799060
11
105.2995124936
21
235.4499218341
0
LINE
5
385
100
AcDbEntity
8
0
100
AcDbLine
62
7
6
CONTINUOUS
10
102.3997574926
20
234.5324451800
11
102.6287413717
21
234.5024998065
0
LINE
5
386
100
AcDbEntity
8
0
100
AcDbLine
62
7
6
CONTINUOUS
10
100.7883978963
20
235.7100689288
11
100.5594140172
21
235.7400143023
0
LINE
5
387
100
AcDbEntity
8
0
100
AcDbLine
62
7
6
CONTINUOUS
10
102.1855851293
20
236.5167343493
11
101.9566012502
21
236.5466797228
0
LINE
5
388
100
AcDbEntity
8
0
100
AcDbLine
62
7
6
CONTINUOUS
10
100.6446810842
20
235.5189945574
11
100.7867518544
21
235.4929191943
0
LINE
5
389
100
AcDbEntity
8
0
100
AcDbLine
62
7
6
CONTINUOUS
10
105.2744628072
20
235.2733089801
11
105.4165340543
21
235.2472355242
0
LINE
5
38A
100
AcDbEntity
8
0
100
AcDbLine
62
7
6
CONTINUOUS
10
102.0418683172
20
236.3256599780
11
102.1839400411
21
236.2995865222
0
LINE
5
38B
100
AcDbEntity
8
0
100
AcDbLine
62
7
6
CONTINUOUS
10
104.8999944806
20
235.9219066973
11
105.0420657277
21
235.8958332415
0
LINE
5
38C
100
AcDbEntity
8
0
100
AcDbLine
62
7
6
CONTINUOUS
10
104.9885531545
20
236.1351864215
11
104.8464819074
21
236.1612617846
0
LINE
5
38D
100
AcDbEntity
8
0
100
AcDbLine
62
7
6
CONTINUOUS
10
104.9817277074
20
237.3203422900
11
104.8714104772
21
237.3647491809
0
LINE
5
38E
100
AcDbEntity
8
0
100
AcDbLine
62
7
6
CONTINUOUS
10
113.5011092305
20
238.6567299243
11
113.6402350545
21
238.5383255358
0
LINE
5
38F
100
AcDbEntity
8
0
100
AcDbLine
62
7
6
CONTINUOUS
10
100.4625054479
20
235.4678642626
11
100.6446810842
21
235.5189945574
0
LINE
5
390
100
AcDbEntity
8
0
100
AcDbLine
62
7
6
CONTINUOUS
10
101.3284627080
20
233.9679825183
11
101.1462870717
21
233.9168531771
0
LINE
5
391
100
AcDbEntity
8
0
100
AcDbLine
62
7
6
CONTINUOUS
10
102.7256499410
20
234.7746479388
11
102.5434743047
21
234.7235195513
0
LINE
5
392
100
AcDbEntity
8
0
100
AcDbLine
62
7
6
CONTINUOUS
10
111.0895927206
20
236.2886288043
11
111.3214692950
21
236.3478309985
0
LINE
5
393
100
AcDbEntity
8
0
100
AcDbLine
62
7
6
CONTINUOUS
10
105.4165340543
20
235.2472355242
11
105.5669551969
21
235.2800304766
0
LINE
5
394
100
AcDbEntity
8
0
100
AcDbLine
62
7
6
CONTINUOUS
10
105.0420657277
20
235.8958332415
11
105.1924873471
21
235.9286281939
0
LINE
5
395
100
AcDbEntity
8
0
100
AcDbLine
62
7
6
CONTINUOUS
10
105.1389742971
20
236.1679813738
11
104.9885531545
21
236.1351864215
0
LINE
5
396
100
AcDbEntity
8
0
100
AcDbLine
62
7
6
CONTINUOUS
10
108.0288218141
20
236.2886288043
11
108.3070737005
21
236.2886288043
0
LINE
5
397
100
AcDbEntity
8
0
100
AcDbLine
62
7
6
CONTINUOUS
10
109.4664566398
20
236.2886288043
11
109.7910838008
21
236.2886288043
0
LINE
5
398
100
AcDbEntity
8
0
100
AcDbLine
62
7
6
CONTINUOUS
10
110.9040914580
20
236.2886288043
11
111.0895927206
21
236.2886288043
0
LINE
5
399
100
AcDbEntity
8
0
100
AcDbLine
62
7
6
CONTINUOUS
10
112.2026003480
20
236.2886288043
11
113.3156078935
21
236.2886288043
0
LINE
5
39A
100
AcDbEntity
8
0
100
AcDbLine
62
7
6
CONTINUOUS
10
113.3156078935
20
236.6438438769
11
112.4808522344
21
236.6438438769
0
LINE
5
39B
100
AcDbEntity
8
0
100
AcDbLine
62
7
6
CONTINUOUS
10
111.0895927206
20
236.6438438769
11
110.9040914580
21
236.6438438769
0
LINE
5
39C
100
AcDbEntity
8
0
100
AcDbLine
62
7
6
CONTINUOUS
10
108.3070737005
20
237.5318825122
11
109.0954540849
21
237.5318825122
0
LINE
5
39D
100
AcDbEntity
8
0
100
AcDbLine
62
7
6
CONTINUOUS
10
104.8714104772
20
237.3647491809
11
104.7844978452
21
237.3686191912
0
LINE
5
39E
100
AcDbEntity
8
0
100
AcDbLine
62
7
6
CONTINUOUS
10
104.9015189290
20
237.1659328814
11
105.0435906530
21
237.1398594256
0
LINE
5
39F
100
AcDbEntity
8
0
100
AcDbLine
62
7
6
CONTINUOUS
10
110.6722148836
20
236.3478309985
11
110.9040914580
21
236.2886288043
0
LINE
5
3A0
100
AcDbEntity
8
0
100
AcDbLine
62
7
6
CONTINUOUS
10
109.3737059713
20
239.0119449969
11
109.1418294788
21
239.0711471911
0
LINE
5
3A1
100
AcDbEntity
8
0
100
AcDbLine
62
7
6
CONTINUOUS
10
110.9040914580
20
236.6438438769
11
110.7185901880
21
236.7030460711
0
LINE
5
3A2
100
AcDbEntity
8
0
100
AcDbLine
62
7
6
CONTINUOUS
10
109.1882047534
20
238.7751343127
11
109.3273306966
21
238.7159321185
0
LINE
5
3A3
100
AcDbEntity
8
0
100
AcDbLine
62
7
6
CONTINUOUS
10
113.7329858423
20
238.8935406085
11
113.5474845052
21
239.0119449969
0
LINE
5
3A4
100
AcDbEntity
8
0
100
AcDbLine
62
7
6
CONTINUOUS
10
127.7912347509
20
234.1386493787
11
133.9732287943
21
219.2139955164
0
LINE
5
3A5
100
AcDbEntity
8
0
100
AcDbLine
62
7
6
CONTINUOUS
10
101.8596926809
20
236.2745315905
11
102.0418683172
21
236.3256599780
0
LINE
5
3A6
100
AcDbEntity
8
0
100
AcDbLine
62
7
6
CONTINUOUS
10
104.7510977864
20
237.1331379290
11
104.9015189290
21
237.1659328814
0
LINE
5
3A7
100
AcDbEntity
8
0
100
AcDbLine
62
7
6
CONTINUOUS
10
104.7844978452
20
237.3686191912
11
104.6340767026
21
237.3358242388
0
LINE
5
3A8
100
AcDbEntity
8
0
100
AcDbLine
62
7
6
CONTINUOUS
10
109.1882047534
20
237.8870975848
11
108.3070737005
21
237.8870975848
0
LINE
5
3A9
100
AcDbEntity
8
0
100
AcDbLine
62
7
6
CONTINUOUS
10
112.4808522344
20
238.7159321185
11
113.3156078935
21
238.7159321185
0
LINE
5
3AA
100
AcDbEntity
8
0
100
AcDbLine
62
7
6
CONTINUOUS
10
108.3070737005
20
238.7751343127
11
109.1882047534
21
238.7751343127
0
LINE
5
3AB
100
AcDbEntity
8
0
100
AcDbLine
62
7
6
CONTINUOUS
10
113.3156078935
20
239.0711471911
11
112.2026003480
21
239.0711471911
0
LINE
5
3AC
100
AcDbEntity
8
0
100
AcDbLine
62
7
6
CONTINUOUS
10
111.8315977931
20
239.0711471911
11
111.5533459068
21
239.0711471911
0
LINE
5
3AD
100
AcDbEntity
8
0
100
AcDbLine
62
7
6
CONTINUOUS
10
110.4403383017
20
239.0711471911
11
110.1620864153
21
239.0711471911
0
LINE
5
3AE
100
AcDbEntity
8
0
100
AcDbLine
62
7
6
CONTINUOUS
10
109.1418294788
20
239.0711471911
11
108.0288218141
21
239.0711471911
0
LINE
5
3AF
100
AcDbEntity
8
0
100
AcDbLine
62
7
6
CONTINUOUS
10
113.5474845052
20
239.0119449969
11
113.3156078935
21
239.0711471911
0
LINE
5
3B0
100
AcDbEntity
8
0
100
AcDbLine
62
7
6
CONTINUOUS
10
113.3156078935
20
238.7159321185
11
113.5011092305
21
238.6567299243
0
LINE
5
3B1
100
AcDbEntity
8
0
100
AcDbLine
62
7
6
CONTINUOUS
10
111.7841886884
20
241.4030356224
11
126.7088425506
21
235.2210415789
0
LINE
5
3B2
100
AcDbEntity
8
0
100
AcDbLine
62
7
6
CONTINUOUS
10
293.1771305097
20
184.4486286517
11
297.5771305097
21
184.4486286517
0
LINE
5
3B3
100
AcDbEntity
8
0
100
AcDbLine
62
7
6
CONTINUOUS
10
292.3771305097
20
185.2486286517
11
298.3771305097
21
185.2486286517
0
LINE
5
3B4
100
AcDbEntity
8
0
100
AcDbLine
62
7
6
CONTINUOUS
10
292.3771305097
20
185.2486286517
11
293.1771305097
21
184.4486286517
0
LINE
5
3B5
100
AcDbEntity
8
0
100
AcDbLine
62
7
6
CONTINUOUS
10
292.3771305097
20
192.9486286517
11
298.3771305097
21
192.9486286517
0
LINE
5
3B6
100
AcDbEntity
8
0
100
AcDbLine
62
7
6
CONTINUOUS
10
293.1771305097
20
193.7486286517
11
297.5771305097
21
193.7486286517
0
LINE
5
3B7
100
AcDbEntity
8
0
100
AcDbLine
62
7
6
CONTINUOUS
10
282.8773489923
20
196.4486286517
11
307.8769120271
21
196.4486286517
0
LINE
5
3B8
100
AcDbEntity
8
0
100
AcDbLine
62
7
6
CONTINUOUS
10
282.8771305097
20
196.4486286517
11
282.8771305097
21
202.4670961408
0
LINE
5
3B9
100
AcDbEntity
8
0
100
AcDbLine
62
7
6
CONTINUOUS
10
300.7818288813
20
201.9932410600
11
297.9779435879
21
201.9932410600
0
LINE
5
3BA
100
AcDbEntity
8
0
100
AcDbLine
62
7
6
CONTINUOUS
10
292.7763563543
20
201.9932410600
11
289.9724321381
21
201.9932410600
0
LINE
5
3BB
100
AcDbEntity
8
0
100
AcDbLine
62
7
6
CONTINUOUS
10
297.5771305097
20
193.7486286517
11
298.3771305097
21
192.9486286517
0
LINE
5
3BC
100
AcDbEntity
8
0
100
AcDbLine
62
7
6
CONTINUOUS
10
284.1424788121
20
203.9486286517
11
288.4100821776
21
204.6245506222
0
LINE
5
3BD
100
AcDbEntity
8
0
100
AcDbLine
62
7
6
CONTINUOUS
10
306.6117822073
20
203.9486286517
11
302.3332529181
21
204.6262811186
0
LINE
5
3BE
100
AcDbEntity
8
0
100
AcDbLine
62
7
6
CONTINUOUS
10
290.3771305097
20
240.5552765495
11
290.3771305097
21
218.9028677013
0
LINE
5
3BF
100
AcDbEntity
8
0
100
AcDbLine
62
7
6
CONTINUOUS
10
290.3369812582
20
218.0081809886
11
288.8237120824
21
201.4072271090
0
LINE
5
3C0
100
AcDbEntity
8
0
100
AcDbLine
62
7
6
CONTINUOUS
10
292.3771305097
20
192.9486286517
11
292.3771305097
21
185.2486286517
0
LINE
5
3C1
100
AcDbEntity
8
0
100
AcDbLine
62
7
6
CONTINUOUS
10
293.1771305097
20
196.4486286517
11
293.1771305097
21
193.7486286517
0
LINE
5
3C2
100
AcDbEntity
8
DEFAULT_1
100
AcDbLine
62
2
6
CENTER
10
295.3771305097
20
242.9815582661
11
295.3771305097
21
182.4163998892
0
LINE
5
3C3
100
AcDbEntity
8
0
100
AcDbLine
62
7
6
CONTINUOUS
10
297.5771305097
20
196.4486286517
11
297.5771305097
21
193.7486286517
0
LINE
5
3C4
100
AcDbEntity
8
0
100
AcDbLine
62
7
6
CONTINUOUS
10
298.3771305097
20
192.9486286517
11
298.3771305097
21
185.2486286517
0
LINE
5
3C5
100
AcDbEntity
8
0
100
AcDbLine
62
7
6
CONTINUOUS
10
301.9305489369
20
201.4072271102
11
300.4172797612
21
218.0081809886
0
LINE
5
3C6
100
AcDbEntity
8
0
100
AcDbLine
62
7
6
CONTINUOUS
10
300.3771634993
20
218.8938398035
11
300.3771305097
21
240.5552765495
0
LINE
5
3C7
100
AcDbEntity
8
0
100
AcDbLine
62
7
6
CONTINUOUS
10
300.6771305097
20
239.0711471911
11
300.6771305097
21
233.1786281939
0
LINE
5
3C8
100
AcDbEntity
8
0
100
AcDbLine
62
7
6
CONTINUOUS
10
300.6771305097
20
231.3239843722
11
300.6771305097
21
227.0998861666
0
LINE
5
3C9
100
AcDbEntity
8
0
100
AcDbLine
62
7
6
CONTINUOUS
10
300.6771305097
20
225.6091830607
11
300.6771305097
21
221.7686285849
0
LINE
5
3CA
100
AcDbEntity
8
0
100
AcDbLine
62
7
6
CONTINUOUS
10
300.3771305097
20
221.7686285849
11
300.6771305097
21
221.7686285849
0
LINE
5
3CB
100
AcDbEntity
8
0
100
AcDbLine
62
7
6
CONTINUOUS
10
307.8771305097
20
196.4486286517
11
307.8771305097
21
202.4670961408
0
LINE
5
3CC
100
AcDbEntity
8
0
100
AcDbLine
62
7
6
CONTINUOUS
10
293.1771305097
20
193.7486286517
11
292.3771305097
21
192.9486286517
0
LINE
5
3CD
100
AcDbEntity
8
0
100
AcDbLine
62
7
6
CONTINUOUS
10
300.3771305097
20
227.0998861666
11
300.6771305097
21
227.0998861666
0
LINE
5
3CE
100
AcDbEntity
8
0
100
AcDbLine
62
7
6
CONTINUOUS
10
300.3771305097
20
231.2920553561
11
300.6771305097
21
231.2920553561
0
LINE
5
3CF
100
AcDbEntity
8
0
100
AcDbLine
62
7
6
CONTINUOUS
10
300.3771305097
20
231.3239843722
11
300.6771305097
21
231.3239843722
0
LINE
5
3D0
100
AcDbEntity
8
0
100
AcDbLine
62
7
6
CONTINUOUS
10
300.3771305097
20
233.1786281939
11
300.6771305097
21
233.1786281939
0
LINE
5
3D1
100
AcDbEntity
8
0
100
AcDbLine
62
7
6
CONTINUOUS
10
298.3771305097
20
185.2486286517
11
297.5771305097
21
184.4486286517
0
LINE
5
3D2
100
AcDbEntity
8
0
100
AcDbLine
62
7
6
CONTINUOUS
10
300.3771305097
20
239.0711471911
11
300.6771305097
21
239.0711471911
0
LINE
5
3D3
100
AcDbEntity
8
0
100
AcDbLine
62
7
6
CONTINUOUS
10
299.3771305097
20
241.5552765574
11
291.3771305097
21
241.5552765574
0
LINE
5
3D4
100
AcDbEntity
8
0
100
AcDbLine
62
7
6
CONTINUOUS
10
87.9121739179
20
108.6134585796
11
87.9121739179
21
116.6134585796
0
LINE
5
3D5
100
AcDbEntity
8
0
100
AcDbLine
62
7
6
CONTINUOUS
10
90.8075600744
20
107.6134585796
11
90.8075600744
21
107.3134585796
0
LINE
5
3D6
100
AcDbEntity
8
0
100
AcDbLine
62
7
6
CONTINUOUS
10
88.2521982333
20
117.3647455391
11
88.2496159695
21
117.3624691780
0
LINE
5
3D7
100
AcDbEntity
8
0
100
AcDbLine
62
7
6
CONTINUOUS
10
88.2522324646
20
107.8621415506
11
88.2496402579
21
107.8644264962
0
LINE
5
3D8
100
AcDbEntity
8
0
100
AcDbLine
62
7
6
CONTINUOUS
10
96.6578408361
20
107.6134585796
11
96.6578408361
21
107.3134585796
0
LINE
5
3D9
100
AcDbEntity
8
0
100
AcDbLine
62
7
6
CONTINUOUS
10
99.3026515126
20
107.6134585796
11
99.3026515126
21
107.3134585796
0
LINE
5
3DA
100
AcDbEntity
8
0
100
AcDbLine
62
7
6
CONTINUOUS
10
133.2642753008
20
107.6060906033
11
127.0209568164
21
106.2321298799
0
LINE
5
3DB
100
AcDbEntity
8
0
100
AcDbLine
62
7
6
CONTINUOUS
10
95.0166868308
20
106.2321298799
11
88.7733683488
21
107.6060906028
0
LINE
5
3DC
100
AcDbEntity
8
0
100
AcDbLine
62
7
6
CONTINUOUS
10
122.0868064920
20
106.0377961998
11
122.0868775645
21
106.0378040691
0
LINE
5
3DD
100
AcDbEntity
8
0
100
AcDbLine
62
7
6
CONTINUOUS
10
99.9507647848
20
106.0378041502
11
99.9508358393
21
106.0377962829
0
LINE
5
3DE
100
AcDbEntity
8
0
100
AcDbLine
62
7
6
CONTINUOUS
10
105.9747019887
20
107.6134585796
11
105.9747019887
21
107.3134585796
0
LINE
5
3DF
100
AcDbEntity
8
0
100
AcDbLine
62
7
6
CONTINUOUS
10
105.9814063192
20
107.6134585796
11
105.9814063192
21
107.3134585796
0
LINE
5
3E0
100
AcDbEntity
8
0
100
AcDbLine
62
7
6
CONTINUOUS
10
126.8060307774
20
106.2087602080
11
126.0783448825
21
106.2087602080
0
LINE
5
3E1
100
AcDbEntity
8
0
100
AcDbLine
62
7
6
CONTINUOUS
10
95.9592987398
20
106.2087602080
11
95.2316128698
21
106.2087602080
0
LINE
5
3E2
100
AcDbEntity
8
0
100
AcDbLine
62
7
6
CONTINUOUS
10
114.0576130033
20
107.3134585796
11
112.2026003480
21
107.3134585796
0
LINE
5
3E3
100
AcDbEntity
8
0
100
AcDbLine
62
7
6
CONTINUOUS
10
111.8315977931
20
107.3134585796
11
110.1620864153
21
107.3134585796
0
LINE
5
3E4
100
AcDbEntity
8
0
100
AcDbLine
62
7
6
CONTINUOUS
10
109.7910838008
20
107.3134585796
11
108.0288218141
21
107.3134585796
0
LINE
5
3E5
100
AcDbEntity
8
0
100
AcDbLine
62
7
6
CONTINUOUS
10
105.9814063192
20
107.3134585796
11
99.3026515126
21
107.3134585796
0
LINE
5
3E6
100
AcDbEntity
8
0
100
AcDbLine
62
7
6
CONTINUOUS
10
96.6578408361
20
107.3134585796
11
95.0751086354
21
107.3134585796
0
LINE
5
3E7
100
AcDbEntity
8
0
100
AcDbLine
62
7
6
CONTINUOUS
10
95.0743790746
20
107.3134585796
11
90.8075600744
21
107.3134585796
0
LINE
5
3E8
100
AcDbEntity
8
0
100
AcDbLine
62
7
6
CONTINUOUS
10
89.0179336925
20
107.6134585796
11
133.0197099547
21
107.6134585796
0
LINE
5
3E9
100
AcDbEntity
8
0
100
AcDbLine
62
7
6
CONTINUOUS
10
108.0288218141
20
107.6134585796
11
108.0288218141
21
107.3134585796
0
LINE
5
3EA
100
AcDbEntity
8
0
100
AcDbLine
62
7
6
CONTINUOUS
10
109.7910838008
20
107.6134585796
11
109.7910838008
21
107.3134585796
0
LINE
5
3EB
100
AcDbEntity
8
0
100
AcDbLine
62
7
6
CONTINUOUS
10
110.1620864153
20
107.6134585796
11
110.1620864153
21
107.3134585796
0
LINE
5
3EC
100
AcDbEntity
8
DEFAULT_1
100
AcDbLine
62
2
6
CENTER
10
111.0188218236
20
112.6134585796
11
111.0188218236
21
97.1134585796
0
LINE
5
3ED
100
AcDbEntity
8
DEFAULT_1
100
AcDbLine
62
2
6
CENTER
10
111.0188218236
20
112.6134585796
11
111.0188218236
21
128.1134585796
0
LINE
5
3EE
100
AcDbEntity
8
DEFAULT_1
100
AcDbLine
62
2
6
CENTER
10
111.0188218236
20
112.6134585796
11
85.9592121249
21
112.6134585796
0
LINE
5
3EF
100
AcDbEntity
8
DEFAULT_1
100
AcDbLine
62
2
6
CENTER
10
111.0188218236
20
112.6134585796
11
136.2646988642
21
112.6134585796
0
LINE
5
3F0
100
AcDbEntity
8
0
100
AcDbLine
62
7
6
CONTINUOUS
10
111.8315977931
20
107.6134585796
11
111.8315977931
21
107.3134585796
0
LINE
5
3F1
100
AcDbEntity
8
0
100
AcDbLine
62
7
6
CONTINUOUS
10
112.2026003480
20
107.6134585796
11
112.2026003480
21
107.3134585796
0
LINE
5
3F2
100
AcDbEntity
8
0
100
AcDbLine
62
7
6
CONTINUOUS
10
114.0576130033
20
107.6134585796
11
114.0576130033
21
107.3134585796
0
LINE
5
3F3
100
AcDbEntity
8
0
100
AcDbLine
62
7
6
CONTINUOUS
10
133.0197099547
20
117.6134585796
11
89.0179336925
21
117.6134585796
0
LINE
5
3F4
100
AcDbEntity
8
0
100
AcDbLine
62
7
6
CONTINUOUS
10
95.2316128698
20
119.0181569512
11
95.9592987648
21
119.0181569512
0
LINE
5
3F5
100
AcDbEntity
8
0
100
AcDbLine
62
7
6
CONTINUOUS
10
126.0783449074
20
119.0181569512
11
126.8060307774
21
119.0181569512
0
LINE
5
3F6
100
AcDbEntity
8
0
100
AcDbLine
62
7
6
CONTINUOUS
10
99.9508371552
20
119.1891209594
11
99.9507660828
21
119.1891130901
0
LINE
5
3F7
100
AcDbEntity
8
0
100
AcDbLine
62
7
6
CONTINUOUS
10
122.0868788625
20
119.1891130090
11
122.0868078080
21
119.1891208763
0
LINE
5
3F8
100
AcDbEntity
8
0
100
AcDbLine
62
7
6
CONTINUOUS
10
88.7733683464
20
117.6208265559
11
95.0166868308
21
118.9947872793
0
LINE
5
3F9
100
AcDbEntity
8
0
100
AcDbLine
62
7
6
CONTINUOUS
10
127.0209568164
20
118.9947872793
11
133.2642752987
21
117.6208265564
0
LINE
5
3FA
100
AcDbEntity
8
0
100
AcDbLine
62
7
6
CONTINUOUS
10
133.7879687557
20
107.8643958625
11
133.7853932830
21
107.8621258283
0
LINE
5
3FB
100
AcDbEntity
8
0
100
AcDbLine
62
7
6
CONTINUOUS
10
133.7879681588
20
117.3625218246
11
133.7854696958
21
117.3647242079
0
LINE
5
3FC
100
AcDbEntity
8
0
100
AcDbLine
62
7
6
CONTINUOUS
10
134.1254697293
20
108.6134585796
11
134.1254697293
21
116.6134585796
0
ARC
5
3FD
100
AcDbEntity
8
0
100
AcDbCircle
62
7
6
CONTINUOUS
10
95.2336520151
20
202.9883181279
40
1.0000000000
100
AcDbArc
50
202.5000000000
51
267.2633279617
0
ARC
5
3FE
100
AcDbEntity
8
0
100
AcDbCircle
62
7
6
CONTINUOUS
10
126.8039916321
20
202.9883181279
40
1.0000000000
100
AcDbArc
50
272.7366720383
51
337.5000000000
0
ARC
5
3FF
100
AcDbEntity
8
0
100
AcDbCircle
62
7
6
CONTINUOUS
10
95.0188218236
20
198.4932410600
40
3.5000000000
100
AcDbArc
50
0.0000000000
51
87.5653404648
0
ARC
5
400
100
AcDbEntity
8
0
100
AcDbCircle
62
7
6
CONTINUOUS
10
127.0188218236
20
198.4932410600
40
3.5000000000
100
AcDbArc
50
92.4346595352
51
180.0000000000
0
ARC
5
401
100
AcDbEntity
8
0
100
AcDbCircle
62
7
6
CONTINUOUS
10
125.9434756859
20
233.3732825139
40
2.0000000000
100
AcDbArc
50
22.5000000000
51
67.5000000000
0
ARC
5
402
100
AcDbEntity
8
0
100
AcDbCircle
62
7
6
CONTINUOUS
10
111.0188218236
20
239.5552765574
40
2.0000000000
100
AcDbArc
50
67.5000000000
51
112.5000000000
0
ARC
5
403
100
AcDbEntity
8
0
100
AcDbCircle
62
7
6
CONTINUOUS
10
96.0941679614
20
233.3732825139
40
2.0000000000
100
AcDbArc
50
112.5000000000
51
157.5000000000
0
ARC
5
404
100
AcDbEntity
8
0
100
AcDbCircle
62
7
6
CONTINUOUS
10
89.9121739179
20
218.4486286517
40
2.0000000000
100
AcDbArc
50
157.5000000000
51
202.5000000000
0
ARC
5
405
100
AcDbEntity
8
0
100
AcDbCircle
62
7
6
CONTINUOUS
10
132.1254697293
20
218.4486286517
40
2.0000000000
100
AcDbArc
50
337.5000000000
51
22.5000000000
0
CIRCLE
5
406
100
AcDbEntity
8
0
100
AcDbCircle
62
7
6
CONTINUOUS
10
111.0188218236
20
218.4486286517
40
12.5000000000
0
ARC
5
407
100
AcDbEntity
8
0
100
AcDbCircle
62
7
6
CONTINUOUS
10
95.2316128698
20
202.9932410600
40
1.0000000000
100
AcDbArc
50
202.5000000000
51
270.0000000000
0
ARC
5
408
100
AcDbEntity
8
0
100
AcDbCircle
62
7
6
CONTINUOUS
10
126.8060307774
20
202.9932410600
40
1.0000000000
100
AcDbArc
50
270.0000000000
51
337.5000000000
0
ARC
5
409
100
AcDbEntity
8
DEFAULT_2
100
AcDbCircle
62
8
6
HIDDEN
10
295.3771305097
20
235.9486286517
40
5.0000000000
100
AcDbArc
50
180.0000000000
51
360.0000000000
0
ARC
5
40A
100
AcDbEntity
8
0
100
AcDbCircle
62
7
6
CONTINUOUS
10
302.4896723211
20
205.6139644621
40
0.9999995593
100
AcDbArc
50
215.0160652936
51
261.0000000008
0
ARC
5
40B
100
AcDbEntity
8
0
100
AcDbCircle
62
7
6
CONTINUOUS
10
291.3771305097
20
240.5552765574
40
1.0000000000
100
AcDbArc
50
90.0000000000
51
180.0000000000
0
ARC
5
40C
100
AcDbEntity
8
0
100
AcDbCircle
62
7
6
CONTINUOUS
10
299.3771305097
20
240.5552765574
40
1.0000000000
100
AcDbArc
50
0.0000000000
51
90.0000000000
0
ARC
5
40D
100
AcDbEntity
8
0
100
AcDbCircle
62
7
6
CONTINUOUS
10
284.3771305097
20
202.4670961408
40
1.5000000000
100
AcDbArc
50
99.0000000000
51
180.0000000000
0
ARC
5
40E
100
AcDbEntity
8
0
100
AcDbCircle
62
7
6
CONTINUOUS
10
306.3771305097
20
202.4670961408
40
1.5000000000
100
AcDbArc
50
0.0000000000
51
81.0000000000
0
ARC
5
40F
100
AcDbEntity
8
0
100
AcDbCircle
62
7
6
CONTINUOUS
10
310.3771305097
20
218.9034635409
40
10.0000000000
100
AcDbArc
50
180.0000000000
51
185.2084342387
0
ARC
5
410
100
AcDbEntity
8
0
100
AcDbCircle
62
7
6
CONTINUOUS
10
280.3771305097
20
218.9033588333
40
9.9999913589
100
AcDbArc
50
354.7921632149
51
0.0005999302
0
ARC
5
411
100
AcDbEntity
8
0
100
AcDbCircle
62
7
6
CONTINUOUS
10
300.7818288813
20
202.9932410600
40
1.0000000000
100
AcDbArc
50
270.0000000000
51
5.2084342388
0
ARC
5
412
100
AcDbEntity
8
0
100
AcDbCircle
62
7
6
CONTINUOUS
10
289.9724310043
20
202.9932286216
40
0.9999972359
100
AcDbArc
50
174.7908501374
51
270.0000649645
0
ARC
5
413
100
AcDbEntity
8
0
100
AcDbCircle
62
7
6
CONTINUOUS
10
133.1254697293
20
116.6134585796
40
1.0000000000
100
AcDbArc
50
0.0000000000
51
48.4027857253
0
ARC
5
414
100
AcDbEntity
8
0
100
AcDbCircle
62
7
6
CONTINUOUS
10
88.9121739179
20
116.6134585796
40
1.0000000000
100
AcDbArc
50
131.6044440596
51
180.0000000000
0
ARC
5
415
100
AcDbEntity
8
0
100
AcDbCircle
62
7
6
CONTINUOUS
10
88.9121739179
20
108.6134585796
40
1.0000000000
100
AcDbArc
50
180.0000000000
51
228.3983966380
0
ARC
5
416
100
AcDbEntity
8
0
100
AcDbCircle
62
7
6
CONTINUOUS
10
133.1254697293
20
108.6134585796
40
1.0000000000
100
AcDbArc
50
311.5969866331
51
360.0000000000
0
ARC
5
417
100
AcDbEntity
8
0
100
AcDbCircle
62
7
6
CONTINUOUS
10
111.0188218236
20
112.6134585796
40
12.5000000000
100
AcDbArc
50
213.5499037529
51
326.4500962471
0
ARC
5
418
100
AcDbEntity
8
0
100
AcDbCircle
62
7
6
CONTINUOUS
10
111.0188218236
20
112.6134585796
40
12.5000000000
100
AcDbArc
50
33.5499037529
51
146.4500962471
0
SPLINE
5
419
100
AcDbEntity
8
0
100
AcDbSpline
62
7
6
CONTINUOUS
70
0
71
3
72
20
73
16
74
14
42
0.0000001000
43
0.0000001000
44
0.0000000001
40
0.0000000000
40
0.0000000000
40
0.0000000000
40
0.0000000000
40
0.1273154068
40
0.2505954149
40
0.3610177754
40
0.4588952975
40
0.5465855724
40
0.6255938937
40
0.6965585115
40
0.7602280086
40
0.8174639935
40
0.8691688444
40
0.9162402740
40
0.9595506383
40
1.0000000000
40
1.0000000000
40
1.0000000000
40
1.0000000000
10
126.0783449074
20
201.9932410600
30
0.0000000000
10
125.8228279573
20
201.9932268357
30
0.0000000000
10
125.3188468163
20
201.9472874327
30
0.0000000000
10
124.6157859668
20
201.7600079667
30
0.0000000000
10
124.0038345931
20
201.4928678237
30
0.0000000000
10
123.4943921173
20
201.1843463347
30
0.0000000000
10
123.0754015477
20
200.8562509537
30
0.0000000000
10
122.7342957281
20
200.5215052504
30
0.0000000000
10
122.4613827488
20
200.1897973229
30
0.0000000000
10
122.2480560749
20
199.8684301786
30
0.0000000000
10
122.0857536632
20
199.5617564745
30
0.0000000000
10
121.9664197415
20
199.2717722987
30
0.0000000000
10
121.8828784520
20
198.9986967641
30
0.0000000000
10
121.8290301856
20
198.7413661981
30
0.0000000000
10
121.8091495824
20
198.5741959543
30
0.0000000000
10
121.8031048040
20
198.4932410600
30
0.0000000000
11
126.0783449074
21
201.9932410600
31
0.0000000000
11
125.3148509685
21
201.9248509052
31
0.0000000000
11
124.5973717564
21
201.7346802585
31
0.0000000000
11
123.9879651424
21
201.4689066906
31
0.0000000000
11
123.4839577435
21
201.1635192641
31
0.0000000000
11
123.0684971618
21
200.8377161913
31
0.0000000000
11
122.7293199460
21
200.5041761122
31
0.0000000000
11
122.4582580071
21
200.1738964764
31
0.0000000000
11
122.2466548451
21
199.8542426162
31
0.0000000000
11
122.0858267229
21
199.5494622459
31
0.0000000000
11
121.9676645546
21
199.2614503939
31
0.0000000000
11
121.8849909286
21
198.9903653089
31
0.0000000000
11
121.8317545655
21
198.7350908057
31
0.0000000000
11
121.8031048040
21
198.4932410600
31
0.0000000000
0
SPLINE
5
41A
100
AcDbEntity
8
0
100
AcDbSpline
62
7
6
CONTINUOUS
70
0
71
3
72
21
73
17
74
15
42
0.0000001000
43
0.0000001000
44
0.0000000001
40
0.0000000000
40
0.0000000000
40
0.0000000000
40
0.0000000000
40
0.0374623645
40
0.0773459182
40
0.1203644924
40
0.1672175636
40
0.2186193253
40
0.2752939123
40
0.3379490344
40
0.4072283857
40
0.4836507910
40
0.5679356331
40
0.6615543114
40
0.7662799909
40
0.8816333643
40
1.0000000000
40
1.0000000000
40
1.0000000000
40
1.0000000000
10
100.2345398450
20
198.4932410600
30
0.0000000000
10
100.2289409147
20
198.5682249440
30
0.0000000000
10
100.2110833449
20
198.7226359589
30
0.0000000000
10
100.1638586638
20
198.9598310743
30
0.0000000000
10
100.0917363657
20
199.2104129832
30
0.0000000000
10
99.9900041711
20
199.4754777001
30
0.0000000000
10
99.8531160920
20
199.7551608755
30
0.0000000000
10
99.6748148913
20
200.0483763849
30
0.0000000000
10
99.4483506551
20
200.3524489398
30
0.0000000000
10
99.1668424673
20
200.6626337544
30
0.0000000000
10
98.8232300962
20
200.9721095742
30
0.0000000000
10
98.4090824897
20
201.2722810835
30
0.0000000000
10
97.9136518580
20
201.5513478838
30
0.0000000000
10
97.3286119926
20
201.7892722918
30
0.0000000000
10
96.6668407971
20
201.9534108553
30
0.0000000000
10
96.1968784596
20
201.9932277914
30
0.0000000000
10
95.9592987398
20
201.9932410600
30
0.0000000000
11
100.2345398450
21
198.4932410600
31
0.0000000000
11
100.2087125375
21
198.7173355224
31
0.0000000000
11
100.1619517608
21
198.9528961135
31
0.0000000000
11
100.0904850287
21
199.2018766177
31
0.0000000000
11
99.9896280856
21
199.4653563887
31
0.0000000000
11
99.8538441743
21
199.7434952295
31
0.0000000000
11
99.6768515589
21
200.0352730647
31
0.0000000000
11
99.4518299240
21
200.3380957924
31
0.0000000000
11
99.1717838011
21
200.6472860493
31
0.0000000000
11
98.8300941590
21
200.9555201213
31
0.0000000000
11
98.4193094843
21
201.2535632292
31
0.0000000000
11
97.9281706767
21
201.5302642692
31
0.0000000000
11
97.3439301494
21
201.7675833614
31
0.0000000000
11
96.6695747722
21
201.9340374394
31
0.0000000000
11
95.9592987398
21
201.9932410600
31
0.0000000000
0
SPLINE
5
41B
100
AcDbEntity
8
0
100
AcDbSpline
62
7
6
CONTINUOUS
70
0
71
3
72
26
73
22
74
20
42
0.0000001000
43
0.0000001000
44
0.0000000001
40
0.0000000000
40
0.0000000000
40
0.0000000000
40
0.0000000000
40
0.0555494182
40
0.1503920790
40
0.2350016664
40
0.3101693080
40
0.3768366089
40
0.4359999238
40
0.4885443252
40
0.5347212919
40
0.5752728655
40
0.6109200626
40
0.6422007535
40
0.6694317153
40
0.6942571527
40
0.7216675458
40
0.7531435596
40
0.7904931021
40
0.8371379486
40
0.9004501083
40
1.0000000000
40
1.0000000000
40
1.0000000000
40
1.0000000000
10
289.1821842553
20
205.3397583645
30
0.0000000000
10
289.1813886084
20
205.3310303187
30
0.0000000000
10
289.1788015883
20
205.3074381932
30
0.0000000000
10
289.1729259807
20
205.2708146271
30
0.0000000000
10
289.1641688283
20
205.2315946149
30
0.0000000000
10
289.1544733680
20
205.1972000263
30
0.0000000000
10
289.1443542058
20
205.1671407206
30
0.0000000000
10
289.1341757461
20
205.1409006000
30
0.0000000000
10
289.1242219076
20
205.1180650980
30
0.0000000000
10
289.1147021896
20
205.0982613319
30
0.0000000000
10
289.1057631344
20
205.0811490460
30
0.0000000000
10
289.0974677808
20
205.0663610448
30
0.0000000000
10
289.0898580536
20
205.0536044517
30
0.0000000000
10
289.0828588961
20
205.0424760580
30
0.0000000000
10
289.0759583297
20
205.0320105870
30
0.0000000000
10
289.0684676027
20
205.0211353384
30
0.0000000000
10
289.0596008607
20
205.0088127212
30
0.0000000000
10
289.0486407186
20
204.9942634400
30
0.0000000000
10
289.0342099064
20
204.9760488368
30
0.0000000000
10
289.0129293129
20
204.9507578338
30
0.0000000000
10
288.9955905032
20
204.9317889820
30
0.0000000000
10
288.9847184872
20
204.9204551644
30
0.0000000000
11
289.1821842553
21
205.3397583645
31
0.0000000000
11
289.1793174525
21
205.3136232263
31
0.0000000000
11
289.1721994192
21
205.2693106067
31
0.0000000000
11
289.1634667000
21
205.2302362947
31
0.0000000000
11
289.1538095105
21
205.1960021134
31
0.0000000000
11
289.1437391449
21
205.1661048107
31
0.0000000000
11
289.1336105874
21
205.1400043869
31
0.0000000000
11
289.1236720262
21
205.1172123926
31
0.0000000000
11
289.1142022946
21
205.0975194570
31
0.0000000000
11
289.1053156561
21
205.0805116940
31
0.0000000000
11
289.0970617138
21
205.0658003150
31
0.0000000000
11
289.0894777825
21
205.0530883188
31
0.0000000000
11
289.0826162719
21
205.0421810265
31
0.0000000000
11
289.0761515727
21
205.0323720554
31
0.0000000000
11
289.0687975521
21
205.0216873362
31
0.0000000000
11
289.0601019758
21
205.0095942514
31
0.0000000000
11
289.0494723963
21
204.9954736630
31
0.0000000000
11
289.0357712763
21
204.9781678266
31
0.0000000000
11
289.0164898307
21
204.9552368144
31
0.0000000000
11
288.9847184872
21
204.9204551644
31
0.0000000000
0
SPLINE
5
41C
100
AcDbEntity
8
0
100
AcDbSpline
62
7
6
CONTINUOUS
70
0
71
3
72
12
73
8
74
6
42
0.0000001000
43
0.0000001000
44
0.0000000001
40
0.0000000000
40
0.0000000000
40
0.0000000000
40
0.0000000000
40
0.1331605270
40
0.3330984917
40
0.5710994381
40
0.8451652751
40
1.0000000000
40
1.0000000000
40
1.0000000000
40
1.0000000000
10
288.9847184872
20
204.9204551644
30
0.0000000000
10
288.9648535153
20
204.8997464048
30
0.0000000000
10
288.9128765997
20
204.8501230820
30
0.0000000000
10
288.8149323408
20
204.7750556177
30
0.0000000000
10
288.6806485899
20
204.6995983819
30
0.0000000000
10
288.5448214227
20
204.6505852962
30
0.0000000000
10
288.4540358276
20
204.6315185646
30
0.0000000000
10
288.4210159765
20
204.6262879559
30
0.0000000000
11
288.9847184872
21
204.9204551644
31
0.0000000000
11
288.9224735899
21
204.8610044760
31
0.0000000000
11
288.8198994532
21
204.7823832318
31
0.0000000000
11
288.6857834349
21
204.7070139335
31
0.0000000000
11
288.5191364632
21
204.6469080417
31
0.0000000000
11
288.4210159765
21
204.6262879559
31
0.0000000000
0
SPLINE
5
41D
100
AcDbEntity
8
0
100
AcDbSpline
62
7
6
CONTINUOUS
70
0
71
3
72
8
73
4
74
2
42
0.0000001000
43
0.0000001000
44
0.0000000001
40
0.0000000000
40
0.0000000000
40
0.0000000000
40
0.0000000000
40
1.0000000000
40
1.0000000000
40
1.0000000000
40
1.0000000000
10
301.6671965629
20
205.0454069365
30
0.0000000000
10
301.6649712020
20
205.0488050077
30
0.0000000000
10
301.6627892569
20
205.0522308310
30
0.0000000000
10
301.6606500055
20
205.0556830519
30
0.0000000000
11
301.6671965629
21
205.0454069365
31
0.0000000000
11
301.6606500055
21
205.0556830519
31
0.0000000000
0
SPLINE
5
41E
100
AcDbEntity
8
0
100
AcDbSpline
62
7
6
CONTINUOUS
70
0
71
3
72
9
73
5
74
3
42
0.0000001000
43
0.0000001000
44
0.0000000001
40
0.0000000000
40
0.0000000000
40
0.0000000000
40
0.0000000000
40
0.0180329451
40
1.0000000000
40
1.0000000000
40
1.0000000000
40
1.0000000000
10
301.6606500055
20
205.0556830519
30
0.0000000000
10
301.6606138786
20
205.0557413517
30
0.0000000000
10
301.6586111697
20
205.0589747338
30
0.0000000000
10
301.6566458930
20
205.0622312467
30
0.0000000000
10
301.6547515887
20
205.0654502858
30
0.0000000000
11
301.6606500055
21
205.0556830519
31
0.0000000000
11
301.6605416613
21
205.0558579741
31
0.0000000000
11
301.6547515887
21
205.0654502858
31
0.0000000000
0
SPLINE
5
41F
100
AcDbEntity
8
0
100
AcDbSpline
62
7
6
CONTINUOUS
70
0
71
3
72
8
73
4
74
2
42
0.0000001000
43
0.0000001000
44
0.0000000001
40
0.0000000000
40
0.0000000000
40
0.0000000000
40
0.0000000000
40
1.0000000000
40
1.0000000000
40
1.0000000000
40
1.0000000000
10
301.6299238399
20
205.1130346315
30
0.0000000000
10
301.6242470947
20
205.1253465828
30
0.0000000000
10
301.6190014363
20
205.1378712570
30
0.0000000000
10
301.6141601629
20
205.1505585645
30
0.0000000000
11
301.6299238399
21
205.1130346315
31
0.0000000000
11
301.6141601629
21
205.1505585645
31
0.0000000000
0
SPLINE
5
420
100
AcDbEntity
8
0
100
AcDbSpline
62
7
6
CONTINUOUS
70
0
71
3
72
8
73
4
74
2
42
0.0000001000
43
0.0000001000
44
0.0000000001
40
0.0000000000
40
0.0000000000
40
0.0000000000
40
0.0000000000
40
1.0000000000
40
1.0000000000
40
1.0000000000
40
1.0000000000
10
301.6141601629
20
205.1505585645
30
0.0000000000
10
301.6093200731
20
205.1632427699
30
0.0000000000
10
301.6048837235
20
205.1760891920
30
0.0000000000
10
301.6008482587
20
205.1890657388
30
0.0000000000
11
301.6141601629
21
205.1505585645
31
0.0000000000
11
301.6008482587
21
205.1890657388
31
0.0000000000
0
SPLINE
5
421
100
AcDbEntity
8
0
100
AcDbSpline
62
7
6
CONTINUOUS
70
0
71
3
72
10
73
6
74
4
42
0.0000001000
43
0.0000001000
44
0.0000000001
40
0.0000000000
40
0.0000000000
40
0.0000000000
40
0.0000000000
40
0.0695687431
40
0.4673777008
40
1.0000000000
40
1.0000000000
40
1.0000000000
40
1.0000000000
10
301.6706826860
20
205.0401594508
30
0.0000000000
10
301.6672566654
20
205.0452430178
30
0.0000000000
10
301.6449103271
20
205.0798312180
30
0.0000000000
10
301.6064921060
20
205.1596474007
30
0.0000000000
10
301.5855771373
20
205.2398914751
30
0.0000000000
10
301.5783443581
20
205.2864418991
30
0.0000000000
11
301.6706826860
21
205.0401594508
31
0.0000000000
11
301.6607014779
21
205.0556000398
31
0.0000000000
11
301.6143824455
21
205.1499803796
31
0.0000000000
11
301.5783443581
21
205.2864418991
31
0.0000000000
0
SPLINE
5
422
100
AcDbEntity
8
0
100
AcDbSpline
62
7
6
CONTINUOUS
70
0
71
3
72
8
73
4
74
2
42
0.0000001000
43
0.0000001000
44
0.0000000001
40
0.0000000000
40
0.0000000000
40
0.0000000000
40
0.0000000000
40
1.0000000000
40
1.0000000000
40
1.0000000000
40
1.0000000000
10
301.5783443581
20
205.2864418991
30
0.0000000000
10
301.5761325093
20
205.3006774366
30
0.0000000000
10
301.5743639341
20
205.3149704854
30
0.0000000000
10
301.5730352016
20
205.3292825843
30
0.0000000000
11
301.5783443581
21
205.2864418991
31
0.0000000000
11
301.5730352016
21
205.3292825843
31
0.0000000000
0
SPLINE
5
423
100
AcDbEntity
8
0
100
AcDbSpline
62
7
6
CONTINUOUS
70
0
71
3
72
8
73
4
74
2
42
0.0000001000
43
0.0000001000
44
0.0000000001
40
0.0000000000
40
0.0000000000
40
0.0000000000
40
0.0000000000
40
1.0000000000
40
1.0000000000
40
1.0000000000
40
1.0000000000
10
290.3771081507
20
218.9025345484
30
0.0000000000
10
290.3771081467
20
218.9011168109
30
0.0000000000
10
290.3771078260
20
218.8996990733
30
0.0000000000
10
290.3771071947
20
218.8982813359
30
0.0000000000
11
290.3771081507
21
218.9025345484
31
0.0000000000
11
290.3771071947
21
218.8982813359
31
0.0000000000
0
SPLINE
5
424
100
AcDbEntity
8
0
100
AcDbSpline
62
7
6
CONTINUOUS
70
0
71
3
72
12
73
8
74
6
42
0.0000001000
43
0.0000001000
44
0.0000000001
40
0.0000000000
40
0.0000000000
40
0.0000000000
40
0.0000000000
40
0.0455478544
40
0.2889790042
40
0.5675939155
40
0.8542957569
40
1.0000000000
40
1.0000000000
40
1.0000000000
40
1.0000000000
10
290.3771071947
20
218.8982813359
30
0.0000000000
10
290.3771063814
20
218.8964549021
30
0.0000000000
10
290.3770979506
20
218.8848670684
30
0.0000000000
10
290.3770416604
20
218.8621070291
30
0.0000000000
10
290.3768591291
20
218.8296773182
30
0.0000000000
10
290.3766016211
20
218.8011670347
30
0.0000000000
10
290.3763998829
20
218.7838290445
30
0.0000000000
10
290.3763267812
20
218.7779868717
30
0.0000000000
11
290.3771071947
21
218.8982813359
31
0.0000000000
11
290.3771032212
21
218.8928020354
31
0.0000000000
11
290.3770307878
21
218.8635179246
31
0.0000000000
11
290.3768422149
21
218.8300017302
31
0.0000000000
11
290.3765307142
21
218.7955135732
31
0.0000000000
11
290.3763267812
21
218.7779868717
31
0.0000000000
0
SPLINE
5
425
100
AcDbEntity
8
0
100
AcDbSpline
62
7
6
CONTINUOUS
70
0
71
3
72
9
73
5
74
3
42
0.0000001000
43
0.0000001000
44
0.0000000001
40
0.0000000000
40
0.0000000000
40
0.0000000000
40
0.0000000000
40
0.8819375216
40
1.0000000000
40
1.0000000000
40
1.0000000000
40
1.0000000000
10
290.3763267812
20
218.7779868717
30
0.0000000000
10
290.3762528314
20
218.7720769223
30
0.0000000000
10
290.3761630370
20
218.7653758991
30
0.0000000000
10
290.3760665030
20
218.7586749720
30
0.0000000000
10
290.3760550120
20
218.7578838454
30
0.0000000000
11
290.3763267812
21
218.7779868717
31
0.0000000000
11
290.3760892031
21
218.7602572295
31
0.0000000000
11
290.3760550120
21
218.7578838454
31
0.0000000000
0
SPLINE
5
426
100
AcDbEntity
8
0
100
AcDbSpline
62
7
6
CONTINUOUS
70
0
71
3
72
8
73
4
74
2
42
0.0000001000
43
0.0000001000
44
0.0000000001
40
0.0000000000
40
0.0000000000
40
0.0000000000
40
0.0000000000
40
1.0000000000
40
1.0000000000
40
1.0000000000
40
1.0000000000
10
290.3760550120
20
218.7578838454
30
0.0000000000
10
290.3760099853
20
218.7547838659
30
0.0000000000
10
290.3759635162
20
218.7516839073
30
0.0000000000
10
290.3759156048
20
218.7485839710
30
0.0000000000
11
290.3760550120
21
218.7578838454
31
0.0000000000
11
290.3759156048
21
218.7485839710
31
0.0000000000
0
SPLINE
5
427
100
AcDbEntity
8
0
100
AcDbSpline
62
7
6
CONTINUOUS
70
0
71
3
72
9
73
5
74
3
42
0.0000001000
43
0.0000001000
44
0.0000000001
40
0.0000000000
40
0.0000000000
40
0.0000000000
40
0.0000000000
40
0.5706987245
40
1.0000000000
40
1.0000000000
40
1.0000000000
40
1.0000000000
10
290.3759156048
20
218.7485839710
30
0.0000000000
10
290.3757896832
20
218.7404366664
30
0.0000000000
10
290.3755515812
20
218.7261609193
30
0.0000000000
10
290.3752828921
20
218.7118857196
30
0.0000000000
10
290.3751619068
20
218.7057574694
30
0.0000000000
11
290.3759156048
21
218.7485839710
31
0.0000000000
11
290.3755079521
21
218.7241425434
31
0.0000000000
11
290.3751619068
21
218.7057574694
31
0.0000000000
0
SPLINE
5
428
100
AcDbEntity
8
0
100
AcDbSpline
62
7
6
CONTINUOUS
70
0
71
3
72
8
73
4
74
2
42
0.0000001000
43
0.0000001000
44
0.0000000001
40
0.0000000000
40
0.0000000000
40
0.0000000000
40
0.0000000000
40
1.0000000000
40
1.0000000000
40
1.0000000000
40
1.0000000000
10
290.3751619068
20
218.7057574694
30
0.0000000000
10
290.3750395142
20
218.6995579378
30
0.0000000000
10
290.3749113530
20
218.6933585200
30
0.0000000000
10
290.3747774235
20
218.6871592267
30
0.0000000000
11
290.3751619068
21
218.7057574694
31
0.0000000000
11
290.3747774235
21
218.6871592267
31
0.0000000000
0
SPLINE
5
429
100
AcDbEntity
8
0
100
AcDbSpline
62
7
6
CONTINUOUS
70
0
71
3
72
10
73
6
74
4
42
0.0000001000
43
0.0000001000
44
0.0000000001
40
0.0000000000
40
0.0000000000
40
0.0000000000
40
0.0000000000
40
0.4793634715
40
0.9686818458
40
1.0000000000
40
1.0000000000
40
1.0000000000
40
1.0000000000
10
290.3747774235
20
218.6871592267
30
0.0000000000
10
290.3745050546
20
218.6745518902
30
0.0000000000
10
290.3739064523
20
218.6490764429
30
0.0000000000
10
290.3731879411
20
218.6227799091
30
0.0000000000
10
290.3727857234
20
218.6090897961
30
0.0000000000
10
290.3727614268
20
218.6082662897
30
0.0000000000
11
290.3747774235
21
218.6871592267
31
0.0000000000
11
290.3738887503
21
218.6493388532
31
0.0000000000
11
290.3728340113
21
218.6107368178
31
0.0000000000
11
290.3727614268
21
218.6082662897
31
0.0000000000
0
SPLINE
5
42A
100
AcDbEntity
8
0
100
AcDbSpline
62
7
6
CONTINUOUS
70
0
71
3
72
8
73
4
74
2
42
0.0000001000
43
0.0000001000
44
0.0000000001
40
0.0000000000
40
0.0000000000
40
0.0000000000
40
0.0000000000
40
1.0000000000
40
1.0000000000
40
1.0000000000
40
1.0000000000
10
290.3727614268
20
218.6082662897
30
0.0000000000
10
290.3726719076
20
218.6052321386
30
0.0000000000
10
290.3725810063
20
218.6021980283
30
0.0000000000
10
290.3724887232
20
218.5991639600
30
0.0000000000
11
290.3727614268
21
218.6082662897
31
0.0000000000
11
290.3724887232
21
218.5991639600
31
0.0000000000
0
SPLINE
5
42B
100
AcDbEntity
8
0
100
AcDbSpline
62
7
6
CONTINUOUS
70
0
71
3
72
11
73
7
74
5
42
0.0000001000
43
0.0000001000
44
0.0000000001
40
0.0000000000
40
0.0000000000
40
0.0000000000
40
0.0000000000
40
0.1868121245
40
0.4558311258
40
0.7285259326
40
1.0000000000
40
1.0000000000
40
1.0000000000
40
1.0000000000
10
290.3724887232
20
218.5991639600
30
0.0000000000
10
290.3722074646
20
218.5899167921
30
0.0000000000
10
290.3714898572
20
218.5673541824
30
0.0000000000
10
290.3702208131
20
218.5312978503
30
0.0000000000
10
290.3686423004
20
218.4910574396
30
0.0000000000
10
290.3674771157
20
218.4641338624
30
0.0000000000
10
290.3668687381
20
218.4507034998
30
0.0000000000
11
290.3724887232
21
218.5991639600
31
0.0000000000
11
290.3716064387
21
218.5714236629
31
0.0000000000
11
290.3702006026
21
218.5314807637
31
0.0000000000
11
290.3686125895
21
218.4909981595
31
0.0000000000
11
290.3668687381
21
218.4507034998
31
0.0000000000
0
SPLINE
5
42C
100
AcDbEntity
8
0
100
AcDbSpline
62
7
6
CONTINUOUS
70
0
71
3
72
12
73
8
74
6
42
0.0000001000
43
0.0000001000
44
0.0000000001
40
0.0000000000
40
0.0000000000
40
0.0000000000
40
0.0000000000
40
0.0042312219
40
0.2819031456
40
0.5628872683
40
0.8469975124
40
1.0000000000
40
1.0000000000
40
1.0000000000
40
1.0000000000
10
290.3668687381
20
218.4507034998
30
0.0000000000
10
290.3668592246
20
218.4504934826
30
0.0000000000
10
290.3662249506
20
218.4365012015
30
0.0000000000
10
290.3648997530
20
218.4085649186
30
0.0000000000
10
290.3627414553
20
218.3667467698
30
0.0000000000
10
290.3607523365
20
218.3311227924
30
0.0000000000
10
290.3594708843
20
218.3094422164
30
0.0000000000
10
290.3590136822
20
218.3018538899
30
0.0000000000
11
290.3668687381
21
218.4507034998
31
0.0000000000
11
290.3668401777
21
218.4500734489
31
0.0000000000
11
290.3648790261
21
218.4087307163
31
0.0000000000
11
290.3627202582
21
218.3669034567
31
0.0000000000
11
290.3603593205
21
218.3246204140
31
0.0000000000
11
290.3590136822
21
218.3018538899
31
0.0000000000
0
SPLINE
5
42D
100
AcDbEntity
8
0
100
AcDbSpline
62
7
6
CONTINUOUS
70
0
71
3
72
11
73
7
74
5
42
0.0000001000
43
0.0000001000
44
0.0000000001
40
0.0000000000
40
0.0000000000
40
0.0000000000
40
0.0000000000
40
0.1396716362
40
0.4416195135
40
0.7461927768
40
1.0000000000
40
1.0000000000
40
1.0000000000
40
1.0000000000
10
290.3590136822
20
218.3018538899
30
0.0000000000
10
290.3586131613
20
218.2952063185
30
0.0000000000
10
290.3573257752
20
218.2741890196
30
0.0000000000
10
290.3550383211
20
218.2386836317
30
0.0000000000
10
290.3522233808
20
218.1977592646
30
0.0000000000
10
290.3502903056
20
218.1712055772
30
0.0000000000
10
290.3493897292
20
218.1591374538
30
0.0000000000
11
290.3590136822
21
218.3018538899
31
0.0000000000
11
290.3577921927
21
218.2819123895
31
0.0000000000
11
290.3550153375
21
218.2388106194
31
0.0000000000
11
290.3520257133
21
218.1953466499
31
0.0000000000
11
290.3493897292
21
218.1591374538
31
0.0000000000
0
SPLINE
5
42E
100
AcDbEntity
8
0
100
AcDbSpline
62
7
6
CONTINUOUS
70
0
71
3
72
9
73
5
74
3
42
0.0000001000
43
0.0000001000
44
0.0000000001
40
0.0000000000
40
0.0000000000
40
0.0000000000
40
0.0000000000
40
0.7694469554
40
1.0000000000
40
1.0000000000
40
1.0000000000
40
1.0000000000
10
290.3493897292
20
218.1591374538
30
0.0000000000
10
290.3492010424
20
218.1566089676
30
0.0000000000
10
290.3489545684
20
218.1533229524
30
0.0000000000
10
290.3487064697
20
218.1500370596
30
0.0000000000
10
290.3486491835
20
218.1492794935
30
0.0000000000
11
290.3493897292
21
218.1591374538
31
0.0000000000
11
290.3488207832
21
218.1515522113
31
0.0000000000
11
290.3486491835
21
218.1492794935
31
0.0000000000
0
SPLINE
5
42F
100
AcDbEntity
8
0
100
AcDbSpline
62
7
6
CONTINUOUS
70
0
71
3
72
8
73
4
74
2
42
0.0000001000
43
0.0000001000
44
0.0000000001
40
0.0000000000
40
0.0000000000
40
0.0000000000
40
0.0000000000
40
1.0000000000
40
1.0000000000
40
1.0000000000
40
1.0000000000
10
300.4081966316
20
218.1158453965
30
0.0000000000
10
300.4074121834
20
218.1257763801
30
0.0000000000
10
300.4066425805
20
218.1357085364
30
0.0000000000
10
300.4058878263
20
218.1456418209
30
0.0000000000
11
300.4081966316
21
218.1158453965
31
0.0000000000
11
300.4058878263
21
218.1456418209
31
0.0000000000
0
SPLINE
5
430
100
AcDbEntity
8
0
100
AcDbSpline
62
7
6
CONTINUOUS
70
0
71
3
72
8
73
4
74
2
42
0.0000001000
43
0.0000001000
44
0.0000000001
40
0.0000000000
40
0.0000000000
40
0.0000000000
40
0.0000000000
40
1.0000000000
40
1.0000000000
40
1.0000000000
40
1.0000000000
10
300.4058878263
20
218.1456418209
30
0.0000000000
10
300.4056221660
20
218.1491381635
30
0.0000000000
10
300.4053583453
20
218.1526346460
30
0.0000000000
10
300.4050963645
20
218.1561312663
30
0.0000000000
11
300.4058878263
21
218.1456418209
31
0.0000000000
11
300.4050963645
21
218.1561312663
31
0.0000000000
0
SPLINE
5
431
100
AcDbEntity
8
0
100
AcDbSpline
62
7
6
CONTINUOUS
70
0
71
3
72
9
73
5
74
3
42
0.0000001000
43
0.0000001000
44
0.0000000001
40
0.0000000000
40
0.0000000000
40
0.0000000000
40
0.0000000000
40
0.1574882677
40
1.0000000000
40
1.0000000000
40
1.0000000000
40
1.0000000000
10
300.4050963645
20
218.1561312663
30
0.0000000000
10
300.4049760093
20
218.1577376289
30
0.0000000000
10
300.4042142583
20
218.1679377008
30
0.0000000000
10
300.4034681631
20
218.1781389380
30
0.0000000000
10
300.4028506842
20
218.1867343985
30
0.0000000000
11
300.4050963645
21
218.1561312663
31
0.0000000000
11
300.4047364639
21
218.1609504411
31
0.0000000000
11
300.4028506842
21
218.1867343985
31
0.0000000000
0
SPLINE
5
432
100
AcDbEntity
8
0
100
AcDbSpline
62
7
6
CONTINUOUS
70
0
71
3
72
10
73
6
74
4
42
0.0000001000
43
0.0000001000
44
0.0000000001
40
0.0000000000
40
0.0000000000
40
0.0000000000
40
0.0000000000
40
0.1703274382
40
0.7295525671
40
1.0000000000
40
1.0000000000
40
1.0000000000
40
1.0000000000
10
300.3953949748
20
218.2994231567
30
0.0000000000
10
300.3950901682
20
218.3044620850
30
0.0000000000
10
300.3938009589
20
218.3260459918
30
0.0000000000
10
300.3921298321
20
218.3556367811
30
0.0000000000
10
300.3908339455
20
218.3801923370
30
0.0000000000
10
300.3904211550
20
218.3881971804
30
0.0000000000
11
300.3953949748
21
218.2994231567
31
0.0000000000
11
300.3944920065
21
218.3145406286
31
0.0000000000
11
300.3916884099
21
218.3641841626
31
0.0000000000
11
300.3904211550
21
218.3881971804
31
0.0000000000
0
SPLINE
5
433
100
AcDbEntity
8
0
100
AcDbSpline
62
7
6
CONTINUOUS
70
0
71
3
72
9
73
5
74
3
42
0.0000001000
43
0.0000001000
44
0.0000000001
40
0.0000000000
40
0.0000000000
40
0.0000000000
40
0.0000000000
40
0.5073750860
40
1.0000000000
40
1.0000000000
40
1.0000000000
40
1.0000000000
10
300.3904211550
20
218.3881971804
30
0.0000000000
10
300.3899954893
20
218.3964516985
30
0.0000000000
10
300.3891767114
20
218.4127218036
30
0.0000000000
10
300.3883977092
20
218.4289938606
30
0.0000000000
10
300.3880236072
20
218.4370103317
30
0.0000000000
11
300.3904211550
21
218.3881971804
31
0.0000000000
11
300.3891748737
21
218.4129622929
31
0.0000000000
11
300.3880236072
21
218.4370103317
31
0.0000000000
0
SPLINE
5
434
100
AcDbEntity
8
0
100
AcDbSpline
62
7
6
CONTINUOUS
70
0
71
3
72
8
73
4
74
2
42
0.0000001000
43
0.0000001000
44
0.0000000001
40
0.0000000000
40
0.0000000000
40
0.0000000000
40
0.0000000000
40
1.0000000000
40
1.0000000000
40
1.0000000000
40
1.0000000000
10
300.3880236072
20
218.4370103317
30
0.0000000000
10
300.3878033242
20
218.4417306806
30
0.0000000000
10
300.3875863885
20
218.4464511857
30
0.0000000000
10
300.3873728002
20
218.4511718423
30
0.0000000000
11
300.3880236072
21
218.4370103317
31
0.0000000000
11
300.3873728002
21
218.4511718423
31
0.0000000000
0
SPLINE
5
435
100
AcDbEntity
8
0
100
AcDbSpline
62
7
6
CONTINUOUS
70
0
71
3
72
9
73
5
74
3
42
0.0000001000
43
0.0000001000
44
0.0000000001
40
0.0000000000
40
0.0000000000
40
0.0000000000
40
0.0000000000
40
0.2199813291
40
1.0000000000
40
1.0000000000
40
1.0000000000
40
1.0000000000
10
300.3873728002
20
218.4511718423
30
0.0000000000
10
300.3872272321
20
218.4543891407
30
0.0000000000
10
300.3865725706
20
218.4690147854
30
0.0000000000
10
300.3859500414
20
218.4836418526
30
0.0000000000
10
300.3854840101
20
218.4950520366
30
0.0000000000
11
300.3873728002
21
218.4511718423
31
0.0000000000
11
300.3869407604
21
218.4608239471
31
0.0000000000
11
300.3854840101
21
218.4950520366
31
0.0000000000
0
SPLINE
5
436
100
AcDbEntity
8
0
100
AcDbSpline
62
7
6
CONTINUOUS
70
0
71
3
72
11
73
7
74
5
42
0.0000001000
43
0.0000001000
44
0.0000000001
40
0.0000000000
40
0.0000000000
40
0.0000000000
40
0.0000000000
40
0.1186133918
40
0.5480001387
40
0.9672761506
40
1.0000000000
40
1.0000000000
40
1.0000000000
40
1.0000000000
10
300.3854840101
20
218.4950520366
30
0.0000000000
10
300.3853114554
20
218.4992768187
30
0.0000000000
10
300.3845266284
20
218.5187960408
30
0.0000000000
10
300.3832423302
20
218.5532534553
30
0.0000000000
10
300.3822146259
20
218.5846561987
30
0.0000000000
10
300.3817265333
20
218.6007615960
30
0.0000000000
10
300.3816914006
20
218.6019275994
30
0.0000000000
11
300.3854840101
21
218.4950520366
31
0.0000000000
11
300.3849743881
21
218.5077267078
31
0.0000000000
11
300.3832640436
21
218.5536148600
31
0.0000000000
11
300.3817974112
21
218.5984296077
31
0.0000000000
11
300.3816914006
21
218.6019275994
31
0.0000000000
0
SPLINE
5
437
100
AcDbEntity
8
0
100
AcDbSpline
62
7
6
CONTINUOUS
70
0
71
3
72
9
73
5
74
3
42
0.0000001000
43
0.0000001000
44
0.0000000001
40
0.0000000000
40
0.0000000000
40
0.0000000000
40
0.0000000000
40
0.9734847415
40
1.0000000000
40
1.0000000000
40
1.0000000000
40
1.0000000000
10
300.3816636097
20
218.6028513552
30
0.0000000000
10
300.3812704439
20
218.6159401331
30
0.0000000000
10
300.3808929909
20
218.6293862096
30
0.0000000000
10
300.3805426831
20
218.6428329944
30
0.0000000000
10
300.3805334137
20
218.6431895399
30
0.0000000000
11
300.3816636097
21
218.6028513552
31
0.0000000000
11
300.3805612792
21
218.6421199050
31
0.0000000000
11
300.3805334137
21
218.6431895399
31
0.0000000000
0
SPLINE
5
438
100
AcDbEntity
8
0
100
AcDbSpline
62
7
6
CONTINUOUS
70
0
71
3
72
8
73
4
74
2
42
0.0000001000
43
0.0000001000
44
0.0000000001
40
0.0000000000
40
0.0000000000
40
0.0000000000
40
0.0000000000
40
1.0000000000
40
1.0000000000
40
1.0000000000
40
1.0000000000
10
300.3805334137
20
218.6431895399
30
0.0000000000
10
300.3803881149
20
218.6487784173
30
0.0000000000
10
300.3802475053
20
218.6543674167
30
0.0000000000
10
300.3801115854
20
218.6599565300
30
0.0000000000
11
300.3805334137
21
218.6431895399
31
0.0000000000
11
300.3801115854
21
218.6599565300
31
0.0000000000
0
SPLINE
5
439
100
AcDbEntity
8
0
100
AcDbSpline
62
7
6
CONTINUOUS
70
0
71
3
72
8
73
4
74
2
42
0.0000001000
43
0.0000001000
44
0.0000000001
40
0.0000000000
40
0.0000000000
40
0.0000000000
40
0.0000000000
40
1.0000000000
40
1.0000000000
40
1.0000000000
40
1.0000000000
10
300.3801115854
20
218.6599565300
30
0.0000000000
10
300.3800288592
20
218.6633582829
30
0.0000000000
10
300.3799478703
20
218.6667600780
30
0.0000000000
10
300.3798686186
20
218.6701619136
30
0.0000000000
11
300.3801115854
21
218.6599565300
31
0.0000000000
11
300.3798686186
21
218.6701619136
31
0.0000000000
0
SPLINE
5
43A
100
AcDbEntity
8
0
100
AcDbSpline
62
7
6
CONTINUOUS
70
0
71
3
72
8
73
4
74
2
42
0.0000001000
43
0.0000001000
44
0.0000000001
40
0.0000000000
40
0.0000000000
40
0.0000000000
40
0.0000000000
40
1.0000000000
40
1.0000000000
40
1.0000000000
40
1.0000000000
10
300.3798686186
20
218.6701619136
30
0.0000000000
10
300.3797789508
20
218.6740108579
30
0.0000000000
10
300.3796915070
20
218.6778598539
30
0.0000000000
10
300.3796062872
20
218.6817088991
30
0.0000000000
11
300.3798686186
21
218.6701619136
31
0.0000000000
11
300.3796062872
21
218.6817088991
31
0.0000000000
0
SPLINE
5
43B
100
AcDbEntity
8
0
100
AcDbSpline
62
7
6
CONTINUOUS
70
0
71
3
72
9
73
5
74
3
42
0.0000001000
43
0.0000001000
44
0.0000000001
40
0.0000000000
40
0.0000000000
40
0.0000000000
40
0.0000000000
40
0.3412635126
40
1.0000000000
40
1.0000000000
40
1.0000000000
40
1.0000000000
10
300.3796062872
20
218.6817088991
30
0.0000000000
10
300.3795841110
20
218.6827105112
30
0.0000000000
10
300.3795195698
20
218.6856455316
30
0.0000000000
10
300.3794563217
20
218.6885805803
30
0.0000000000
10
300.3794152191
20
218.6905140159
30
0.0000000000
11
300.3796062872
21
218.6817088991
31
0.0000000000
11
300.3795402105
21
218.6847137452
31
0.0000000000
11
300.3794152191
21
218.6905140159
31
0.0000000000
0
SPLINE
5
43C
100
AcDbEntity
8
0
100
AcDbSpline
62
7
6
CONTINUOUS
70
0
71
3
72
8
73
4
74
2
42
0.0000001000
43
0.0000001000
44
0.0000000001
40
0.0000000000
40
0.0000000000
40
0.0000000000
40
0.0000000000
40
1.0000000000
40
1.0000000000
40
1.0000000000
40
1.0000000000
10
300.3794152191
20
218.6905140159
30
0.0000000000
10
300.3792543468
20
218.6980813299
30
0.0000000000
10
300.3791020711
20
218.7056488266
30
0.0000000000
10
300.3789583932
20
218.7132164865
30
0.0000000000
11
300.3794152191
21
218.6905140159
31
0.0000000000
11
300.3789583932
21
218.7132164865
31
0.0000000000
0
SPLINE
5
43D
100
AcDbEntity
8
0
100
AcDbSpline
62
7
6
CONTINUOUS
70
0
71
3
72
9
73
5
74
3
42
0.0000001000
43
0.0000001000
44
0.0000000001
40
0.0000000000
40
0.0000000000
40
0.0000000000
40
0.0000000000
40
0.5156843507
40
1.0000000000
40
1.0000000000
40
1.0000000000
40
1.0000000000
10
300.3789583932
20
218.7132164865
30
0.0000000000
10
300.3788738355
20
218.7176702277
30
0.0000000000
10
300.3787156384
20
218.7263069017
30
0.0000000000
10
300.3785686402
20
218.7349437733
30
0.0000000000
10
300.3785000737
20
218.7391267884
30
0.0000000000
11
300.3789583932
21
218.7132164865
31
0.0000000000
11
300.3787136541
21
218.7265778755
31
0.0000000000
11
300.3785000737
21
218.7391267884
31
0.0000000000
0
SPLINE
5
43E
100
AcDbEntity
8
0
100
AcDbSpline
62
7
6
CONTINUOUS
70
0
71
3
72
8
73
4
74
2
42
0.0000001000
43
0.0000001000
44
0.0000000001
40
0.0000000000
40
0.0000000000
40
0.0000000000
40
0.0000000000
40
1.0000000000
40
1.0000000000
40
1.0000000000
40
1.0000000000
10
300.3785000737
20
218.7391267884
30
0.0000000000
10
300.3784567562
20
218.7417694522
30
0.0000000000
10
300.3784144871
20
218.7444121332
30
0.0000000000
10
300.3783732667
20
218.7470548305
30
0.0000000000
11
300.3785000737
21
218.7391267884
31
0.0000000000
11
300.3783732667
21
218.7470548305
31
0.0000000000
0
SPLINE
5
43F
100
AcDbEntity
8
0
100
AcDbSpline
62
7
6
CONTINUOUS
70
0
71
3
72
8
73
4
74
2
42
0.0000001000
43
0.0000001000
44
0.0000000001
40
0.0000000000
40
0.0000000000
40
0.0000000000
40
0.0000000000
40
1.0000000000
40
1.0000000000
40
1.0000000000
40
1.0000000000
10
300.3783732667
20
218.7470548305
30
0.0000000000
10
300.3783303838
20
218.7498041064
30
0.0000000000
10
300.3782886358
20
218.7525534000
30
0.0000000000
10
300.3782480228
20
218.7553027103
30
0.0000000000
11
300.3783732667
21
218.7470548305
31
0.0000000000
11
300.3782480228
21
218.7553027103
31
0.0000000000
0
SPLINE
5
440
100
AcDbEntity
8
0
100
AcDbSpline
62
7
6
CONTINUOUS
70
0
71
3
72
8
73
4
74
2
42
0.0000001000
43
0.0000001000
44
0.0000000001
40
0.0000000000
40
0.0000000000
40
0.0000000000
40
0.0000000000
40
1.0000000000
40
1.0000000000
40
1.0000000000
40
1.0000000000
10
300.3782480228
20
218.7553027103
30
0.0000000000
10
300.3782061038
20
218.7581404248
30
0.0000000000
10
300.3781653940
20
218.7609781571
30
0.0000000000
10
300.3781258933
20
218.7638159062
30
0.0000000000
11
300.3782480228
21
218.7553027103
31
0.0000000000
11
300.3781258933
21
218.7638159062
31
0.0000000000
0
SPLINE
5
441
100
AcDbEntity
8
0
100
AcDbSpline
62
7
6
CONTINUOUS
70
0
71
3
72
9
73
5
74
3
42
0.0000001000
43
0.0000001000
44
0.0000000001
40
0.0000000000
40
0.0000000000
40
0.0000000000
40
0.0000000000
40
0.1275023979
40
1.0000000000
40
1.0000000000
40
1.0000000000
40
1.0000000000
10
300.3781258933
20
218.7638159062
30
0.0000000000
10
300.3781105323
20
218.7649194502
30
0.0000000000
10
300.3779914900
20
218.7735745544
30
0.0000000000
10
300.3778836963
20
218.7822298114
30
0.0000000000
10
300.3777982137
20
218.7897815991
30
0.0000000000
11
300.3781258933
21
218.7638159062
31
0.0000000000
11
300.3780803588
21
218.7671265458
31
0.0000000000
11
300.3777982137
21
218.7897815991
31
0.0000000000
0
SPLINE
5
442
100
AcDbEntity
8
0
100
AcDbSpline
62
7
6
CONTINUOUS
70
0
71
3
72
9
73
5
74
3
42
0.0000001000
43
0.0000001000
44
0.0000000001
40
0.0000000000
40
0.0000000000
40
0.0000000000
40
0.0000000000
40
0.5731717215
40
1.0000000000
40
1.0000000000
40
1.0000000000
40
1.0000000000
10
300.3777982137
20
218.7897815991
30
0.0000000000
10
300.3777379782
20
218.7951029771
30
0.0000000000
10
300.3776403084
20
218.8043871513
30
0.0000000000
10
300.3775555915
20
218.8136714511
30
0.0000000000
10
300.3775217924
20
218.8176342729
30
0.0000000000
11
300.3777982137
21
218.7897815991
31
0.0000000000
11
300.3776302704
21
218.8057458706
31
0.0000000000
11
300.3775217924
21
218.8176342729
31
0.0000000000
0
SPLINE
5
443
100
AcDbEntity
8
0
100
AcDbSpline
62
7
6
CONTINUOUS
70
0
71
3
72
8
73
4
74
2
42
0.0000001000
43
0.0000001000
44
0.0000000001
40
0.0000000000
40
0.0000000000
40
0.0000000000
40
0.0000000000
40
1.0000000000
40
1.0000000000
40
1.0000000000
40
1.0000000000
10
300.3775217924
20
218.8176342729
30
0.0000000000
10
300.3774655233
20
218.8242316237
30
0.0000000000
10
300.3774157967
20
218.8308290302
30
0.0000000000
10
300.3773726161
20
218.8374264796
30
0.0000000000
11
300.3775217924
21
218.8176342729
31
0.0000000000
11
300.3773726161
21
218.8374264796
31
0.0000000000
0
SPLINE
5
444
100
AcDbEntity
8
0
100
AcDbSpline
62
7
6
CONTINUOUS
70
0
71
3
72
9
73
5
74
3
42
0.0000001000
43
0.0000001000
44
0.0000000001
40
0.0000000000
40
0.0000000000
40
0.0000000000
40
0.0000000000
40
0.1399439154
40
1.0000000000
40
1.0000000000
40
1.0000000000
40
1.0000000000
10
300.3773726161
20
218.8374264796
30
0.0000000000
10
300.3773623530
20
218.8389945510
30
0.0000000000
10
300.3772916581
20
218.8501995672
30
0.0000000000
10
300.3772398475
20
218.8614046981
30
0.0000000000
10
300.3772093523
20
218.8710417828
30
0.0000000000
11
300.3773726161
21
218.8374264796
31
0.0000000000
11
300.3773429362
21
218.8421307009
31
0.0000000000
11
300.3772093523
21
218.8710417828
31
0.0000000000
0
SPLINE
5
445
100
AcDbEntity
8
0
100
AcDbSpline
62
7
6
CONTINUOUS
70
0
71
3
72
9
73
5
74
3
42
0.0000001000
43
0.0000001000
44
0.0000000001
40
0.0000000000
40
0.0000000000
40
0.0000000000
40
0.0000000000
40
0.3031280474
40
1.0000000000
40
1.0000000000
40
1.0000000000
40
1.0000000000
10
300.3772093523
20
218.8710417828
30
0.0000000000
10
300.3772036509
20
218.8728435158
30
0.0000000000
10
300.3771864644
20
218.8787873225
30
0.0000000000
10
300.3771746348
20
218.8847311429
30
0.0000000000
10
300.3771690117
20
218.8888732279
30
0.0000000000
11
300.3772093523
21
218.8710417828
31
0.0000000000
11
300.3771937237
21
218.8764469861
31
0.0000000000
11
300.3771690117
21
218.8888732279
31
0.0000000000
0
SPLINE
5
446
100
AcDbEntity
8
0
100
AcDbSpline
62
7
6
CONTINUOUS
70
0
71
3
72
8
73
4
74
2
42
0.0000001000
43
0.0000001000
44
0.0000000001
40
0.0000000000
40
0.0000000000
40
0.0000000000
40
0.0000000000
40
1.0000000000
40
1.0000000000
40
1.0000000000
40
1.0000000000
10
300.3771690117
20
218.8888732279
30
0.0000000000
10
300.3771667642
20
218.8905287527
30
0.0000000000
10
300.3771649353
20
218.8921842779
30
0.0000000000
10
300.3771635262
20
218.8938398036
30
0.0000000000
11
300.3771690117
21
218.8888732279
31
0.0000000000
11
300.3771635262
21
218.8938398036
31
0.0000000000
0
SPLINE
5
447
100
AcDbEntity
8
0
100
AcDbSpline
62
7
6
CONTINUOUS
70
0
71
3
72
17
73
13
74
11
42
0.0000001000
43
0.0000001000
44
0.0000000001
40
0.0000000000
40
0.0000000000
40
0.0000000000
40
0.0000000000
40
0.0449683170
40
0.1629685522
40
0.2796912016
40
0.3950153465
40
0.5088217002
40
0.6209934803
40
0.7314671035
40
0.8403321082
40
0.9473125097
40
1.0000000000
40
1.0000000000
40
1.0000000000
40
1.0000000000
10
300.4057905118
20
218.1469234917
30
0.0000000000
10
300.4052738876
20
218.1537343343
30
0.0000000000
10
300.4034269015
20
218.1784192571
30
0.0000000000
10
300.4004144260
20
218.2207958262
30
0.0000000000
10
300.3969279587
20
218.2738515525
30
0.0000000000
10
300.3937605540
20
218.3262891024
30
0.0000000000
10
300.3909051175
20
218.3780522707
30
0.0000000000
10
300.3883531212
20
218.4290936057
30
0.0000000000
10
300.3860938506
20
218.4793974206
30
0.0000000000
10
300.3841175341
20
218.5289239822
30
0.0000000000
10
300.3826917232
20
218.5696876459
30
0.0000000000
10
300.3819321631
20
218.5939283214
30
0.0000000000
10
300.3816911288
20
218.6019275913
30
0.0000000000
11
300.4057905118
21
218.1469234917
31
0.0000000000
11
300.4042615824
21
218.1673575934
31
0.0000000000
11
300.4004487586
21
218.2209926845
31
0.0000000000
11
300.3969611034
21
218.2740664876
31
0.0000000000
11
300.3937926210
21
218.3265218818
31
0.0000000000
11
300.3909362204
21
218.3783025295
31
0.0000000000
11
300.3883837531
21
218.4293532879
31
0.0000000000
11
300.3861251026
21
218.4796433036
31
0.0000000000
11
300.3841471232
21
218.5292115489
31
0.0000000000
11
300.3824430509
21
218.5779306728
31
0.0000000000
11
300.3816911288
21
218.6019275913
31
0.0000000000
0
SPLINE
5
448
100
AcDbEntity
8
0
100
AcDbSpline
62
7
6
CONTINUOUS
70
0
71
3
72
9
73
5
74
3
42
0.0000001000
43
0.0000001000
44
0.0000000001
40
0.0000000000
40
0.0000000000
40
0.0000000000
40
0.0000000000
40
0.3373465977
40
1.0000000000
40
1.0000000000
40
1.0000000000
40
1.0000000000
10
300.3816911288
20
218.6019275913
30
0.0000000000
10
300.3814527364
20
218.6098391866
30
0.0000000000
10
300.3807739234
20
218.6332924495
30
0.0000000000
10
300.3801776923
20
218.6567480036
30
0.0000000000
10
300.3798188665
20
218.6722917432
30
0.0000000000
11
300.3816911288
21
218.6019275913
31
0.0000000000
11
300.3810041439
21
218.6256632042
31
0.0000000000
11
300.3798188665
21
218.6722917432
31
0.0000000000
0
SPLINE
5
449
100
AcDbEntity
8
0
100
AcDbSpline
62
7
6
CONTINUOUS
70
0
71
3
72
13
73
9
74
7
42
0.0000001000
43
0.0000001000
44
0.0000000001
40
0.0000000000
40
0.0000000000
40
0.0000000000
40
0.0000000000
40
0.1999720153
40
0.3944879105
40
0.5837373732
40
0.7663147643
40
0.9254984342
40
1.0000000000
40
1.0000000000
40
1.0000000000
40
1.0000000000
10
300.3798188665
20
218.6722917432
30
0.0000000000
10
300.3794692590
20
218.6874361663
30
0.0000000000
10
300.3788475019
20
218.7173133730
30
0.0000000000
10
300.3781257601
20
218.7615273802
30
0.0000000000
10
300.3776127530
20
218.8044265067
30
0.0000000000
10
300.3773018506
20
218.8446509680
30
0.0000000000
10
300.3771810819
20
218.8761838755
30
0.0000000000
10
300.3771604455
20
218.8938861922
30
0.0000000000
10
300.3771588637
20
218.8995298969
30
0.0000000000
11
300.3798188665
21
218.6722917432
31
0.0000000000
11
300.3788733371
21
218.7177272394
31
0.0000000000
11
300.3781518424
21
218.7619267351
31
0.0000000000
11
300.3776375646
21
218.8049322028
31
0.0000000000
11
300.3773169630
21
218.8464232221
31
0.0000000000
11
300.3771783973
21
218.8825987933
31
0.0000000000
11
300.3771588637
21
218.8995298969
31
0.0000000000
0
SPLINE
5
44A
100
AcDbEntity
8
0
100
AcDbSpline
62
7
6
CONTINUOUS
70
0
71
3
72
8
73
4
74
2
42
0.0000001000
43
0.0000001000
44
0.0000000001
40
0.0000000000
40
0.0000000000
40
0.0000000000
40
0.0000000000
40
1.0000000000
40
1.0000000000
40
1.0000000000
40
1.0000000000
10
290.3368774945
20
218.0069896274
30
0.0000000000
10
290.3400467261
20
218.0421836011
30
0.0000000000
10
290.3430292855
20
218.0773952298
30
0.0000000000
10
290.3458249905
20
218.1126221329
30
0.0000000000
11
290.3368774945
21
218.0069896274
31
0.0000000000
11
290.3458249905
21
218.1126221329
31
0.0000000000
0
SPLINE
5
44B
100
AcDbEntity
8
0
100
AcDbSpline
62
7
6
CONTINUOUS
70
0
71
3
72
8
73
4
74
2
42
0.0000001000
43
0.0000001000
44
0.0000000001
40
0.0000000000
40
0.0000000000
40
0.0000000000
40
0.0000000000
40
1.0000000000
40
1.0000000000
40
1.0000000000
40
1.0000000000
10
290.3458249905
20
218.1126221329
30
0.0000000000
10
290.3468537460
20
218.1255848261
30
0.0000000000
10
290.3478572000
20
218.1385495876
30
0.0000000000
10
290.3488353435
20
218.1515162988
30
0.0000000000
11
290.3458249905
21
218.1126221329
31
0.0000000000
11
290.3488353435
21
218.1515162988
31
0.0000000000
0
SPLINE
5
44C
100
AcDbEntity
8
0
100
AcDbSpline
62
7
6
CONTINUOUS
70
0
71
3
72
8
73
4
74
2
42
0.0000001000
43
0.0000001000
44
0.0000000001
40
0.0000000000
40
0.0000000000
40
0.0000000000
40
0.0000000000
40
1.0000000000
40
1.0000000000
40
1.0000000000
40
1.0000000000
10
290.3494072165
20
218.1591361481
30
0.0000000000
10
290.3516489075
20
218.1891591073
30
0.0000000000
10
290.3537549151
20
218.2191923929
30
0.0000000000
10
290.3557251267
20
218.2492345332
30
0.0000000000
11
290.3494072165
21
218.1591361481
31
0.0000000000
11
290.3557251267
21
218.2492345332
31
0.0000000000
0
SPLINE
5
44D
100
AcDbEntity
8
0
100
AcDbSpline
62
7
6
CONTINUOUS
70
0
71
3
72
8
73
4
74
2
42
0.0000001000
43
0.0000001000
44
0.0000000001
40
0.0000000000
40
0.0000000000
40
0.0000000000
40
0.0000000000
40
1.0000000000
40
1.0000000000
40
1.0000000000
40
1.0000000000
10
290.3557251267
20
218.2492345332
30
0.0000000000
10
290.3569476863
20
218.2678763428
30
0.0000000000
10
290.3581179581
20
218.2865215619
30
0.0000000000
10
290.3592359151
20
218.3051698388
30
0.0000000000
11
290.3557251267
21
218.2492345332
31
0.0000000000
11
290.3592359151
21
218.3051698388
31
0.0000000000
0
SPLINE
5
44E
100
AcDbEntity
8
0
100
AcDbSpline
62
7
6
CONTINUOUS
70
0
71
3
72
8
73
4
74
2
42
0.0000001000
43
0.0000001000
44
0.0000000001
40
0.0000000000
40
0.0000000000
40
0.0000000000
40
0.0000000000
40
1.0000000000
40
1.0000000000
40
1.0000000000
40
1.0000000000
10
290.3592359151
20
218.3051698388
30
0.0000000000
10
290.3615171329
20
218.3432220926
30
0.0000000000
10
290.3635805257
20
218.3812870780
30
0.0000000000
10
290.3654259920
20
218.4193625493
30
0.0000000000
11
290.3592359151
21
218.3051698388
31
0.0000000000
11
290.3654259920
21
218.4193625493
31
0.0000000000
0
SPLINE
5
44F
100
AcDbEntity
8
0
100
AcDbSpline
62
7
6
CONTINUOUS
70
0
71
3
72
8
73
4
74
2
42
0.0000001000
43
0.0000001000
44
0.0000000001
40
0.0000000000
40
0.0000000000
40
0.0000000000
40
0.0000000000
40
1.0000000000
40
1.0000000000
40
1.0000000000
40
1.0000000000
10
290.3654259920
20
218.4193625493
30
0.0000000000
10
290.3659272942
20
218.4297053646
30
0.0000000000
10
290.3664125160
20
218.4400489537
30
0.0000000000
10
290.3668816554
20
218.4503932715
30
0.0000000000
11
290.3654259920
21
218.4193625493
31
0.0000000000
11
290.3668816554
21
218.4503932715
31
0.0000000000
0
SPLINE
5
450
100
AcDbEntity
8
0
100
AcDbSpline
62
7
6
CONTINUOUS
70
0
71
3
72
8
73
4
74
2
42
0.0000001000
43
0.0000001000
44
0.0000000001
40
0.0000000000
40
0.0000000000
40
0.0000000000
40
0.0000000000
40
1.0000000000
40
1.0000000000
40
1.0000000000
40
1.0000000000
10
290.3668816554
20
218.4503932715
30
0.0000000000
10
290.3670105631
20
218.4532356297
30
0.0000000000
10
290.3671382565
20
218.4560780430
30
0.0000000000
10
290.3672647357
20
218.4589205103
30
0.0000000000
11
290.3668816554
21
218.4503932715
31
0.0000000000
11
290.3672647357
21
218.4589205103
31
0.0000000000
0
SPLINE
5
451
100
AcDbEntity
8
0
100
AcDbSpline
62
7
6
CONTINUOUS
70
0
71
3
72
8
73
4
74
2
42
0.0000001000
43
0.0000001000
44
0.0000000001
40
0.0000000000
40
0.0000000000
40
0.0000000000
40
0.0000000000
40
1.0000000000
40
1.0000000000
40
1.0000000000
40
1.0000000000
10
290.3721419234
20
218.5870358144
30
0.0000000000
10
290.3722882055
20
218.5916585229
30
0.0000000000
10
290.3724312775
20
218.5962813372
30
0.0000000000
10
290.3725711392
20
218.6009042534
30
0.0000000000
11
290.3721419234
21
218.5870358144
31
0.0000000000
11
290.3725711392
21
218.6009042534
31
0.0000000000
0
SPLINE
5
452
100
AcDbEntity
8
0
100
AcDbSpline
62
7
6
CONTINUOUS
70
0
71
3
72
8
73
4
74
2
42
0.0000001000
43
0.0000001000
44
0.0000000001
40
0.0000000000
40
0.0000000000
40
0.0000000000
40
0.0000000000
40
1.0000000000
40
1.0000000000
40
1.0000000000
40
1.0000000000
10
290.3725711392
20
218.6009042534
30
0.0000000000
10
290.3740601501
20
218.6501212452
30
0.0000000000
10
290.3751852941
20
218.6993498105
30
0.0000000000
10
290.3759464817
20
218.7485834936
30
0.0000000000
11
290.3725711392
21
218.6009042534
31
0.0000000000
11
290.3759464817
21
218.7485834936
31
0.0000000000
0
SPLINE
5
453
100
AcDbEntity
8
0
100
AcDbSpline
62
7
6
CONTINUOUS
70
0
71
3
72
8
73
4
74
2
42
0.0000001000
43
0.0000001000
44
0.0000000001
40
0.0000000000
40
0.0000000000
40
0.0000000000
40
0.0000000000
40
1.0000000000
40
1.0000000000
40
1.0000000000
40
1.0000000000
10
290.3759464817
20
218.7485834936
30
0.0000000000
10
290.3759944091
20
218.7516834413
30
0.0000000000
10
290.3760408936
20
218.7547834094
30
0.0000000000
10
290.3760859352
20
218.7578833961
30
0.0000000000
11
290.3759464817
21
218.7485834936
31
0.0000000000
11
290.3760859352
21
218.7578833961
31
0.0000000000
0
SPLINE
5
454
100
AcDbEntity
8
0
100
AcDbSpline
62
7
6
CONTINUOUS
70
0
71
3
72
8
73
4
74
2
42
0.0000001000
43
0.0000001000
44
0.0000000001
40
0.0000000000
40
0.0000000000
40
0.0000000000
40
0.0000000000
40
1.0000000000
40
1.0000000000
40
1.0000000000
40
1.0000000000
10
290.3763577952
20
218.7779864835
30
0.0000000000
10
290.3766047789
20
218.7977183330
30
0.0000000000
10
290.3767933037
20
218.8174507979
30
0.0000000000
10
290.3769233641
20
218.8371834625
30
0.0000000000
11
290.3763577952
21
218.7779864835
31
0.0000000000
11
290.3769233641
21
218.8371834625
31
0.0000000000
0
SPLINE
5
455
100
AcDbEntity
8
0
100
AcDbSpline
62
7
6
CONTINUOUS
70
0
71
3
72
8
73
4
74
2
42
0.0000001000
43
0.0000001000
44
0.0000000001
40
0.0000000000
40
0.0000000000
40
0.0000000000
40
0.0000000000
40
1.0000000000
40
1.0000000000
40
1.0000000000
40
1.0000000000
10
290.3769233641
20
218.8371834625
30
0.0000000000
10
290.3770676746
20
218.8590781522
30
0.0000000000
10
290.3771400073
20
218.8809730878
30
0.0000000000
10
290.3771403543
20
218.9028677014
30
0.0000000000
11
290.3769233641
21
218.8371834625
31
0.0000000000
11
290.3771403543
21
218.9028677014
31
0.0000000000
0
SPLINE
5
456
100
AcDbEntity
8
0
100
AcDbSpline
62
7
6
CONTINUOUS
70
0
71
3
72
8
73
4
74
2
42
0.0000001000
43
0.0000001000
44
0.0000000001
40
0.0000000000
40
0.0000000000
40
0.0000000000
40
0.0000000000
40
1.0000000000
40
1.0000000000
40
1.0000000000
40
1.0000000000
10
290.3760859352
20
218.7578833961
30
0.0000000000
10
290.3761832973
20
218.7645843434
30
0.0000000000
10
290.3762739174
20
218.7712853780
30
0.0000000000
10
290.3763577952
20
218.7779864835
30
0.0000000000
11
290.3760859352
21
218.7578833961
31
0.0000000000
11
290.3763577952
21
218.7779864835
31
0.0000000000
0
SPLINE
5
457
100
AcDbEntity
8
0
100
AcDbSpline
62
7
6
CONTINUOUS
70
0
71
3
72
11
73
7
74
5
42
0.0000001000
43
0.0000001000
44
0.0000000001
40
0.0000000000
40
0.0000000000
40
0.0000000000
40
0.0000000000
40
0.0623899755
40
0.4375145299
40
0.8126285212
40
1.0000000000
40
1.0000000000
40
1.0000000000
40
1.0000000000
10
122.0867747971
20
119.1891379625
30
0.0000000000
10
122.0717402823
20
119.1907999943
30
0.0000000000
10
121.9665799070
20
119.2048462353
30
0.0000000000
10
121.7764520731
20
119.2620868842
30
0.0000000000
10
121.5828746619
20
119.3846122252
30
0.0000000000
10
121.4846667850
20
119.4797652704
30
0.0000000000
10
121.4542645095
20
119.5134877866
30
0.0000000000
11
122.0867747971
21
119.1891379625
31
0.0000000000
11
122.0418052190
21
119.1951470630
31
0.0000000000
11
121.7816091632
21
119.2733864401
31
0.0000000000
11
121.5520842161
21
119.4187739527
31
0.0000000000
11
121.4542645095
21
119.5134877866
31
0.0000000000
0
SPLINE
5
458
100
AcDbEntity
8
0
100
AcDbSpline
62
7
6
CONTINUOUS
70
0
71
3
72
8
73
4
74
2
42
0.0000001000
43
0.0000001000
44
0.0000000001
40
0.0000000000
40
0.0000000000
40
0.0000000000
40
0.0000000000
40
1.0000000000
40
1.0000000000
40
1.0000000000
40
1.0000000000
10
121.4542645095
20
119.5134877866
30
0.0000000000
10
121.4503538815
20
119.5178254954
30
0.0000000000
10
121.4464815082
20
119.5221967214
30
0.0000000000
10
121.4426480779
20
119.5266006635
30
0.0000000000
11
121.4542645095
21
119.5134877866
31
0.0000000000
11
121.4426480779
21
119.5266006635
31
0.0000000000
0
SPLINE
5
459
100
AcDbEntity
8
0
100
AcDbSpline
62
7
6
CONTINUOUS
70
0
71
3
72
8
73
4
74
2
42
0.0000001000
43
0.0000001000
44
0.0000000001
40
0.0000000000
40
0.0000000000
40
0.0000000000
40
0.0000000000
40
1.0000000000
40
1.0000000000
40
1.0000000000
40
1.0000000000
10
121.4426480779
20
119.5266006635
30
0.0000000000
10
121.4166220181
20
119.5565000623
30
0.0000000000
10
121.3923909865
20
119.5879074658
30
0.0000000000
10
121.3701703653
20
119.6205721559
30
0.0000000000
11
121.4426480779
21
119.5266006635
31
0.0000000000
11
121.3701703653
21
119.6205721559
31
0.0000000000
0
SPLINE
5
45A
100
AcDbEntity
8
0
100
AcDbSpline
62
7
6
CONTINUOUS
70
0
71
3
72
8
73
4
74
2
42
0.0000001000
43
0.0000001000
44
0.0000000001
40
0.0000000000
40
0.0000000000
40
0.0000000000
40
0.0000000000
40
1.0000000000
40
1.0000000000
40
1.0000000000
40
1.0000000000
10
100.6674993849
20
119.6206104711
30
0.0000000000
10
100.6420061968
20
119.5831313059
30
0.0000000000
10
100.6138663747
20
119.5473071350
30
0.0000000000
10
100.5834052181
20
119.5135166578
30
0.0000000000
11
100.6674993849
21
119.6206104711
31
0.0000000000
11
100.5834052181
21
119.5135166578
31
0.0000000000
0
SPLINE
5
45B
100
AcDbEntity
8
0
100
AcDbSpline
62
7
6
CONTINUOUS
70
0
71
3
72
11
73
7
74
5
42
0.0000001000
43
0.0000001000
44
0.0000000001
40
0.0000000000
40
0.0000000000
40
0.0000000000
40
0.0000000000
40
0.1873713652
40
0.5624832974
40
0.9376032364
40
1.0000000000
40
1.0000000000
40
1.0000000000
40
1.0000000000
10
100.5834052181
20
119.5135166578
30
0.0000000000
10
100.5530026975
20
119.4797912254
30
0.0000000000
10
100.4547934546
20
119.3846300817
30
0.0000000000
10
100.2612103917
20
119.2620942263
30
0.0000000000
10
100.0710733503
20
119.2048479123
30
0.0000000000
10
99.9659070611
20
119.1908003627
30
0.0000000000
10
99.9508701333
20
119.1891380456
30
0.0000000000
11
100.5834052181
21
119.5135166578
31
0.0000000000
11
100.4855838622
21
119.4187944926
31
0.0000000000
11
100.2560520766
21
119.2733943998
31
0.0000000000
11
99.9958469042
21
119.1951483299
31
0.0000000000
11
99.9508701333
21
119.1891380456
31
0.0000000000
0
SPLINE
5
45C
100
AcDbEntity
8
0
100
AcDbSpline
62
7
6
CONTINUOUS
70
0
71
3
72
11
73
7
74
5
42
0.0000001000
43
0.0000001000
44
0.0000000001
40
0.0000000000
40
0.0000000000
40
0.0000000000
40
0.0000000000
40
0.0623899755
40
0.4375145299
40
0.8126285212
40
1.0000000000
40
1.0000000000
40
1.0000000000
40
1.0000000000
10
99.9508688501
20
106.0377791967
30
0.0000000000
10
99.9659033650
20
106.0361171649
30
0.0000000000
10
100.0710637402
20
106.0220709239
30
0.0000000000
10
100.2611915742
20
105.9648302750
30
0.0000000000
10
100.4547689853
20
105.8423049340
30
0.0000000000
10
100.5529768622
20
105.7471518888
30
0.0000000000
10
100.5833791377
20
105.7134293726
30
0.0000000000
11
99.9508688501
21
106.0377791967
31
0.0000000000
11
99.9958384282
21
106.0317700962
31
0.0000000000
11
100.2560344841
21
105.9535307191
31
0.0000000000
11
100.4855594312
21
105.8081432065
31
0.0000000000
11
100.5833791377
21
105.7134293726
31
0.0000000000
0
SPLINE
5
45D
100
AcDbEntity
8
0
100
AcDbSpline
62
7
6
CONTINUOUS
70
0
71
3
72
8
73
4
74
2
42
0.0000001000
43
0.0000001000
44
0.0000000001
40
0.0000000000
40
0.0000000000
40
0.0000000000
40
0.0000000000
40
1.0000000000
40
1.0000000000
40
1.0000000000
40
1.0000000000
10
100.5833791377
20
105.7134293726
30
0.0000000000
10
100.5872897657
20
105.7090916638
30
0.0000000000
10
100.5911621390
20
105.7047204378
30
0.0000000000
10
100.5949955693
20
105.7003164957
30
0.0000000000
11
100.5833791377
21
105.7134293726
31
0.0000000000
11
100.5949955693
21
105.7003164957
31
0.0000000000
0
SPLINE
5
45E
100
AcDbEntity
8
0
100
AcDbSpline
62
7
6
CONTINUOUS
70
0
71
3
72
8
73
4
74
2
42
0.0000001000
43
0.0000001000
44
0.0000000001
40
0.0000000000
40
0.0000000000
40
0.0000000000
40
0.0000000000
40
1.0000000000
40
1.0000000000
40
1.0000000000
40
1.0000000000
10
100.5949955693
20
105.7003164957
30
0.0000000000
10
100.6210216292
20
105.6704170969
30
0.0000000000
10
100.6452526607
20
105.6390096934
30
0.0000000000
10
100.6674732820
20
105.6063450033
30
0.0000000000
11
100.5949955693
21
105.7003164957
31
0.0000000000
11
100.6674732820
21
105.6063450033
31
0.0000000000
0
SPLINE
5
45F
100
AcDbEntity
8
0
100
AcDbSpline
62
7
6
CONTINUOUS
70
0
71
3
72
8
73
4
74
2
42
0.0000001000
43
0.0000001000
44
0.0000000001
40
0.0000000000
40
0.0000000000
40
0.0000000000
40
0.0000000000
40
1.0000000000
40
1.0000000000
40
1.0000000000
40
1.0000000000
10
121.3701442623
20
105.6063066880
30
0.0000000000
10
121.3956374505
20
105.6437858533
30
0.0000000000
10
121.4237772726
20
105.6796100242
30
0.0000000000
10
121.4542384291
20
105.7134005014
30
0.0000000000
11
121.3701442623
21
105.6063066880
31
0.0000000000
11
121.4542384291
21
105.7134005014
31
0.0000000000
0
SPLINE
5
460
100
AcDbEntity
8
0
100
AcDbSpline
62
7
6
CONTINUOUS
70
0
71
3
72
11
73
7
74
5
42
0.0000001000
43
0.0000001000
44
0.0000000001
40
0.0000000000
40
0.0000000000
40
0.0000000000
40
0.0000000000
40
0.1873713652
40
0.5624832974
40
0.9376032364
40
1.0000000000
40
1.0000000000
40
1.0000000000
40
1.0000000000
10
121.4542384291
20
105.7134005014
30
0.0000000000
10
121.4846409498
20
105.7471259338
30
0.0000000000
10
121.5828501926
20
105.8422870775
30
0.0000000000
10
121.7764332555
20
105.9648229329
30
0.0000000000
10
121.9665702970
20
106.0220692469
30
0.0000000000
10
122.0717365861
20
106.0361167965
30
0.0000000000
10
122.0867735139
20
106.0377791136
30
0.0000000000
11
121.4542384291
21
105.7134005014
31
0.0000000000
11
121.5520597851
21
105.8081226666
31
0.0000000000
11
121.7815915706
21
105.9535227594
31
0.0000000000
11
122.0417967431
21
106.0317688293
31
0.0000000000
11
122.0867735139
21
106.0377791136
31
0.0000000000
0
SPLINE
5
461
100
AcDbEntity
8
0
100
AcDbSpline
62
7
6
CONTINUOUS
70
0
71
3
72
16
73
12
74
10
42
0.0000001000
43
0.0000001000
44
0.0000000001
40
0.0000000000
40
0.0000000000
40
0.0000000000
40
0.0000000000
40
0.1276025812
40
0.2778739062
40
0.4196308619
40
0.5514658077
40
0.6722464948
40
0.7812449730
40
0.8780358563
40
0.9624510342
40
1.0000000000
40
1.0000000000
40
1.0000000000
40
1.0000000000
10
95.9592987383
20
106.2087621028
30
0.0000000000
10
96.1214417645
20
106.2087659011
30
0.0000000000
10
96.4745346572
20
106.2072127186
30
0.0000000000
10
97.0077091847
20
106.1997027425
30
0.0000000000
10
97.5461551119
20
106.1865723974
30
0.0000000000
10
98.0469827631
20
106.1691046006
30
0.0000000000
10
98.5060121804
20
106.1481631432
30
0.0000000000
10
98.9203160379
20
106.1245591686
30
0.0000000000
10
99.2882091941
20
106.0991223731
30
0.0000000000
10
99.5652345949
20
106.0762370246
30
0.0000000000
10
99.7195444120
20
106.0617029625
30
0.0000000000
10
99.7670287054
20
106.0570224403
30
0.0000000000
11
95.9592987383
21
106.2087621028
31
0.0000000000
11
96.4457228783
21
106.2066182738
31
0.0000000000
11
97.0185080044
21
106.1985388458
31
0.0000000000
11
97.5587303814
21
106.1852870749
31
0.0000000000
11
98.0609834569
21
106.1676780031
31
0.0000000000
11
98.5209215555
21
106.1465686820
31
0.0000000000
11
98.9357484224
21
106.1227893160
31
0.0000000000
11
99.3038291384
21
106.0971605216
31
0.0000000000
11
99.6245165442
21
106.0704839294
31
0.0000000000
11
99.7670287054
21
106.0570224403
31
0.0000000000
0
SPLINE
5
462
100
AcDbEntity
8
0
100
AcDbSpline
62
7
6
CONTINUOUS
70
0
71
3
72
8
73
4
74
2
42
0.0000001000
43
0.0000001000
44
0.0000000001
40
0.0000000000
40
0.0000000000
40
0.0000000000
40
0.0000000000
40
1.0000000000
40
1.0000000000
40
1.0000000000
40
1.0000000000
10
99.7670287054
20
106.0570224403
30
0.0000000000
10
99.8107297705
20
106.0527148306
30
0.0000000000
10
99.8544114401
20
106.0482327922
30
0.0000000000
10
99.8980663739
20
106.0435469123
30
0.0000000000
11
99.7670287054
21
106.0570224403
31
0.0000000000
11
99.8980663739
21
106.0435469123
31
0.0000000000
0
SPLINE
5
463
100
AcDbEntity
8
0
100
AcDbSpline
62
7
6
CONTINUOUS
70
0
71
3
72
8
73
4
74
2
42
0.0000001000
43
0.0000001000
44
0.0000000001
40
0.0000000000
40
0.0000000000
40
0.0000000000
40
0.0000000000
40
1.0000000000
40
1.0000000000
40
1.0000000000
40
1.0000000000
10
99.8980663739
20
106.0435469123
30
0.0000000000
10
99.9157069486
20
106.0416533895
30
0.0000000000
10
99.9333431577
20
106.0397265814
30
0.0000000000
10
99.9509756578
20
106.0377650211
30
0.0000000000
11
99.8980663739
21
106.0435469123
31
0.0000000000
11
99.9509756578
21
106.0377650211
31
0.0000000000
0
SPLINE
5
464
100
AcDbEntity
8
0
100
AcDbSpline
62
7
6
CONTINUOUS
70
0
71
3
72
9
73
5
74
3
42
0.0000001000
43
0.0000001000
44
0.0000000001
40
0.0000000000
40
0.0000000000
40
0.0000000000
40
0.0000000000
40
0.2637407672
40
1.0000000000
40
1.0000000000
40
1.0000000000
40
1.0000000000
10
95.0160354795
20
106.2322589405
30
0.0000000000
10
95.0346726773
20
106.2281468418
30
0.0000000000
10
95.1058024568
20
106.2145810168
30
0.0000000000
10
95.1783042473
20
106.2088203328
30
0.0000000000
10
95.2316128795
20
106.2088097760
30
0.0000000000
11
95.0160354795
21
106.2322589405
31
0.0000000000
11
95.0722877585
21
106.2215340389
31
0.0000000000
11
95.2316128795
21
106.2088097760
31
0.0000000000
0
SPLINE
5
465
100
AcDbEntity
8
0
100
AcDbSpline
62
7
6
CONTINUOUS
70
0
71
3
72
8
73
4
74
2
42
0.0000001000
43
0.0000001000
44
0.0000000001
40
0.0000000000
40
0.0000000000
40
0.0000000000
40
0.0000000000
40
1.0000000000
40
1.0000000000
40
1.0000000000
40
1.0000000000
10
95.2316128698
20
119.0181569512
30
0.0000000000
10
95.1594260370
20
119.0181569512
30
0.0000000000
10
95.0869570172
20
119.0102579054
30
0.0000000000
10
95.0162209130
20
118.9946767136
30
0.0000000000
11
95.2316128698
21
119.0181569512
31
0.0000000000
11
95.0162209130
21
118.9946767136
31
0.0000000000
0
SPLINE
5
466
100
AcDbEntity
8
0
100
AcDbSpline
62
7
6
CONTINUOUS
70
0
71
3
72
8
73
4
74
2
42
0.0000001000
43
0.0000001000
44
0.0000000001
40
0.0000000000
40
0.0000000000
40
0.0000000000
40
0.0000000000
40
1.0000000000
40
1.0000000000
40
1.0000000000
40
1.0000000000
10
99.9509754326
20
119.1891556703
30
0.0000000000
10
99.9403675527
20
119.1879720352
30
0.0000000000
10
99.9297596554
20
119.1868013876
30
0.0000000000
10
99.9191551626
20
119.1856441766
30
0.0000000000
11
99.9509754326
21
119.1891556703
31
0.0000000000
11
99.9191551626
21
119.1856441766
31
0.0000000000
0
SPLINE
5
467
100
AcDbEntity
8
0
100
AcDbSpline
62
7
6
CONTINUOUS
70
0
71
3
72
8
73
4
74
2
42
0.0000001000
43
0.0000001000
44
0.0000000001
40
0.0000000000
40
0.0000000000
40
0.0000000000
40
0.0000000000
40
1.0000000000
40
1.0000000000
40
1.0000000000
40
1.0000000000
10
99.9191551626
20
119.1856441766
30
0.0000000000
10
99.8754684524
20
119.1808768819
30
0.0000000000
10
99.8318395233
20
119.1763376241
30
0.0000000000
10
99.7882249965
20
119.1719843220
30
0.0000000000
11
99.9191551626
21
119.1856441766
31
0.0000000000
11
99.7882249965
21
119.1719843220
31
0.0000000000
0
SPLINE
5
468
100
AcDbEntity
8
0
100
AcDbSpline
62
7
6
CONTINUOUS
70
0
71
3
72
8
73
4
74
2
42
0.0000001000
43
0.0000001000
44
0.0000000001
40
0.0000000000
40
0.0000000000
40
0.0000000000
40
0.0000000000
40
1.0000000000
40
1.0000000000
40
1.0000000000
40
1.0000000000
10
99.7882249965
20
119.1719843220
30
0.0000000000
10
99.7785445474
20
119.1710180861
30
0.0000000000
10
99.7688648078
20
119.1700610111
30
0.0000000000
10
99.7591853034
20
119.1691126369
30
0.0000000000
11
99.7882249965
21
119.1719843220
31
0.0000000000
11
99.7591853034
21
119.1691126369
31
0.0000000000
0
SPLINE
5
469
100
AcDbEntity
8
0
100
AcDbSpline
62
7
6
CONTINUOUS
70
0
71
3
72
16
73
12
74
10
42
0.0000001000
43
0.0000001000
44
0.0000000001
40
0.0000000000
40
0.0000000000
40
0.0000000000
40
0.0000000000
40
0.0299857779
40
0.1146515300
40
0.2119754996
40
0.3218338849
40
0.4437996071
40
0.5771312024
40
0.7206633866
40
0.8729359487
40
1.0000000000
40
1.0000000000
40
1.0000000000
40
1.0000000000
10
99.7591853034
20
119.1691126369
30
0.0000000000
10
99.7213648127
20
119.1654070776
30
0.0000000000
10
99.5767707496
20
119.1517466496
30
0.0000000000
10
99.3087677518
20
119.1293388139
30
0.0000000000
10
98.9396165049
20
119.1035643415
30
0.0000000000
10
98.5228903505
20
119.0796049284
30
0.0000000000
10
98.0603250040
20
119.0583328037
30
0.0000000000
10
97.5548744302
20
119.0405835987
30
0.0000000000
10
97.0108454058
20
119.0272535203
30
0.0000000000
10
96.4746541300
20
119.0196998073
30
0.0000000000
10
96.1204276835
20
119.0181513316
30
0.0000000000
10
95.9592987681
20
119.0181550774
30
0.0000000000
11
99.7591853034
21
119.1691126369
31
0.0000000000
11
99.6457063088
21
119.1583670097
31
0.0000000000
11
99.3247494879
21
119.1313620652
31
0.0000000000
11
98.9554160865
21
119.1053809705
31
0.0000000000
11
98.5381833853
21
119.0812430642
31
0.0000000000
11
98.0746894703
21
119.0597962048
31
0.0000000000
11
97.5677766269
21
119.0419005780
31
0.0000000000
11
97.0219080901
21
119.0284443092
31
0.0000000000
11
96.4426806614
21
119.0202721232
31
0.0000000000
11
95.9592987681
21
119.0181550774
31
0.0000000000
0
SPLINE
5
46A
100
AcDbEntity
8
0
100
AcDbSpline
62
7
6
CONTINUOUS
70
0
71
3
72
16
73
12
74
10
42
0.0000001000
43
0.0000001000
44
0.0000000001
40
0.0000000000
40
0.0000000000
40
0.0000000000
40
0.0000000000
40
0.1276025812
40
0.2778739062
40
0.4196308619
40
0.5514658077
40
0.6722464948
40
0.7812449730
40
0.8780358563
40
0.9624510342
40
1.0000000000
40
1.0000000000
40
1.0000000000
40
1.0000000000
10
126.0783449090
20
119.0181550564
30
0.0000000000
10
125.9162018828
20
119.0181512580
30
0.0000000000
10
125.5631089901
20
119.0197044406
30
0.0000000000
10
125.0299344626
20
119.0272144167
30
0.0000000000
10
124.4914885354
20
119.0403447618
30
0.0000000000
10
123.9906608842
20
119.0578125586
30
0.0000000000
10
123.5316314669
20
119.0787540160
30
0.0000000000
10
123.1173276093
20
119.1023579906
30
0.0000000000
10
122.7494344531
20
119.1277947861
30
0.0000000000
10
122.4724090523
20
119.1506801345
30
0.0000000000
10
122.3180992352
20
119.1652141967
30
0.0000000000
10
122.2706149419
20
119.1698947189
30
0.0000000000
11
126.0783449090
21
119.0181550564
31
0.0000000000
11
125.5919207689
21
119.0202988854
31
0.0000000000
11
125.0191356429
21
119.0283783133
31
0.0000000000
11
124.4789132659
21
119.0416300843
31
0.0000000000
11
123.9766601903
21
119.0592391561
31
0.0000000000
11
123.5167220917
21
119.0803484772
31
0.0000000000
11
123.1018952249
21
119.1041278432
31
0.0000000000
11
122.7338145088
21
119.1297566376
31
0.0000000000
11
122.4131271030
21
119.1564332298
31
0.0000000000
11
122.2706149419
21
119.1698947189
31
0.0000000000
0
SPLINE
5
46B
100
AcDbEntity
8
0
100
AcDbSpline
62
7
6
CONTINUOUS
70
0
71
3
72
8
73
4
74
2
42
0.0000001000
43
0.0000001000
44
0.0000000001
40
0.0000000000
40
0.0000000000
40
0.0000000000
40
0.0000000000
40
1.0000000000
40
1.0000000000
40
1.0000000000
40
1.0000000000
10
122.2706149419
20
119.1698947189
30
0.0000000000
10
122.2269138767
20
119.1742023286
30
0.0000000000
10
122.1832322071
20
119.1786843670
30
0.0000000000
10
122.1395772733
20
119.1833702469
30
0.0000000000
11
122.2706149419
21
119.1698947189
31
0.0000000000
11
122.1395772733
21
119.1833702469
31
0.0000000000
0
SPLINE
5
46C
100
AcDbEntity
8
0
100
AcDbSpline
62
7
6
CONTINUOUS
70
0
71
3
72
8
73
4
74
2
42
0.0000001000
43
0.0000001000
44
0.0000000001
40
0.0000000000
40
0.0000000000
40
0.0000000000
40
0.0000000000
40
1.0000000000
40
1.0000000000
40
1.0000000000
40
1.0000000000
10
122.1395772733
20
119.1833702469
30
0.0000000000
10
122.1219366986
20
119.1852637697
30
0.0000000000
10
122.1043004896
20
119.1871905778
30
0.0000000000
10
122.0866679894
20
119.1891521381
30
0.0000000000
11
122.1395772733
21
119.1833702469
31
0.0000000000
11
122.0866679894
21
119.1891521381
31
0.0000000000
0
SPLINE
5
46D
100
AcDbEntity
8
0
100
AcDbSpline
62
7
6
CONTINUOUS
70
0
71
3
72
9
73
5
74
3
42
0.0000001000
43
0.0000001000
44
0.0000000001
40
0.0000000000
40
0.0000000000
40
0.0000000000
40
0.0000000000
40
0.2637407672
40
1.0000000000
40
1.0000000000
40
1.0000000000
40
1.0000000000
10
127.0216081677
20
118.9946582186
30
0.0000000000
10
127.0029709700
20
118.9987703174
30
0.0000000000
10
126.9318411904
20
119.0123361424
30
0.0000000000
10
126.8593394000
20
119.0180968263
30
0.0000000000
10
126.8060307678
20
119.0181073832
30
0.0000000000
11
127.0216081677
21
118.9946582186
31
0.0000000000
11
126.9653558887
21
119.0053831203
31
0.0000000000
11
126.8060307678
21
119.0181073832
31
0.0000000000
0
SPLINE
5
46E
100
AcDbEntity
8
0
100
AcDbSpline
62
7
6
CONTINUOUS
70
0
71
3
72
8
73
4
74
2
42
0.0000001000
43
0.0000001000
44
0.0000000001
40
0.0000000000
40
0.0000000000
40
0.0000000000
40
0.0000000000
40
1.0000000000
40
1.0000000000
40
1.0000000000
40
1.0000000000
10
126.8060307774
20
106.2087602080
30
0.0000000000
10
126.8782176103
20
106.2087602080
30
0.0000000000
10
126.9506866300
20
106.2166592538
30
0.0000000000
10
127.0214227342
20
106.2322404456
30
0.0000000000
11
126.8060307774
21
106.2087602080
31
0.0000000000
11
127.0214227342
21
106.2322404456
31
0.0000000000
0
SPLINE
5
46F
100
AcDbEntity
8
0
100
AcDbSpline
62
7
6
CONTINUOUS
70
0
71
3
72
8
73
4
74
2
42
0.0000001000
43
0.0000001000
44
0.0000000001
40
0.0000000000
40
0.0000000000
40
0.0000000000
40
0.0000000000
40
1.0000000000
40
1.0000000000
40
1.0000000000
40
1.0000000000
10
122.0866682146
20
106.0377614889
30
0.0000000000
10
122.0972760945
20
106.0389451240
30
0.0000000000
10
122.1078839919
20
106.0401157716
30
0.0000000000
10
122.1184884846
20
106.0412729826
30
0.0000000000
11
122.0866682146
21
106.0377614889
31
0.0000000000
11
122.1184884846
21
106.0412729826
31
0.0000000000
0
SPLINE
5
470
100
AcDbEntity
8
0
100
AcDbSpline
62
7
6
CONTINUOUS
70
0
71
3
72
8
73
4
74
2
42
0.0000001000
43
0.0000001000
44
0.0000000001
40
0.0000000000
40
0.0000000000
40
0.0000000000
40
0.0000000000
40
1.0000000000
40
1.0000000000
40
1.0000000000
40
1.0000000000
10
122.1184884846
20
106.0412729826
30
0.0000000000
10
122.1621751949
20
106.0460402773
30
0.0000000000
10
122.2058041239
20
106.0505795351
30
0.0000000000
10
122.2494186508
20
106.0549328372
30
0.0000000000
11
122.1184884846
21
106.0412729826
31
0.0000000000
11
122.2494186508
21
106.0549328372
31
0.0000000000
0
SPLINE
5
471
100
AcDbEntity
8
0
100
AcDbSpline
62
7
6
CONTINUOUS
70
0
71
3
72
8
73
4
74
2
42
0.0000001000
43
0.0000001000
44
0.0000000001
40
0.0000000000
40
0.0000000000
40
0.0000000000
40
0.0000000000
40
1.0000000000
40
1.0000000000
40
1.0000000000
40
1.0000000000
10
122.2494186508
20
106.0549328372
30
0.0000000000
10
122.2590990999
20
106.0558990731
30
0.0000000000
10
122.2687788394
20
106.0568561480
30
0.0000000000
10
122.2784583438
20
106.0578045222
30
0.0000000000
11
122.2494186508
21
106.0549328372
31
0.0000000000
11
122.2784583438
21
106.0578045222
31
0.0000000000
0
SPLINE
5
472
100
AcDbEntity
8
0
100
AcDbSpline
62
7
6
CONTINUOUS
70
0
71
3
72
16
73
12
74
10
42
0.0000001000
43
0.0000001000
44
0.0000000001
40
0.0000000000
40
0.0000000000
40
0.0000000000
40
0.0000000000
40
0.0299857779
40
0.1146515300
40
0.2119754996
40
0.3218338849
40
0.4437996071
40
0.5771312024
40
0.7206633866
40
0.8729359487
40
1.0000000000
40
1.0000000000
40
1.0000000000
40
1.0000000000
10
122.2784583438
20
106.0578045222
30
0.0000000000
10
122.3162788345
20
106.0615100816
30
0.0000000000
10
122.4608728977
20
106.0751705096
30
0.0000000000
10
122.7288758954
20
106.0975783453
30
0.0000000000
10
123.0980271423
20
106.1233528177
30
0.0000000000
10
123.5147532967
20
106.1473122308
30
0.0000000000
10
123.9773186432
20
106.1685843555
30
0.0000000000
10
124.4827692170
20
106.1863335605
30
0.0000000000
10
125.0267982414
20
106.1996636389
30
0.0000000000
10
125.5629895172
20
106.2072173519
30
0.0000000000
10
125.9172159638
20
106.2087658276
30
0.0000000000
10
126.0783448791
20
106.2087620818
30
0.0000000000
11
122.2784583438
21
106.0578045222
31
0.0000000000
11
122.3919373384
21
106.0685501495
31
0.0000000000
11
122.7128941593
21
106.0955550940
31
0.0000000000
11
123.0822275607
21
106.1215361886
31
0.0000000000
11
123.4994602620
21
106.1456740950
31
0.0000000000
11
123.9629541769
21
106.1671209544
31
0.0000000000
11
124.4698670204
21
106.1850165812
31
0.0000000000
11
125.0157355572
21
106.1984728499
31
0.0000000000
11
125.5949629858
21
106.2066450360
31
0.0000000000
11
126.0783448791
21
106.2087620818
31
0.0000000000
0
SPLINE
5
473
100
AcDbEntity
8
0
100
AcDbSpline
62
7
6
CONTINUOUS
70
0
71
3
72
8
73
4
74
2
42
0.0000001000
43
0.0000001000
44
0.0000000001
40
0.0000000000
40
0.0000000000
40
0.0000000000
40
0.0000000000
40
1.0000000000
40
1.0000000000
40
1.0000000000
40
1.0000000000
10
133.8510349938
20
117.3013667071
30
0.0000000000
10
133.8380728953
20
117.3151746137
30
0.0000000000
10
133.8247268065
20
117.3286223389
30
0.0000000000
10
133.8110200032
20
117.3416914361
30
0.0000000000
11
133.8510349938
21
117.3013667071
31
0.0000000000
11
133.8110200032
21
117.3416914361
31
0.0000000000
0
SPLINE
5
474
100
AcDbEntity
8
0
100
AcDbSpline
62
7
6
CONTINUOUS
70
0
71
3
72
8
73
4
74
2
42
0.0000001000
43
0.0000001000
44
0.0000000001
40
0.0000000000
40
0.0000000000
40
0.0000000000
40
0.0000000000
40
1.0000000000
40
1.0000000000
40
1.0000000000
40
1.0000000000
10
133.8110200032
20
117.3416914361
30
0.0000000000
10
133.8035262352
20
117.3488365582
30
0.0000000000
10
133.7959246491
20
117.3558685077
30
0.0000000000
10
133.7882190485
20
117.3627842703
30
0.0000000000
11
133.8110200032
21
117.3416914361
31
0.0000000000
11
133.7882190485
21
117.3627842703
31
0.0000000000
0
SPLINE
5
475
100
AcDbEntity
8
0
100
AcDbSpline
62
7
6
CONTINUOUS
70
0
71
3
72
8
73
4
74
2
42
0.0000001000
43
0.0000001000
44
0.0000000001
40
0.0000000000
40
0.0000000000
40
0.0000000000
40
0.0000000000
40
1.0000000000
40
1.0000000000
40
1.0000000000
40
1.0000000000
10
133.7882190485
20
117.3627842703
30
0.0000000000
10
133.7628590824
20
117.3855447940
30
0.0000000000
10
133.7363724945
20
117.4070468511
30
0.0000000000
10
133.7088948740
20
117.4271829839
30
0.0000000000
11
133.7882190485
21
117.3627842703
31
0.0000000000
11
133.7088948740
21
117.4271829839
31
0.0000000000
0
SPLINE
5
476
100
AcDbEntity
8
0
100
AcDbSpline
62
7
6
CONTINUOUS
70
0
71
3
72
10
73
6
74
4
42
0.0000001000
43
0.0000001000
44
0.0000000001
40
0.0000000000
40
0.0000000000
40
0.0000000000
40
0.0000000000
40
0.4298597555
40
0.7987154775
40
1.0000000000
40
1.0000000000
40
1.0000000000
40
1.0000000000
10
133.7088948740
20
117.4271829839
30
0.0000000000
10
133.6522790221
20
117.4686721774
30
0.0000000000
10
133.5392644626
20
117.5349877655
30
0.0000000000
10
133.3856868180
20
117.5913668651
30
0.0000000000
10
133.2954716692
20
117.6139790173
30
0.0000000000
10
133.2634179291
20
117.6210148645
30
0.0000000000
11
133.7088948740
21
117.4271829839
31
0.0000000000
11
133.5278374955
21
117.5338877335
31
0.0000000000
11
133.3588406425
21
117.5968248050
31
0.0000000000
11
133.2634179291
21
117.6210148645
31
0.0000000000
0
SPLINE
5
477
100
AcDbEntity
8
0
100
AcDbSpline
62
7
6
CONTINUOUS
70
0
71
3
72
10
73
6
74
4
42
0.0000001000
43
0.0000001000
44
0.0000000001
40
0.0000000000
40
0.0000000000
40
0.0000000000
40
0.0000000000
40
0.1955632904
40
0.5686758153
40
1.0000000000
40
1.0000000000
40
1.0000000000
40
1.0000000000
10
88.7741525685
20
117.6209992034
30
0.0000000000
10
88.7483159890
20
117.6153269584
30
0.0000000000
10
88.6735733068
20
117.5970417335
30
0.0000000000
10
88.5450879341
20
117.5538245630
30
0.0000000000
10
88.4476432163
20
117.5044098166
30
0.0000000000
10
88.3979390903
20
117.4737541438
30
0.0000000000
11
88.7741525685
21
117.6209992034
31
0.0000000000
11
88.6971073342
21
117.6020066330
31
0.0000000000
11
88.5538394658
21
117.5531888461
31
0.0000000000
11
88.3979390903
21
117.4737541438
31
0.0000000000
0
SPLINE
5
478
100
AcDbEntity
8
0
100
AcDbSpline
62
7
6
CONTINUOUS
70
0
71
3
72
8
73
4
74
2
42
0.0000001000
43
0.0000001000
44
0.0000000001
40
0.0000000000
40
0.0000000000
40
0.0000000000
40
0.0000000000
40
1.0000000000
40
1.0000000000
40
1.0000000000
40
1.0000000000
10
88.3979390903
20
117.4737541438
30
0.0000000000
10
88.3445783167
20
117.4408431856
30
0.0000000000
10
88.2941495600
20
117.4031371704
30
0.0000000000
10
88.2475707286
20
117.3611364528
30
0.0000000000
11
88.3979390903
21
117.4737541438
31
0.0000000000
11
88.2475707286
21
117.3611364528
31
0.0000000000
0
SPLINE
5
479
100
AcDbEntity
8
0
100
AcDbSpline
62
7
6
CONTINUOUS
70
0
71
3
72
8
73
4
74
2
42
0.0000001000
43
0.0000001000
44
0.0000000001
40
0.0000000000
40
0.0000000000
40
0.0000000000
40
0.0000000000
40
1.0000000000
40
1.0000000000
40
1.0000000000
40
1.0000000000
10
88.2475707286
20
117.3611364528
30
0.0000000000
10
88.2454945889
20
117.3592643715
30
0.0000000000
10
88.2434260979
20
117.3573837579
30
0.0000000000
10
88.2413653368
20
117.3554946562
30
0.0000000000
11
88.2475707286
21
117.3611364528
31
0.0000000000
11
88.2413653368
21
117.3554946562
31
0.0000000000
0
SPLINE
5
47A
100
AcDbEntity
8
0
100
AcDbSpline
62
7
6
CONTINUOUS
70
0
71
3
72
8
73
4
74
2
42
0.0000001000
43
0.0000001000
44
0.0000000001
40
0.0000000000
40
0.0000000000
40
0.0000000000
40
0.0000000000
40
1.0000000000
40
1.0000000000
40
1.0000000000
40
1.0000000000
10
88.2413653368
20
117.3554946562
30
0.0000000000
10
88.2368870051
20
117.3513893650
30
0.0000000000
10
88.2324451786
20
117.3472439884
30
0.0000000000
10
88.2280405472
20
117.3430592382
30
0.0000000000
11
88.2413653368
21
117.3554946562
31
0.0000000000
11
88.2280405472
21
117.3430592382
31
0.0000000000
0
SPLINE
5
47B
100
AcDbEntity
8
0
100
AcDbSpline
62
7
6
CONTINUOUS
70
0
71
3
72
8
73
4
74
2
42
0.0000001000
43
0.0000001000
44
0.0000000001
40
0.0000000000
40
0.0000000000
40
0.0000000000
40
0.0000000000
40
1.0000000000
40
1.0000000000
40
1.0000000000
40
1.0000000000
10
88.1866427973
20
107.9255140947
30
0.0000000000
10
88.1996076081
20
107.9117046492
30
0.0000000000
10
88.2129565108
20
107.8982555154
30
0.0000000000
10
88.2266662176
20
107.8851851479
30
0.0000000000
11
88.1866427973
21
107.9255140947
31
0.0000000000
11
88.2266662176
21
107.8851851479
31
0.0000000000
0
SPLINE
5
47C
100
AcDbEntity
8
0
100
AcDbSpline
62
7
6
CONTINUOUS
70
0
71
3
72
8
73
4
74
2
42
0.0000001000
43
0.0000001000
44
0.0000000001
40
0.0000000000
40
0.0000000000
40
0.0000000000
40
0.0000000000
40
1.0000000000
40
1.0000000000
40
1.0000000000
40
1.0000000000
10
88.2266662176
20
107.8851851479
30
0.0000000000
10
88.2349679194
20
107.8772705882
30
0.0000000000
10
88.2434019180
20
107.8694949116
30
0.0000000000
10
88.2519630428
20
107.8618622154
30
0.0000000000
11
88.2266662176
21
107.8851851479
31
0.0000000000
11
88.2519630428
21
107.8618622154
31
0.0000000000
0
SPLINE
5
47D
100
AcDbEntity
8
0
100
AcDbSpline
62
7
6
CONTINUOUS
70
0
71
3
72
8
73
4
74
2
42
0.0000001000
43
0.0000001000
44
0.0000000001
40
0.0000000000
40
0.0000000000
40
0.0000000000
40
0.0000000000
40
1.0000000000
40
1.0000000000
40
1.0000000000
40
1.0000000000
10
88.2519630428
20
107.8618622154
30
0.0000000000
10
88.2765601849
20
107.8399325607
30
0.0000000000
10
88.3022067314
20
107.8191831844
30
0.0000000000
10
88.3287800508
20
107.7997112668
30
0.0000000000
11
88.2519630428
21
107.8618622154
31
0.0000000000
11
88.3287800508
21
107.7997112668
31
0.0000000000
0
SPLINE
5
47E
100
AcDbEntity
8
0
100
AcDbSpline
62
7
6
CONTINUOUS
70
0
71
3
72
10
73
6
74
4
42
0.0000001000
43
0.0000001000
44
0.0000000001
40
0.0000000000
40
0.0000000000
40
0.0000000000
40
0.0000000000
40
0.4299075210
40
0.7987758358
40
1.0000000000
40
1.0000000000
40
1.0000000000
40
1.0000000000
10
88.3287800508
20
107.7997112668
30
0.0000000000
10
88.3853994469
20
107.7582227269
30
0.0000000000
10
88.4984166886
20
107.6919117346
30
0.0000000000
10
88.6519846063
20
107.6355425074
30
0.0000000000
10
88.7421855703
20
107.6129351856
30
0.0000000000
10
88.7742272608
20
107.6059020145
30
0.0000000000
11
88.3287800508
21
107.7997112668
31
0.0000000000
11
88.5098480411
21
107.6930099860
31
0.0000000000
11
88.6788400710
21
107.6300815892
31
0.0000000000
11
88.7742272608
21
107.6059020145
31
0.0000000000
0
SPLINE
5
47F
100
AcDbEntity
8
0
100
AcDbSpline
62
7
6
CONTINUOUS
70
0
71
3
72
10
73
6
74
4
42
0.0000001000
43
0.0000001000
44
0.0000000001
40
0.0000000000
40
0.0000000000
40
0.0000000000
40
0.0000000000
40
0.1956285730
40
0.5687308106
40
1.0000000000
40
1.0000000000
40
1.0000000000
40
1.0000000000
10
133.2634914789
20
107.6059179954
30
0.0000000000
10
133.2893396753
20
107.6115928007
30
0.0000000000
10
133.3640980560
20
107.6298828108
30
0.0000000000
10
133.4925968684
20
107.6731094961
30
0.0000000000
10
133.5900427292
20
107.7225303390
30
0.0000000000
10
133.6397448878
20
107.7531878796
30
0.0000000000
11
133.2634914789
21
107.6059179954
31
0.0000000000
11
133.3405711068
21
107.6249201079
31
0.0000000000
11
133.4838498876
21
107.6737472015
31
0.0000000000
11
133.6397448878
21
107.7531878796
31
0.0000000000
0
SPLINE
5
480
100
AcDbEntity
8
0
100
AcDbSpline
62
7
6
CONTINUOUS
70
0
71
3
72
8
73
4
74
2
42
0.0000001000
43
0.0000001000
44
0.0000000001
40
0.0000000000
40
0.0000000000
40
0.0000000000
40
0.0000000000
40
1.0000000000
40
1.0000000000
40
1.0000000000
40
1.0000000000
10
133.6397448878
20
107.7531878796
30
0.0000000000
10
133.6930795137
20
107.7860860173
30
0.0000000000
10
133.7434845812
20
107.8237746941
30
0.0000000000
10
133.7900434971
20
107.8657541701
30
0.0000000000
11
133.6397448878
21
107.7531878796
31
0.0000000000
11
133.7900434971
21
107.8657541701
31
0.0000000000
0
SPLINE
5
481
100
AcDbEntity
8
0
100
AcDbSpline
62
7
6
CONTINUOUS
70
0
71
3
72
8
73
4
74
2
42
0.0000001000
43
0.0000001000
44
0.0000000001
40
0.0000000000
40
0.0000000000
40
0.0000000000
40
0.0000000000
40
1.0000000000
40
1.0000000000
40
1.0000000000
40
1.0000000000
10
133.7900434971
20
107.8657541701
30
0.0000000000
10
133.7921398733
20
107.8676443510
30
0.0000000000
10
133.7942284520
20
107.8695432310
30
0.0000000000
10
133.7963091493
20
107.8714507643
30
0.0000000000
11
133.7900434971
21
107.8657541701
31
0.0000000000
11
133.7963091493
21
107.8714507643
31
0.0000000000
0
SPLINE
5
482
100
AcDbEntity
8
0
100
AcDbSpline
62
7
6
CONTINUOUS
70
0
71
3
72
8
73
4
74
2
42
0.0000001000
43
0.0000001000
44
0.0000000001
40
0.0000000000
40
0.0000000000
40
0.0000000000
40
0.0000000000
40
1.0000000000
40
1.0000000000
40
1.0000000000
40
1.0000000000
10
133.7963091493
20
107.8714507643
30
0.0000000000
10
133.8008092050
20
107.8755763072
30
0.0000000000
10
133.8052723958
20
107.8797423267
30
0.0000000000
10
133.8096980220
20
107.8839481009
30
0.0000000000
11
133.7963091493
21
107.8714507643
31
0.0000000000
11
133.8096980220
21
107.8839481009
31
0.0000000000
0
ENDSEC
0
SECTION
2
OBJECTS
0
DICTIONARY
5
483
100
AcDbDictionary
3
ACAD_GROUP
350
484
3
ACAD_MLINESTYLE
350
485
0
DICTIONARY
5
484
102
{ACAD_REACTORS
330
483
102
}
100
AcDbDictionary
0
DICTIONARY
5
485
102
{ACAD_REACTORS
330
483
102
}
100
AcDbDictionary
3
STANDARD
350
486
0
MLINESTYLE
5
486
102
{ACAD_REACTORS
330
485
102
}
100
AcDbMlineStyle
2
STANDARD
70
0
3

62
256
51
90.0
52
90.0
71
2
49
0.5
62
256
6
BYLAYER
49
-0.5
62
256
6
BYLAYER
0
ENDSEC
0
EOF
