999
DXF file: RM_M27_dxf.dxf
999
Pro/ENGINEER 2011490 by Parametric Technology Corporation
  0
SECTION
  2
HEADER
  9
$ACADVER
  1
AC1021
  9
$DWGCODEPAGE
  3
ANSI_1252
  9
$EXTMAX
 10
420.0
 20
297.0
 30
0.0
  9
$EXTMIN
 10
0.0
 20
0.0
 30
0.0
  9
$LIMMIN
 10
0.0
 20
0.0
  9
$LIMMAX
 10
420.0
 20
297.0
  9
$VIEWCTR
 10
210.0
 20
148.5
  9
$VIEWSIZE
 40
297.0
  9
$CLAYER
  8
0
  9
$LTSCALE
 40
23.1
  9
$CELTYPE
  6
BYLAYER
  9
$DIMSCALE
 40
1.0
  9
$DIMASZ
 40
3.5
  9
$DIMEXO
 40
2.625
  9
$DIMDLI
 40
15.96
  9
$DIMEXE
 40
7.56
  9
$DIMCEN
 40
3.78
  9
$DIMLFAC
 40
1.0
  9
$DIMBLK
  1
_FILLED
  9
$DIMTXT
 40
3.5
  9
$DIMTOL
 70
1
  9
$DIMLIM
 70
0
  9
$DIMTFAC
 40
1.0
  9
$DIMTP
 40
0.005
  9
$DIMTM
 40
0.005
  9
$PDMODE
 70
3
  9
$PDSIZE
 40
0.3125
  9
$HANDSEED
  5
3CB
  9
$TILEMODE
 70
1
  9
$MEASUREMENT
 70
1
  9
$INSUNITS
 70
4
  0
ENDSEC
  0
SECTION
  2
CLASSES
  0
CLASS
  1
ACDBDICTIONARYWDFLT
  2
AcDbDictionaryWithDefault
  3
AutoCAD 2000
 90
0
 91
1
280
0
281
0
  0
CLASS
  1
ACDBPLACEHOLDER
  2
AcDbPlaceHolder
  3
AutoCAD 2000
 90
0
 91
1
280
0
281
0
  0
CLASS
  1
LAYOUT
  2
AcDbLayout
  3
AutoCAD 2000
 90
0
 91
0
280
0
281
0
  0
ENDSEC
  0
SECTION
  2
TABLES
  0
TABLE
  2
VPORT
  5
8
100
AcDbSymbolTable
 70
2
  0
VPORT
  5
1F4
100
AcDbSymbolTableRecord
100
AcDbViewportTableRecord
  2
*ACTIVE
 70
0
 10
0.0
 20
0.0
 11
1.0
 21
1.0
 12
210.0
 22
148.5
 13
0.0
 23
0.0
 14
1.0
 24
1.0
 15
0.0
 25
0.0
 16
0.0
 26
0.0
 36
1.0
 17
0.0
 27
0.0
 37
0.0
 40
297.0
 41
1.4141414141
 42
50.0
 43
0.0
 44
0.0
 50
0.0
 51
0.0
 71
0
 72
100
 73
1
 74
1
 75
0
 76
0
 77
0
 78
0
  0
ENDTAB
  0
TABLE
  2
LTYPE
  5
5
100
AcDbSymbolTable
 70
6
  0
LTYPE
  5
14
100
AcDbSymbolTableRecord
100
AcDbLinetypeTableRecord
  2
BYBLOCK
 70
0
  3

 72
65
 73
0
 40
0.0
  0
LTYPE
  5
15
100
AcDbSymbolTableRecord
100
AcDbLinetypeTableRecord
  2
BYLAYER
 70
0
  3

 72
65
 73
0
 40
0.0
  0
LTYPE
  5
16
100
AcDbSymbolTableRecord
100
AcDbLinetypeTableRecord
  2
CONTINUOUS
 70
64
  3
Solid line
 72
65
 73
0
 40
0.0
  0
LTYPE
  5
1F5
100
AcDbSymbolTableRecord
100
AcDbLinetypeTableRecord
  2
CENTER
 70
64
  3
____ _ ____ _ ____ _ ____ _ ____ _ ____ _ ____
 72
65
 73
4
 40
0.6
 49
0.375
 74
0
 49
-0.075
 74
0
 49
0.075
 74
0
 49
-0.075
 74
0
  0
LTYPE
  5
1F6
100
AcDbSymbolTableRecord
100
AcDbLinetypeTableRecord
  2
HIDDEN
 70
64
  3
- - - - - - - - - - - - - - - - - - - -
 72
65
 73
2
 40
0.2
 49
0.1
 74
0
 49
-0.1
 74
0
  0
LTYPE
  5
1F7
100
AcDbSymbolTableRecord
100
AcDbLinetypeTableRecord
  2
PHANTOM
 70
64
  3
_____ _ _ _____ _ _ _____ _ _ _____
 72
65
 73
6
 40
0.8
 49
0.45
 74
0
 49
-0.05
 74
0
 49
0.1
 74
0
 49
-0.05
 74
0
 49
0.1
 74
0
 49
-0.05
 74
0
  0
LTYPE
  5
1F8
100
AcDbSymbolTableRecord
100
AcDbLinetypeTableRecord
  2
DOT
 70
64
  3
. . . . . . . . . . . . . . . . . . . .
 72
65
 73
2
 40
0.2
 49
0.1
 74
0
 49
-0.1
 74
0
  0
LTYPE
  5
1F9
100
AcDbSymbolTableRecord
100
AcDbLinetypeTableRecord
  2
DASHED
 70
64
  3
- - - - - - - - - - - - - - - - - - - -
 72
65
 73
2
 40
0.2
 49
0.1
 74
0
 49
-0.1
 74
0
  0
ENDTAB
  0
TABLE
  2
LAYER
  5
2
100
AcDbSymbolTable
 70
36
  0
LAYER
  5
10
100
AcDbSymbolTableRecord
100
AcDbLayerTableRecord
  2
0
 70
0
 62
7
  6
CONTINUOUS
370
-3
390
F
  0
LAYER
  5
1FA
100
AcDbSymbolTableRecord
100
AcDbLayerTableRecord
  2
DEFAULT_1
 70
0
 62
7
  6
CENTER
370
-3
390
F
  0
LAYER
  5
1FB
100
AcDbSymbolTableRecord
100
AcDbLayerTableRecord
  2
DEFAULT_2
 70
0
 62
8
  6
HIDDEN
370
-3
390
F
  0
LAYER
  5
1FC
100
AcDbSymbolTableRecord
100
AcDbLayerTableRecord
  2
DEFAULT_3
 70
0
 62
7
  6
PHANTOM
370
-3
390
F
  0
LAYER
  5
1FD
100
AcDbSymbolTableRecord
100
AcDbLayerTableRecord
  2
B-ACHSEN
 70
0
 62
7
  6
CONTINUOUS
370
-3
390
F
  0
LAYER
  5
1FE
100
AcDbSymbolTableRecord
100
AcDbLayerTableRecord
  2
B-EBENEN
 70
0
 62
7
  6
CONTINUOUS
370
-3
390
F
  0
LAYER
  5
1FF
100
AcDbSymbolTableRecord
100
AcDbLayerTableRecord
  2
B-KOORSYS
 70
0
 62
7
  6
CONTINUOUS
370
-3
390
F
  0
LAYER
  5
200
100
AcDbSymbolTableRecord
100
AcDbLayerTableRecord
  2
B-PUNKTE
 70
0
 62
7
  6
CONTINUOUS
370
-3
390
F
  0
LAYER
  5
201
100
AcDbSymbolTableRecord
100
AcDbLayerTableRecord
  2
BEMASSUNG
 70
0
 62
7
  6
CONTINUOUS
370
-3
390
F
  0
LAYER
  5
202
100
AcDbSymbolTableRecord
100
AcDbLayerTableRecord
  2
BOHRUNGEN
 70
0
 62
7
  6
CONTINUOUS
370
-3
390
F
  0
LAYER
  5
203
100
AcDbSymbolTableRecord
100
AcDbLayerTableRecord
  2
NOTIZEN
 70
0
 62
7
  6
CONTINUOUS
370
-3
390
F
  0
LAYER
  5
204
100
AcDbSymbolTableRecord
100
AcDbLayerTableRecord
  2
RUNDUNGEN
 70
0
 62
7
  6
CONTINUOUS
370
-3
390
F
  0
LAYER
  5
205
100
AcDbSymbolTableRecord
100
AcDbLayerTableRecord
  2
VERBUNDFLAECHEN
 70
0
 62
7
  6
CONTINUOUS
370
-3
390
F
  0
ENDTAB
  0
TABLE
  2
STYLE
  5
3
100
AcDbSymbolTable
 70
1
  0
STYLE
  5
11
100
AcDbSymbolTableRecord
100
AcDbTextStyleTableRecord
  2
STANDARD
 70
0
 40
0.0
 41
0.7
 50
0.0
 71
0
 42
0.2
  3
txt
  4

  0
STYLE
  5
206
100
AcDbSymbolTableRecord
100
AcDbTextStyleTableRecord
  2
TEXTSTYLE_1
 70
0
 40
0.0
 41
0.8
 50
0.0
 71
0
 42
0.2
  3
gdt
  4

  0
ENDTAB
  0
TABLE
  2
VIEW
  5
6
100
AcDbSymbolTable
 70
0
  0
ENDTAB
  0
TABLE
  2
UCS
  5
7
100
AcDbSymbolTable
 70
0
  0
ENDTAB
  0
TABLE
  2
APPID
  5
9
100
AcDbSymbolTable
 70
1
  0
APPID
  5
207
100
AcDbSymbolTableRecord
100
AcDbRegAppTableRecord
  2
ACAD
 70
0
  0
ENDTAB
  0
TABLE
  2
BLOCK_RECORD
  5
1
100
AcDbSymbolTable
 70
0
  0
BLOCK_RECORD
  5
208
100
AcDbSymbolTableRecord
100
AcDbBlockTableRecord
  2
*Model_Space
  0
BLOCK_RECORD
  5
209
100
AcDbSymbolTableRecord
100
AcDbBlockTableRecord
  2
*Paper_Space
  0
ENDTAB
  0
TABLE
  2
DIMSTYLE
  5
A
100
AcDbSymbolTable
 70
1
100
AcDbDimStyleTable
 71
0
  0
DIMSTYLE
105
20A
100
AcDbSymbolTableRecord
100
AcDbDimStyleTableRecord
  2
STANDARD
 70
0
  3

  4

 40
1.0
 41
3.5
 42
0.0625
 43
0.38
 44
0.18
 45
0.0
 46
0.0
 47
0.005
 48
0.005
140
3.5
141
0.09
142
0.0
143
25.4
144
1.0
145
0.0
146
1.0
147
0.09
 71
1.0
 72
0.0
 73
0
 74
0
 75
0
 76
0
 77
1
 78
8
170
0
171
2
172
0
173
0
174
0
175
0
176
0
177
0
178
5
270
2
271
3
272
3
273
2
274
2
275
0
280
0
281
0
282
0
283
1
284
8
285
0
286
0
287
3
288
0
340
11
  0
ENDTAB
  0
ENDSEC
  0
SECTION
  2
BLOCKS
  0
BLOCK
  5
20
100
AcDbEntity
  8
0
100
AcDbBlockBegin
  2
*Model_Space
 70
0
 10
0.0
 20
0.0
 30
0.0
  3
*Model_Space
  1

  0
ENDBLK
  5
21
100
AcDbEntity
  8
0
100
AcDbBlockEnd
  0
BLOCK
  5
1C
100
AcDbEntity
  8
0
100
AcDbBlockBegin
  2
*Paper_Space
 70
0
 10
0.0
 20
0.0
 30
0.0
  3
*Paper_Space
  1

  0
ENDBLK
  5
1D
100
AcDbEntity
  8
0
100
AcDbBlockEnd
  0
ENDSEC
  0
SECTION
  2
ENTITIES
  0
MTEXT
  5
20B
100
AcDbEntity
  8
0
100
AcDbMText
 62
5
  6
CONTINUOUS
  7
STANDARD
 71
1
 72
1
 10
69.1453671797
 20
87.5349957734
 30
0.0
 11
1.0
 21
0.0
 31
0.0
 44
0.9
  1
RUD
 40
6.0
 41
14.8571428571
  0
MTEXT
  5
20C
100
AcDbEntity
  8
0
100
AcDbMText
 62
5
  6
CONTINUOUS
  7
STANDARD
 71
1
 72
1
 10
59.9584597731
 20
76.6711132053
 30
0.0
 11
1.0
 21
0.0
 31
0.0
 44
0.9
  1
RM M27
 40
6.0
 41
30.2857142857
  0
MTEXT
  5
20D
100
AcDbEntity
  8
0
100
AcDbMText
 62
5
  6
CONTINUOUS
  7
STANDARD
 71
1
 72
1
 10
286.1556242437
 20
185.1396661679
 30
0.0
 11
0.0
 21
1.0
 31
0.0
 44
0.9
  1
RUD
 40
6.0
 41
14.8571428571
  0
MTEXT
  5
20E
100
AcDbEntity
  8
0
100
AcDbMText
 62
5
  6
CONTINUOUS
  7
STANDARD
 71
1
 72
1
 10
298.9741274238
 20
185.5974698529
 30
0.0
 11
0.0
 21
1.0
 31
0.0
 44
0.9
  1
RM M27
 40
6.0
 41
30.2857142857
  0
LINE
  5
20F
100
AcDbEntity
  8
0
100
AcDbLine
 62
7
  6
CONTINUOUS
 10
0.0
 20
0.0
 11
0.0
 21
297.0
  0
LINE
  5
210
100
AcDbEntity
  8
0
100
AcDbLine
 62
7
  6
CONTINUOUS
 10
0.0
 20
0.0
 11
420.0
 21
0.0
  0
LINE
  5
211
100
AcDbEntity
  8
0
100
AcDbLine
 62
7
  6
CONTINUOUS
 10
0.0
 20
297.0
 11
420.0
 21
297.0
  0
LINE
  5
212
100
AcDbEntity
  8
0
100
AcDbLine
 62
7
  6
CONTINUOUS
 10
420.0
 20
0.0
 11
420.0
 21
297.0
  0
LINE
  5
213
100
AcDbEntity
  8
B-ACHSEN
100
AcDbLine
 62
7
  6
CONTINUOUS
 10
81.5188218154
 20
157.0657358977
 11
81.0188218154
 21
157.5657358977
  0
LINE
  5
214
100
AcDbEntity
  8
RUNDUNGEN
100
AcDbLine
 62
7
  6
CONTINUOUS
 10
55.5269907391
 20
214.9791530595
 11
70.4271815105
 21
250.9513957018
  0
LINE
  5
215
100
AcDbEntity
  8
RUNDUNGEN
100
AcDbLine
 62
7
  6
CONTINUOUS
 10
73.1331620112
 20
253.6573762025
 11
109.1054046536
 21
268.557566974
  0
LINE
  5
216
100
AcDbEntity
  8
B-ACHSEN
100
AcDbLine
 62
7
  6
CONTINUOUS
 10
81.5188218154
 20
157.0657358977
 11
140.5188218154
 21
157.0657358977
  0
LINE
  5
217
100
AcDbEntity
  8
B-ACHSEN
100
AcDbLine
 62
7
  6
CONTINUOUS
 10
81.0188218154
 20
157.5657358977
 11
141.0188218154
 21
157.5657358977
  0
LINE
  5
218
100
AcDbEntity
  8
DEFAULT_2
100
AcDbLine
 62
8
  6
HIDDEN
 10
99.0188218154
 20
159.0657358977
 11
123.0188218154
 21
159.0657358977
  0
LINE
  5
219
100
AcDbEntity
  8
0
100
AcDbLine
 62
7
  6
CONTINUOUS
 10
72.9330286369
 20
243.8450630175
 11
71.6143110783
 21
240.7383591371
  0
LINE
  5
21A
100
AcDbEntity
  8
0
100
AcDbLine
 62
7
  6
CONTINUOUS
 10
70.7717965235
 20
238.75351923
 11
70.6252729093
 21
238.4083312267
  0
LINE
  5
21B
100
AcDbEntity
  8
0
100
AcDbLine
 62
7
  6
CONTINUOUS
 10
69.7094965474
 20
236.2508973181
 11
69.3798171578
 21
235.474221348
  0
LINE
  5
21C
100
AcDbEntity
  8
0
100
AcDbLine
 62
7
  6
CONTINUOUS
 10
68.2808858589
 20
232.8853014476
 11
67.9512064692
 21
232.1086254775
  0
LINE
  5
21D
100
AcDbEntity
  8
0
100
AcDbLine
 62
7
  6
CONTINUOUS
 10
65.8998681145
 20
227.2759751615
 11
65.5701887249
 21
226.4992991914
  0
LINE
  5
21E
100
AcDbEntity
  8
0
100
AcDbLine
 62
7
  6
CONTINUOUS
 10
64.471257426
 20
223.9103792911
 11
64.1415779315
 21
223.1337030741
  0
LINE
  5
21F
100
AcDbEntity
  8
0
100
AcDbLine
 62
7
  6
CONTINUOUS
 10
63.335695014
 20
221.2351618961
 11
62.4565499749
 21
219.1640259759
  0
LINE
  5
220
100
AcDbEntity
  8
0
100
AcDbLine
 62
7
  6
CONTINUOUS
 10
71.0797162162
 20
239.2338927873
 11
70.7717965235
 21
238.75351923
  0
LINE
  5
221
100
AcDbEntity
  8
0
100
AcDbLine
 62
7
  6
CONTINUOUS
 10
71.1758332037
 20
238.4801711031
 11
71.4471215737
 21
238.874246672
  0
LINE
  5
222
100
AcDbEntity
  8
0
100
AcDbLine
 62
7
  6
CONTINUOUS
 10
87.545691103
 20
255.55419623
 11
87.0937011177
 21
255.1703992222
  0
LINE
  5
223
100
AcDbEntity
  8
0
100
AcDbLine
 62
7
  6
CONTINUOUS
 10
87.834366272
 20
255.7208629166
 11
87.545691103
 21
255.55419623
  0
LINE
  5
224
100
AcDbEntity
  8
0
100
AcDbLine
 62
7
  6
CONTINUOUS
 10
87.7394798033
 20
255.0518778475
 11
88.0281548691
 21
255.2185444744
  0
LINE
  5
225
100
AcDbEntity
  8
0
100
AcDbLine
 62
7
  6
CONTINUOUS
 10
90.8047828645
 20
256.5759504587
 11
90.4439390839
 21
256.3676172049
  0
LINE
  5
226
100
AcDbEntity
  8
0
100
AcDbLine
 62
7
  6
CONTINUOUS
 10
86.9760969144
 20
253.8740957222
 11
87.3369408305
 21
254.0824290542
  0
LINE
  5
227
100
AcDbEntity
  8
0
100
AcDbLine
 62
7
  6
CONTINUOUS
 10
92.0241713602
 20
256.2972406455
 11
91.2303148777
 21
255.8389073917
  0
LINE
  5
228
100
AcDbEntity
  8
0
100
AcDbLine
 62
7
  6
CONTINUOUS
 10
90.8694710971
 20
255.6305741378
 11
90.2921207591
 21
255.2972407647
  0
LINE
  5
229
100
AcDbEntity
  8
0
100
AcDbLine
 62
7
  6
CONTINUOUS
 10
88.3205704569
 20
255.8787325655
 11
87.834366272
 21
255.7208629166
  0
LINE
  5
22A
100
AcDbEntity
  8
RUNDUNGEN
100
AcDbLine
 62
7
  6
CONTINUOUS
 10
70.5804926129
 20
174.8099503508
 11
55.5269907391
 21
211.1523187358
  0
LINE
  5
22B
100
AcDbEntity
  8
0
100
AcDbLine
 62
7
  6
CONTINUOUS
 10
65.6340529021
 20
220.768798378
 11
65.6043101745
 21
221.1888084612
  0
LINE
  5
22C
100
AcDbEntity
  8
0
100
AcDbLine
 62
7
  6
CONTINUOUS
 10
65.1567546244
 20
220.8695529971
 11
65.1349949274
 21
220.5732505843
  0
LINE
  5
22D
100
AcDbEntity
  8
0
100
AcDbLine
 62
7
  6
CONTINUOUS
 10
70.934287247
 20
237.6660847103
 11
71.0293087511
 21
238.1349811247
  0
LINE
  5
22E
100
AcDbEntity
  8
0
100
AcDbLine
 62
7
  6
CONTINUOUS
 10
70.6252729093
 20
238.4083312267
 11
70.4569887597
 21
237.7668388355
  0
LINE
  5
22F
100
AcDbEntity
  8
0
100
AcDbLine
 62
7
  6
CONTINUOUS
 10
63.1170033992
 20
219.4947578422
 11
63.8129931869
 21
221.1344070302
  0
LINE
  5
230
100
AcDbEntity
  8
0
100
AcDbLine
 62
7
  6
CONTINUOUS
 10
71.0293087511
 20
238.1349811247
 11
71.1758332037
 21
238.4801711031
  0
LINE
  5
231
100
AcDbEntity
  8
0
100
AcDbLine
 62
7
  6
CONTINUOUS
 10
72.0549782428
 20
240.5513070234
 11
73.1539095417
 21
243.1402269237
  0
LINE
  5
232
100
AcDbEntity
  8
0
100
AcDbLine
 62
7
  6
CONTINUOUS
 10
71.0086436991
 20
236.6160586381
 11
71.1917986361
 21
237.0475446297
  0
LINE
  5
233
100
AcDbEntity
  8
0
100
AcDbLine
 62
7
  6
CONTINUOUS
 10
65.1349949274
 20
220.5732505843
 11
64.4390051397
 21
218.9336013964
  0
LINE
  5
234
100
AcDbEntity
  8
0
100
AcDbLine
 62
7
  6
CONTINUOUS
 10
64.9678057372
 20
218.70913886
 11
65.5905334557
 21
220.176193429
  0
LINE
  5
235
100
AcDbEntity
  8
0
100
AcDbLine
 62
7
  6
CONTINUOUS
 10
75.0228667872
 20
238.4767412418
 11
73.9971981339
 21
236.0604173183
  0
LINE
  5
236
100
AcDbEntity
  8
0
100
AcDbLine
 62
7
  6
CONTINUOUS
 10
66.5988218154
 20
217.4057358977
 11
66.8186080752
 21
217.9235198777
  0
LINE
  5
237
100
AcDbEntity
  8
0
100
AcDbLine
 62
7
  6
CONTINUOUS
 10
67.7343841226
 20
220.0809530457
 11
67.9908014956
 21
220.6850345204
  0
LINE
  5
238
100
AcDbEntity
  8
0
100
AcDbLine
 62
7
  6
CONTINUOUS
 10
68.2838497721
 20
221.3754129959
 11
68.5036361366
 21
221.8931972228
  0
LINE
  5
239
100
AcDbEntity
  8
0
100
AcDbLine
 62
7
  6
CONTINUOUS
 10
69.0164706729
 20
223.1013596784
 11
69.3095189494
 21
223.7917381539
  0
LINE
  5
23A
100
AcDbEntity
  8
0
100
AcDbLine
 62
7
  6
CONTINUOUS
 10
69.8223536953
 20
224.9999011032
 11
70.0421399551
 21
225.5176850833
  0
LINE
  5
23B
100
AcDbEntity
  8
0
100
AcDbLine
 62
7
  6
CONTINUOUS
 10
72.0934783098
 20
230.3503353993
 11
72.3132645695
 21
230.8681193794
  0
LINE
  5
23C
100
AcDbEntity
  8
0
100
AcDbLine
 62
7
  6
CONTINUOUS
 10
72.8260993154
 20
232.0762823288
 11
73.1191473823
 21
232.7666603105
  0
LINE
  5
23D
100
AcDbEntity
  8
0
100
AcDbLine
 62
7
  6
CONTINUOUS
 10
73.6319821282
 20
233.9748232598
 11
73.851768388
 21
234.4926072399
  0
LINE
  5
23E
100
AcDbEntity
  8
0
100
AcDbLine
 62
7
  6
CONTINUOUS
 10
74.1448164549
 20
235.1829852216
 11
75.4635340135
 21
238.289689102
  0
LINE
  5
23F
100
AcDbEntity
  8
0
100
AcDbLine
 62
7
  6
CONTINUOUS
 10
76.1228927928
 20
239.8430410422
 11
76.3426790526
 21
240.3608250222
  0
LINE
  5
240
100
AcDbEntity
  8
0
100
AcDbLine
 62
7
  6
CONTINUOUS
 10
63.6069836983
 20
221.6292382058
 11
63.335695014
 21
221.2351618961
  0
LINE
  5
241
100
AcDbEntity
  8
0
100
AcDbLine
 62
7
  6
CONTINUOUS
 10
87.4318273509
 20
254.7514141531
 11
87.7394798033
 21
255.0518778475
  0
LINE
  5
242
100
AcDbEntity
  8
0
100
AcDbLine
 62
7
  6
CONTINUOUS
 10
71.4025075347
 20
239.5042619203
 11
71.0797162162
 21
239.2338927873
  0
LINE
  5
243
100
AcDbEntity
  8
0
100
AcDbLine
 62
7
  6
CONTINUOUS
 10
71.4471215737
 20
238.874246672
 11
71.7332815694
 21
239.0583178166
  0
LINE
  5
244
100
AcDbEntity
  8
0
100
AcDbLine
 62
7
  6
CONTINUOUS
 10
90.5048866912
 20
254.9287193602
 11
91.0822370292
 21
255.2620527333
  0
LINE
  5
245
100
AcDbEntity
  8
0
100
AcDbLine
 62
7
  6
CONTINUOUS
 10
91.4430808098
 20
255.4703859872
 11
92.2369372923
 21
255.928719241
  0
LINE
  5
246
100
AcDbEntity
  8
0
100
AcDbLine
 62
7
  6
CONTINUOUS
 10
91.1509405744
 20
252.4763877178
 11
89.1302146494
 21
251.3097210611
  0
LINE
  5
247
100
AcDbEntity
  8
0
100
AcDbLine
 62
7
  6
CONTINUOUS
 10
88.8188218154
 20
250.5157358977
 11
91.4168980267
 21
252.0157358977
  0
LINE
  5
248
100
AcDbEntity
  8
0
100
AcDbLine
 62
7
  6
CONTINUOUS
 10
107.56882172
 20
260.2902039143
 11
107.26882172
 21
260.162544355
  0
LINE
  5
249
100
AcDbEntity
  8
0
100
AcDbLine
 62
7
  6
CONTINUOUS
 10
93.0957573466
 20
253.1078662568
 11
93.5819615362
 21
253.2657358977
  0
LINE
  5
24A
100
AcDbEntity
  8
0
100
AcDbLine
 62
7
  6
CONTINUOUS
 10
111.7688220061
 20
257.6093529018
 11
111.3688218154
 21
257.4816933426
  0
LINE
  5
24B
100
AcDbEntity
  8
0
100
AcDbLine
 62
7
  6
CONTINUOUS
 10
70.4569887597
 20
237.7668388355
 11
70.4867311728
 21
237.3468280116
  0
LINE
  5
24C
100
AcDbEntity
  8
0
100
AcDbLine
 62
7
  6
CONTINUOUS
 10
87.3217039659
 20
254.4421534509
 11
87.4318273509
 21
254.7514141531
  0
LINE
  5
24D
100
AcDbEntity
  8
0
100
AcDbLine
 62
7
  6
CONTINUOUS
 10
87.0937011177
 20
255.1703992222
 11
86.9114089663
 21
254.8194718632
  0
LINE
  5
24E
100
AcDbEntity
  8
0
100
AcDbLine
 62
7
  6
CONTINUOUS
 10
63.8129931869
 20
221.1344070302
 11
64.0110197497
 21
221.3558885975
  0
LINE
  5
24F
100
AcDbEntity
  8
0
100
AcDbLine
 62
7
  6
CONTINUOUS
 10
107.6688219108
 20
259.651906118
 11
108.0688218154
 21
259.9072252365
  0
LINE
  5
250
100
AcDbEntity
  8
0
100
AcDbLine
 62
7
  6
CONTINUOUS
 10
111.8688216247
 20
256.8433954681
 11
112.2688218154
 21
257.0987146201
  0
LINE
  5
251
100
AcDbEntity
  8
0
100
AcDbLine
 62
7
  6
CONTINUOUS
 10
71.901565719
 20
239.6998102078
 11
71.4025075347
 21
239.5042619203
  0
LINE
  5
252
100
AcDbEntity
  8
0
100
AcDbLine
 62
7
  6
CONTINUOUS
 10
116.5688214339
 20
257.6093529018
 11
116.1688218154
 21
257.4816933426
  0
LINE
  5
253
100
AcDbEntity
  8
RUNDUNGEN
100
AcDbLine
 62
7
  6
CONTINUOUS
 10
149.1474521866
 20
173.2666589317
 11
146.639104186
 21
173.2666589317
  0
LINE
  5
254
100
AcDbEntity
  8
RUNDUNGEN
100
AcDbLine
 62
7
  6
CONTINUOUS
 10
75.3985394448
 20
173.2666589317
 11
72.8901914442
 21
173.2666589317
  0
LINE
  5
255
100
AcDbEntity
  8
0
100
AcDbLine
 62
7
  6
CONTINUOUS
 10
65.0537498801
 20
221.1169685849
 11
65.1567546244
 21
220.8695529971
  0
LINE
  5
256
100
AcDbEntity
  8
0
100
AcDbLine
 62
7
  6
CONTINUOUS
 10
107.7688218154
 20
260.5455230328
 11
107.56882172
 21
260.2902039143
  0
LINE
  5
257
100
AcDbEntity
  8
0
100
AcDbLine
 62
7
  6
CONTINUOUS
 10
112.0688220061
 20
257.8646721097
 11
111.7688220061
 21
257.6093529018
  0
LINE
  5
258
100
AcDbEntity
  8
0
100
AcDbLine
 62
7
  6
CONTINUOUS
 10
116.6688221969
 20
256.8433954681
 11
117.0688218154
 21
257.0987146201
  0
LINE
  5
259
100
AcDbEntity
  8
0
100
AcDbLine
 62
7
  6
CONTINUOUS
 10
65.6043101745
 20
221.1888084612
 11
65.3616695728
 21
221.5973421422
  0
LINE
  5
25A
100
AcDbEntity
  8
0
100
AcDbLine
 62
7
  6
CONTINUOUS
 10
71.0006609829
 20
237.3323718748
 11
70.934287247
 21
237.6660847103
  0
LINE
  5
25B
100
AcDbEntity
  8
B-ACHSEN
100
AcDbLine
 62
7
  6
CONTINUOUS
 10
81.0188218154
 20
157.5657358977
 11
81.0188218154
 21
165.2666589317
  0
LINE
  5
25C
100
AcDbEntity
  8
0
100
AcDbLine
 62
7
  6
CONTINUOUS
 10
86.9114089663
 20
254.8194718632
 11
86.8354997681
 21
254.2842837945
  0
LINE
  5
25D
100
AcDbEntity
  8
0
100
AcDbLine
 62
7
  6
CONTINUOUS
 10
89.2438030491
 20
254.4463133163
 11
88.552864363
 21
250.9763877178
  0
LINE
  5
25E
100
AcDbEntity
  8
0
100
AcDbLine
 62
7
  6
CONTINUOUS
 10
89.1302146494
 20
251.3097210611
 11
89.7642214852
 21
254.378255636
  0
LINE
  5
25F
100
AcDbEntity
  8
0
100
AcDbLine
 62
7
  6
CONTINUOUS
 10
108.0688218154
 20
259.9072252365
 11
108.3688218154
 21
260.4178634735
  0
LINE
  5
260
100
AcDbEntity
  8
0
100
AcDbLine
 62
7
  6
CONTINUOUS
 10
112.2688218154
 20
257.0987146201
 11
112.6688220061
 21
257.6093529018
  0
LINE
  5
261
100
AcDbEntity
  8
0
100
AcDbLine
 62
7
  6
CONTINUOUS
 10
116.8688214339
 20
257.8646721097
 11
116.5688214339
 21
257.6093529018
  0
LINE
  5
262
100
AcDbEntity
  8
0
100
AcDbLine
 62
7
  6
CONTINUOUS
 10
64.0179081353
 20
221.8621961753
 11
63.6069836983
 21
221.6292382058
  0
LINE
  5
263
100
AcDbEntity
  8
DEFAULT_2
100
AcDbLine
 62
8
  6
HIDDEN
 10
123.0188218154
 20
159.0657358977
 11
125.0188218154
 21
157.0657358977
  0
LINE
  5
264
100
AcDbEntity
  8
0
100
AcDbLine
 62
7
  6
CONTINUOUS
 10
70.4867311728
 20
237.3468280116
 11
70.6927412902
 21
236.8519983174
  0
LINE
  5
265
100
AcDbEntity
  8
0
100
AcDbLine
 62
7
  6
CONTINUOUS
 10
72.5264827124
 20
238.7216239072
 11
73.7041492286
 21
235.3700373614
  0
LINE
  5
266
100
AcDbEntity
  8
0
100
AcDbLine
 62
7
  6
CONTINUOUS
 10
73.9971981339
 20
236.0604173183
 11
72.9740379482
 21
239.0408786306
  0
LINE
  5
267
100
AcDbEntity
  8
0
100
AcDbLine
 62
7
  6
CONTINUOUS
 10
87.3369408305
 20
254.0824290542
 11
87.3217039659
 21
254.4421534509
  0
LINE
  5
268
100
AcDbEntity
  8
0
100
AcDbLine
 62
7
  6
CONTINUOUS
 10
117.0688218154
 20
257.0987146201
 11
117.4688214339
 21
257.6093529018
  0
LINE
  5
269
100
AcDbEntity
  8
0
100
AcDbLine
 62
7
  6
CONTINUOUS
 10
64.0110197497
 20
221.3558885975
 11
64.260548737
 21
221.4536624943
  0
LINE
  5
26A
100
AcDbEntity
  8
0
100
AcDbLine
 62
7
  6
CONTINUOUS
 10
64.8259805897
 20
221.3154971008
 11
65.0537498801
 21
221.1169685849
  0
LINE
  5
26B
100
AcDbEntity
  8
0
100
AcDbLine
 62
7
  6
CONTINUOUS
 10
65.3616695728
 20
221.5973421422
 11
65.1339002824
 21
221.7958706581
  0
LINE
  5
26C
100
AcDbEntity
  8
0
100
AcDbLine
 62
7
  6
CONTINUOUS
 10
65.5701887249
 20
226.4992991914
 11
68.7223276897
 21
223.6336013029
  0
LINE
  5
26D
100
AcDbEntity
  8
0
100
AcDbLine
 62
7
  6
CONTINUOUS
 10
69.3095189494
 20
223.7917381539
 11
66.5614161838
 21
226.3840869541
  0
LINE
  5
26E
100
AcDbEntity
  8
0
100
AcDbLine
 62
7
  6
CONTINUOUS
 10
89.7642214852
 20
254.378255636
 11
89.7489846723
 21
254.7379800625
  0
LINE
  5
26F
100
AcDbEntity
  8
0
100
AcDbLine
 62
7
  6
CONTINUOUS
 10
107.86882172
 20
260.9285017105
 11
107.7688218154
 21
260.5455230328
  0
LINE
  5
270
100
AcDbEntity
  8
0
100
AcDbLine
 62
7
  6
CONTINUOUS
 10
112.2688218154
 20
258.2476507875
 11
112.0688220061
 21
257.8646721097
  0
LINE
  5
271
100
AcDbEntity
  8
0
100
AcDbLine
 62
7
  6
CONTINUOUS
 10
117.0688218154
 20
258.2476507875
 11
116.8688214339
 21
257.8646721097
  0
LINE
  5
272
100
AcDbEntity
  8
0
100
AcDbLine
 62
7
  6
CONTINUOUS
 10
71.1917986361
 20
237.0475446297
 11
71.0006609829
 21
237.3323718748
  0
LINE
  5
273
100
AcDbEntity
  8
0
100
AcDbLine
 62
7
  6
CONTINUOUS
 10
72.9740379482
 20
239.0408786306
 11
72.782900295
 21
239.3257058756
  0
LINE
  5
274
100
AcDbEntity
  8
0
100
AcDbLine
 62
7
  6
CONTINUOUS
 10
89.1753747531
 20
254.8981680939
 11
89.2438030491
 21
254.4463133163
  0
LINE
  5
275
100
AcDbEntity
  8
DEFAULT_2
100
AcDbLine
 62
8
  6
HIDDEN
 10
99.0188218154
 20
185.5702817279
 11
99.0188218154
 21
159.0657358977
  0
LINE
  5
276
100
AcDbEntity
  8
0
100
AcDbLine
 62
7
  6
CONTINUOUS
 10
108.3688218154
 20
260.4178634735
 11
108.46882172
 21
260.8008421513
  0
LINE
  5
277
100
AcDbEntity
  8
0
100
AcDbLine
 62
7
  6
CONTINUOUS
 10
112.6688220061
 20
257.6093529018
 11
112.8688218154
 21
258.1199912282
  0
LINE
  5
278
100
AcDbEntity
  8
0
100
AcDbLine
 62
7
  6
CONTINUOUS
 10
117.4688214339
 20
257.6093529018
 11
117.6688218154
 21
258.1199912282
  0
LINE
  5
279
100
AcDbEntity
  8
0
100
AcDbLine
 62
7
  6
CONTINUOUS
 10
62.4565499749
 20
219.1640259759
 11
66.5988218154
 21
217.4057358977
  0
LINE
  5
27A
100
AcDbEntity
  8
0
100
AcDbLine
 62
7
  6
CONTINUOUS
 10
66.8186080752
 20
217.9235198777
 11
64.9678057372
 21
218.70913886
  0
LINE
  5
27B
100
AcDbEntity
  8
0
100
AcDbLine
 62
7
  6
CONTINUOUS
 10
64.4390051397
 20
218.9336013964
 11
63.1170033992
 21
219.4947578422
  0
LINE
  5
27C
100
AcDbEntity
  8
0
100
AcDbLine
 62
7
  6
CONTINUOUS
 10
64.5615800441
 20
221.4277284738
 11
64.8259805897
 21
221.3154971008
  0
LINE
  5
27D
100
AcDbEntity
  8
0
100
AcDbLine
 62
7
  6
CONTINUOUS
 10
69.3798171578
 20
235.474221348
 11
72.5319561226
 21
232.6085234595
  0
LINE
  5
27E
100
AcDbEntity
  8
0
100
AcDbLine
 62
7
  6
CONTINUOUS
 10
73.1191473823
 20
232.7666603105
 11
70.3710446168
 21
235.3590091106
  0
LINE
  5
27F
100
AcDbEntity
  8
0
100
AcDbLine
 62
7
  6
CONTINUOUS
 10
72.2472107879
 20
239.0438595997
 11
72.5264827124
 21
238.7216239072
  0
LINE
  5
280
100
AcDbEntity
  8
0
100
AcDbLine
 62
7
  6
CONTINUOUS
 10
104.7688218154
 20
262.7157358977
 11
104.7688218154
 21
256.7157358977
  0
LINE
  5
281
100
AcDbEntity
  8
0
100
AcDbLine
 62
7
  6
CONTINUOUS
 10
105.3688218154
 20
256.7157358977
 11
105.3688218154
 21
259.3965869995
  0
LINE
  5
282
100
AcDbEntity
  8
0
100
AcDbLine
 62
7
  6
CONTINUOUS
 10
105.3688218154
 20
260.162544355
 11
105.3688218154
 21
262.0774381014
  0
LINE
  5
283
100
AcDbEntity
  8
0
100
AcDbLine
 62
7
  6
CONTINUOUS
 10
112.8688218154
 20
258.1199912282
 11
112.9688220061
 21
258.7582890245
  0
LINE
  5
284
100
AcDbEntity
  8
0
100
AcDbLine
 62
7
  6
CONTINUOUS
 10
112.3688220061
 20
258.7582890245
 11
112.2688218154
 21
258.2476507875
  0
LINE
  5
285
100
AcDbEntity
  8
0
100
AcDbLine
 62
7
  6
CONTINUOUS
 10
65.1339002824
 20
221.7958706581
 11
64.7813663039
 21
221.9455124539
  0
LINE
  5
286
100
AcDbEntity
  8
0
100
AcDbLine
 62
7
  6
CONTINUOUS
 10
64.1415779315
 20
223.1337030741
 11
68.2838497721
 21
221.3754129959
  0
LINE
  5
287
100
AcDbEntity
  8
0
100
AcDbLine
 62
7
  6
CONTINUOUS
 10
68.5036361366
 20
221.8931972228
 11
65.2426986252
 21
223.2773830737
  0
LINE
  5
288
100
AcDbEntity
  8
0
100
AcDbLine
 62
7
  6
CONTINUOUS
 10
66.5614161838
 20
226.3840869541
 11
69.8223536953
 21
224.9999011032
  0
LINE
  5
289
100
AcDbEntity
  8
0
100
AcDbLine
 62
7
  6
CONTINUOUS
 10
70.6927412902
 20
236.8519983174
 11
71.0086436991
 21
236.6160586381
  0
LINE
  5
28A
100
AcDbEntity
  8
0
100
AcDbLine
 62
7
  6
CONTINUOUS
 10
73.1539095417
 20
243.1402269237
 11
76.1228927928
 21
239.8430410422
  0
LINE
  5
28B
100
AcDbEntity
  8
0
100
AcDbLine
 62
7
  6
CONTINUOUS
 10
76.3426790526
 20
240.3608250222
 11
73.3736958015
 21
243.6580109038
  0
LINE
  5
28C
100
AcDbEntity
  8
0
100
AcDbLine
 62
7
  6
CONTINUOUS
 10
86.8354997681
 20
254.2842837945
 11
86.9760969144
 21
253.8740957222
  0
LINE
  5
28D
100
AcDbEntity
  8
0
100
AcDbLine
 62
7
  6
CONTINUOUS
 10
89.7489846723
 20
254.7379800625
 11
89.608387455
 21
255.1481680939
  0
LINE
  5
28E
100
AcDbEntity
  8
0
100
AcDbLine
 62
7
  6
CONTINUOUS
 10
107.86882172
 20
261.3114807459
 11
107.86882172
 21
260.9285017105
  0
LINE
  5
28F
100
AcDbEntity
  8
0
100
AcDbLine
 62
7
  6
CONTINUOUS
 10
108.46882172
 20
260.8008421513
 11
108.46882172
 21
261.3114807459
  0
LINE
  5
290
100
AcDbEntity
  8
0
100
AcDbLine
 62
7
  6
CONTINUOUS
 10
109.36882172
 20
262.7157358977
 11
109.36882172
 21
258.7582890245
  0
LINE
  5
291
100
AcDbEntity
  8
0
100
AcDbLine
 62
7
  6
CONTINUOUS
 10
109.9688220061
 20
258.7582890245
 11
109.9688220061
 21
262.7157358977
  0
LINE
  5
292
100
AcDbEntity
  8
B-ACHSEN
100
AcDbLine
 62
2
  6
CENTER
 10
111.0188218154
 20
213.0657358977
 11
111.0188218154
 21
154.3771992054
  0
LINE
  5
293
100
AcDbEntity
  8
B-ACHSEN
100
AcDbLine
 62
2
  6
CENTER
 10
111.0188218154
 20
213.0657358977
 11
111.0188218154
 21
246.0657358977
  0
LINE
  5
294
100
AcDbEntity
  8
0
100
AcDbLine
 62
7
  6
CONTINUOUS
 10
117.6688218154
 20
258.1199912282
 11
117.7688214339
 21
258.7582890245
  0
LINE
  5
295
100
AcDbEntity
  8
0
100
AcDbLine
 62
7
  6
CONTINUOUS
 10
117.1688214339
 20
258.7582890245
 11
117.0688218154
 21
258.2476507875
  0
LINE
  5
296
100
AcDbEntity
  8
B-ACHSEN
100
AcDbLine
 62
2
  6
CENTER
 10
111.0188218154
 20
213.0657358977
 11
78.0188218154
 21
213.0657358977
  0
LINE
  5
297
100
AcDbEntity
  8
B-ACHSEN
100
AcDbLine
 62
2
  6
CENTER
 10
111.0188218154
 20
213.0657358977
 11
144.0188218154
 21
213.0657358977
  0
LINE
  5
298
100
AcDbEntity
  8
0
100
AcDbLine
 62
7
  6
CONTINUOUS
 10
70.0421399551
 20
225.5176850833
 11
65.8998681145
 21
227.2759751615
  0
LINE
  5
299
100
AcDbEntity
  8
0
100
AcDbLine
 62
7
  6
CONTINUOUS
 10
72.782900295
 20
239.3257058756
 11
72.4669970477
 21
239.5616435798
  0
LINE
  5
29A
100
AcDbEntity
  8
0
100
AcDbLine
 62
7
  6
CONTINUOUS
 10
88.552864363
 20
250.9763877178
 11
88.8188218154
 21
250.5157358977
  0
LINE
  5
29B
100
AcDbEntity
  8
0
100
AcDbLine
 62
7
  6
CONTINUOUS
 10
112.3688220061
 20
262.7157358977
 11
112.3688220061
 21
258.7582890245
  0
LINE
  5
29C
100
AcDbEntity
  8
0
100
AcDbLine
 62
7
  6
CONTINUOUS
 10
112.9688220061
 20
258.7582890245
 11
112.9688220061
 21
262.7157358977
  0
LINE
  5
29D
100
AcDbEntity
  8
0
100
AcDbLine
 62
7
  6
CONTINUOUS
 10
113.7688218154
 20
262.7157358977
 11
113.7688218154
 21
256.7157358977
  0
LINE
  5
29E
100
AcDbEntity
  8
0
100
AcDbLine
 62
7
  6
CONTINUOUS
 10
114.3688218154
 20
257.4816933426
 11
114.3688218154
 21
261.9497785422
  0
LINE
  5
29F
100
AcDbEntity
  8
0
100
AcDbLine
 62
7
  6
CONTINUOUS
 10
65.5905334557
 20
220.176193429
 11
67.7343841226
 21
220.0809530457
  0
LINE
  5
2A0
100
AcDbEntity
  8
0
100
AcDbLine
 62
7
  6
CONTINUOUS
 10
64.260548737
 20
221.4536624943
 11
64.5615800441
 21
221.4277284738
  0
LINE
  5
2A1
100
AcDbEntity
  8
0
100
AcDbLine
 62
7
  6
CONTINUOUS
 10
64.7813663039
 20
221.9455124539
 11
64.4803349968
 21
221.9714464744
  0
LINE
  5
2A2
100
AcDbEntity
  8
0
100
AcDbLine
 62
7
  6
CONTINUOUS
 10
67.9512064692
 20
232.1086254775
 11
72.0934783098
 21
230.3503353993
  0
LINE
  5
2A3
100
AcDbEntity
  8
0
100
AcDbLine
 62
7
  6
CONTINUOUS
 10
72.3132645695
 20
230.8681193794
 11
69.0523270581
 21
232.2523052302
  0
LINE
  5
2A4
100
AcDbEntity
  8
0
100
AcDbLine
 62
7
  6
CONTINUOUS
 10
70.3710446168
 20
235.3590091106
 11
73.6319821282
 21
233.9748232598
  0
LINE
  5
2A5
100
AcDbEntity
  8
0
100
AcDbLine
 62
7
  6
CONTINUOUS
 10
73.851768388
 20
234.4926072399
 11
69.7094965474
 21
236.2508973181
  0
LINE
  5
2A6
100
AcDbEntity
  8
0
100
AcDbLine
 62
7
  6
CONTINUOUS
 10
89.0689916381
 20
255.0824290542
 11
89.1753747531
 21
254.8981680939
  0
LINE
  5
2A7
100
AcDbEntity
  8
0
100
AcDbLine
 62
7
  6
CONTINUOUS
 10
91.4168980267
 20
252.0157358977
 11
91.1509405744
 21
252.4763877178
  0
LINE
  5
2A8
100
AcDbEntity
  8
0
100
AcDbLine
 62
7
  6
CONTINUOUS
 10
89.608387455
 20
255.1481680939
 11
89.50200434
 21
255.3324290542
  0
LINE
  5
2A9
100
AcDbEntity
  8
0
100
AcDbLine
 62
7
  6
CONTINUOUS
 10
90.2921207591
 20
255.2972407647
 11
90.5048866912
 21
254.9287193602
  0
LINE
  5
2AA
100
AcDbEntity
  8
0
100
AcDbLine
 62
7
  6
CONTINUOUS
 10
90.4439390839
 20
256.3676172049
 11
90.8694710971
 21
255.6305741378
  0
LINE
  5
2AB
100
AcDbEntity
  8
0
100
AcDbLine
 62
7
  6
CONTINUOUS
 10
91.0822370292
 20
255.2620527333
 11
92.1460668014
 21
253.4194455173
  0
LINE
  5
2AC
100
AcDbEntity
  8
0
100
AcDbLine
 62
7
  6
CONTINUOUS
 10
92.4005275786
 20
253.8120395379
 11
91.4430808098
 21
255.4703859872
  0
LINE
  5
2AD
100
AcDbEntity
  8
0
100
AcDbLine
 62
7
  6
CONTINUOUS
 10
91.2303148777
 20
255.8389073917
 11
90.8047828645
 21
256.5759504587
  0
LINE
  5
2AE
100
AcDbEntity
  8
0
100
AcDbLine
 62
7
  6
CONTINUOUS
 10
93.5819615362
 20
253.2657358977
 11
93.3691955855
 21
253.6342573344
  0
LINE
  5
2AF
100
AcDbEntity
  8
0
100
AcDbLine
 62
7
  6
CONTINUOUS
 10
92.2369372923
 20
255.928719241
 11
92.0241713602
 21
256.2972406455
  0
LINE
  5
2B0
100
AcDbEntity
  8
0
100
AcDbLine
 62
7
  6
CONTINUOUS
 10
109.36882172
 20
258.7582890245
 11
109.4688219108
 21
258.1199912282
  0
LINE
  5
2B1
100
AcDbEntity
  8
0
100
AcDbLine
 62
7
  6
CONTINUOUS
 10
117.1688214339
 20
260.673182592
 11
117.1688214339
 21
258.7582890245
  0
LINE
  5
2B2
100
AcDbEntity
  8
0
100
AcDbLine
 62
7
  6
CONTINUOUS
 10
117.7688214339
 20
258.7582890245
 11
117.7688214339
 21
260.673182592
  0
LINE
  5
2B3
100
AcDbEntity
  8
0
100
AcDbLine
 62
7
  6
CONTINUOUS
 10
67.9908014956
 20
220.6850345204
 11
65.6340529021
 21
220.768798378
  0
LINE
  5
2B4
100
AcDbEntity
  8
0
100
AcDbLine
 62
7
  6
CONTINUOUS
 10
65.2426986252
 20
223.2773830737
 11
69.0164706729
 21
223.1013596784
  0
LINE
  5
2B5
100
AcDbEntity
  8
0
100
AcDbLine
 62
7
  6
CONTINUOUS
 10
68.7223276897
 20
223.6336013029
 11
64.471257426
 21
223.9103792911
  0
LINE
  5
2B6
100
AcDbEntity
  8
0
100
AcDbLine
 62
7
  6
CONTINUOUS
 10
73.7041492286
 20
235.3700373614
 11
74.1448164549
 21
235.1829852216
  0
LINE
  5
2B7
100
AcDbEntity
  8
0
100
AcDbLine
 62
7
  6
CONTINUOUS
 10
72.0709436752
 20
239.11868055
 11
72.2472107879
 21
239.0438595997
  0
LINE
  5
2B8
100
AcDbEntity
  8
0
100
AcDbLine
 62
7
  6
CONTINUOUS
 10
75.4635340135
 20
238.289689102
 11
75.0228667872
 21
238.4767412418
  0
LINE
  5
2B9
100
AcDbEntity
  8
0
100
AcDbLine
 62
7
  6
CONTINUOUS
 10
72.4669970477
 20
239.5616435798
 11
72.290729935
 21
239.6364645301
  0
LINE
  5
2BA
100
AcDbEntity
  8
0
100
AcDbLine
 62
7
  6
CONTINUOUS
 10
71.6143110783
 20
240.7383591371
 11
72.0549782428
 21
240.5513070234
  0
LINE
  5
2BB
100
AcDbEntity
  8
0
100
AcDbLine
 62
7
  6
CONTINUOUS
 10
108.5688219108
 20
256.7157358977
 11
107.6688219108
 21
259.651906118
  0
LINE
  5
2BC
100
AcDbEntity
  8
0
100
AcDbLine
 62
7
  6
CONTINUOUS
 10
107.0688217677
 20
259.3965869995
 11
107.86882172
 21
256.7157358977
  0
LINE
  5
2BD
100
AcDbEntity
  8
0
100
AcDbLine
 62
7
  6
CONTINUOUS
 10
107.7688218154
 20
261.6944594237
 11
107.86882172
 21
261.3114807459
  0
LINE
  5
2BE
100
AcDbEntity
  8
0
100
AcDbLine
 62
7
  6
CONTINUOUS
 10
108.46882172
 20
261.3114807459
 11
108.3688218154
 21
261.6944594237
  0
LINE
  5
2BF
100
AcDbEntity
  8
0
100
AcDbLine
 62
7
  6
CONTINUOUS
 10
110.0688216247
 20
258.2476507875
 11
109.9688220061
 21
258.7582890245
  0
LINE
  5
2C0
100
AcDbEntity
  8
DEFAULT_2
100
AcDbLine
 62
8
  6
HIDDEN
 10
123.0188218154
 20
185.5702817279
 11
123.0188218154
 21
159.0657358977
  0
LINE
  5
2C1
100
AcDbEntity
  8
0
100
AcDbLine
 62
7
  6
CONTINUOUS
 10
73.3736958015
 20
243.6580109038
 11
72.9330286369
 21
243.8450630175
  0
LINE
  5
2C2
100
AcDbEntity
  8
0
100
AcDbLine
 62
7
  6
CONTINUOUS
 10
92.6322709863
 20
253.5773151662
 11
92.4005275786
 21
253.8120395379
  0
LINE
  5
2C3
100
AcDbEntity
  8
0
100
AcDbLine
 62
7
  6
CONTINUOUS
 10
89.50200434
 20
255.3324290542
 11
89.2170696931
 21
255.6592838318
  0
LINE
  5
2C4
100
AcDbEntity
  8
0
100
AcDbLine
 62
7
  6
CONTINUOUS
 10
109.4688219108
 20
258.1199912282
 11
109.6688220061
 21
257.6093529018
  0
LINE
  5
2C5
100
AcDbEntity
  8
0
100
AcDbLine
 62
7
  6
CONTINUOUS
 10
117.0688218154
 20
261.183820829
 11
117.1688214339
 21
260.673182592
  0
LINE
  5
2C6
100
AcDbEntity
  8
0
100
AcDbLine
 62
7
  6
CONTINUOUS
 10
117.7688214339
 20
260.673182592
 11
117.6688218154
 21
261.3114807459
  0
LINE
  5
2C7
100
AcDbEntity
  8
0
100
AcDbLine
 62
7
  6
CONTINUOUS
 10
64.4803349968
 20
221.9714464744
 11
64.0179081353
 21
221.8621961753
  0
LINE
  5
2C8
100
AcDbEntity
  8
0
100
AcDbLine
 62
7
  6
CONTINUOUS
 10
69.0523270581
 20
232.2523052302
 11
72.8260993154
 21
232.0762823288
  0
LINE
  5
2C9
100
AcDbEntity
  8
0
100
AcDbLine
 62
7
  6
CONTINUOUS
 10
72.5319561226
 20
232.6085234595
 11
68.2808858589
 21
232.8853014476
  0
LINE
  5
2CA
100
AcDbEntity
  8
0
100
AcDbLine
 62
7
  6
CONTINUOUS
 10
72.290729935
 20
239.6364645301
 11
71.901565719
 21
239.6998102078
  0
LINE
  5
2CB
100
AcDbEntity
  8
0
100
AcDbLine
 62
7
  6
CONTINUOUS
 10
92.1460668014
 20
253.4194455173
 11
92.5031701817
 21
253.1342573344
  0
LINE
  5
2CC
100
AcDbEntity
  8
0
100
AcDbLine
 62
7
  6
CONTINUOUS
 10
110.2688220061
 20
257.8646721097
 11
110.0688216247
 21
258.2476507875
  0
LINE
  5
2CD
100
AcDbEntity
  8
0
100
AcDbLine
 62
7
  6
CONTINUOUS
 10
88.7650795529
 20
255.2754867345
 11
89.0689916381
 21
255.0824290542
  0
LINE
  5
2CE
100
AcDbEntity
  8
0
100
AcDbLine
 62
7
  6
CONTINUOUS
 10
109.6688220061
 20
257.6093529018
 11
110.0688216247
 21
257.0987146201
  0
LINE
  5
2CF
100
AcDbEntity
  8
0
100
AcDbLine
 62
7
  6
CONTINUOUS
 10
108.3688218154
 20
261.6944594237
 11
108.0688218154
 21
262.2050976607
  0
LINE
  5
2D0
100
AcDbEntity
  8
0
100
AcDbLine
 62
7
  6
CONTINUOUS
 10
117.6688218154
 20
261.3114807459
 11
117.4688214339
 21
261.8221189829
  0
LINE
  5
2D1
100
AcDbEntity
  8
B-ACHSEN
100
AcDbLine
 62
7
  6
CONTINUOUS
 10
141.0188218154
 20
157.5657358977
 11
141.0188218154
 21
165.2666589317
  0
LINE
  5
2D2
100
AcDbEntity
  8
DEFAULT_2
100
AcDbLine
 62
8
  6
HIDDEN
 10
99.0188218154
 20
159.0657358977
 11
97.0188218154
 21
157.0657358977
  0
LINE
  5
2D3
100
AcDbEntity
  8
0
100
AcDbLine
 62
7
  6
CONTINUOUS
 10
89.2170696931
 20
255.6592838318
 11
88.7156284887
 21
255.8611384901
  0
LINE
  5
2D4
100
AcDbEntity
  8
0
100
AcDbLine
 62
7
  6
CONTINUOUS
 10
107.56882172
 20
261.9497785422
 11
107.7688218154
 21
261.6944594237
  0
LINE
  5
2D5
100
AcDbEntity
  8
0
100
AcDbLine
 62
7
  6
CONTINUOUS
 10
116.8688214339
 20
261.5667998644
 11
117.0688218154
 21
261.183820829
  0
LINE
  5
2D6
100
AcDbEntity
  8
0
100
AcDbLine
 62
7
  6
CONTINUOUS
 10
71.7332815694
 20
239.0583178166
 11
72.0709436752
 21
239.11868055
  0
LINE
  5
2D7
100
AcDbEntity
  8
0
100
AcDbLine
 62
7
  6
CONTINUOUS
 10
92.5031701817
 20
253.1342573344
 11
92.826059508
 21
253.074996616
  0
LINE
  5
2D8
100
AcDbEntity
  8
0
100
AcDbLine
 62
7
  6
CONTINUOUS
 10
92.9551603033
 20
253.5180544639
 11
92.6322709863
 21
253.5773151662
  0
LINE
  5
2D9
100
AcDbEntity
  8
0
100
AcDbLine
 62
7
  6
CONTINUOUS
 10
88.4421902359
 20
255.3347474368
 11
88.7650795529
 21
255.2754867345
  0
LINE
  5
2DA
100
AcDbEntity
  8
0
100
AcDbLine
 62
7
  6
CONTINUOUS
 10
110.0688216247
 20
257.0987146201
 11
110.4688218154
 21
256.8433954681
  0
LINE
  5
2DB
100
AcDbEntity
  8
0
100
AcDbLine
 62
7
  6
CONTINUOUS
 10
110.5688220061
 20
257.6093529018
 11
110.2688220061
 21
257.8646721097
  0
LINE
  5
2DC
100
AcDbEntity
  8
0
100
AcDbLine
 62
7
  6
CONTINUOUS
 10
108.0688218154
 20
262.2050976607
 11
107.6688219108
 21
262.5880763384
  0
LINE
  5
2DD
100
AcDbEntity
  8
0
100
AcDbLine
 62
7
  6
CONTINUOUS
 10
117.4688214339
 20
261.8221189829
 11
117.0688218154
 21
262.3327572199
  0
LINE
  5
2DE
100
AcDbEntity
  8
0
100
AcDbLine
 62
7
  6
CONTINUOUS
 10
116.1688218154
 20
256.7157358977
 11
116.6688221969
 21
256.8433954681
  0
LINE
  5
2DF
100
AcDbEntity
  8
0
100
AcDbLine
 62
7
  6
CONTINUOUS
 10
111.3688218154
 20
256.7157358977
 11
111.8688216247
 21
256.8433954681
  0
LINE
  5
2E0
100
AcDbEntity
  8
0
100
AcDbLine
 62
7
  6
CONTINUOUS
 10
92.826059508
 20
253.074996616
 11
93.0957573466
 21
253.1078662568
  0
LINE
  5
2E1
100
AcDbEntity
  8
0
100
AcDbLine
 62
7
  6
CONTINUOUS
 10
88.7156284887
 20
255.8611384901
 11
88.3205704569
 21
255.8787325655
  0
LINE
  5
2E2
100
AcDbEntity
  8
0
100
AcDbLine
 62
7
  6
CONTINUOUS
 10
110.4688218154
 20
256.8433954681
 11
110.9688216247
 21
256.7157358977
  0
LINE
  5
2E3
100
AcDbEntity
  8
0
100
AcDbLine
 62
7
  6
CONTINUOUS
 10
110.9688216247
 20
257.4816933426
 11
110.5688220061
 21
257.6093529018
  0
LINE
  5
2E4
100
AcDbEntity
  8
0
100
AcDbLine
 62
7
  6
CONTINUOUS
 10
116.5688214339
 20
261.8221189829
 11
116.8688214339
 21
261.5667998644
  0
LINE
  5
2E5
100
AcDbEntity
  8
0
100
AcDbLine
 62
7
  6
CONTINUOUS
 10
93.3691955855
 20
253.6342573344
 11
92.9551603033
 21
253.5180544639
  0
LINE
  5
2E6
100
AcDbEntity
  8
0
100
AcDbLine
 62
7
  6
CONTINUOUS
 10
88.0281548691
 20
255.2185444744
 11
88.4421902359
 21
255.3347474368
  0
LINE
  5
2E7
100
AcDbEntity
  8
0
100
AcDbLine
 62
7
  6
CONTINUOUS
 10
104.7688218154
 20
256.7157358977
 11
105.3688218154
 21
256.7157358977
  0
LINE
  5
2E8
100
AcDbEntity
  8
0
100
AcDbLine
 62
7
  6
CONTINUOUS
 10
107.86882172
 20
256.7157358977
 11
108.5688219108
 21
256.7157358977
  0
LINE
  5
2E9
100
AcDbEntity
  8
0
100
AcDbLine
 62
7
  6
CONTINUOUS
 10
110.9688216247
 20
256.7157358977
 11
111.3688218154
 21
256.7157358977
  0
LINE
  5
2EA
100
AcDbEntity
  8
0
100
AcDbLine
 62
7
  6
CONTINUOUS
 10
113.7688218154
 20
256.7157358977
 11
116.1688218154
 21
256.7157358977
  0
LINE
  5
2EB
100
AcDbEntity
  8
0
100
AcDbLine
 62
7
  6
CONTINUOUS
 10
116.1688218154
 20
257.4816933426
 11
114.3688218154
 21
257.4816933426
  0
LINE
  5
2EC
100
AcDbEntity
  8
0
100
AcDbLine
 62
7
  6
CONTINUOUS
 10
111.3688218154
 20
257.4816933426
 11
110.9688216247
 21
257.4816933426
  0
LINE
  5
2ED
100
AcDbEntity
  8
0
100
AcDbLine
 62
7
  6
CONTINUOUS
 10
105.3688218154
 20
259.3965869995
 11
107.0688217677
 21
259.3965869995
  0
LINE
  5
2EE
100
AcDbEntity
  8
0
100
AcDbLine
 62
7
  6
CONTINUOUS
 10
107.26882172
 20
260.162544355
 11
105.3688218154
 21
260.162544355
  0
LINE
  5
2EF
100
AcDbEntity
  8
0
100
AcDbLine
 62
7
  6
CONTINUOUS
 10
107.6688219108
 20
262.5880763384
 11
107.1688218154
 21
262.7157358977
  0
LINE
  5
2F0
100
AcDbEntity
  8
0
100
AcDbLine
 62
7
  6
CONTINUOUS
 10
107.26882172
 20
262.0774381014
 11
107.56882172
 21
261.9497785422
  0
LINE
  5
2F1
100
AcDbEntity
  8
0
100
AcDbLine
 62
7
  6
CONTINUOUS
 10
117.0688218154
 20
262.3327572199
 11
116.6688221969
 21
262.5880763384
  0
LINE
  5
2F2
100
AcDbEntity
  8
RUNDUNGEN
100
AcDbLine
 62
7
  6
CONTINUOUS
 10
166.5106528917
 20
211.1523187358
 11
151.4571510178
 21
174.8099503508
  0
LINE
  5
2F3
100
AcDbEntity
  8
0
100
AcDbLine
 62
7
  6
CONTINUOUS
 10
114.3688218154
 20
261.9497785422
 11
116.1688218154
 21
261.9497785422
  0
LINE
  5
2F4
100
AcDbEntity
  8
0
100
AcDbLine
 62
7
  6
CONTINUOUS
 10
105.3688218154
 20
262.0774381014
 11
107.26882172
 21
262.0774381014
  0
LINE
  5
2F5
100
AcDbEntity
  8
0
100
AcDbLine
 62
7
  6
CONTINUOUS
 10
116.1688218154
 20
262.7157358977
 11
113.7688218154
 21
262.7157358977
  0
LINE
  5
2F6
100
AcDbEntity
  8
0
100
AcDbLine
 62
7
  6
CONTINUOUS
 10
112.9688220061
 20
262.7157358977
 11
112.3688220061
 21
262.7157358977
  0
LINE
  5
2F7
100
AcDbEntity
  8
0
100
AcDbLine
 62
7
  6
CONTINUOUS
 10
109.9688220061
 20
262.7157358977
 11
109.36882172
 21
262.7157358977
  0
LINE
  5
2F8
100
AcDbEntity
  8
0
100
AcDbLine
 62
7
  6
CONTINUOUS
 10
107.1688218154
 20
262.7157358977
 11
104.7688218154
 21
262.7157358977
  0
LINE
  5
2F9
100
AcDbEntity
  8
0
100
AcDbLine
 62
7
  6
CONTINUOUS
 10
116.6688221969
 20
262.5880763384
 11
116.1688218154
 21
262.7157358977
  0
LINE
  5
2FA
100
AcDbEntity
  8
0
100
AcDbLine
 62
7
  6
CONTINUOUS
 10
116.1688218154
 20
261.9497785422
 11
116.5688214339
 21
261.8221189829
  0
LINE
  5
2FB
100
AcDbEntity
  8
RUNDUNGEN
100
AcDbLine
 62
7
  6
CONTINUOUS
 10
112.9322389772
 20
268.557566974
 11
148.9044816195
 21
253.6573762025
  0
LINE
  5
2FC
100
AcDbEntity
  8
RUNDUNGEN
100
AcDbLine
 62
7
  6
CONTINUOUS
 10
151.6104621203
 20
250.9513957018
 11
166.5106528917
 21
214.9791530595
  0
LINE
  5
2FD
100
AcDbEntity
  8
B-ACHSEN
100
AcDbLine
 62
7
  6
CONTINUOUS
 10
140.5188218154
 20
157.0657358977
 11
141.0188218154
 21
157.5657358977
  0
LINE
  5
2FE
100
AcDbEntity
  8
B-ACHSEN
100
AcDbLine
 62
7
  6
CONTINUOUS
 10
265.8771289406
 20
157.0657358977
 11
265.3771289406
 21
157.5657358977
  0
LINE
  5
2FF
100
AcDbEntity
  8
B-ACHSEN
100
AcDbLine
 62
7
  6
CONTINUOUS
 10
265.8776445596
 20
157.0657358977
 11
324.8766133216
 21
157.0657358977
  0
LINE
  5
300
100
AcDbEntity
  8
B-ACHSEN
100
AcDbLine
 62
7
  6
CONTINUOUS
 10
265.3771289406
 20
157.5657358977
 11
325.3771289406
 21
157.5657358977
  0
LINE
  5
301
100
AcDbEntity
  8
DEFAULT_2
100
AcDbLine
 62
8
  6
HIDDEN
 10
307.3771289406
 20
159.0657358977
 11
283.3771289406
 21
159.0657358977
  0
LINE
  5
302
100
AcDbEntity
  8
RUNDUNGEN
100
AcDbLine
 62
7
  6
CONTINUOUS
 10
308.6132720283
 20
173.2666589317
 11
282.1409858528
 21
173.2666589317
  0
LINE
  5
303
100
AcDbEntity
  8
B-ACHSEN
100
AcDbLine
 62
7
  6
CONTINUOUS
 10
265.3771289406
 20
157.5657358977
 11
265.3771289406
 21
171.1396058541
  0
LINE
  5
304
100
AcDbEntity
  8
B-ACHSEN
100
AcDbLine
 62
7
  6
CONTINUOUS
 10
270.4385221503
 20
177.0657358977
 11
277.5967426965
 21
178.1994866526
  0
LINE
  5
305
100
AcDbEntity
  8
B-ACHSEN
100
AcDbLine
 62
7
  6
CONTINUOUS
 10
320.3157357308
 20
177.0657358977
 11
313.1225462087
 21
178.2050251943
  0
LWPOLYLINE
  5
306
100
AcDbEntity
  8
RUNDUNGEN
100
AcDbPolyline
 62
7
  6
CONTINUOUS
 90
8
 70
0
 10
313.1067794262
 20
178.2074996718
 10
312.8706750903
 20
178.2546771454
 10
312.4993558075
 20
178.3704466788
 10
312.1460861556
 20
178.5333095543
 10
311.8168684799
 20
178.7405082057
 10
311.51728402
 20
178.9885099801
 10
311.2523906706
 20
179.2730724924
 10
311.026631235
 20
179.5893228416
  0
LINE
  5
307
100
AcDbEntity
  8
DEFAULT_2
100
AcDbLine
 62
8
  6
HIDDEN
 10
307.3771289406
 20
159.0657358977
 11
309.3771289406
 21
157.0657358977
  0
LINE
  5
308
100
AcDbEntity
  8
RUNDUNGEN
100
AcDbLine
 62
7
  6
CONTINUOUS
 10
283.3771289406
 20
266.4381692927
 11
283.3771289406
 21
214.0682590158
  0
LINE
  5
309
100
AcDbEntity
  8
DEFAULT_2
100
AcDbLine
 62
8
  6
HIDDEN
 10
283.3771289406
 20
183.0660128201
 11
283.3771289406
 21
159.0657358977
  0
LINE
  5
30A
100
AcDbEntity
  8
RUNDUNGEN
100
AcDbLine
 62
7
  6
CONTINUOUS
 10
283.2768755801
 20
212.0682380951
 11
279.2851189774
 21
172.3511810297
  0
LINE
  5
30B
100
AcDbEntity
  8
B-ACHSEN
100
AcDbLine
 62
2
  6
CENTER
 10
295.3771289406
 20
272.606484109
 11
295.3771289406
 21
154.0657358977
  0
LINE
  5
30C
100
AcDbEntity
  8
RUNDUNGEN
100
AcDbLine
 62
7
  6
CONTINUOUS
 10
311.026631235
 20
179.5893228416
 11
310.843768057
 21
179.9318181185
  0
LINE
  5
30D
100
AcDbEntity
  8
0
100
AcDbLine
 62
7
  6
CONTINUOUS
 10
307.3771289406
 20
217.4057358977
 11
307.6771289406
 21
217.4057358977
  0
LINE
  5
30E
100
AcDbEntity
  8
RUNDUNGEN
100
AcDbLine
 62
7
  6
CONTINUOUS
 10
310.843768057
 20
179.9318181185
 11
310.7067489539
 21
180.2947973458
  0
LWPOLYLINE
  5
30F
100
AcDbEntity
  8
RUNDUNGEN
100
AcDbPolyline
 62
7
  6
CONTINUOUS
 90
3
 70
0
 10
310.7067489539
 20
180.2947973458
 10
310.7037158625
 20
180.3048915005
 10
310.6944183682
 20
180.3372251634
  0
LINE
  5
310
100
AcDbEntity
  8
RUNDUNGEN
100
AcDbLine
 62
7
  6
CONTINUOUS
 10
310.6954082647
 20
180.3337826253
 11
310.6809593263
 21
180.3888629186
  0
LWPOLYLINE
  5
311
100
AcDbEntity
  8
RUNDUNGEN
100
AcDbPolyline
 62
7
  6
CONTINUOUS
 90
4
 70
0
 10
310.6803405485
 20
180.3912369579
 10
310.6630390273
 20
180.4690705943
 10
310.6450329133
 20
180.5725942966
 10
310.6392149367
 20
180.6195939154
  0
LINE
  5
312
100
AcDbEntity
  8
RUNDUNGEN
100
AcDbLine
 62
7
  6
CONTINUOUS
 10
311.4691388971
 20
172.3511810966
 11
307.4773823011
 21
212.0682380951
  0
LINE
  5
313
100
AcDbEntity
  8
DEFAULT_2
100
AcDbLine
 62
8
  6
HIDDEN
 10
307.3771289406
 20
183.0660746832
 11
307.3771289406
 21
159.0657358977
  0
LINE
  5
314
100
AcDbEntity
  8
RUNDUNGEN
100
AcDbLine
 62
7
  6
CONTINUOUS
 10
307.3771289406
 20
214.0682590158
 11
307.3771289406
 21
266.4381692928
  0
LINE
  5
315
100
AcDbEntity
  8
0
100
AcDbLine
 62
7
  6
CONTINUOUS
 10
307.6771289406
 20
262.7157358977
 11
307.6771289406
 21
256.7157358977
  0
LINE
  5
316
100
AcDbEntity
  8
0
100
AcDbLine
 62
7
  6
CONTINUOUS
 10
307.6771289406
 20
256.5759504587
 11
307.6771289406
 21
250.5157358977
  0
LINE
  5
317
100
AcDbEntity
  8
0
100
AcDbLine
 62
7
  6
CONTINUOUS
 10
307.6771289406
 20
243.8450630175
 11
307.6771289406
 21
239.8430410422
  0
LINE
  5
318
100
AcDbEntity
  8
0
100
AcDbLine
 62
7
  6
CONTINUOUS
 10
307.6771289406
 20
239.6998102078
 11
307.6771289406
 21
230.3503353993
  0
LINE
  5
319
100
AcDbEntity
  8
0
100
AcDbLine
 62
7
  6
CONTINUOUS
 10
307.6771289406
 20
227.2759751615
 11
307.6771289406
 21
217.4057358977
  0
LINE
  5
31A
100
AcDbEntity
  8
0
100
AcDbLine
 62
7
  6
CONTINUOUS
 10
307.3771289406
 20
227.2759751615
 11
307.6771289406
 21
227.2759751615
  0
LINE
  5
31B
100
AcDbEntity
  8
0
100
AcDbLine
 62
7
  6
CONTINUOUS
 10
307.3771289406
 20
230.3503353993
 11
307.6771289406
 21
230.3503353993
  0
LINE
  5
31C
100
AcDbEntity
  8
0
100
AcDbLine
 62
7
  6
CONTINUOUS
 10
307.3771289406
 20
232.1086254775
 11
307.6771289406
 21
232.1086254775
  0
LINE
  5
31D
100
AcDbEntity
  8
0
100
AcDbLine
 62
7
  6
CONTINUOUS
 10
307.3771289406
 20
232.8853014476
 11
307.6771289406
 21
232.8853014476
  0
LINE
  5
31E
100
AcDbEntity
  8
0
100
AcDbLine
 62
7
  6
CONTINUOUS
 10
307.3771289406
 20
235.474221348
 11
307.6771289406
 21
235.474221348
  0
LINE
  5
31F
100
AcDbEntity
  8
0
100
AcDbLine
 62
7
  6
CONTINUOUS
 10
307.3771289406
 20
236.2508973181
 11
307.6771289406
 21
236.2508973181
  0
LINE
  5
320
100
AcDbEntity
  8
0
100
AcDbLine
 62
7
  6
CONTINUOUS
 10
307.3771289406
 20
236.6160586381
 11
307.6771289406
 21
236.6160586381
  0
LINE
  5
321
100
AcDbEntity
  8
0
100
AcDbLine
 62
7
  6
CONTINUOUS
 10
307.3771289406
 20
236.8519983174
 11
307.6771289406
 21
236.8519983174
  0
LINE
  5
322
100
AcDbEntity
  8
0
100
AcDbLine
 62
7
  6
CONTINUOUS
 10
307.3771289406
 20
237.3468280116
 11
307.6771289406
 21
237.3468280116
  0
LINE
  5
323
100
AcDbEntity
  8
0
100
AcDbLine
 62
7
  6
CONTINUOUS
 10
307.3771289406
 20
237.7668388355
 11
307.6771289406
 21
237.7668388355
  0
LINE
  5
324
100
AcDbEntity
  8
0
100
AcDbLine
 62
7
  6
CONTINUOUS
 10
307.3771289406
 20
238.4083312267
 11
307.6771289406
 21
238.4083312267
  0
LINE
  5
325
100
AcDbEntity
  8
0
100
AcDbLine
 62
7
  6
CONTINUOUS
 10
307.3771289406
 20
238.75351923
 11
307.6771289406
 21
238.75351923
  0
LINE
  5
326
100
AcDbEntity
  8
B-ACHSEN
100
AcDbLine
 62
7
  6
CONTINUOUS
 10
325.3771289406
 20
157.5657358977
 11
325.3771289406
 21
171.1396058541
  0
LINE
  5
327
100
AcDbEntity
  8
DEFAULT_2
100
AcDbLine
 62
8
  6
HIDDEN
 10
283.3771289406
 20
159.0657358977
 11
281.3771289406
 21
157.0657358977
  0
LINE
  5
328
100
AcDbEntity
  8
0
100
AcDbLine
 62
7
  6
CONTINUOUS
 10
307.3771289406
 20
239.2338927873
 11
307.6771289406
 21
239.2338927873
  0
LINE
  5
329
100
AcDbEntity
  8
0
100
AcDbLine
 62
7
  6
CONTINUOUS
 10
307.3771289406
 20
239.5042619203
 11
307.6771289406
 21
239.5042619203
  0
LINE
  5
32A
100
AcDbEntity
  8
0
100
AcDbLine
 62
7
  6
CONTINUOUS
 10
307.3771289406
 20
239.6998102078
 11
307.6771289406
 21
239.6998102078
  0
LINE
  5
32B
100
AcDbEntity
  8
0
100
AcDbLine
 62
7
  6
CONTINUOUS
 10
307.3771289406
 20
239.8430410422
 11
307.6771289406
 21
239.8430410422
  0
LINE
  5
32C
100
AcDbEntity
  8
0
100
AcDbLine
 62
7
  6
CONTINUOUS
 10
307.3771289406
 20
240.5513070234
 11
307.6771289406
 21
240.5513070234
  0
LINE
  5
32D
100
AcDbEntity
  8
0
100
AcDbLine
 62
7
  6
CONTINUOUS
 10
307.3771289406
 20
240.7383591371
 11
307.6771289406
 21
240.7383591371
  0
LINE
  5
32E
100
AcDbEntity
  8
0
100
AcDbLine
 62
7
  6
CONTINUOUS
 10
307.3771289406
 20
243.8450630175
 11
307.6771289406
 21
243.8450630175
  0
LINE
  5
32F
100
AcDbEntity
  8
0
100
AcDbLine
 62
7
  6
CONTINUOUS
 10
307.3771289406
 20
250.5157358977
 11
307.6771289406
 21
250.5157358977
  0
LINE
  5
330
100
AcDbEntity
  8
0
100
AcDbLine
 62
7
  6
CONTINUOUS
 10
307.3771289406
 20
250.9763877178
 11
307.6771289406
 21
250.9763877178
  0
LINE
  5
331
100
AcDbEntity
  8
0
100
AcDbLine
 62
7
  6
CONTINUOUS
 10
307.3771289406
 20
253.8740957222
 11
307.6771289406
 21
253.8740957222
  0
LINE
  5
332
100
AcDbEntity
  8
0
100
AcDbLine
 62
7
  6
CONTINUOUS
 10
307.3771289406
 20
254.2842837945
 11
307.6771289406
 21
254.2842837945
  0
LINE
  5
333
100
AcDbEntity
  8
0
100
AcDbLine
 62
7
  6
CONTINUOUS
 10
307.3771289406
 20
254.8194718632
 11
307.6771289406
 21
254.8194718632
  0
LINE
  5
334
100
AcDbEntity
  8
0
100
AcDbLine
 62
7
  6
CONTINUOUS
 10
307.3771289406
 20
255.1703992222
 11
307.6771289406
 21
255.1703992222
  0
LINE
  5
335
100
AcDbEntity
  8
0
100
AcDbLine
 62
7
  6
CONTINUOUS
 10
307.3771289406
 20
256.3676172049
 11
307.6771289406
 21
256.3676172049
  0
LINE
  5
336
100
AcDbEntity
  8
0
100
AcDbLine
 62
7
  6
CONTINUOUS
 10
307.3771289406
 20
256.5759504587
 11
307.6771289406
 21
256.5759504587
  0
LINE
  5
337
100
AcDbEntity
  8
0
100
AcDbLine
 62
7
  6
CONTINUOUS
 10
307.3771289406
 20
256.7157358977
 11
307.6771289406
 21
256.7157358977
  0
LINE
  5
338
100
AcDbEntity
  8
0
100
AcDbLine
 62
7
  6
CONTINUOUS
 10
307.3771289406
 20
262.7157358977
 11
307.6771289406
 21
262.7157358977
  0
LINE
  5
339
100
AcDbEntity
  8
B-ACHSEN
100
AcDbLine
 62
7
  6
CONTINUOUS
 10
324.8771289406
 20
157.0657358977
 11
325.3771289406
 21
157.5657358977
  0
LINE
  5
33A
100
AcDbEntity
  8
RUNDUNGEN
100
AcDbLine
 62
7
  6
CONTINUOUS
 10
304.8771289406
 20
268.9381693114
 11
285.8771289406
 21
268.9381693114
  0
LWPOLYLINE
  5
33B
100
AcDbEntity
  8
RUNDUNGEN
100
AcDbPolyline
 62
7
  6
CONTINUOUS
 90
17
 70
0
 10
55.1463885353
 20
70.1966812137
 10
55.1645387528
 20
69.8956682539
 10
55.2206503439
 20
69.5912314857
 10
55.3090085192
 20
69.3087602334
 10
55.4236832204
 20
69.0509559562
 10
55.5591117902
 20
68.8189530797
 10
55.7098696818
 20
68.6133495932
 10
55.8718936613
 20
68.4329043171
 10
56.0417230251
 20
68.2762296142
 10
56.2165032333
 20
68.1417506994
 10
56.3953508343
 20
68.026941165
 10
56.5735765408
 20
67.9318487835
 10
56.7524857517
 20
67.8531126263
 10
56.9201037096
 20
67.7925407873
 10
57.0616608574
 20
67.7498986248
 10
57.1908507263
 20
67.7165916229
 10
57.3483267245
 20
67.6812949254
  0
LINE
  5
33C
100
AcDbEntity
  8
RUNDUNGEN
100
AcDbLine
 62
7
  6
CONTINUOUS
 10
55.1463884016
 20
70.1966727452
 11
55.1463884016
 21
89.2413712789
  0
LINE
  5
33D
100
AcDbEntity
  8
0
100
AcDbLine
 62
7
  6
CONTINUOUS
 10
62.4565499749
 20
67.7190220102
 11
62.4565499749
 21
67.4190220102
  0
LINE
  5
33E
100
AcDbEntity
  8
0
100
AcDbLine
 62
7
  6
CONTINUOUS
 10
67.9512064692
 20
67.7190220102
 11
67.9512064692
 21
67.4190220102
  0
LINE
  5
33F
100
AcDbEntity
  8
0
100
AcDbLine
 62
7
  6
CONTINUOUS
 10
68.2808858589
 20
67.7190220102
 11
68.2808858589
 21
67.4190220102
  0
LINE
  5
340
100
AcDbEntity
  8
0
100
AcDbLine
 62
7
  6
CONTINUOUS
 10
69.3798171578
 20
67.7190220102
 11
69.3798171578
 21
67.4190220102
  0
LINE
  5
341
100
AcDbEntity
  8
0
100
AcDbLine
 62
7
  6
CONTINUOUS
 10
69.7094965474
 20
67.7190220102
 11
69.7094965474
 21
67.4190220102
  0
LINE
  5
342
100
AcDbEntity
  8
0
100
AcDbLine
 62
7
  6
CONTINUOUS
 10
70.4569887597
 20
67.7190220102
 11
70.4569887597
 21
67.4190220102
  0
LINE
  5
343
100
AcDbEntity
  8
0
100
AcDbLine
 62
7
  6
CONTINUOUS
 10
70.6252729093
 20
67.7190220102
 11
70.6252729093
 21
67.4190220102
  0
LINE
  5
344
100
AcDbEntity
  8
0
100
AcDbLine
 62
7
  6
CONTINUOUS
 10
70.7717965235
 20
67.7190220102
 11
70.7717965235
 21
67.4190220102
  0
LINE
  5
345
100
AcDbEntity
  8
0
100
AcDbLine
 62
7
  6
CONTINUOUS
 10
71.0797162162
 20
67.7190220102
 11
71.0797162162
 21
67.4190220102
  0
LINE
  5
346
100
AcDbEntity
  8
0
100
AcDbLine
 62
7
  6
CONTINUOUS
 10
71.4025075347
 20
67.7190220102
 11
71.4025075347
 21
67.4190220102
  0
LINE
  5
347
100
AcDbEntity
  8
0
100
AcDbLine
 62
7
  6
CONTINUOUS
 10
71.6143110783
 20
67.7190220102
 11
71.6143110783
 21
67.4190220102
  0
LINE
  5
348
100
AcDbEntity
  8
0
100
AcDbLine
 62
7
  6
CONTINUOUS
 10
72.9330286369
 20
67.7190220102
 11
72.9330286369
 21
67.4190220102
  0
LINE
  5
349
100
AcDbEntity
  8
0
100
AcDbLine
 62
7
  6
CONTINUOUS
 10
73.3736958015
 20
67.7190220102
 11
73.3736958015
 21
67.4190220102
  0
LINE
  5
34A
100
AcDbEntity
  8
0
100
AcDbLine
 62
7
  6
CONTINUOUS
 10
76.3426790526
 20
67.7190220102
 11
76.3426790526
 21
67.4190220102
  0
LINE
  5
34B
100
AcDbEntity
  8
RUNDUNGEN
100
AcDbLine
 62
7
  6
CONTINUOUS
 10
86.5360883334
 20
97.0572252101
 11
86.5629137059
 21
97.0943743144
  0
LINE
  5
34C
100
AcDbEntity
  8
RUNDUNGEN
100
AcDbLine
 62
7
  6
CONTINUOUS
 10
86.5360883334
 20
97.0572252101
 11
86.503176317
 21
97.0132308581
  0
LINE
  5
34D
100
AcDbEntity
  8
RUNDUNGEN
100
AcDbLine
 62
7
  6
CONTINUOUS
 10
86.503176317
 20
97.0132308581
 11
86.2468529823
 21
96.7192006153
  0
LWPOLYLINE
  5
34E
100
AcDbEntity
  8
RUNDUNGEN
100
AcDbPolyline
 62
7
  6
CONTINUOUS
 90
7
 70
0
 10
86.2468529823
 20
96.7192006153
 10
85.9551681075
 20
96.4618368447
 10
85.6336540554
 20
96.2454098332
 10
85.288089699
 20
96.0731878606
 10
84.9255341353
 20
95.9479065061
 10
84.5535633659
 20
95.8710179774
 10
84.4700807876
 20
95.8604988336
  0
LINE
  5
34F
100
AcDbEntity
  8
RUNDUNGEN
100
AcDbLine
 62
7
  6
CONTINUOUS
 10
86.2321035338
 20
62.7335767886
 11
86.4883270296
 21
62.4441236501
  0
LINE
  5
350
100
AcDbEntity
  8
RUNDUNGEN
100
AcDbLine
 62
7
  6
CONTINUOUS
 10
86.4883270296
 20
62.4441236501
 11
86.5359808918
 21
62.3809673936
  0
LINE
  5
351
100
AcDbEntity
  8
RUNDUNGEN
100
AcDbLine
 62
7
  6
CONTINUOUS
 10
86.535892438
 20
62.3809025609
 11
86.5628237818
 21
62.343605746
  0
LWPOLYLINE
  5
352
100
AcDbEntity
  8
RUNDUNGEN
100
AcDbPolyline
 62
7
  6
CONTINUOUS
 90
16
 70
0
 10
164.8570819544
 20
67.7190749557
 10
164.9876041193
 20
67.7531399227
 10
165.130548126
 20
67.7968281474
 10
165.2988713225
 20
67.8586066114
 10
165.477841847
 20
67.938575195
 10
165.655071796
 20
68.0344641677
 10
165.8322935047
 20
68.1496301216
 10
166.0051969384
 20
68.2840718012
 10
166.1729227741
 20
68.4401880032
 10
166.3327462368
 20
68.6194765588
 10
166.4814475661
 20
68.8233972053
 10
166.6150975976
 20
69.0531734293
 10
166.7286172317
 20
69.3087159366
 10
166.8165402942
 20
69.5894186164
 10
166.8727806498
 20
69.8930045087
 10
166.8912552193
 20
70.1966874032
  0
LINE
  5
353
100
AcDbEntity
  8
0
100
AcDbLine
 62
7
  6
CONTINUOUS
 10
86.8354997681
 20
67.7190220102
 11
86.8354997681
 21
67.4190220102
  0
LINE
  5
354
100
AcDbEntity
  8
0
100
AcDbLine
 62
7
  6
CONTINUOUS
 10
86.9114089663
 20
67.7190220102
 11
86.9114089663
 21
67.4190220102
  0
LINE
  5
355
100
AcDbEntity
  8
0
100
AcDbLine
 62
7
  6
CONTINUOUS
 10
87.0937011177
 20
67.7190220102
 11
87.0937011177
 21
67.4190220102
  0
LINE
  5
356
100
AcDbEntity
  8
0
100
AcDbLine
 62
7
  6
CONTINUOUS
 10
87.834366272
 20
67.7190220102
 11
87.834366272
 21
67.4190220102
  0
LINE
  5
357
100
AcDbEntity
  8
0
100
AcDbLine
 62
7
  6
CONTINUOUS
 10
88.3205704569
 20
67.7190220102
 11
88.3205704569
 21
67.4190220102
  0
LINE
  5
358
100
AcDbEntity
  8
0
100
AcDbLine
 62
7
  6
CONTINUOUS
 10
88.7156284887
 20
67.7190220102
 11
88.7156284887
 21
67.4190220102
  0
LINE
  5
359
100
AcDbEntity
  8
0
100
AcDbLine
 62
7
  6
CONTINUOUS
 10
89.2170696931
 20
67.7190220102
 11
89.2170696931
 21
67.4190220102
  0
LINE
  5
35A
100
AcDbEntity
  8
0
100
AcDbLine
 62
7
  6
CONTINUOUS
 10
89.50200434
 20
67.7190220102
 11
89.50200434
 21
67.4190220102
  0
LINE
  5
35B
100
AcDbEntity
  8
0
100
AcDbLine
 62
7
  6
CONTINUOUS
 10
89.608387455
 20
67.7190220102
 11
89.608387455
 21
67.4190220102
  0
LINE
  5
35C
100
AcDbEntity
  8
0
100
AcDbLine
 62
7
  6
CONTINUOUS
 10
89.7489846723
 20
67.7190220102
 11
89.7489846723
 21
67.4190220102
  0
LINE
  5
35D
100
AcDbEntity
  8
0
100
AcDbLine
 62
7
  6
CONTINUOUS
 10
89.7642214852
 20
67.7190220102
 11
89.7642214852
 21
67.4190220102
  0
LINE
  5
35E
100
AcDbEntity
  8
0
100
AcDbLine
 62
7
  6
CONTINUOUS
 10
90.2921207591
 20
67.7190220102
 11
90.2921207591
 21
67.4190220102
  0
LINE
  5
35F
100
AcDbEntity
  8
0
100
AcDbLine
 62
7
  6
CONTINUOUS
 10
90.4439390839
 20
67.7190220102
 11
90.4439390839
 21
67.4190220102
  0
LINE
  5
360
100
AcDbEntity
  8
RUNDUNGEN
100
AcDbLine
 62
7
  6
CONTINUOUS
 10
164.669999636
 20
67.6767318742
 11
149.7369476847
 21
64.053373817
  0
LWPOLYLINE
  5
361
100
AcDbEntity
  8
RUNDUNGEN
100
AcDbPolyline
 62
7
  6
CONTINUOUS
 90
3
 70
0
 10
164.6699998801
 20
67.6767319351
 10
164.6929368623
 20
67.6821223017
 10
164.7171454922
 20
67.6874288579
  0
LINE
  5
362
100
AcDbEntity
  8
RUNDUNGEN
100
AcDbLine
 62
7
  6
CONTINUOUS
 10
164.731432708
 20
67.6904688877
 11
164.8570819544
 21
67.7190749557
  0
LINE
  5
363
100
AcDbEntity
  8
RUNDUNGEN
100
AcDbLine
 62
7
  6
CONTINUOUS
 10
164.7131028628
 20
67.6865818493
 11
164.731432708
 21
67.6904688877
  0
LINE
  5
364
100
AcDbEntity
  8
RUNDUNGEN
100
AcDbLine
 62
7
  6
CONTINUOUS
 10
57.3204987738
 20
67.6874309515
 11
57.3244505388
 21
67.6866009111
  0
LINE
  5
365
100
AcDbEntity
  8
RUNDUNGEN
100
AcDbLine
 62
7
  6
CONTINUOUS
 10
57.3483267245
 20
67.6812949254
 11
57.3676443032
 21
67.6767318011
  0
LINE
  5
366
100
AcDbEntity
  8
RUNDUNGEN
100
AcDbLine
 62
7
  6
CONTINUOUS
 10
72.3006959461
 20
64.053373817
 11
57.3676439948
 21
67.6767318742
  0
LINE
  5
367
100
AcDbEntity
  8
0
100
AcDbLine
 62
7
  6
CONTINUOUS
 10
90.8047828645
 20
67.7190220102
 11
90.8047828645
 21
67.4190220102
  0
LINE
  5
368
100
AcDbEntity
  8
0
100
AcDbLine
 62
7
  6
CONTINUOUS
 10
91.2303148777
 20
67.7190220102
 11
91.2303148777
 21
67.4190220102
  0
LINE
  5
369
100
AcDbEntity
  8
0
100
AcDbLine
 62
7
  6
CONTINUOUS
 10
92.0241713602
 20
67.7190220102
 11
92.0241713602
 21
67.4190220102
  0
LINE
  5
36A
100
AcDbEntity
  8
0
100
AcDbLine
 62
7
  6
CONTINUOUS
 10
92.2369372923
 20
67.7190220102
 11
92.2369372923
 21
67.4190220102
  0
LINE
  5
36B
100
AcDbEntity
  8
0
100
AcDbLine
 62
7
  6
CONTINUOUS
 10
92.4005275786
 20
67.7190220102
 11
92.4005275786
 21
67.4190220102
  0
LINE
  5
36C
100
AcDbEntity
  8
0
100
AcDbLine
 62
7
  6
CONTINUOUS
 10
92.6322709863
 20
67.7190220102
 11
92.6322709863
 21
67.4190220102
  0
LINE
  5
36D
100
AcDbEntity
  8
0
100
AcDbLine
 62
7
  6
CONTINUOUS
 10
92.9551603033
 20
67.7190220102
 11
92.9551603033
 21
67.4190220102
  0
LINE
  5
36E
100
AcDbEntity
  8
0
100
AcDbLine
 62
7
  6
CONTINUOUS
 10
93.3691955855
 20
67.7190220102
 11
93.3691955855
 21
67.4190220102
  0
LINE
  5
36F
100
AcDbEntity
  8
0
100
AcDbLine
 62
7
  6
CONTINUOUS
 10
93.5819615362
 20
67.7190220102
 11
93.5819615362
 21
67.4190220102
  0
LINE
  5
370
100
AcDbEntity
  8
RUNDUNGEN
100
AcDbLine
 62
7
  6
CONTINUOUS
 10
137.5674055709
 20
63.577527551
 11
137.6737271786
 21
63.5890989876
  0
LINE
  5
371
100
AcDbEntity
  8
RUNDUNGEN
100
AcDbLine
 62
7
  6
CONTINUOUS
 10
137.6737271786
 20
63.5890989876
 11
138.0261560338
 21
63.6257233104
  0
LWPOLYLINE
  5
372
100
AcDbEntity
  8
RUNDUNGEN
100
AcDbPolyline
 62
7
  6
CONTINUOUS
 90
15
 70
0
 10
138.0261560338
 20
63.6257233104
 10
138.409781234
 20
63.6622022331
 10
138.8260872451
 20
63.6983469064
 10
139.2752336167
 20
63.7338405324
 10
139.7578226143
 20
63.7683768266
 10
140.2731569524
 20
63.8015942697
 10
140.8205570996
 20
63.833138298
 10
141.3991006409
 20
63.8626292087
 10
142.0075851321
 20
63.8897231519
 10
142.6444087411
 20
63.9140534981
 10
143.3076377721
 20
63.9352412362
 10
143.9952451569
 20
63.9529667049
 10
144.7047931409
 20
63.9669025807
 10
145.4337224338
 20
63.9766949735
 10
146.1781662222
 20
63.9819861973
  0
LINE
  5
373
100
AcDbEntity
  8
RUNDUNGEN
100
AcDbLine
 62
7
  6
CONTINUOUS
 10
83.9803349303
 20
63.6288106761
 11
84.3105526708
 21
63.5948546799
  0
LINE
  5
374
100
AcDbEntity
  8
RUNDUNGEN
100
AcDbLine
 62
7
  6
CONTINUOUS
 10
84.3105526708
 20
63.5948546799
 11
84.4701158294
 21
63.5774049325
  0
LWPOLYLINE
  5
375
100
AcDbEntity
  8
RUNDUNGEN
100
AcDbPolyline
 62
7
  6
CONTINUOUS
 90
7
 70
0
 10
84.4700921177
 20
63.5775445575
 10
84.5501917686
 20
63.5674983679
 10
84.9189273275
 20
63.4919440958
 10
85.2785519071
 20
63.368839877
 10
85.6216768318
 20
63.1995720033
 10
85.9414121443
 20
62.9867679256
 10
86.2321035338
 20
62.7335767886
  0
LINE
  5
376
100
AcDbEntity
  8
RUNDUNGEN
100
AcDbLine
 62
7
  6
CONTINUOUS
 10
149.1474521866
 20
63.9828789225
 11
146.1781662222
 21
63.9819861973
  0
LINE
  5
377
100
AcDbEntity
  8
0
100
AcDbLine
 62
7
  6
CONTINUOUS
 10
117.7688214339
 20
67.4190220102
 11
113.7688218154
 21
67.4190220102
  0
LINE
  5
378
100
AcDbEntity
  8
0
100
AcDbLine
 62
7
  6
CONTINUOUS
 10
112.9688220061
 20
67.4190220102
 11
109.36882172
 21
67.4190220102
  0
LINE
  5
379
100
AcDbEntity
  8
0
100
AcDbLine
 62
7
  6
CONTINUOUS
 10
108.5688219108
 20
67.4190220102
 11
104.7688218154
 21
67.4190220102
  0
LINE
  5
37A
100
AcDbEntity
  8
0
100
AcDbLine
 62
7
  6
CONTINUOUS
 10
93.5819615362
 20
67.4190220102
 11
86.8354997681
 21
67.4190220102
  0
LINE
  5
37B
100
AcDbEntity
  8
0
100
AcDbLine
 62
7
  6
CONTINUOUS
 10
76.3426790526
 20
67.4190220102
 11
62.4565499749
 21
67.4190220102
  0
LWPOLYLINE
  5
37C
100
AcDbEntity
  8
RUNDUNGEN
100
AcDbPolyline
 62
7
  6
CONTINUOUS
 90
17
 70
0
 10
72.8901914442
 20
63.9828789225
 10
75.8309063427
 20
63.9820949129
 10
76.5241695136
 20
63.977489462
 10
77.2043577503
 20
63.968960903
 10
77.868278731
 20
63.9567913156
 10
78.5137344574
 20
63.9412722154
 10
79.1387619219
 20
63.9226709771
 10
79.7417086377
 20
63.9012367042
 10
80.3208770355
 20
63.8772569718
 10
80.8748503294
 20
63.8510398224
 10
81.4025415872
 20
63.8228629978
 10
81.9030721961
 20
63.7930104265
 10
82.3757113224
 20
63.7617909578
 10
82.8199152917
 20
63.7294845279
 10
83.2354701416
 20
63.6963591178
 10
83.622042161
 20
63.6627310075
 10
83.9803349303
 20
63.6288106761
  0
LINE
  5
37D
100
AcDbEntity
  8
RUNDUNGEN
100
AcDbLine
 62
7
  6
CONTINUOUS
 10
57.855666573
 20
67.7190220102
 11
164.1819770577
 21
67.7190220102
  0
LINE
  5
37E
100
AcDbEntity
  8
0
100
AcDbLine
 62
7
  6
CONTINUOUS
 10
104.7688218154
 20
67.7190220102
 11
104.7688218154
 21
67.4190220102
  0
LINE
  5
37F
100
AcDbEntity
  8
0
100
AcDbLine
 62
7
  6
CONTINUOUS
 10
108.5688219108
 20
67.7190220102
 11
108.5688219108
 21
67.4190220102
  0
LINE
  5
380
100
AcDbEntity
  8
0
100
AcDbLine
 62
7
  6
CONTINUOUS
 10
109.36882172
 20
67.7190220102
 11
109.36882172
 21
67.4190220102
  0
LINE
  5
381
100
AcDbEntity
  8
B-ACHSEN
100
AcDbLine
 62
2
  6
CENTER
 10
111.0188218154
 20
79.7190220102
 11
111.0188218154
 21
46.7190220102
  0
LINE
  5
382
100
AcDbEntity
  8
B-ACHSEN
100
AcDbLine
 62
2
  6
CENTER
 10
111.0188218154
 20
79.7190220102
 11
111.0188218154
 21
112.7190220102
  0
LINE
  5
383
100
AcDbEntity
  8
B-ACHSEN
100
AcDbLine
 62
2
  6
CENTER
 10
111.0188218154
 20
79.7190220102
 11
78.0188218154
 21
79.7190220102
  0
LINE
  5
384
100
AcDbEntity
  8
B-ACHSEN
100
AcDbLine
 62
2
  6
CENTER
 10
111.0188218154
 20
79.7190220102
 11
144.0188218154
 21
79.7190220102
  0
LINE
  5
385
100
AcDbEntity
  8
0
100
AcDbLine
 62
7
  6
CONTINUOUS
 10
112.9688220061
 20
67.7190220102
 11
112.9688220061
 21
67.4190220102
  0
LINE
  5
386
100
AcDbEntity
  8
0
100
AcDbLine
 62
7
  6
CONTINUOUS
 10
113.7688218154
 20
67.7190220102
 11
113.7688218154
 21
67.4190220102
  0
LINE
  5
387
100
AcDbEntity
  8
0
100
AcDbLine
 62
7
  6
CONTINUOUS
 10
117.7688214339
 20
67.7190220102
 11
117.7688214339
 21
67.4190220102
  0
LINE
  5
388
100
AcDbEntity
  8
RUNDUNGEN
100
AcDbLine
 62
7
  6
CONTINUOUS
 10
164.1819770577
 20
91.7190220102
 11
57.855666573
 21
91.7190220102
  0
LINE
  5
389
100
AcDbEntity
  8
RUNDUNGEN
100
AcDbLine
 62
7
  6
CONTINUOUS
 10
72.8901914442
 20
95.455165098
 11
75.8594774085
 21
95.4560578231
  0
LWPOLYLINE
  5
38A
100
AcDbEntity
  8
RUNDUNGEN
100
AcDbPolyline
 62
7
  6
CONTINUOUS
 90
17
 70
0
 10
149.1474521866
 20
95.455165098
 10
146.2067372881
 20
95.4559491075
 10
145.5134741171
 20
95.4605545585
 10
144.8332858805
 20
95.4690831174
 10
144.1693648998
 20
95.4812527049
 10
143.5239091733
 20
95.496771805
 10
142.8988817088
 20
95.5153730433
 10
142.2959349931
 20
95.5368073162
 10
141.7167665953
 20
95.5607870487
 10
141.1627933013
 20
95.5870041981
 10
140.6351020436
 20
95.6151810226
 10
140.1345714346
 20
95.645033594
 10
139.6619323083
 20
95.6762530626
 10
139.217728339
 20
95.7085594926
 10
138.8021734892
 20
95.7416849027
 10
138.4156014697
 20
95.7753130129
 10
138.0573087005
 20
95.8092333444
  0
LINE
  5
38B
100
AcDbEntity
  8
RUNDUNGEN
100
AcDbLine
 62
7
  6
CONTINUOUS
 10
84.4702380598
 20
95.8605164695
 11
84.3639164521
 21
95.8489450329
  0
LINE
  5
38C
100
AcDbEntity
  8
RUNDUNGEN
100
AcDbLine
 62
7
  6
CONTINUOUS
 10
84.3639164521
 20
95.8489450329
 11
84.0114875969
 21
95.8123207101
  0
LWPOLYLINE
  5
38D
100
AcDbEntity
  8
RUNDUNGEN
100
AcDbPolyline
 62
7
  6
CONTINUOUS
 90
15
 70
0
 10
84.0114875969
 20
95.8123207101
 10
83.6278623967
 20
95.7758417874
 10
83.2115563857
 20
95.739697114
 10
82.7624100141
 20
95.7042034881
 10
82.2798210165
 20
95.6696671938
 10
81.7644866784
 20
95.6364497508
 10
81.2170865312
 20
95.6049057224
 10
80.6385429899
 20
95.5754148117
 10
80.0300584987
 20
95.5483208685
 10
79.3932348897
 20
95.5239905224
 10
78.7300058587
 20
95.5028027842
 10
78.0423984738
 20
95.4850773155
 10
77.3328504899
 20
95.4711414397
 10
76.603921197
 20
95.4613490469
 10
75.8594774085
 20
95.4560578231
  0
LINE
  5
38E
100
AcDbEntity
  8
RUNDUNGEN
100
AcDbLine
 62
7
  6
CONTINUOUS
 10
138.0573087005
 20
95.8092333444
 11
137.72709096
 21
95.8431893405
  0
LINE
  5
38F
100
AcDbEntity
  8
RUNDUNGEN
100
AcDbLine
 62
7
  6
CONTINUOUS
 10
137.72709096
 20
95.8431893405
 11
137.5675278014
 21
95.860639088
  0
LWPOLYLINE
  5
390
100
AcDbEntity
  8
RUNDUNGEN
100
AcDbPolyline
 62
7
  6
CONTINUOUS
 90
7
 70
0
 10
137.5675515131
 20
95.860499463
 10
137.4874518622
 20
95.8705456525
 10
137.1187163032
 20
95.9460999246
 10
136.7590917236
 20
96.0692041435
 10
136.4159667989
 20
96.2384720172
 10
136.0962314865
 20
96.4512760949
 10
135.805540097
 20
96.7044672318
  0
LWPOLYLINE
  5
391
100
AcDbEntity
  8
RUNDUNGEN
100
AcDbPolyline
 62
7
  6
CONTINUOUS
 90
16
 70
0
 10
57.1805727544
 20
91.7189717987
 10
57.0500364247
 20
91.6849036244
 10
56.9070834884
 20
91.641212021
 10
56.7387704498
 20
91.5794364905
 10
56.5598120591
 20
91.4994737303
 10
56.3825829931
 20
91.4035865533
 10
56.2053598051
 20
91.2884212173
 10
56.0324564561
 20
91.1539813585
 10
55.8647307455
 20
90.9978673695
 10
55.7049074308
 20
90.8185815676
 10
55.556205942
 20
90.6146640233
 10
55.4225554524
 20
90.3848914906
 10
55.309034291
 20
90.1293518036
 10
55.2211086024
 20
89.8486496472
 10
55.1648652403
 20
89.5450610808
 10
55.1463885354
 20
89.2413629702
  0
LINE
  5
392
100
AcDbEntity
  8
RUNDUNGEN
100
AcDbLine
 62
7
  6
CONTINUOUS
 10
57.3676439948
 20
91.7613121463
 11
72.3006959461
 21
95.3846702035
  0
LWPOLYLINE
  5
393
100
AcDbEntity
  8
RUNDUNGEN
100
AcDbPolyline
 62
7
  6
CONTINUOUS
 90
3
 70
0
 10
57.3676437406
 20
91.7613120828
 10
57.3447090354
 20
91.7559222338
 10
57.3204981636
 20
91.7506151677
  0
LINE
  5
394
100
AcDbEntity
  8
RUNDUNGEN
100
AcDbLine
 62
7
  6
CONTINUOUS
 10
57.3062239296
 20
91.7475777067
 11
57.1805727544
 21
91.7189717987
  0
LINE
  5
395
100
AcDbEntity
  8
RUNDUNGEN
100
AcDbLine
 62
7
  6
CONTINUOUS
 10
57.3245503918
 20
91.7514639826
 11
57.3062239296
 21
91.7475777067
  0
LINE
  5
396
100
AcDbEntity
  8
RUNDUNGEN
100
AcDbLine
 62
7
  6
CONTINUOUS
 10
164.7171449563
 20
91.7506132533
 11
164.7132031548
 21
91.7514412059
  0
LINE
  5
397
100
AcDbEntity
  8
RUNDUNGEN
100
AcDbLine
 62
7
  6
CONTINUOUS
 10
164.6893260775
 20
91.7567469886
 11
164.6699993649
 21
91.7613122117
  0
LINE
  5
398
100
AcDbEntity
  8
RUNDUNGEN
100
AcDbLine
 62
7
  6
CONTINUOUS
 10
149.7369476847
 20
95.3846702035
 11
164.669999636
 21
91.7613121463
  0
LINE
  5
399
100
AcDbEntity
  8
RUNDUNGEN
100
AcDbLine
 62
7
  6
CONTINUOUS
 10
135.5015552973
 20
62.3808188103
 11
135.4747299249
 21
62.3436697061
  0
LINE
  5
39A
100
AcDbEntity
  8
RUNDUNGEN
100
AcDbLine
 62
7
  6
CONTINUOUS
 10
135.5015552973
 20
62.3808188103
 11
135.5344673138
 21
62.4248131624
  0
LINE
  5
39B
100
AcDbEntity
  8
RUNDUNGEN
100
AcDbLine
 62
7
  6
CONTINUOUS
 10
135.5344673138
 20
62.4248131624
 11
135.7907906484
 21
62.7188434051
  0
LWPOLYLINE
  5
39C
100
AcDbEntity
  8
RUNDUNGEN
100
AcDbPolyline
 62
7
  6
CONTINUOUS
 90
7
 70
0
 10
135.7907906484
 20
62.7188434051
 10
136.0824755233
 20
62.9762071757
 10
136.4039895754
 20
63.1926341873
 10
136.7495539318
 20
63.3648561599
 10
137.1121094955
 20
63.4901375144
 10
137.4840802649
 20
63.5670260431
 10
137.5675628432
 20
63.5775451869
  0
LINE
  5
39D
100
AcDbEntity
  8
RUNDUNGEN
100
AcDbLine
 62
7
  6
CONTINUOUS
 10
135.805540097
 20
96.7044672318
 11
135.5493166011
 21
96.9939203703
  0
LINE
  5
39E
100
AcDbEntity
  8
RUNDUNGEN
100
AcDbLine
 62
7
  6
CONTINUOUS
 10
135.5493166011
 20
96.9939203703
 11
135.501662739
 21
97.0570766268
  0
LINE
  5
39F
100
AcDbEntity
  8
RUNDUNGEN
100
AcDbLine
 62
7
  6
CONTINUOUS
 10
135.5017511928
 20
97.0571414596
 11
135.474819849
 21
97.0944382745
  0
LWPOLYLINE
  5
3A0
100
AcDbEntity
  8
RUNDUNGEN
100
AcDbPolyline
 62
7
  6
CONTINUOUS
 90
17
 70
0
 10
166.8912552179
 20
89.2413564502
 10
166.873106693
 20
89.5423576939
 10
166.8169977417
 20
89.8467914733
 10
166.7286421906
 20
90.1292622067
 10
166.6139693604
 20
90.3870681229
 10
166.4785418723
 20
90.6190735736
 10
166.3277847642
 20
90.8246794571
 10
166.1657612821
 20
91.0051270105
 10
165.995932487
 20
91.161803588
 10
165.8211527939
 20
91.2962841958
 10
165.6423071219
 20
91.411094411
 10
165.4640806137
 20
91.5061888428
 10
165.2851584191
 20
91.5849313354
 10
165.1175291859
 20
91.6455065693
 10
164.9759810928
 20
91.6881454841
 10
164.8468058496
 20
91.7214492759
 10
164.6893260775
 20
91.7567469886
  0
LINE
  5
3A1
100
AcDbEntity
  8
RUNDUNGEN
100
AcDbLine
 62
7
  6
CONTINUOUS
 10
166.8912552291
 20
70.1966738877
 11
166.8912552291
 21
89.2413701292
  0
ARC
  5
3A2
100
AcDbEntity
  8
RUNDUNGEN
100
AcDbCircle
 62
7
  6
CONTINUOUS
 10
73.0188218154
 20
165.2666589317
 40
8.0
100
AcDbArc
 50
0.0
 51
90.0
  0
ARC
  5
3A3
100
AcDbEntity
  8
RUNDUNGEN
100
AcDbCircle
 62
7
  6
CONTINUOUS
 10
60.1463884016
 20
213.0657358977
 40
5.0
100
AcDbArc
 50
157.5
 51
202.5
  0
ARC
  5
3A4
100
AcDbEntity
  8
RUNDUNGEN
100
AcDbCircle
 62
7
  6
CONTINUOUS
 10
72.8901914442
 20
175.7666589317
 40
2.5
100
AcDbArc
 50
202.5
 51
270.0
  0
ARC
  5
3A5
100
AcDbEntity
  8
RUNDUNGEN
100
AcDbCircle
 62
7
  6
CONTINUOUS
 10
75.0465791731
 20
249.03797854
 40
5.0
100
AcDbArc
 50
112.5
 51
157.5
  0
CIRCLE
  5
3A6
100
AcDbEntity
  8
RUNDUNGEN
100
AcDbCircle
 62
7
  6
CONTINUOUS
 10
111.0188218154
 20
213.0657358977
 40
30.0
  0
ARC
  5
3A7
100
AcDbEntity
  8
RUNDUNGEN
100
AcDbCircle
 62
7
  6
CONTINUOUS
 10
149.0188218154
 20
165.2666589317
 40
8.0
100
AcDbArc
 50
90.0
 51
180.0
  0
ARC
  5
3A8
100
AcDbEntity
  8
RUNDUNGEN
100
AcDbCircle
 62
7
  6
CONTINUOUS
 10
149.1474521866
 20
175.7666589317
 40
2.5
100
AcDbArc
 50
270.0
 51
337.5
  0
ARC
  5
3A9
100
AcDbEntity
  8
RUNDUNGEN
100
AcDbCircle
 62
7
  6
CONTINUOUS
 10
161.8912552291
 20
213.0657358977
 40
5.0
100
AcDbArc
 50
337.5
 51
22.5
  0
ARC
  5
3AA
100
AcDbEntity
  8
RUNDUNGEN
100
AcDbCircle
 62
7
  6
CONTINUOUS
 10
146.9910644577
 20
249.03797854
 40
5.0
100
AcDbArc
 50
22.5
 51
67.5
  0
ARC
  5
3AB
100
AcDbEntity
  8
RUNDUNGEN
100
AcDbCircle
 62
7
  6
CONTINUOUS
 10
111.0188218154
 20
263.9381693114
 40
5.0
100
AcDbArc
 50
67.5
 51
112.5
  0
ARC
  5
3AC
100
AcDbEntity
  8
RUNDUNGEN
100
AcDbCircle
 62
7
  6
CONTINUOUS
 10
327.3771289406
 20
214.0682590158
 40
20.0
100
AcDbArc
 50
180.0
 51
185.7392307127
  0
ARC
  5
3AD
100
AcDbEntity
  8
RUNDUNGEN
100
AcDbCircle
 62
7
  6
CONTINUOUS
 10
263.3771289406
 20
214.0682590158
 40
20.0
100
AcDbArc
 50
354.2607692873
 51
360.0
  0
ARC
  5
3AE
100
AcDbEntity
  8
RUNDUNGEN
100
AcDbCircle
 62
8
  6
HIDDEN
 10
295.3771289406
 20
255.0657358977
 40
12.0
100
AcDbArc
 50
180.0
 51
360.0
  0
ARC
  5
3AF
100
AcDbEntity
  8
B-ACHSEN
100
AcDbCircle
 62
7
  6
CONTINUOUS
 10
271.3771289406
 20
171.1396058541
 40
6.0
100
AcDbArc
 50
99.0
 51
180.0
  0
ARC
  5
3B0
100
AcDbEntity
  8
B-ACHSEN
100
AcDbCircle
 62
7
  6
CONTINUOUS
 10
319.3771289406
 20
171.1396058541
 40
6.0
100
AcDbArc
 50
0.0
 51
81.0
  0
ARC
  5
3B1
100
AcDbEntity
  8
RUNDUNGEN
100
AcDbCircle
 62
7
  6
CONTINUOUS
 10
277.1781611539
 20
181.1705605679
 40
2.9999981507
100
AcDbArc
 50
279.0000000058
 51
343.4748929985
  0
ARC
  5
3B2
100
AcDbEntity
  8
RUNDUNGEN
100
AcDbCircle
 62
7
  6
CONTINUOUS
 10
285.8771289406
 20
266.4381693114
 40
2.5
100
AcDbArc
 50
90.0
 51
180.0000003972
  0
ARC
  5
3B3
100
AcDbEntity
  8
RUNDUNGEN
100
AcDbCircle
 62
7
  6
CONTINUOUS
 10
304.8771289406
 20
266.4381693114
 40
2.5
100
AcDbArc
 50
359.9999996033
 51
90.0
  0
ARC
  5
3B4
100
AcDbEntity
  8
RUNDUNGEN
100
AcDbCircle
 62
7
  6
CONTINUOUS
 10
308.6132752058
 20
175.7666273167
 40
2.4999924726
100
AcDbArc
 50
269.9999271771
 51
5.7392307127
  0
ARC
  5
3B5
100
AcDbEntity
  8
RUNDUNGEN
100
AcDbCircle
 62
7
  6
CONTINUOUS
 10
282.1409826754
 20
175.7666273167
 40
2.4999924726
100
AcDbArc
 50
174.2600410749
 51
270.0000728229
  0
ARC
  5
3B6
100
AcDbEntity
  8
RUNDUNGEN
100
AcDbCircle
 62
7
  6
CONTINUOUS
 10
57.8556666129
 20
63.3760491158
 40
4.3429728945
100
AcDbArc
 50
90.0000005264
 51
90.2503602795
  0
ARC
  5
3B7
100
AcDbEntity
  8
RUNDUNGEN
100
AcDbCircle
 62
7
  6
CONTINUOUS
 10
84.1216377859
 20
60.6096266243
 40
2.9941930224
100
AcDbArc
 50
36.2938415476
 51
81.1184575337
  0
ARC
  5
3B8
100
AcDbEntity
  8
RUNDUNGEN
100
AcDbCircle
 62
7
  6
CONTINUOUS
 10
72.8906873528
 20
66.4940148203
 40
2.5109908871
100
AcDbArc
 50
256.3810930586
 51
269.9887681701
  0
ARC
  5
3B9
100
AcDbEntity
  8
RUNDUNGEN
100
AcDbCircle
 62
7
  6
CONTINUOUS
 10
57.855666613
 20
96.0619949097
 40
4.3429728994
100
AcDbArc
 50
269.7496397207
 51
269.9999994735
  0
ARC
  5
3BA
100
AcDbEntity
  8
RUNDUNGEN
100
AcDbCircle
 62
7
  6
CONTINUOUS
 10
84.1216148135
 20
98.8286399068
 40
2.9944545874
100
AcDbArc
 50
278.8813217497
 51
323.7072103246
  0
ARC
  5
3BB
100
AcDbEntity
  8
RUNDUNGEN
100
AcDbCircle
 62
7
  6
CONTINUOUS
 10
72.8915795827
 20
92.9437727859
 40
2.5113926957
100
AcDbArc
 50
90.0316694721
 51
103.617305717
  0
ARC
  5
3BC
100
AcDbEntity
  8
RUNDUNGEN
100
AcDbCircle
 62
7
  6
CONTINUOUS
 10
164.181977018
 20
63.3760491783
 40
4.3429728319
100
AcDbArc
 50
89.7496397188
 51
89.9999994755
  0
ARC
  5
3BD
100
AcDbEntity
  8
RUNDUNGEN
100
AcDbCircle
 62
7
  6
CONTINUOUS
 10
137.9160288172
 20
60.6094041136
 40
2.9944545874
100
AcDbArc
 50
98.8813217497
 51
143.7072103246
  0
ARC
  5
3BE
100
AcDbEntity
  8
RUNDUNGEN
100
AcDbCircle
 62
7
  6
CONTINUOUS
 10
149.1460640481
 20
66.4942712345
 40
2.5113926957
100
AcDbArc
 50
270.0316694721
 51
283.617305717
  0
ARC
  5
3BF
100
AcDbEntity
  8
B-ACHSEN
100
AcDbCircle
 62
7
  6
CONTINUOUS
 10
111.0188218154
 20
79.7190220102
 40
30.0
100
AcDbArc
 50
215.3929059225
 51
324.6070941779
  0
ARC
  5
3C0
100
AcDbEntity
  8
B-ACHSEN
100
AcDbCircle
 62
7
  6
CONTINUOUS
 10
111.0188218154
 20
79.7190220102
 40
30.0
100
AcDbArc
 50
35.3929059225
 51
144.6070941779
  0
ARC
  5
3C1
100
AcDbEntity
  8
RUNDUNGEN
100
AcDbCircle
 62
7
  6
CONTINUOUS
 10
111.0188218154
 20
79.7190220102
 40
30.0
100
AcDbArc
 50
215.3929059225
 51
324.6070941779
  0
ARC
  5
3C2
100
AcDbEntity
  8
RUNDUNGEN
100
AcDbCircle
 62
7
  6
CONTINUOUS
 10
111.0188218154
 20
79.7190220102
 40
30.0
100
AcDbArc
 50
35.3929059225
 51
144.6070941779
  0
CIRCLE
  5
3C3
100
AcDbEntity
  8
DEFAULT_2
100
AcDbCircle
 62
8
  6
HIDDEN
 10
111.0188218154
 20
79.7190220102
 40
12.0
  0
ARC
  5
3C4
100
AcDbEntity
  8
RUNDUNGEN
100
AcDbCircle
 62
7
  6
CONTINUOUS
 10
164.1819770247
 20
96.0619917686
 40
4.3429697584
100
AcDbArc
 50
270.000000436
 51
270.2503603699
  0
ARC
  5
3C5
100
AcDbEntity
  8
RUNDUNGEN
100
AcDbCircle
 62
7
  6
CONTINUOUS
 10
137.9160058448
 20
98.8284173962
 40
2.9941930224
100
AcDbArc
 50
216.2938415476
 51
261.1184575337
  0
ARC
  5
3C6
100
AcDbEntity
  8
RUNDUNGEN
100
AcDbCircle
 62
7
  6
CONTINUOUS
 10
149.146956278
 20
92.9440292002
 40
2.5109908871
100
AcDbArc
 50
76.3810930586
 51
89.9887681701
  0
SPLINE
  5
3C7
100
AcDbEntity
  8
RUNDUNGEN
100
AcDbSpline
 62
7
  6
CONTINUOUS
 70
0
 71
3
 72
13
 73
9
 74
0
 42
0.0000001
 43
0.0000001
 44
0.0000000001
 40
0.0
 40
0.0
 40
0.0
 40
0.0
 40
0.2512919025
 40
0.5008757269
 40
0.6255516952
 40
0.7501206875
 40
0.8748368863
 40
1.0
 40
1.0
 40
1.0
 40
1.0
 10
146.639104186
 20
173.2666589317
 30
0.0
 10
145.4766333931
 20
173.2665933116
 30
0.0
 10
143.1459879681
 20
172.8496213024
 30
0.0
 10
140.5566008179
 20
171.4531986925
 30
0.0
 10
138.8309854155
 20
169.9077910365
 30
0.0
 10
137.7533399633
 20
168.541545199
 30
0.0
 10
136.9646191733
 20
166.9851051614
 30
0.0
 10
136.6999850258
 20
165.8434547286
 30
0.0
 10
136.6494905224
 20
165.2666589317
 30
0.0
  0
SPLINE
  5
3C8
100
AcDbEntity
  8
RUNDUNGEN
100
AcDbSpline
 62
7
  6
CONTINUOUS
 70
0
 71
3
 72
13
 73
9
 74
0
 42
0.0000001
 43
0.0000001
 44
0.0000000001
 40
0.0
 40
0.0
 40
0.0
 40
0.0
 40
0.1251686902
 40
0.2498895455
 40
0.3744626923
 40
0.4991423902
 40
0.7487263387
 40
1.0
 40
1.0
 40
1.0
 40
1.0
 10
85.388142326
 20
165.2666589317
 30
0.0
 10
85.3376499755
 20
165.8434807785
 30
0.0
 10
85.0730080012
 20
166.9851813429
 30
0.0
 10
84.2842254796
 20
168.5416654291
 30
0.0
 10
83.2065308485
 20
169.907947491
 30
0.0
 10
81.4808360287
 20
171.4533235543
 30
0.0
 10
78.8914869026
 20
172.8496680918
 30
0.0
 10
76.5609257867
 20
173.266593069
 30
0.0
 10
75.3985394448
 20
173.2666589317
 30
0.0
  0
ENDSEC
  0
SECTION
  2
OBJECTS
  0
DICTIONARY
  5
C
100
AcDbDictionary
280
0
281
1
  3
ACAD_GROUP
350
D
  3
ACAD_MLINESTYLE
350
17
  3
ACAD_LAYOUT
350
1A
  3
ACAD_PLOTSETTINGS
350
19
  3
ACAD_PLOTSTYLENAME
350
E
  0
DICTIONARY
  5
D
102
{ACAD_REACTORS
330
C
102
}
100
AcDbDictionary
280
0
281
1
  0
ACDBDICTIONARYWDFLT
  5
E
102
{ACAD_REACTORS
330
C
102
}
100
AcDbDictionary
281
1
  3
Normal
350
F
100
AcDbDictionaryWithDefault
340
F
  0
DICTIONARY
  5
17
102
{ACAD_REACTORS
330
C
102
}
100
AcDbDictionary
280
0
281
1
  3
Standard
350
18
  0
DICTIONARY
  5
19
102
{ACAD_REACTORS
330
C
102
}
100
AcDbDictionary
281
1
  0
DICTIONARY
  5
1A
102
{ACAD_REACTORS
330
C
102
}
100
AcDbDictionary
281
1
  3
Model
350
3C9
  3
Layout1
350
3CA
  0
ACDBPLACEHOLDER
  5
F
102
{ACAD_REACTORS
330
E
102
}
  0
MLINESTYLE
  5
18
102
{ACAD_REACTORS
330
17
102
}
100
AcDbMlineStyle
  2
STANDARD
 70
0
  3

 62
256
 51
90.0
 52
90.0
 71
2
 49
0.5
 62
256
  6
BYLAYER
 49
-0.5
 62
256
  6
BYLAYER
  0
LAYOUT
  5
3C9
102
{ACAD_REACTORS
330
1A
102
}
100
AcDbPlotSettings
  1

  2
none_device
  4
ISO_A3_(420.00_x_297.00_MM)
  6

 40
0.0
 41
0.0
 42
0.0
 43
0.0
 44
420.0
 45
297.0
 46
0.0
 47
0.0
 48
0.0
 49
0.0
140
0.0
141
0.0
142
1.0
143
1.0
 70
1024
 72
1
 73
0
 74
0
  7

 75
0
147
1.0
148
0.0
149
0.0
100
AcDbLayout
  1
Model
 70
0
 71
0
 10
0.0
 20
0.0
 11
420.0
 21
297.0
 12
0.0
 22
0.0
 32
0.0
 14
0.0
 24
0.0
 34
0.0
 15
0.0
 25
0.0
 35
0.0
146
0.0
 13
0.0
 23
0.0
 33
0.0
 16
1.0
 26
0.0
 36
0.0
 17
0.0
 27
1.0
 37
0.0
 76
0
330
208
345
0
346
0
  0
LAYOUT
  5
3CA
102
{ACAD_REACTORS
330
1A
102
}
100
AcDbPlotSettings
  1

  2
none_device
  4
ISO_A3_(420.00_x_297.00_MM)
  6

 40
0.0
 41
0.0
 42
0.0
 43
0.0
 44
420.0
 45
297.0
 46
0.0
 47
0.0
 48
0.0
 49
0.0
140
0.0
141
0.0
142
1.0
143
1.0
 70
0
 72
1
 73
0
 74
0
  7

 75
0
147
1.0
148
0.0
149
0.0
100
AcDbLayout
  1
Layout1
 70
0
 71
1
 10
0.0
 20
0.0
 11
420.0
 21
297.0
 12
0.0
 22
0.0
 32
0.0
 14
0.0
 24
0.0
 34
0.0
 15
0.0
 25
0.0
 35
0.0
146
0.0
 13
0.0
 23
0.0
 33
0.0
 16
1.0
 26
0.0
 36
0.0
 17
0.0
 27
1.0
 37
0.0
 76
0
330
209
345
0
346
0
  0
ENDSEC
  0
EOF
