999
DXF file: rm_m22_dxf.dxf
999
Pro/ENGINEER 2011490 by Parametric Technology Corporation
  0
SECTION
  2
HEADER
  9
$ACADVER
  1
AC1021
  9
$DWGCODEPAGE
  3
ANSI_1252
  9
$EXTMAX
 10
420.0
 20
297.0
 30
0.0
  9
$EXTMIN
 10
0.0
 20
0.0
 30
0.0
  9
$LIMMIN
 10
0.0
 20
0.0
  9
$LIMMAX
 10
420.0
 20
297.0
  9
$VIEWCTR
 10
210.0
 20
148.5
  9
$VIEWSIZE
 40
297.0
  9
$CLAYER
  8
0
  9
$LTSCALE
 40
23.1
  9
$CELTYPE
  6
BYLAYER
  9
$DIMSCALE
 40
1.0
  9
$DIMASZ
 40
3.5
  9
$DIMEXO
 40
2.625
  9
$DIMDLI
 40
15.96
  9
$DIMEXE
 40
7.56
  9
$DIMCEN
 40
3.78
  9
$DIMLFAC
 40
1.0
  9
$DIMBLK
  1
_FILLED
  9
$DIMTXT
 40
3.5
  9
$DIMTOL
 70
1
  9
$DIMLIM
 70
0
  9
$DIMTFAC
 40
1.0
  9
$DIMTP
 40
0.005
  9
$DIMTM
 40
0.005
  9
$PDMODE
 70
3
  9
$PDSIZE
 40
0.3125
  9
$HANDSEED
  5
3E6
  9
$TILEMODE
 70
1
  9
$MEASUREMENT
 70
1
  9
$INSUNITS
 70
4
  0
ENDSEC
  0
SECTION
  2
CLASSES
  0
CLASS
  1
ACDBDICTIONARYWDFLT
  2
AcDbDictionaryWithDefault
  3
AutoCAD 2000
 90
0
 91
1
280
0
281
0
  0
CLASS
  1
ACDBPLACEHOLDER
  2
AcDbPlaceHolder
  3
AutoCAD 2000
 90
0
 91
1
280
0
281
0
  0
CLASS
  1
LAYOUT
  2
AcDbLayout
  3
AutoCAD 2000
 90
0
 91
0
280
0
281
0
  0
ENDSEC
  0
SECTION
  2
TABLES
  0
TABLE
  2
VPORT
  5
8
100
AcDbSymbolTable
 70
2
  0
VPORT
  5
1F4
100
AcDbSymbolTableRecord
100
AcDbViewportTableRecord
  2
*ACTIVE
 70
0
 10
0.0
 20
0.0
 11
1.0
 21
1.0
 12
210.0
 22
148.5
 13
0.0
 23
0.0
 14
1.0
 24
1.0
 15
0.0
 25
0.0
 16
0.0
 26
0.0
 36
1.0
 17
0.0
 27
0.0
 37
0.0
 40
297.0
 41
1.4141414141
 42
50.0
 43
0.0
 44
0.0
 50
0.0
 51
0.0
 71
0
 72
100
 73
1
 74
1
 75
0
 76
0
 77
0
 78
0
  0
ENDTAB
  0
TABLE
  2
LTYPE
  5
5
100
AcDbSymbolTable
 70
6
  0
LTYPE
  5
14
100
AcDbSymbolTableRecord
100
AcDbLinetypeTableRecord
  2
BYBLOCK
 70
0
  3

 72
65
 73
0
 40
0.0
  0
LTYPE
  5
15
100
AcDbSymbolTableRecord
100
AcDbLinetypeTableRecord
  2
BYLAYER
 70
0
  3

 72
65
 73
0
 40
0.0
  0
LTYPE
  5
16
100
AcDbSymbolTableRecord
100
AcDbLinetypeTableRecord
  2
CONTINUOUS
 70
64
  3
Solid line
 72
65
 73
0
 40
0.0
  0
LTYPE
  5
1F5
100
AcDbSymbolTableRecord
100
AcDbLinetypeTableRecord
  2
CENTER
 70
64
  3
____ _ ____ _ ____ _ ____ _ ____ _ ____ _ ____
 72
65
 73
4
 40
0.6
 49
0.375
 74
0
 49
-0.075
 74
0
 49
0.075
 74
0
 49
-0.075
 74
0
  0
LTYPE
  5
1F6
100
AcDbSymbolTableRecord
100
AcDbLinetypeTableRecord
  2
HIDDEN
 70
64
  3
- - - - - - - - - - - - - - - - - - - -
 72
65
 73
2
 40
0.2
 49
0.1
 74
0
 49
-0.1
 74
0
  0
LTYPE
  5
1F7
100
AcDbSymbolTableRecord
100
AcDbLinetypeTableRecord
  2
PHANTOM
 70
64
  3
_____ _ _ _____ _ _ _____ _ _ _____
 72
65
 73
6
 40
0.8
 49
0.45
 74
0
 49
-0.05
 74
0
 49
0.1
 74
0
 49
-0.05
 74
0
 49
0.1
 74
0
 49
-0.05
 74
0
  0
LTYPE
  5
1F8
100
AcDbSymbolTableRecord
100
AcDbLinetypeTableRecord
  2
DOT
 70
64
  3
. . . . . . . . . . . . . . . . . . . .
 72
65
 73
2
 40
0.2
 49
0.1
 74
0
 49
-0.1
 74
0
  0
LTYPE
  5
1F9
100
AcDbSymbolTableRecord
100
AcDbLinetypeTableRecord
  2
DASHED
 70
64
  3
- - - - - - - - - - - - - - - - - - - -
 72
65
 73
2
 40
0.2
 49
0.1
 74
0
 49
-0.1
 74
0
  0
ENDTAB
  0
TABLE
  2
LAYER
  5
2
100
AcDbSymbolTable
 70
36
  0
LAYER
  5
10
100
AcDbSymbolTableRecord
100
AcDbLayerTableRecord
  2
0
 70
0
 62
7
  6
CONTINUOUS
370
-3
390
F
  0
LAYER
  5
1FA
100
AcDbSymbolTableRecord
100
AcDbLayerTableRecord
  2
DEFAULT_1
 70
0
 62
7
  6
CENTER
370
-3
390
F
  0
LAYER
  5
1FB
100
AcDbSymbolTableRecord
100
AcDbLayerTableRecord
  2
DEFAULT_2
 70
0
 62
8
  6
HIDDEN
370
-3
390
F
  0
LAYER
  5
1FC
100
AcDbSymbolTableRecord
100
AcDbLayerTableRecord
  2
DEFAULT_3
 70
0
 62
7
  6
PHANTOM
370
-3
390
F
  0
LAYER
  5
1FD
100
AcDbSymbolTableRecord
100
AcDbLayerTableRecord
  2
B-ACHSEN
 70
0
 62
7
  6
CONTINUOUS
370
-3
390
F
  0
LAYER
  5
1FE
100
AcDbSymbolTableRecord
100
AcDbLayerTableRecord
  2
B-EBENEN
 70
0
 62
7
  6
CONTINUOUS
370
-3
390
F
  0
LAYER
  5
1FF
100
AcDbSymbolTableRecord
100
AcDbLayerTableRecord
  2
B-KOORSYS
 70
0
 62
7
  6
CONTINUOUS
370
-3
390
F
  0
LAYER
  5
200
100
AcDbSymbolTableRecord
100
AcDbLayerTableRecord
  2
B-PUNKTE
 70
0
 62
7
  6
CONTINUOUS
370
-3
390
F
  0
LAYER
  5
201
100
AcDbSymbolTableRecord
100
AcDbLayerTableRecord
  2
BEMASSUNG
 70
0
 62
7
  6
CONTINUOUS
370
-3
390
F
  0
LAYER
  5
202
100
AcDbSymbolTableRecord
100
AcDbLayerTableRecord
  2
BOHRUNGEN
 70
0
 62
7
  6
CONTINUOUS
370
-3
390
F
  0
LAYER
  5
203
100
AcDbSymbolTableRecord
100
AcDbLayerTableRecord
  2
NOTIZEN
 70
0
 62
7
  6
CONTINUOUS
370
-3
390
F
  0
LAYER
  5
204
100
AcDbSymbolTableRecord
100
AcDbLayerTableRecord
  2
RUNDUNGEN
 70
0
 62
7
  6
CONTINUOUS
370
-3
390
F
  0
LAYER
  5
205
100
AcDbSymbolTableRecord
100
AcDbLayerTableRecord
  2
VERBUNDFLAECHEN
 70
0
 62
7
  6
CONTINUOUS
370
-3
390
F
  0
ENDTAB
  0
TABLE
  2
STYLE
  5
3
100
AcDbSymbolTable
 70
1
  0
STYLE
  5
11
100
AcDbSymbolTableRecord
100
AcDbTextStyleTableRecord
  2
STANDARD
 70
0
 40
0.0
 41
0.7
 50
0.0
 71
0
 42
0.2
  3
txt
  4

  0
STYLE
  5
206
100
AcDbSymbolTableRecord
100
AcDbTextStyleTableRecord
  2
TEXTSTYLE_1
 70
0
 40
0.0
 41
0.8
 50
0.0
 71
0
 42
0.2
  3
gdt
  4

  0
ENDTAB
  0
TABLE
  2
VIEW
  5
6
100
AcDbSymbolTable
 70
0
  0
ENDTAB
  0
TABLE
  2
UCS
  5
7
100
AcDbSymbolTable
 70
0
  0
ENDTAB
  0
TABLE
  2
APPID
  5
9
100
AcDbSymbolTable
 70
1
  0
APPID
  5
207
100
AcDbSymbolTableRecord
100
AcDbRegAppTableRecord
  2
ACAD
 70
0
  0
ENDTAB
  0
TABLE
  2
BLOCK_RECORD
  5
1
100
AcDbSymbolTable
 70
0
  0
BLOCK_RECORD
  5
208
100
AcDbSymbolTableRecord
100
AcDbBlockTableRecord
  2
*Model_Space
  0
BLOCK_RECORD
  5
209
100
AcDbSymbolTableRecord
100
AcDbBlockTableRecord
  2
*Paper_Space
  0
ENDTAB
  0
TABLE
  2
DIMSTYLE
  5
A
100
AcDbSymbolTable
 70
1
100
AcDbDimStyleTable
 71
0
  0
DIMSTYLE
105
20A
100
AcDbSymbolTableRecord
100
AcDbDimStyleTableRecord
  2
STANDARD
 70
0
  3

  4

 40
1.0
 41
3.5
 42
0.0625
 43
0.38
 44
0.18
 45
0.0
 46
0.0
 47
0.005
 48
0.005
140
3.5
141
0.09
142
0.0
143
25.4
144
1.0
145
0.0
146
1.0
147
0.09
 71
1.0
 72
0.0
 73
0
 74
0
 75
0
 76
0
 77
1
 78
8
170
0
171
2
172
0
173
0
174
0
175
0
176
0
177
0
178
5
270
2
271
3
272
3
273
2
274
2
275
0
280
0
281
0
282
0
283
1
284
8
285
0
286
0
287
3
288
0
340
11
  0
ENDTAB
  0
ENDSEC
  0
SECTION
  2
BLOCKS
  0
BLOCK
  5
20
100
AcDbEntity
  8
0
100
AcDbBlockBegin
  2
*Model_Space
 70
0
 10
0.0
 20
0.0
 30
0.0
  3
*Model_Space
  1

  0
ENDBLK
  5
21
100
AcDbEntity
  8
0
100
AcDbBlockEnd
  0
BLOCK
  5
1C
100
AcDbEntity
  8
0
100
AcDbBlockBegin
  2
*Paper_Space
 70
0
 10
0.0
 20
0.0
 30
0.0
  3
*Paper_Space
  1

  0
ENDBLK
  5
1D
100
AcDbEntity
  8
0
100
AcDbBlockEnd
  0
ENDSEC
  0
SECTION
  2
ENTITIES
  0
MTEXT
  5
20B
100
AcDbEntity
  8
0
100
AcDbMText
 62
5
  6
CONTINUOUS
  7
STANDARD
 71
1
 72
1
 10
77.7900026663
 20
119.5036161353
 30
0.0
 11
1.0
 21
0.0
 31
0.0
 44
0.9
  1
RUD
 40
5.0
 41
12.380952381
  0
MTEXT
  5
20C
100
AcDbEntity
  8
0
100
AcDbMText
 62
5
  6
CONTINUOUS
  7
STANDARD
 71
1
 72
1
 10
69.6621307042
 20
110.2089951792
 30
0.0
 11
1.0
 21
0.0
 31
0.0
 44
0.9
  1
RM M22
 40
5.0
 41
25.2380952381
  0
MTEXT
  5
20D
100
AcDbEntity
  8
0
100
AcDbMText
 62
5
  6
CONTINUOUS
  7
STANDARD
 71
1
 72
1
 10
287.1490100959
 20
188.6984287844
 30
0.0
 11
0.0
 21
1.0
 31
0.0
 44
0.9
  1
RUD
 40
5.0
 41
12.380952381
  0
MTEXT
  5
20E
100
AcDbEntity
  8
0
100
AcDbMText
 62
5
  6
CONTINUOUS
  7
STANDARD
 71
1
 72
1
 10
298.0620467522
 20
189.0015686916
 30
0.0
 11
0.0
 21
1.0
 31
0.0
 44
0.9
  1
RM M22
 40
5.0
 41
25.2380952381
  0
LINE
  5
20F
100
AcDbEntity
  8
0
100
AcDbLine
 62
7
  6
CONTINUOUS
 10
0.0
 20
0.0
 11
0.0
 21
297.0
  0
LINE
  5
210
100
AcDbEntity
  8
0
100
AcDbLine
 62
7
  6
CONTINUOUS
 10
0.0
 20
0.0
 11
420.0
 21
0.0
  0
LINE
  5
211
100
AcDbEntity
  8
0
100
AcDbLine
 62
7
  6
CONTINUOUS
 10
0.0
 20
297.0
 11
420.0
 21
297.0
  0
LINE
  5
212
100
AcDbEntity
  8
0
100
AcDbLine
 62
7
  6
CONTINUOUS
 10
420.0
 20
0.0
 11
420.0
 21
297.0
  0
LINE
  5
213
100
AcDbEntity
  8
B-ACHSEN
100
AcDbLine
 62
7
  6
CONTINUOUS
 10
86.5188218943
 20
167.6453046988
 11
86.0188218943
 21
168.1453046988
  0
LINE
  5
214
100
AcDbEntity
  8
RUNDUNGEN
100
AcDbLine
 62
8
  6
HIDDEN
 10
65.0797238485
 20
213.6007763442
 11
65.1100079528
 21
213.6760384283
  0
LINE
  5
215
100
AcDbEntity
  8
RUNDUNGEN
100
AcDbLine
 62
7
  6
CONTINUOUS
 10
65.1100079528
 20
213.6760384283
 11
77.4739960398
 21
243.5253461528
  0
LINE
  5
216
100
AcDbEntity
  8
DEFAULT_2
100
AcDbLine
 62
8
  6
HIDDEN
 10
98.5188218943
 20
167.6453046988
 11
123.5188218943
 21
167.6453046988
  0
LINE
  5
217
100
AcDbEntity
  8
B-ACHSEN
100
AcDbLine
 62
7
  6
CONTINUOUS
 10
86.5188218943
 20
167.6453046988
 11
135.5188218943
 21
167.6453046988
  0
LINE
  5
218
100
AcDbEntity
  8
B-ACHSEN
100
AcDbLine
 62
7
  6
CONTINUOUS
 10
86.0188218943
 20
168.1453046988
 11
136.0188218943
 21
168.1453046988
  0
LINE
  5
219
100
AcDbEntity
  8
DEFAULT_2
100
AcDbLine
 62
8
  6
HIDDEN
 10
100.0188218943
 20
169.1453046988
 11
122.0188218943
 21
169.1453046988
  0
LINE
  5
21A
100
AcDbEntity
  8
RUNDUNGEN
100
AcDbLine
 62
7
  6
CONTINUOUS
 10
77.724495369
 20
180.1605043669
 11
65.1100079528
 21
210.6145709694
  0
LINE
  5
21B
100
AcDbEntity
  8
0
100
AcDbLine
 62
7
  6
CONTINUOUS
 10
72.4478521386
 20
219.9522153339
 11
72.448037012
 21
219.7457283881
  0
LINE
  5
21C
100
AcDbEntity
  8
0
100
AcDbLine
 62
7
  6
CONTINUOUS
 10
75.8593296113
 20
231.9206803121
 11
75.7605290767
 21
231.4809983587
  0
LINE
  5
21D
100
AcDbEntity
  8
0
100
AcDbLine
 62
7
  6
CONTINUOUS
 10
77.0471522419
 20
234.7190150666
 11
76.9481668339
 21
234.485820059
  0
LINE
  5
21E
100
AcDbEntity
  8
0
100
AcDbLine
 62
7
  6
CONTINUOUS
 10
75.958314453
 20
232.1538739854
 11
75.8593296113
 21
231.9206803121
  0
LINE
  5
21F
100
AcDbEntity
  8
0
100
AcDbLine
 62
7
  6
CONTINUOUS
 10
75.2406718024
 20
230.4632138494
 11
75.0179550592
 21
229.9385260829
  0
LINE
  5
220
100
AcDbEntity
  8
0
100
AcDbLine
 62
7
  6
CONTINUOUS
 10
74.2755659151
 20
228.1895668614
 11
74.0528491718
 21
227.6648790949
  0
LINE
  5
221
100
AcDbEntity
  8
0
100
AcDbLine
 62
7
  6
CONTINUOUS
 10
72.66705615
 20
224.4001553258
 11
72.4443394067
 21
223.8754675594
  0
LINE
  5
222
100
AcDbEntity
  8
0
100
AcDbLine
 62
7
  6
CONTINUOUS
 10
71.7019502626
 20
222.1265083378
 11
71.4792334486
 21
221.6018204046
  0
LINE
  5
223
100
AcDbEntity
  8
0
100
AcDbLine
 62
7
  6
CONTINUOUS
 10
70.9348147665
 20
220.3192503643
 11
70.3409034512
 21
218.9200829871
  0
LINE
  5
224
100
AcDbEntity
  8
0
100
AcDbLine
 62
7
  6
CONTINUOUS
 10
70.8615002189
 20
219.1119197132
 11
71.3316799866
 21
220.2195938312
  0
LINE
  5
225
100
AcDbEntity
  8
0
100
AcDbLine
 62
7
  6
CONTINUOUS
 10
76.2067020567
 20
231.7044261084
 11
76.3056874647
 21
231.9376211161
  0
LINE
  5
226
100
AcDbEntity
  8
0
100
AcDbLine
 62
7
  6
CONTINUOUS
 10
77.2955392793
 20
234.2695658553
 11
77.3945246873
 21
234.5027608629
  0
LINE
  5
227
100
AcDbEntity
  8
0
100
AcDbLine
 62
7
  6
CONTINUOUS
 10
76.2820502114
 20
230.6404003558
 11
76.4057815466
 21
230.9318931146
  0
LINE
  5
228
100
AcDbEntity
  8
0
100
AcDbLine
 62
7
  6
CONTINUOUS
 10
77.3708874339
 20
233.2055401026
 11
77.4946193356
 21
233.4970341958
  0
LINE
  5
229
100
AcDbEntity
  8
0
100
AcDbLine
 62
7
  6
CONTINUOUS
 10
77.2700538586
 20
235.0372158873
 11
77.0471522419
 21
234.7190150666
  0
LINE
  5
22A
100
AcDbEntity
  8
0
100
AcDbLine
 62
7
  6
CONTINUOUS
 10
76.1812160696
 20
232.4720748061
 11
75.958314453
 21
232.1538739854
  0
LINE
  5
22B
100
AcDbEntity
  8
0
100
AcDbLine
 62
7
  6
CONTINUOUS
 10
77.3945246873
 20
234.5027608629
 11
77.5926798103
 21
234.7626625981
  0
LINE
  5
22C
100
AcDbEntity
  8
0
100
AcDbLine
 62
7
  6
CONTINUOUS
 10
76.3056874647
 20
231.9376211161
 11
76.5038425877
 21
232.1975228512
  0
LINE
  5
22D
100
AcDbEntity
  8
0
100
AcDbLine
 62
7
  6
CONTINUOUS
 10
94.9503111039
 20
249.1199190874
 11
92.7419462004
 21
247.8449190159
  0
LINE
  5
22E
100
AcDbEntity
  8
0
100
AcDbLine
 62
7
  6
CONTINUOUS
 10
90.9882447577
 20
246.8324190159
 11
90.598533326
 21
246.6074190159
  0
LINE
  5
22F
100
AcDbEntity
  8
0
100
AcDbLine
 62
7
  6
CONTINUOUS
 10
93.3060674623
 20
247.6178324716
 11
95.1896727775
 21
248.7053325073
  0
LINE
  5
230
100
AcDbEntity
  8
0
100
AcDbLine
 62
7
  6
CONTINUOUS
 10
96.7793111446
 20
249.4019978038
 11
96.454551742
 21
249.2144978753
  0
LINE
  5
231
100
AcDbEntity
  8
RUNDUNGEN
100
AcDbLine
 62
7
  6
CONTINUOUS
 10
79.6387804404
 20
245.6901305534
 11
109.4880881648
 21
258.0541186403
  0
LINE
  5
232
100
AcDbEntity
  8
0
100
AcDbLine
 62
7
  6
CONTINUOUS
 10
76.1573945092
 20
231.381342326
 11
76.2067020567
 21
231.7044261084
  0
LINE
  5
233
100
AcDbEntity
  8
0
100
AcDbLine
 62
7
  6
CONTINUOUS
 10
77.2462317318
 20
233.9464820728
 11
77.2955392793
 21
234.2695658553
  0
LINE
  5
234
100
AcDbEntity
  8
0
100
AcDbLine
 62
7
  6
CONTINUOUS
 10
76.9481668339
 20
234.485820059
 11
76.8493662993
 21
234.0461381055
  0
LINE
  5
235
100
AcDbEntity
  8
0
100
AcDbLine
 62
7
  6
CONTINUOUS
 10
72.448037012
 20
219.7457283881
 11
71.9778572443
 21
218.63805427
  0
LINE
  5
236
100
AcDbEntity
  8
0
100
AcDbLine
 62
7
  6
CONTINUOUS
 10
72.424399971
 20
218.4485081282
 11
72.8450871409
 21
219.4395849926
  0
LINE
  5
237
100
AcDbEntity
  8
0
100
AcDbLine
 62
7
  6
CONTINUOUS
 10
80.5441462661
 20
234.2666715295
 11
79.8512495427
 21
232.6343091446
  0
LINE
  5
238
100
AcDbEntity
  8
0
100
AcDbLine
 62
7
  6
CONTINUOUS
 10
79.4553084771
 20
231.7015304483
 11
78.7624123201
 21
230.0691693978
  0
LINE
  5
239
100
AcDbEntity
  8
0
100
AcDbLine
 62
7
  6
CONTINUOUS
 10
73.8388218943
 20
217.4353046988
 11
73.9872997231
 21
217.7850965431
  0
LINE
  5
23A
100
AcDbEntity
  8
0
100
AcDbLine
 62
7
  6
CONTINUOUS
 10
74.6059573196
 20
219.2425625055
 11
74.7791815005
 21
219.6506531017
  0
LINE
  5
23B
100
AcDbEntity
  8
0
100
AcDbLine
 62
7
  6
CONTINUOUS
 10
74.9771518917
 20
220.1170421163
 11
75.1256297913
 21
220.4668341274
  0
LINE
  5
23C
100
AcDbEntity
  8
0
100
AcDbLine
 62
7
  6
CONTINUOUS
 10
75.4720780114
 20
221.2830149863
 11
75.6700484026
 21
221.7494040008
  0
LINE
  5
23D
100
AcDbEntity
  8
0
100
AcDbLine
 62
7
  6
CONTINUOUS
 10
76.0164967643
 20
222.5655851933
 11
76.1649745931
 21
222.9153770376
  0
LINE
  5
23E
100
AcDbEntity
  8
0
100
AcDbLine
 62
7
  6
CONTINUOUS
 10
77.5507676149
 20
226.1801008066
 11
77.6992454438
 21
226.5298926509
  0
LINE
  5
23F
100
AcDbEntity
  8
0
100
AcDbLine
 62
7
  6
CONTINUOUS
 10
78.0456938054
 20
227.3460738434
 11
78.2436640551
 21
227.8124625244
  0
LINE
  5
240
100
AcDbEntity
  8
0
100
AcDbLine
 62
7
  6
CONTINUOUS
 10
78.5901124167
 20
228.6286437168
 11
78.7385902455
 21
228.9784355611
  0
LINE
  5
241
100
AcDbEntity
  8
0
100
AcDbLine
 62
7
  6
CONTINUOUS
 10
78.9365604952
 20
229.4448242421
 11
79.8274274681
 21
231.543575308
  0
LINE
  5
242
100
AcDbEntity
  8
0
100
AcDbLine
 62
7
  6
CONTINUOUS
 10
80.0253982842
 20
232.0099653233
 11
80.9162652571
 21
234.1087163891
  0
LINE
  5
243
100
AcDbEntity
  8
0
100
AcDbLine
 62
7
  6
CONTINUOUS
 10
71.1329701019
 20
220.5791525999
 11
70.9348147665
 21
220.3192503643
  0
LINE
  5
244
100
AcDbEntity
  8
0
100
AcDbLine
 62
7
  6
CONTINUOUS
 10
94.5574808672
 20
246.3503204438
 11
94.7694162775
 21
246.5832378314
  0
LINE
  5
245
100
AcDbEntity
  8
0
100
AcDbLine
 62
7
  6
CONTINUOUS
 10
94.5300546039
 20
246.9978244114
 11
94.2531675361
 21
246.7274071669
  0
LINE
  5
246
100
AcDbEntity
  8
0
100
AcDbLine
 62
7
  6
CONTINUOUS
 10
77.5178862758
 20
235.2072275133
 11
77.2700538586
 21
235.0372158873
  0
LINE
  5
247
100
AcDbEntity
  8
0
100
AcDbLine
 62
7
  6
CONTINUOUS
 10
76.4290490532
 20
232.6420877665
 11
76.1812160696
 21
232.4720748061
  0
LINE
  5
248
100
AcDbEntity
  8
0
100
AcDbLine
 62
7
  6
CONTINUOUS
 10
97.8767611623
 20
249.1511591865
 11
97.1622899564
 21
248.7386590434
  0
LINE
  5
249
100
AcDbEntity
  8
0
100
AcDbLine
 62
7
  6
CONTINUOUS
 10
96.8375305539
 20
248.551159115
 11
96.3179150639
 21
248.2511589719
  0
LINE
  5
24A
100
AcDbEntity
  8
0
100
AcDbLine
 62
7
  6
CONTINUOUS
 10
94.9197660356
 20
247.2228244114
 11
94.5300546039
 21
246.9978244114
  0
LINE
  5
24B
100
AcDbEntity
  8
0
100
AcDbLine
 62
7
  6
CONTINUOUS
 10
96.5094044027
 20
247.9194897079
 11
97.0290198928
 21
248.2194898509
  0
LINE
  5
24C
100
AcDbEntity
  8
0
100
AcDbLine
 62
7
  6
CONTINUOUS
 10
97.3537792953
 20
248.4069897794
 11
98.0682505012
 21
248.8194899224
  0
LINE
  5
24D
100
AcDbEntity
  8
0
100
AcDbLine
 62
7
  6
CONTINUOUS
 10
94.7694162775
 20
246.5832378314
 11
95.1591277092
 21
246.8082378314
  0
LINE
  5
24E
100
AcDbEntity
  8
0
100
AcDbLine
 62
7
  6
CONTINUOUS
 10
93.9866270372
 20
245.6890685673
 11
94.4412903122
 21
245.9515685316
  0
LINE
  5
24F
100
AcDbEntity
  8
0
100
AcDbLine
 62
7
  6
CONTINUOUS
 10
94.8071895484
 20
245.1678126071
 11
94.4174781167
 21
244.9428126071
  0
LINE
  5
250
100
AcDbEntity
  8
0
100
AcDbLine
 62
7
  6
CONTINUOUS
 10
96.1165745042
 20
245.149891337
 11
95.7268630725
 21
244.924891337
  0
LINE
  5
251
100
AcDbEntity
  8
0
100
AcDbLine
 62
7
  6
CONTINUOUS
 10
94.232969189
 20
244.0623913012
 11
93.9082097865
 21
243.8748913727
  0
LINE
  5
252
100
AcDbEntity
  8
0
100
AcDbLine
 62
7
  6
CONTINUOUS
 10
92.848533326
 20
242.7103046988
 11
93.2382447577
 21
242.9353046988
  0
LINE
  5
253
100
AcDbEntity
  8
0
100
AcDbLine
 62
7
  6
CONTINUOUS
 10
95.9662247796
 20
244.5103046988
 11
96.3559362113
 21
244.7353046988
  0
LINE
  5
254
100
AcDbEntity
  8
0
100
AcDbLine
 62
7
  6
CONTINUOUS
 10
94.0450940108
 20
242.7378007268
 11
94.3698535063
 21
242.9253007089
  0
LINE
  5
255
100
AcDbEntity
  8
0
100
AcDbLine
 62
7
  6
CONTINUOUS
 10
77.5926798103
 20
234.7626625981
 11
77.8157663003
 21
234.8743764729
  0
LINE
  5
256
100
AcDbEntity
  8
0
100
AcDbLine
 62
7
  6
CONTINUOUS
 10
108.4954884926
 20
251.4570067774
 11
108.2804884926
 21
251.3655174266
  0
LINE
  5
257
100
AcDbEntity
  8
0
100
AcDbLine
 62
7
  6
CONTINUOUS
 10
98.8411881785
 20
246.2807220221
 11
99.2787719491
 21
246.4228046988
  0
LINE
  5
258
100
AcDbEntity
  8
0
100
AcDbLine
 62
7
  6
CONTINUOUS
 10
111.5054886976
 20
249.5357302185
 11
111.2188218943
 21
249.4442408677
  0
LINE
  5
259
100
AcDbEntity
  8
0
100
AcDbLine
 62
7
  6
CONTINUOUS
 10
72.8447174296
 20
219.8525589676
 11
72.7948550496
 21
220.1489355221
  0
LINE
  5
25A
100
AcDbEntity
  8
0
100
AcDbLine
 62
7
  6
CONTINUOUS
 10
96.3285099145
 20
245.3828087245
 11
96.1165745042
 21
245.149891337
  0
LINE
  5
25B
100
AcDbEntity
  8
0
100
AcDbLine
 62
7
  6
CONTINUOUS
 10
96.3559362113
 20
244.7353046988
 11
96.6328232749
 21
245.0057219506
  0
LINE
  5
25C
100
AcDbEntity
  8
0
100
AcDbLine
 62
7
  6
CONTINUOUS
 10
71.3316799866
 20
220.2195938312
 11
71.4803426888
 21
220.3628987298
  0
LINE
  5
25D
100
AcDbEntity
  8
0
100
AcDbLine
 62
7
  6
CONTINUOUS
 10
108.567155296
 20
250.9995600234
 11
108.8538218943
 21
251.182538725
  0
LINE
  5
25E
100
AcDbEntity
  8
0
100
AcDbLine
 62
7
  6
CONTINUOUS
 10
111.5771550909
 20
248.9867940576
 11
111.8638218943
 21
249.1697727833
  0
LINE
  5
25F
100
AcDbEntity
  8
0
100
AcDbLine
 62
7
  6
CONTINUOUS
 10
76.5038425877
 20
232.1975228512
 11
76.7269290777
 21
232.3092367261
  0
LINE
  5
260
100
AcDbEntity
  8
0
100
AcDbLine
 62
7
  6
CONTINUOUS
 10
114.9454882876
 20
249.5357302185
 11
114.6588218943
 21
249.4442408677
  0
LINE
  5
261
100
AcDbEntity
  8
RUNDUNGEN
100
AcDbLine
 62
7
  6
CONTINUOUS
 10
142.9273291208
 20
179.2345295154
 11
139.86372964
 21
179.2345295154
  0
LINE
  5
262
100
AcDbEntity
  8
RUNDUNGEN
100
AcDbLine
 62
7
  6
CONTINUOUS
 10
82.1739141486
 20
179.2345295154
 11
79.1103146678
 21
179.2345295154
  0
LINE
  5
263
100
AcDbEntity
  8
0
100
AcDbLine
 62
7
  6
CONTINUOUS
 10
72.3484971962
 20
220.1319947182
 11
72.4478521386
 21
219.9522153339
  0
LINE
  5
264
100
AcDbEntity
  8
0
100
AcDbLine
 62
7
  6
CONTINUOUS
 10
75.7605290767
 20
231.4809983587
 11
75.8103912443
 21
231.1846213037
  0
LINE
  5
265
100
AcDbEntity
  8
0
100
AcDbLine
 62
7
  6
CONTINUOUS
 10
76.8493662993
 20
234.0461381055
 11
76.8992290332
 21
233.7497623849
  0
LINE
  5
266
100
AcDbEntity
  8
0
100
AcDbLine
 62
7
  6
CONTINUOUS
 10
94.2531675361
 20
246.7274071669
 11
94.0720249519
 21
246.2911551831
  0
LINE
  5
267
100
AcDbEntity
  8
0
100
AcDbLine
 62
7
  6
CONTINUOUS
 10
96.6328232749
 20
245.0057219506
 11
96.8139660324
 21
245.4419740634
  0
LINE
  5
268
100
AcDbEntity
  8
0
100
AcDbLine
 62
7
  6
CONTINUOUS
 10
108.6388218943
 20
251.639985479
 11
108.4954884926
 21
251.4570067774
  0
LINE
  5
269
100
AcDbEntity
  8
0
100
AcDbLine
 62
7
  6
CONTINUOUS
 10
111.7204886976
 20
249.7187089841
 11
111.5054886976
 21
249.5357302185
  0
LINE
  5
26A
100
AcDbEntity
  8
0
100
AcDbLine
 62
7
  6
CONTINUOUS
 10
115.017155501
 20
248.9867940576
 11
115.3038218943
 21
249.1697727833
  0
LINE
  5
26B
100
AcDbEntity
  8
0
100
AcDbLine
 62
7
  6
CONTINUOUS
 10
72.7948550496
 20
220.1489355221
 11
72.5713988128
 21
220.4501955389
  0
LINE
  5
26C
100
AcDbEntity
  8
0
100
AcDbLine
 62
7
  6
CONTINUOUS
 10
76.2320031704
 20
231.1432643565
 11
76.1573945092
 21
231.381342326
  0
LINE
  5
26D
100
AcDbEntity
  8
0
100
AcDbLine
 62
7
  6
CONTINUOUS
 10
77.320840393
 20
233.7084041034
 11
77.2462317318
 21
233.9464820728
  0
LINE
  5
26E
100
AcDbEntity
  8
B-ACHSEN
100
AcDbLine
 62
7
  6
CONTINUOUS
 10
86.0188218943
 20
168.1453046988
 11
86.0188218943
 21
173.2345295154
  0
LINE
  5
26F
100
AcDbEntity
  8
0
100
AcDbLine
 62
7
  6
CONTINUOUS
 10
90.598533326
 20
246.6074190159
 11
90.5439282373
 21
245.8019978038
  0
LINE
  5
270
100
AcDbEntity
  8
0
100
AcDbLine
 62
7
  6
CONTINUOUS
 10
90.9269070492
 20
245.1386590434
 11
90.9815120037
 21
245.9440804878
  0
LINE
  5
271
100
AcDbEntity
  8
0
100
AcDbLine
 62
7
  6
CONTINUOUS
 10
94.4412903122
 20
245.9515685316
 11
94.5574808672
 21
246.3503204438
  0
LINE
  5
272
100
AcDbEntity
  8
0
100
AcDbLine
 62
7
  6
CONTINUOUS
 10
96.4276209609
 20
245.6611433565
 11
96.3285099145
 21
245.3828087245
  0
LINE
  5
273
100
AcDbEntity
  8
0
100
AcDbLine
 62
7
  6
CONTINUOUS
 10
108.8538218943
 20
251.182538725
 11
109.0688218943
 21
251.5484961282
  0
LINE
  5
274
100
AcDbEntity
  8
0
100
AcDbLine
 62
7
  6
CONTINUOUS
 10
111.8638218943
 20
249.1697727833
 11
112.1504886976
 21
249.5357302185
  0
LINE
  5
275
100
AcDbEntity
  8
0
100
AcDbLine
 62
7
  6
CONTINUOUS
 10
115.1604882876
 20
249.7187089841
 11
114.9454882876
 21
249.5357302185
  0
LINE
  5
276
100
AcDbEntity
  8
0
100
AcDbLine
 62
7
  6
CONTINUOUS
 10
71.4552266609
 20
220.7175740362
 11
71.1329701019
 21
220.5791525999
  0
LINE
  5
277
100
AcDbEntity
  8
DEFAULT_2
100
AcDbLine
 62
8
  6
HIDDEN
 10
122.0188218943
 20
169.1453046988
 11
123.5188218943
 21
167.6453046988
  0
LINE
  5
278
100
AcDbEntity
  8
0
100
AcDbLine
 62
7
  6
CONTINUOUS
 10
75.8103912443
 20
231.1846213037
 11
76.0091015538
 21
230.8250635358
  0
LINE
  5
279
100
AcDbEntity
  8
0
100
AcDbLine
 62
7
  6
CONTINUOUS
 10
77.3967433763
 20
232.0249174248
 11
78.5644415041
 21
229.6027793824
  0
LINE
  5
27A
100
AcDbEntity
  8
0
100
AcDbLine
 62
7
  6
CONTINUOUS
 10
78.7624123201
 20
230.0691693978
 11
77.7437460749
 21
232.2216371127
  0
LINE
  5
27B
100
AcDbEntity
  8
0
100
AcDbLine
 62
7
  6
CONTINUOUS
 10
115.3038218943
 20
249.1697727833
 11
115.5904882876
 21
249.5357302185
  0
LINE
  5
27C
100
AcDbEntity
  8
0
100
AcDbLine
 62
7
  6
CONTINUOUS
 10
72.1499721141
 20
220.2850663743
 11
72.3484971962
 21
220.1319947182
  0
LINE
  5
27D
100
AcDbEntity
  8
0
100
AcDbLine
 62
7
  6
CONTINUOUS
 10
72.5713988128
 20
220.4501955389
 11
72.3728737307
 21
220.6032671949
  0
LINE
  5
27E
100
AcDbEntity
  8
0
100
AcDbLine
 62
7
  6
CONTINUOUS
 10
76.8992290332
 20
233.7497623849
 11
77.0979387764
 21
233.3902032827
  0
LINE
  5
27F
100
AcDbEntity
  8
0
100
AcDbLine
 62
7
  6
CONTINUOUS
 10
78.4855805989
 20
234.5900571716
 11
79.6532792931
 21
232.1679204636
  0
LINE
  5
280
100
AcDbEntity
  8
0
100
AcDbLine
 62
7
  6
CONTINUOUS
 10
79.8512495427
 20
232.6343091446
 11
78.8325838639
 21
234.7867781939
  0
LINE
  5
281
100
AcDbEntity
  8
0
100
AcDbLine
 62
7
  6
CONTINUOUS
 10
96.4139076099
 20
245.9848952911
 11
96.4276209609
 21
245.6611433565
  0
LINE
  5
282
100
AcDbEntity
  8
0
100
AcDbLine
 62
7
  6
CONTINUOUS
 10
96.8139660324
 20
245.4419740634
 11
96.8173323926
 21
245.8861433565
  0
LINE
  5
283
100
AcDbEntity
  8
0
100
AcDbLine
 62
7
  6
CONTINUOUS
 10
111.8638218943
 20
249.9931770365
 11
111.7204886976
 21
249.7187089841
  0
LINE
  5
284
100
AcDbEntity
  8
0
100
AcDbLine
 62
7
  6
CONTINUOUS
 10
115.3038218943
 20
249.9931770365
 11
115.1604882876
 21
249.7187089841
  0
LINE
  5
285
100
AcDbEntity
  8
0
100
AcDbLine
 62
7
  6
CONTINUOUS
 10
72.4443394067
 20
223.8754675594
 11
75.1989442867
 21
221.6741648007
  0
LINE
  5
286
100
AcDbEntity
  8
0
100
AcDbLine
 62
7
  6
CONTINUOUS
 10
75.6700484026
 20
221.7494040008
 11
73.2628161991
 21
223.7344532451
  0
LINE
  5
287
100
AcDbEntity
  8
0
100
AcDbLine
 62
7
  6
CONTINUOUS
 10
76.4057815466
 20
230.9318931146
 11
76.2320031704
 21
231.1432643565
  0
LINE
  5
288
100
AcDbEntity
  8
0
100
AcDbLine
 62
7
  6
CONTINUOUS
 10
77.7437460749
 20
232.2216371127
 11
77.5699676987
 21
232.4330083546
  0
LINE
  5
289
100
AcDbEntity
  8
0
100
AcDbLine
 62
7
  6
CONTINUOUS
 10
77.4946193356
 20
233.4970341958
 11
77.320840393
 21
233.7084041034
  0
LINE
  5
28A
100
AcDbEntity
  8
0
100
AcDbLine
 62
7
  6
CONTINUOUS
 10
93.9082097865
 20
243.8748913727
 11
94.0450940108
 21
242.7378007268
  0
LINE
  5
28B
100
AcDbEntity
  8
0
100
AcDbLine
 62
7
  6
CONTINUOUS
 10
94.3698535063
 20
242.9253007089
 11
94.232969189
 21
244.0623913012
  0
LINE
  5
28C
100
AcDbEntity
  8
DEFAULT_2
100
AcDbLine
 62
8
  6
HIDDEN
 10
100.0188218943
 20
189.6953603782
 11
100.0188218943
 21
169.1453046988
  0
LINE
  5
28D
100
AcDbEntity
  8
0
100
AcDbLine
 62
7
  6
CONTINUOUS
 10
108.7104884926
 20
251.9144535314
 11
108.6388218943
 21
251.639985479
  0
LINE
  5
28E
100
AcDbEntity
  8
0
100
AcDbLine
 62
7
  6
CONTINUOUS
 10
109.0688218943
 20
251.5484961282
 11
109.1404884926
 21
251.8229641806
  0
LINE
  5
28F
100
AcDbEntity
  8
0
100
AcDbLine
 62
7
  6
CONTINUOUS
 10
112.1504886976
 20
249.5357302185
 11
112.2938218943
 21
249.9016876857
  0
LINE
  5
290
100
AcDbEntity
  8
0
100
AcDbLine
 62
7
  6
CONTINUOUS
 10
115.5904882876
 20
249.5357302185
 11
115.7338218943
 21
249.9016876857
  0
LINE
  5
291
100
AcDbEntity
  8
0
100
AcDbLine
 62
7
  6
CONTINUOUS
 10
70.3409034512
 20
218.9200829871
 11
73.8388218943
 21
217.4353046988
  0
LINE
  5
292
100
AcDbEntity
  8
0
100
AcDbLine
 62
7
  6
CONTINUOUS
 10
73.9872997231
 20
217.7850965431
 11
72.424399971
 21
218.4485081282
  0
LINE
  5
293
100
AcDbEntity
  8
0
100
AcDbLine
 62
7
  6
CONTINUOUS
 10
71.9778572443
 20
218.63805427
 11
70.8615002189
 21
219.1119197132
  0
LINE
  5
294
100
AcDbEntity
  8
0
100
AcDbLine
 62
7
  6
CONTINUOUS
 10
71.9267005422
 20
220.3798395337
 11
72.1499721141
 21
220.2850663743
  0
LINE
  5
295
100
AcDbEntity
  8
0
100
AcDbLine
 62
7
  6
CONTINUOUS
 10
72.3728737307
 20
220.6032671949
 11
72.075178371
 21
220.729631378
  0
LINE
  5
296
100
AcDbEntity
  8
0
100
AcDbLine
 62
7
  6
CONTINUOUS
 10
75.0179550592
 20
229.9385260829
 11
77.7725599392
 21
227.7372233242
  0
LINE
  5
297
100
AcDbEntity
  8
0
100
AcDbLine
 62
7
  6
CONTINUOUS
 10
78.2436640551
 20
227.8124625244
 11
75.8364318515
 21
229.7975117686
  0
LINE
  5
298
100
AcDbEntity
  8
0
100
AcDbLine
 62
7
  6
CONTINUOUS
 10
77.148540646
 20
232.267878356
 11
77.3967433763
 21
232.0249174248
  0
LINE
  5
299
100
AcDbEntity
  8
0
100
AcDbLine
 62
7
  6
CONTINUOUS
 10
78.8325838639
 20
234.7867781939
 11
78.6588049213
 21
234.9981481015
  0
LINE
  5
29A
100
AcDbEntity
  8
0
100
AcDbLine
 62
7
  6
CONTINUOUS
 10
106.4888218943
 20
253.1953046988
 11
106.4888218943
 21
248.8953046988
  0
LINE
  5
29B
100
AcDbEntity
  8
0
100
AcDbLine
 62
7
  6
CONTINUOUS
 10
106.9188218943
 20
248.8953046988
 11
106.9188218943
 21
250.8165813218
  0
LINE
  5
29C
100
AcDbEntity
  8
0
100
AcDbLine
 62
7
  6
CONTINUOUS
 10
106.9188218943
 20
251.3655174266
 11
106.9188218943
 21
252.7378579449
  0
LINE
  5
29D
100
AcDbEntity
  8
0
100
AcDbLine
 62
7
  6
CONTINUOUS
 10
112.2938218943
 20
249.9016876857
 11
112.3654886976
 21
250.3591344397
  0
LINE
  5
29E
100
AcDbEntity
  8
0
100
AcDbLine
 62
7
  6
CONTINUOUS
 10
111.9354886976
 20
250.3591344397
 11
111.8638218943
 21
249.9931770365
  0
LINE
  5
29F
100
AcDbEntity
  8
0
100
AcDbLine
 62
7
  6
CONTINUOUS
 10
71.4792334486
 20
221.6018204046
 11
74.9771518917
 21
220.1170421163
  0
LINE
  5
2A0
100
AcDbEntity
  8
0
100
AcDbLine
 62
7
  6
CONTINUOUS
 10
75.1256297913
 20
220.4668341274
 11
72.3719492261
 21
221.6357021792
  0
LINE
  5
2A1
100
AcDbEntity
  8
0
100
AcDbLine
 62
7
  6
CONTINUOUS
 10
73.2628161991
 20
223.7344532451
 11
76.0164967643
 21
222.5655851933
  0
LINE
  5
2A2
100
AcDbEntity
  8
0
100
AcDbLine
 62
7
  6
CONTINUOUS
 10
76.1649745931
 20
222.9153770376
 11
72.66705615
 21
224.4001553258
  0
LINE
  5
2A3
100
AcDbEntity
  8
0
100
AcDbLine
 62
7
  6
CONTINUOUS
 10
76.0091015538
 20
230.8250635358
 11
76.2820502114
 21
230.6404003558
  0
LINE
  5
2A4
100
AcDbEntity
  8
0
100
AcDbLine
 62
7
  6
CONTINUOUS
 10
78.2373784349
 20
234.8330194372
 11
78.4855805989
 21
234.5900571716
  0
LINE
  5
2A5
100
AcDbEntity
  8
0
100
AcDbLine
 62
7
  6
CONTINUOUS
 10
96.3352426349
 20
246.2711473106
 11
96.4139076099
 21
245.9848952911
  0
LINE
  5
2A6
100
AcDbEntity
  8
0
100
AcDbLine
 62
7
  6
CONTINUOUS
 10
96.8173323926
 20
245.8861433565
 11
96.7078743722
 21
246.3757299231
  0
LINE
  5
2A7
100
AcDbEntity
  8
0
100
AcDbLine
 62
7
  6
CONTINUOUS
 10
108.7104884926
 20
252.1889218401
 11
108.7104884926
 21
251.9144535314
  0
LINE
  5
2A8
100
AcDbEntity
  8
0
100
AcDbLine
 62
7
  6
CONTINUOUS
 10
109.1404884926
 20
251.8229641806
 11
109.1404884926
 21
252.1889218401
  0
LINE
  5
2A9
100
AcDbEntity
  8
0
100
AcDbLine
 62
7
  6
CONTINUOUS
 10
109.7854884926
 20
253.1953046988
 11
109.7854884926
 21
250.3591344397
  0
LINE
  5
2AA
100
AcDbEntity
  8
0
100
AcDbLine
 62
7
  6
CONTINUOUS
 10
110.2154886976
 20
250.3591344397
 11
110.2154886976
 21
253.1953046988
  0
LINE
  5
2AB
100
AcDbEntity
  8
B-ACHSEN
100
AcDbLine
 62
2
  6
CENTER
 10
111.0188218943
 20
212.1453046988
 11
111.0188218943
 21
157.6453046988
  0
LINE
  5
2AC
100
AcDbEntity
  8
B-ACHSEN
100
AcDbLine
 62
2
  6
CENTER
 10
111.0188218943
 20
212.1453046988
 11
111.0188218943
 21
240.1453046988
  0
LINE
  5
2AD
100
AcDbEntity
  8
0
100
AcDbLine
 62
7
  6
CONTINUOUS
 10
115.7338218943
 20
249.9016876857
 11
115.8054882876
 21
250.3591344397
  0
LINE
  5
2AE
100
AcDbEntity
  8
0
100
AcDbLine
 62
7
  6
CONTINUOUS
 10
115.3754882876
 20
250.3591344397
 11
115.3038218943
 21
249.9931770365
  0
LINE
  5
2AF
100
AcDbEntity
  8
B-ACHSEN
100
AcDbLine
 62
2
  6
CENTER
 10
111.0188218943
 20
212.1453046988
 11
83.0188218943
 21
212.1453046988
  0
LINE
  5
2B0
100
AcDbEntity
  8
B-ACHSEN
100
AcDbLine
 62
2
  6
CENTER
 10
111.0188218943
 20
212.1453046988
 11
139.0188218943
 21
212.1453046988
  0
LINE
  5
2B1
100
AcDbEntity
  8
0
100
AcDbLine
 62
7
  6
CONTINUOUS
 10
74.0528491718
 20
227.6648790949
 11
77.5507676149
 21
226.1801008066
  0
LINE
  5
2B2
100
AcDbEntity
  8
0
100
AcDbLine
 62
7
  6
CONTINUOUS
 10
77.6992454438
 20
226.5298926509
 11
74.9455648785
 21
227.6987607028
  0
LINE
  5
2B3
100
AcDbEntity
  8
0
100
AcDbLine
 62
7
  6
CONTINUOUS
 10
77.5699676987
 20
232.4330083546
 11
77.2970184748
 21
232.6176702004
  0
LINE
  5
2B4
100
AcDbEntity
  8
0
100
AcDbLine
 62
7
  6
CONTINUOUS
 10
77.0979387764
 20
233.3902032827
 11
77.3708874339
 21
233.2055401026
  0
LINE
  5
2B5
100
AcDbEntity
  8
0
100
AcDbLine
 62
7
  6
CONTINUOUS
 10
78.6588049213
 20
234.9981481015
 11
78.3858562638
 21
235.1828112815
  0
LINE
  5
2B6
100
AcDbEntity
  8
0
100
AcDbLine
 62
7
  6
CONTINUOUS
 10
90.5439282373
 20
245.8019978038
 11
90.9269070492
 21
245.1386590434
  0
LINE
  5
2B7
100
AcDbEntity
  8
0
100
AcDbLine
 62
7
  6
CONTINUOUS
 10
90.9815120037
 20
245.9440804878
 11
92.848533326
 21
242.7103046988
  0
LINE
  5
2B8
100
AcDbEntity
  8
0
100
AcDbLine
 62
7
  6
CONTINUOUS
 10
93.2382447577
 20
242.9353046988
 11
90.9882447577
 21
246.8324190159
  0
LINE
  5
2B9
100
AcDbEntity
  8
0
100
AcDbLine
 62
7
  6
CONTINUOUS
 10
111.9354886976
 20
253.1953046988
 11
111.9354886976
 21
250.3591344397
  0
LINE
  5
2BA
100
AcDbEntity
  8
0
100
AcDbLine
 62
7
  6
CONTINUOUS
 10
112.3654886976
 20
250.3591344397
 11
112.3654886976
 21
253.1953046988
  0
LINE
  5
2BB
100
AcDbEntity
  8
0
100
AcDbLine
 62
7
  6
CONTINUOUS
 10
112.9388218943
 20
253.1953046988
 11
112.9388218943
 21
248.8953046988
  0
LINE
  5
2BC
100
AcDbEntity
  8
0
100
AcDbLine
 62
7
  6
CONTINUOUS
 10
113.3688218943
 20
249.4442408677
 11
113.3688218943
 21
252.6463685941
  0
LINE
  5
2BD
100
AcDbEntity
  8
0
100
AcDbLine
 62
7
  6
CONTINUOUS
 10
115.3754882876
 20
251.7314748298
 11
115.3754882876
 21
250.3591344397
  0
LINE
  5
2BE
100
AcDbEntity
  8
0
100
AcDbLine
 62
7
  6
CONTINUOUS
 10
115.8054882876
 20
250.3591344397
 11
115.8054882876
 21
251.7314748298
  0
LINE
  5
2BF
100
AcDbEntity
  8
0
100
AcDbLine
 62
7
  6
CONTINUOUS
 10
74.7791815005
 20
219.6506531017
 11
72.8447174296
 21
219.8525589676
  0
LINE
  5
2C0
100
AcDbEntity
  8
0
100
AcDbLine
 62
7
  6
CONTINUOUS
 10
72.8450871409
 20
219.4395849926
 11
74.6059573196
 21
219.2425625055
  0
LINE
  5
2C1
100
AcDbEntity
  8
0
100
AcDbLine
 62
7
  6
CONTINUOUS
 10
72.3719492261
 20
221.6357021792
 11
75.4720780114
 21
221.2830149863
  0
LINE
  5
2C2
100
AcDbEntity
  8
0
100
AcDbLine
 62
7
  6
CONTINUOUS
 10
75.1989442867
 20
221.6741648007
 11
71.7019502626
 21
222.1265083378
  0
LINE
  5
2C3
100
AcDbEntity
  8
0
100
AcDbLine
 62
7
  6
CONTINUOUS
 10
71.6786828976
 20
220.4163140195
 11
71.9267005422
 21
220.3798395337
  0
LINE
  5
2C4
100
AcDbEntity
  8
0
100
AcDbLine
 62
7
  6
CONTINUOUS
 10
72.075178371
 20
220.729631378
 11
71.8271607264
 21
220.7661058638
  0
LINE
  5
2C5
100
AcDbEntity
  8
0
100
AcDbLine
 62
7
  6
CONTINUOUS
 10
75.8364318515
 20
229.7975117686
 11
78.5901124167
 21
228.6286437168
  0
LINE
  5
2C6
100
AcDbEntity
  8
0
100
AcDbLine
 62
7
  6
CONTINUOUS
 10
78.7385902455
 20
228.9784355611
 11
75.2406718024
 21
230.4632138494
  0
LINE
  5
2C7
100
AcDbEntity
  8
0
100
AcDbLine
 62
7
  6
CONTINUOUS
 10
78.5644415041
 20
229.6027793824
 11
78.9365604952
 21
229.4448242421
  0
LINE
  5
2C8
100
AcDbEntity
  8
0
100
AcDbLine
 62
7
  6
CONTINUOUS
 10
76.9996928619
 20
232.3310604918
 11
77.148540646
 21
232.267878356
  0
LINE
  5
2C9
100
AcDbEntity
  8
0
100
AcDbLine
 62
7
  6
CONTINUOUS
 10
79.8274274681
 20
231.543575308
 11
79.4553084771
 21
231.7015304483
  0
LINE
  5
2CA
100
AcDbEntity
  8
0
100
AcDbLine
 62
7
  6
CONTINUOUS
 10
77.2970184748
 20
232.6176702004
 11
77.1481706907
 21
232.6808523361
  0
LINE
  5
2CB
100
AcDbEntity
  8
0
100
AcDbLine
 62
7
  6
CONTINUOUS
 10
92.7419462004
 20
247.8449190159
 11
93.9866270372
 21
245.6890685673
  0
LINE
  5
2CC
100
AcDbEntity
  8
0
100
AcDbLine
 62
7
  6
CONTINUOUS
 10
94.0720249519
 20
246.2911551831
 11
93.3060674623
 21
247.6178324716
  0
LINE
  5
2CD
100
AcDbEntity
  8
0
100
AcDbLine
 62
7
  6
CONTINUOUS
 10
96.2394979655
 20
246.4369819427
 11
96.3352426349
 21
246.2711473106
  0
LINE
  5
2CE
100
AcDbEntity
  8
0
100
AcDbLine
 62
7
  6
CONTINUOUS
 10
95.1896727775
 20
248.7053325073
 11
94.9503111039
 21
249.1199190874
  0
LINE
  5
2CF
100
AcDbEntity
  8
0
100
AcDbLine
 62
7
  6
CONTINUOUS
 10
96.7078743722
 20
246.3757299231
 11
96.5163850333
 21
246.7073991871
  0
LINE
  5
2D0
100
AcDbEntity
  8
0
100
AcDbLine
 62
7
  6
CONTINUOUS
 10
96.3179150639
 20
248.2511589719
 11
96.5094044027
 21
247.9194897079
  0
LINE
  5
2D1
100
AcDbEntity
  8
0
100
AcDbLine
 62
7
  6
CONTINUOUS
 10
109.7854884926
 20
250.3591344397
 11
109.857155296
 21
249.9016876857
  0
LINE
  5
2D2
100
AcDbEntity
  8
0
100
AcDbLine
 62
7
  6
CONTINUOUS
 10
79.6532792931
 20
232.1679204636
 11
80.0253982842
 21
232.0099653233
  0
LINE
  5
2D3
100
AcDbEntity
  8
0
100
AcDbLine
 62
7
  6
CONTINUOUS
 10
78.0885306509
 20
234.896201573
 11
78.2373784349
 21
234.8330194372
  0
LINE
  5
2D4
100
AcDbEntity
  8
0
100
AcDbLine
 62
7
  6
CONTINUOUS
 10
80.9162652571
 20
234.1087163891
 11
80.5441462661
 21
234.2666715295
  0
LINE
  5
2D5
100
AcDbEntity
  8
0
100
AcDbLine
 62
7
  6
CONTINUOUS
 10
78.3858562638
 20
235.1828112815
 11
78.2370084797
 21
235.2459934173
  0
LINE
  5
2D6
100
AcDbEntity
  8
0
100
AcDbLine
 62
7
  6
CONTINUOUS
 10
96.454551742
 20
249.2144978753
 11
96.8375305539
 21
248.551159115
  0
LINE
  5
2D7
100
AcDbEntity
  8
0
100
AcDbLine
 62
7
  6
CONTINUOUS
 10
97.0290198928
 20
248.2194898509
 11
97.9864666877
 21
246.5611433565
  0
LINE
  5
2D8
100
AcDbEntity
  8
0
100
AcDbLine
 62
7
  6
CONTINUOUS
 10
98.2154813873
 20
246.9144779751
 11
97.3537792953
 21
248.4069897794
  0
LINE
  5
2D9
100
AcDbEntity
  8
0
100
AcDbLine
 62
7
  6
CONTINUOUS
 10
97.1622899564
 20
248.7386590434
 11
96.7793111446
 21
249.4019978038
  0
LINE
  5
2DA
100
AcDbEntity
  8
0
100
AcDbLine
 62
7
  6
CONTINUOUS
 10
99.2787719491
 20
246.4228046988
 11
99.0872825935
 21
246.7544739919
  0
LINE
  5
2DB
100
AcDbEntity
  8
0
100
AcDbLine
 62
7
  6
CONTINUOUS
 10
98.0682505012
 20
248.8194899224
 11
97.8767611623
 21
249.1511591865
  0
LINE
  5
2DC
100
AcDbEntity
  8
0
100
AcDbLine
 62
7
  6
CONTINUOUS
 10
109.212155296
 20
248.8953046988
 11
108.567155296
 21
250.9995600234
  0
LINE
  5
2DD
100
AcDbEntity
  8
0
100
AcDbLine
 62
7
  6
CONTINUOUS
 10
108.1371551934
 20
250.8165813218
 11
108.7104884926
 21
248.8953046988
  0
LINE
  5
2DE
100
AcDbEntity
  8
0
100
AcDbLine
 62
7
  6
CONTINUOUS
 10
108.6388218943
 20
252.4633898925
 11
108.7104884926
 21
252.1889218401
  0
LINE
  5
2DF
100
AcDbEntity
  8
0
100
AcDbLine
 62
7
  6
CONTINUOUS
 10
109.1404884926
 20
252.1889218401
 11
109.0688218943
 21
252.4633898925
  0
LINE
  5
2E0
100
AcDbEntity
  8
0
100
AcDbLine
 62
7
  6
CONTINUOUS
 10
110.2871550909
 20
249.9931770365
 11
110.2154886976
 21
250.3591344397
  0
LINE
  5
2E1
100
AcDbEntity
  8
DEFAULT_2
100
AcDbLine
 62
8
  6
HIDDEN
 10
122.0188218943
 20
189.6953603782
 11
122.0188218943
 21
169.1453046988
  0
LINE
  5
2E2
100
AcDbEntity
  8
0
100
AcDbLine
 62
7
  6
CONTINUOUS
 10
71.8271607264
 20
220.7661058638
 11
71.4552266609
 21
220.7175740362
  0
LINE
  5
2E3
100
AcDbEntity
  8
0
100
AcDbLine
 62
7
  6
CONTINUOUS
 10
74.9455648785
 20
227.6987607028
 11
78.0456938054
 21
227.3460738434
  0
LINE
  5
2E4
100
AcDbEntity
  8
0
100
AcDbLine
 62
7
  6
CONTINUOUS
 10
77.7725599392
 20
227.7372233242
 11
74.2755659151
 21
228.1895668614
  0
LINE
  5
2E5
100
AcDbEntity
  8
0
100
AcDbLine
 62
7
  6
CONTINUOUS
 10
77.1481706907
 20
232.6808523361
 11
76.8257296123
 21
232.7489186796
  0
LINE
  5
2E6
100
AcDbEntity
  8
0
100
AcDbLine
 62
7
  6
CONTINUOUS
 10
96.0309288651
 20
246.6482339353
 11
96.2394979655
 21
246.4369819427
  0
LINE
  5
2E7
100
AcDbEntity
  8
0
100
AcDbLine
 62
7
  6
CONTINUOUS
 10
109.857155296
 20
249.9016876857
 11
110.0004886976
 21
249.5357302185
  0
LINE
  5
2E8
100
AcDbEntity
  8
0
100
AcDbLine
 62
7
  6
CONTINUOUS
 10
115.3038218943
 20
252.097432233
 11
115.3754882876
 21
251.7314748298
  0
LINE
  5
2E9
100
AcDbEntity
  8
0
100
AcDbLine
 62
7
  6
CONTINUOUS
 10
115.8054882876
 20
251.7314748298
 11
115.7338218943
 21
252.1889218401
  0
LINE
  5
2EA
100
AcDbEntity
  8
0
100
AcDbLine
 62
7
  6
CONTINUOUS
 10
71.4803426888
 20
220.3628987298
 11
71.6786828976
 21
220.4163140195
  0
LINE
  5
2EB
100
AcDbEntity
  8
0
100
AcDbLine
 62
7
  6
CONTINUOUS
 10
78.2370084797
 20
235.2459934173
 11
77.9145668349
 21
235.3140584264
  0
LINE
  5
2EC
100
AcDbEntity
  8
0
100
AcDbLine
 62
7
  6
CONTINUOUS
 10
94.4174781167
 20
244.9428126071
 11
94.7388713616
 21
244.6861433207
  0
LINE
  5
2ED
100
AcDbEntity
  8
0
100
AcDbLine
 62
7
  6
CONTINUOUS
 10
95.1285827933
 20
244.9111433207
 11
94.8071895484
 21
245.1678126071
  0
LINE
  5
2EE
100
AcDbEntity
  8
0
100
AcDbLine
 62
7
  6
CONTINUOUS
 10
96.5163850333
 20
246.7073991871
 11
96.147119606
 21
247.0469859549
  0
LINE
  5
2EF
100
AcDbEntity
  8
0
100
AcDbLine
 62
7
  6
CONTINUOUS
 10
98.4240500825
 20
246.7032258259
 11
98.2154813873
 21
246.9144779751
  0
LINE
  5
2F0
100
AcDbEntity
  8
0
100
AcDbLine
 62
7
  6
CONTINUOUS
 10
110.4304886976
 20
249.7187089841
 11
110.2871550909
 21
249.9931770365
  0
LINE
  5
2F1
100
AcDbEntity
  8
0
100
AcDbLine
 62
7
  6
CONTINUOUS
 10
76.7269290777
 20
232.3092367261
 11
76.9996928619
 21
232.3310604918
  0
LINE
  5
2F2
100
AcDbEntity
  8
0
100
AcDbLine
 62
7
  6
CONTINUOUS
 10
94.7388713616
 20
244.6861433207
 11
95.1252164331
 21
244.4669740277
  0
LINE
  5
2F3
100
AcDbEntity
  8
0
100
AcDbLine
 62
7
  6
CONTINUOUS
 10
95.7574081743
 20
246.8219859549
 11
96.0309288651
 21
246.6482339353
  0
LINE
  5
2F4
100
AcDbEntity
  8
0
100
AcDbLine
 62
7
  6
CONTINUOUS
 10
97.9864666877
 20
246.5611433565
 11
98.30785973
 21
246.3044739919
  0
LINE
  5
2F5
100
AcDbEntity
  8
0
100
AcDbLine
 62
7
  6
CONTINUOUS
 10
110.0004886976
 20
249.5357302185
 11
110.2871550909
 21
249.1697727833
  0
LINE
  5
2F6
100
AcDbEntity
  8
0
100
AcDbLine
 62
7
  6
CONTINUOUS
 10
109.0688218943
 20
252.4633898925
 11
108.8538218943
 21
252.8293472956
  0
LINE
  5
2F7
100
AcDbEntity
  8
0
100
AcDbLine
 62
7
  6
CONTINUOUS
 10
115.1604882876
 20
252.3719005417
 11
115.3038218943
 21
252.097432233
  0
LINE
  5
2F8
100
AcDbEntity
  8
0
100
AcDbLine
 62
7
  6
CONTINUOUS
 10
115.7338218943
 20
252.1889218401
 11
115.5904882876
 21
252.5548792433
  0
LINE
  5
2F9
100
AcDbEntity
  8
B-ACHSEN
100
AcDbLine
 62
7
  6
CONTINUOUS
 10
136.0188218943
 20
168.1453046988
 11
136.0188218943
 21
173.2345295154
  0
LINE
  5
2FA
100
AcDbEntity
  8
DEFAULT_2
100
AcDbLine
 62
8
  6
HIDDEN
 10
100.0188218943
 20
169.1453046988
 11
98.5188218943
 21
167.6453046988
  0
LINE
  5
2FB
100
AcDbEntity
  8
0
100
AcDbLine
 62
7
  6
CONTINUOUS
 10
77.8157663003
 20
234.8743764729
 11
78.0885306509
 21
234.896201573
  0
LINE
  5
2FC
100
AcDbEntity
  8
0
100
AcDbLine
 62
7
  6
CONTINUOUS
 10
96.147119606
 20
247.0469859549
 11
95.7607745512
 21
247.2661552189
  0
LINE
  5
2FD
100
AcDbEntity
  8
0
100
AcDbLine
 62
7
  6
CONTINUOUS
 10
108.4954884926
 20
252.6463685941
 11
108.6388218943
 21
252.4633898925
  0
LINE
  5
2FE
100
AcDbEntity
  8
0
100
AcDbLine
 62
7
  6
CONTINUOUS
 10
76.8257296123
 20
232.7489186796
 11
76.4290490532
 21
232.6420877665
  0
LINE
  5
2FF
100
AcDbEntity
  8
0
100
AcDbLine
 62
7
  6
CONTINUOUS
 10
77.9145668349
 20
235.3140584264
 11
77.5178862758
 21
235.2072275133
  0
LINE
  5
300
100
AcDbEntity
  8
0
100
AcDbLine
 62
7
  6
CONTINUOUS
 10
95.1252164331
 20
244.4669740277
 11
95.5935930382
 21
244.4057220936
  0
LINE
  5
301
100
AcDbEntity
  8
0
100
AcDbLine
 62
7
  6
CONTINUOUS
 10
95.4191829928
 20
244.8578085814
 11
95.1285827933
 21
244.9111433207
  0
LINE
  5
302
100
AcDbEntity
  8
0
100
AcDbLine
 62
7
  6
CONTINUOUS
 10
98.30785973
 20
246.3044739919
 11
98.5984601237
 21
246.2511393454
  0
LINE
  5
303
100
AcDbEntity
  8
0
100
AcDbLine
 62
7
  6
CONTINUOUS
 10
95.466807789
 20
246.8753205869
 11
95.7574081743
 21
246.8219859549
  0
LINE
  5
304
100
AcDbEntity
  8
0
100
AcDbLine
 62
7
  6
CONTINUOUS
 10
110.2871550909
 20
249.1697727833
 11
110.5738218943
 21
248.9867940576
  0
LINE
  5
305
100
AcDbEntity
  8
0
100
AcDbLine
 62
7
  6
CONTINUOUS
 10
110.6454886976
 20
249.5357302185
 11
110.4304886976
 21
249.7187089841
  0
LINE
  5
306
100
AcDbEntity
  8
0
100
AcDbLine
 62
7
  6
CONTINUOUS
 10
108.8538218943
 20
252.8293472956
 11
108.567155296
 21
253.103815348
  0
LINE
  5
307
100
AcDbEntity
  8
0
100
AcDbLine
 62
7
  6
CONTINUOUS
 10
115.5904882876
 20
252.5548792433
 11
115.3038218943
 21
252.9208366464
  0
LINE
  5
308
100
AcDbEntity
  8
0
100
AcDbLine
 62
7
  6
CONTINUOUS
 10
95.5935930382
 20
244.4057220936
 11
95.9662247796
 21
244.5103046988
  0
LINE
  5
309
100
AcDbEntity
  8
0
100
AcDbLine
 62
7
  6
CONTINUOUS
 10
114.6588218943
 20
248.8953046988
 11
115.017155501
 21
248.9867940576
  0
LINE
  5
30A
100
AcDbEntity
  8
0
100
AcDbLine
 62
7
  6
CONTINUOUS
 10
111.2188218943
 20
248.8953046988
 11
111.5771550909
 21
248.9867940576
  0
LINE
  5
30B
100
AcDbEntity
  8
0
100
AcDbLine
 62
7
  6
CONTINUOUS
 10
95.7268630725
 20
244.924891337
 11
95.4191829928
 21
244.8578085814
  0
LINE
  5
30C
100
AcDbEntity
  8
0
100
AcDbLine
 62
7
  6
CONTINUOUS
 10
98.5984601237
 20
246.2511393454
 11
98.8411881785
 21
246.2807220221
  0
LINE
  5
30D
100
AcDbEntity
  8
0
100
AcDbLine
 62
7
  6
CONTINUOUS
 10
95.7607745512
 20
247.2661552189
 11
95.2923977729
 21
247.3274070239
  0
LINE
  5
30E
100
AcDbEntity
  8
0
100
AcDbLine
 62
7
  6
CONTINUOUS
 10
98.7146504678
 20
246.6498911939
 11
98.4240500825
 21
246.7032258259
  0
LINE
  5
30F
100
AcDbEntity
  8
0
100
AcDbLine
 62
7
  6
CONTINUOUS
 10
110.5738218943
 20
248.9867940576
 11
110.9321550909
 21
248.8953046988
  0
LINE
  5
310
100
AcDbEntity
  8
0
100
AcDbLine
 62
7
  6
CONTINUOUS
 10
110.9321550909
 20
249.4442408677
 11
110.6454886976
 21
249.5357302185
  0
LINE
  5
311
100
AcDbEntity
  8
0
100
AcDbLine
 62
7
  6
CONTINUOUS
 10
114.9454882876
 20
252.5548792433
 11
115.1604882876
 21
252.3719005417
  0
LINE
  5
312
100
AcDbEntity
  8
0
100
AcDbLine
 62
7
  6
CONTINUOUS
 10
99.0872825935
 20
246.7544739919
 11
98.7146504678
 21
246.6498911939
  0
LINE
  5
313
100
AcDbEntity
  8
0
100
AcDbLine
 62
7
  6
CONTINUOUS
 10
95.2923977729
 20
247.3274070239
 11
94.9197660356
 21
247.2228244114
  0
LINE
  5
314
100
AcDbEntity
  8
0
100
AcDbLine
 62
7
  6
CONTINUOUS
 10
95.1591277092
 20
246.8082378314
 11
95.466807789
 21
246.8753205869
  0
LINE
  5
315
100
AcDbEntity
  8
0
100
AcDbLine
 62
7
  6
CONTINUOUS
 10
106.4888218943
 20
248.8953046988
 11
106.9188218943
 21
248.8953046988
  0
LINE
  5
316
100
AcDbEntity
  8
0
100
AcDbLine
 62
7
  6
CONTINUOUS
 10
108.7104884926
 20
248.8953046988
 11
109.212155296
 21
248.8953046988
  0
LINE
  5
317
100
AcDbEntity
  8
0
100
AcDbLine
 62
7
  6
CONTINUOUS
 10
110.9321550909
 20
248.8953046988
 11
111.2188218943
 21
248.8953046988
  0
LINE
  5
318
100
AcDbEntity
  8
0
100
AcDbLine
 62
7
  6
CONTINUOUS
 10
112.9388218943
 20
248.8953046988
 11
114.6588218943
 21
248.8953046988
  0
LINE
  5
319
100
AcDbEntity
  8
0
100
AcDbLine
 62
7
  6
CONTINUOUS
 10
114.6588218943
 20
249.4442408677
 11
113.3688218943
 21
249.4442408677
  0
LINE
  5
31A
100
AcDbEntity
  8
0
100
AcDbLine
 62
7
  6
CONTINUOUS
 10
111.2188218943
 20
249.4442408677
 11
110.9321550909
 21
249.4442408677
  0
LINE
  5
31B
100
AcDbEntity
  8
0
100
AcDbLine
 62
7
  6
CONTINUOUS
 10
106.9188218943
 20
250.8165813218
 11
108.1371551934
 21
250.8165813218
  0
LINE
  5
31C
100
AcDbEntity
  8
0
100
AcDbLine
 62
7
  6
CONTINUOUS
 10
108.2804884926
 20
251.3655174266
 11
106.9188218943
 21
251.3655174266
  0
LINE
  5
31D
100
AcDbEntity
  8
0
100
AcDbLine
 62
7
  6
CONTINUOUS
 10
108.567155296
 20
253.103815348
 11
108.2088218943
 21
253.1953046988
  0
LINE
  5
31E
100
AcDbEntity
  8
0
100
AcDbLine
 62
7
  6
CONTINUOUS
 10
114.6588218943
 20
252.6463685941
 11
114.9454882876
 21
252.5548792433
  0
LINE
  5
31F
100
AcDbEntity
  8
0
100
AcDbLine
 62
7
  6
CONTINUOUS
 10
108.2804884926
 20
252.7378579449
 11
108.4954884926
 21
252.6463685941
  0
LINE
  5
320
100
AcDbEntity
  8
0
100
AcDbLine
 62
7
  6
CONTINUOUS
 10
115.3038218943
 20
252.9208366464
 11
115.017155501
 21
253.103815348
  0
LINE
  5
321
100
AcDbEntity
  8
RUNDUNGEN
100
AcDbLine
 62
7
  6
CONTINUOUS
 10
156.9276358357
 20
210.6145709694
 11
144.3131484196
 21
180.1605043669
  0
LINE
  5
322
100
AcDbEntity
  8
0
100
AcDbLine
 62
7
  6
CONTINUOUS
 10
113.3688218943
 20
252.6463685941
 11
114.6588218943
 21
252.6463685941
  0
LINE
  5
323
100
AcDbEntity
  8
0
100
AcDbLine
 62
7
  6
CONTINUOUS
 10
106.9188218943
 20
252.7378579449
 11
108.2804884926
 21
252.7378579449
  0
LINE
  5
324
100
AcDbEntity
  8
0
100
AcDbLine
 62
7
  6
CONTINUOUS
 10
114.6588218943
 20
253.1953046988
 11
112.9388218943
 21
253.1953046988
  0
LINE
  5
325
100
AcDbEntity
  8
0
100
AcDbLine
 62
7
  6
CONTINUOUS
 10
112.3654886976
 20
253.1953046988
 11
111.9354886976
 21
253.1953046988
  0
LINE
  5
326
100
AcDbEntity
  8
0
100
AcDbLine
 62
7
  6
CONTINUOUS
 10
110.2154886976
 20
253.1953046988
 11
109.7854884926
 21
253.1953046988
  0
LINE
  5
327
100
AcDbEntity
  8
0
100
AcDbLine
 62
7
  6
CONTINUOUS
 10
108.2088218943
 20
253.1953046988
 11
106.4888218943
 21
253.1953046988
  0
LINE
  5
328
100
AcDbEntity
  8
0
100
AcDbLine
 62
7
  6
CONTINUOUS
 10
115.017155501
 20
253.103815348
 11
114.6588218943
 21
253.1953046988
  0
LINE
  5
329
100
AcDbEntity
  8
RUNDUNGEN
100
AcDbLine
 62
7
  6
CONTINUOUS
 10
112.5495556238
 20
258.0541186403
 11
142.3988633482
 21
245.6901305534
  0
LINE
  5
32A
100
AcDbEntity
  8
RUNDUNGEN
100
AcDbLine
 62
7
  6
CONTINUOUS
 10
144.5636477488
 20
243.5253461528
 11
156.9276358357
 21
213.6760384283
  0
LINE
  5
32B
100
AcDbEntity
  8
RUNDUNGEN
100
AcDbLine
 62
8
  6
HIDDEN
 10
156.9276358357
 20
213.6760384283
 11
156.95791994
 21
213.6007763442
  0
LINE
  5
32C
100
AcDbEntity
  8
B-ACHSEN
100
AcDbLine
 62
7
  6
CONTINUOUS
 10
135.5188218943
 20
167.6453046988
 11
136.0188218943
 21
168.1453046988
  0
LINE
  5
32D
100
AcDbEntity
  8
B-ACHSEN
100
AcDbLine
 62
7
  6
CONTINUOUS
 10
270.8771295894
 20
167.6453046988
 11
270.3771295894
 21
168.1453046988
  0
LINE
  5
32E
100
AcDbEntity
  8
B-ACHSEN
100
AcDbLine
 62
7
  6
CONTINUOUS
 10
270.8775578153
 20
167.6453046988
 11
319.8767013634
 21
167.6453046988
  0
LINE
  5
32F
100
AcDbEntity
  8
B-ACHSEN
100
AcDbLine
 62
7
  6
CONTINUOUS
 10
270.3771295894
 20
168.1453046988
 11
320.3771295894
 21
168.1453046988
  0
LINE
  5
330
100
AcDbEntity
  8
DEFAULT_2
100
AcDbLine
 62
8
  6
HIDDEN
 10
306.3771295894
 20
169.1453046988
 11
284.3771295894
 21
169.1453046988
  0
LINE
  5
331
100
AcDbEntity
  8
RUNDUNGEN
100
AcDbLine
 62
7
  6
CONTINUOUS
 10
306.7341771468
 20
179.2345295154
 11
284.020082032
 21
179.2345295154
  0
LINE
  5
332
100
AcDbEntity
  8
B-ACHSEN
100
AcDbLine
 62
7
  6
CONTINUOUS
 10
270.3771295894
 20
168.1453046988
 11
270.3771295894
 21
179.6945513365
  0
LINE
  5
333
100
AcDbEntity
  8
B-ACHSEN
100
AcDbLine
 62
7
  6
CONTINUOUS
 10
273.7513917292
 20
183.6453046988
 11
282.1433743313
 21
184.9744641665
  0
LINE
  5
334
100
AcDbEntity
  8
B-ACHSEN
100
AcDbLine
 62
7
  6
CONTINUOUS
 10
317.0028674495
 20
183.6453046988
 11
308.6432182238
 21
184.9693430628
  0
LINE
  5
335
100
AcDbEntity
  8
DEFAULT_2
100
AcDbLine
 62
8
  6
HIDDEN
 10
306.3771295894
 20
169.1453046988
 11
307.8771295894
 21
167.6453046988
  0
LINE
  5
336
100
AcDbEntity
  8
DEFAULT_2
100
AcDbLine
 62
8
  6
HIDDEN
 10
284.3771295894
 20
187.1503407234
 11
284.3771295894
 21
169.1453046988
  0
LINE
  5
337
100
AcDbEntity
  8
RUNDUNGEN
100
AcDbLine
 62
7
  6
CONTINUOUS
 10
285.3771295894
 20
256.8586004905
 11
285.3771295894
 21
213.0549744772
  0
LINE
  5
338
100
AcDbEntity
  8
RUNDUNGEN
100
AcDbLine
 62
7
  6
CONTINUOUS
 10
285.2945505141
 20
211.2393909049
 11
282.2181731452
 21
177.4907362489
  0
LWPOLYLINE
  5
339
100
AcDbEntity
  8
RUNDUNGEN
100
AcDbPolyline
 62
7
  6
CONTINUOUS
 90
3
 70
0
 10
282.9743388386
 20
185.7981402222
 10
282.9389222046
 20
185.653164371
 10
282.8823158198
 20
185.5150569718
  0
LINE
  5
33A
100
AcDbEntity
  8
B-ACHSEN
100
AcDbLine
 62
2
  6
CENTER
 10
295.3771295894
 20
263.0718643587
 11
295.3771295894
 21
164.6453046988
  0
LWPOLYLINE
  5
33B
100
AcDbEntity
  8
RUNDUNGEN
100
AcDbPolyline
 62
7
  6
CONTINUOUS
 90
8
 70
0
 10
282.8823158198
 20
185.5150569718
 10
282.8057736868
 20
185.386898907
 10
282.710992263
 20
185.2715474478
 10
282.6000737951
 20
185.1715772574
 10
282.4754861943
 20
185.0892268956
 10
282.340003991
 20
185.0263419164
 10
282.1966454107
 20
184.984333717
 10
282.1443401625
 20
184.9746166089
  0
LINE
  5
33C
100
AcDbEntity
  8
0
100
AcDbLine
 62
7
  6
CONTINUOUS
 10
305.3771295894
 20
217.4353046988
 11
305.6771295894
 21
217.4353046988
  0
LINE
  5
33D
100
AcDbEntity
  8
RUNDUNGEN
100
AcDbLine
 62
7
  6
CONTINUOUS
 10
308.5360860151
 20
177.4907364515
 11
305.4597086647
 21
211.2393909049
  0
LINE
  5
33E
100
AcDbEntity
  8
DEFAULT_2
100
AcDbLine
 62
8
  6
HIDDEN
 10
305.3771295894
 20
213.0549744772
 11
305.3771295894
 21
242.7529913158
  0
LINE
  5
33F
100
AcDbEntity
  8
RUNDUNGEN
100
AcDbLine
 62
7
  6
CONTINUOUS
 10
305.3771295894
 20
213.0549744772
 11
305.3771295894
 21
256.8586005102
  0
LINE
  5
340
100
AcDbEntity
  8
0
100
AcDbLine
 62
7
  6
CONTINUOUS
 10
305.6771295894
 20
253.1953046988
 11
305.6771295894
 21
242.7103046988
  0
LINE
  5
341
100
AcDbEntity
  8
0
100
AcDbLine
 62
7
  6
CONTINUOUS
 10
305.6771295894
 20
235.3140584264
 11
305.6771295894
 21
226.1801008066
  0
LINE
  5
342
100
AcDbEntity
  8
0
100
AcDbLine
 62
7
  6
CONTINUOUS
 10
305.6771295894
 20
224.4001553258
 11
305.6771295894
 21
217.4353046988
  0
LINE
  5
343
100
AcDbEntity
  8
DEFAULT_2
100
AcDbLine
 62
8
  6
HIDDEN
 10
306.3771295894
 20
187.1503415815
 11
306.3771295894
 21
169.1453046988
  0
LINE
  5
344
100
AcDbEntity
  8
0
100
AcDbLine
 62
7
  6
CONTINUOUS
 10
305.3771295894
 20
224.4001553258
 11
305.6771295894
 21
224.4001553258
  0
LINE
  5
345
100
AcDbEntity
  8
0
100
AcDbLine
 62
7
  6
CONTINUOUS
 10
305.3771295894
 20
226.1801008066
 11
305.6771295894
 21
226.1801008066
  0
LINE
  5
346
100
AcDbEntity
  8
0
100
AcDbLine
 62
7
  6
CONTINUOUS
 10
305.3771295894
 20
233.2055401026
 11
305.6771295894
 21
233.2055401026
  0
LINE
  5
347
100
AcDbEntity
  8
0
100
AcDbLine
 62
7
  6
CONTINUOUS
 10
305.3771295894
 20
233.3902032827
 11
305.6771295894
 21
233.3902032827
  0
LINE
  5
348
100
AcDbEntity
  8
0
100
AcDbLine
 62
7
  6
CONTINUOUS
 10
305.3771295894
 20
233.7497623849
 11
305.6771295894
 21
233.7497623849
  0
LINE
  5
349
100
AcDbEntity
  8
0
100
AcDbLine
 62
7
  6
CONTINUOUS
 10
305.3771295894
 20
234.0461381055
 11
305.6771295894
 21
234.0461381055
  0
LINE
  5
34A
100
AcDbEntity
  8
DEFAULT_2
100
AcDbLine
 62
8
  6
HIDDEN
 10
284.3771295894
 20
169.1453046988
 11
282.8771295894
 21
167.6453046988
  0
LINE
  5
34B
100
AcDbEntity
  8
0
100
AcDbLine
 62
7
  6
CONTINUOUS
 10
305.3771295894
 20
234.485820059
 11
305.6771295894
 21
234.485820059
  0
LINE
  5
34C
100
AcDbEntity
  8
0
100
AcDbLine
 62
7
  6
CONTINUOUS
 10
305.3771295894
 20
234.7190150666
 11
305.6771295894
 21
234.7190150666
  0
LINE
  5
34D
100
AcDbEntity
  8
0
100
AcDbLine
 62
7
  6
CONTINUOUS
 10
305.3771295894
 20
235.0372158873
 11
305.6771295894
 21
235.0372158873
  0
LINE
  5
34E
100
AcDbEntity
  8
0
100
AcDbLine
 62
7
  6
CONTINUOUS
 10
305.3771295894
 20
235.2072275133
 11
305.6771295894
 21
235.2072275133
  0
LINE
  5
34F
100
AcDbEntity
  8
0
100
AcDbLine
 62
7
  6
CONTINUOUS
 10
305.3771295894
 20
235.3140584264
 11
305.6771295894
 21
235.3140584264
  0
LINE
  5
350
100
AcDbEntity
  8
B-ACHSEN
100
AcDbLine
 62
7
  6
CONTINUOUS
 10
320.3771295894
 20
168.1453046988
 11
320.3771295894
 21
179.6945513365
  0
LINE
  5
351
100
AcDbEntity
  8
0
100
AcDbLine
 62
7
  6
CONTINUOUS
 10
305.3771295894
 20
242.7103046988
 11
305.6771295894
 21
242.7103046988
  0
LINE
  5
352
100
AcDbEntity
  8
0
100
AcDbLine
 62
7
  6
CONTINUOUS
 10
305.3771295894
 20
245.8019978038
 11
305.6771295894
 21
245.8019978038
  0
LINE
  5
353
100
AcDbEntity
  8
0
100
AcDbLine
 62
7
  6
CONTINUOUS
 10
305.3771295894
 20
246.6074190159
 11
305.6771295894
 21
246.6074190159
  0
LINE
  5
354
100
AcDbEntity
  8
0
100
AcDbLine
 62
7
  6
CONTINUOUS
 10
305.3771295894
 20
247.8449190159
 11
305.6771295894
 21
247.8449190159
  0
LINE
  5
355
100
AcDbEntity
  8
0
100
AcDbLine
 62
7
  6
CONTINUOUS
 10
305.3771295894
 20
249.1199190874
 11
305.6771295894
 21
249.1199190874
  0
LINE
  5
356
100
AcDbEntity
  8
0
100
AcDbLine
 62
7
  6
CONTINUOUS
 10
305.3771295894
 20
249.2144978753
 11
305.6771295894
 21
249.2144978753
  0
LINE
  5
357
100
AcDbEntity
  8
0
100
AcDbLine
 62
7
  6
CONTINUOUS
 10
305.3771295894
 20
249.4019978038
 11
305.6771295894
 21
249.4019978038
  0
LINE
  5
358
100
AcDbEntity
  8
0
100
AcDbLine
 62
7
  6
CONTINUOUS
 10
305.3771295894
 20
253.1953046988
 11
305.6771295894
 21
253.1953046988
  0
LINE
  5
359
100
AcDbEntity
  8
B-ACHSEN
100
AcDbLine
 62
7
  6
CONTINUOUS
 10
319.8771295894
 20
167.6453046988
 11
320.3771295894
 21
168.1453046988
  0
LINE
  5
35A
100
AcDbEntity
  8
RUNDUNGEN
100
AcDbLine
 62
7
  6
CONTINUOUS
 10
303.8771295894
 20
258.3586005102
 11
286.8771295894
 21
258.3586005102
  0
LWPOLYLINE
  5
35B
100
AcDbEntity
  8
RUNDUNGEN
100
AcDbPolyline
 62
7
  6
CONTINUOUS
 90
17
 70
0
 10
64.8055261904
 20
104.0942145183
 10
64.8171249598
 20
103.907744901
 10
64.8571012497
 20
103.70363012
 10
64.9202027975
 20
103.5180116855
 10
65.0027106271
 20
103.3494238459
 10
65.1003359789
 20
103.1993597853
 10
65.2099602114
 20
103.0673010181
 10
65.3274648939
 20
102.953936012
 10
65.4503636125
 20
102.8580064145
 10
65.5726989818
 20
102.7804254619
 10
65.6901656478
 20
102.7197073782
 10
65.7982299669
 20
102.6739035708
 10
65.890380899
 20
102.6413003215
 10
65.9731435275
 20
102.6162249518
 10
66.0500297185
 20
102.595796369
 10
66.1248440083
 20
102.5779939324
 10
66.2088012572
 20
102.5597415015
  0
LINE
  5
35C
100
AcDbEntity
  8
RUNDUNGEN
100
AcDbLine
 62
7
  6
CONTINUOUS
 10
64.8055260829
 20
104.0939408668
 11
64.8055260829
 21
121.1329781343
  0
LINE
  5
35D
100
AcDbEntity
  8
0
100
AcDbLine
 62
7
  6
CONTINUOUS
 10
70.3409034512
 20
102.6134594999
 11
70.3409034512
 21
102.3134594999
  0
LINE
  5
35E
100
AcDbEntity
  8
0
100
AcDbLine
 62
7
  6
CONTINUOUS
 10
76.8493662993
 20
102.6134594999
 11
76.8493662993
 21
102.3134594999
  0
LINE
  5
35F
100
AcDbEntity
  8
0
100
AcDbLine
 62
7
  6
CONTINUOUS
 10
76.9481668339
 20
102.6134594999
 11
76.9481668339
 21
102.3134594999
  0
LINE
  5
360
100
AcDbEntity
  8
0
100
AcDbLine
 62
7
  6
CONTINUOUS
 10
77.0471522419
 20
102.6134594999
 11
77.0471522419
 21
102.3134594999
  0
LINE
  5
361
100
AcDbEntity
  8
0
100
AcDbLine
 62
7
  6
CONTINUOUS
 10
77.2700538586
 20
102.6134594999
 11
77.2700538586
 21
102.3134594999
  0
LINE
  5
362
100
AcDbEntity
  8
0
100
AcDbLine
 62
7
  6
CONTINUOUS
 10
77.5178862758
 20
102.6134594999
 11
77.5178862758
 21
102.3134594999
  0
LINE
  5
363
100
AcDbEntity
  8
0
100
AcDbLine
 62
7
  6
CONTINUOUS
 10
77.9145668349
 20
102.6134594999
 11
77.9145668349
 21
102.3134594999
  0
LINE
  5
364
100
AcDbEntity
  8
0
100
AcDbLine
 62
7
  6
CONTINUOUS
 10
78.2370084797
 20
102.6134594999
 11
78.2370084797
 21
102.3134594999
  0
LINE
  5
365
100
AcDbEntity
  8
0
100
AcDbLine
 62
7
  6
CONTINUOUS
 10
78.3858562638
 20
102.6134594999
 11
78.3858562638
 21
102.3134594999
  0
LINE
  5
366
100
AcDbEntity
  8
0
100
AcDbLine
 62
7
  6
CONTINUOUS
 10
78.6588049213
 20
102.6134594999
 11
78.6588049213
 21
102.3134594999
  0
LINE
  5
367
100
AcDbEntity
  8
0
100
AcDbLine
 62
7
  6
CONTINUOUS
 10
78.8325838639
 20
102.6134594999
 11
78.8325838639
 21
102.3134594999
  0
LINE
  5
368
100
AcDbEntity
  8
0
100
AcDbLine
 62
7
  6
CONTINUOUS
 10
79.8512495427
 20
102.6134594999
 11
79.8512495427
 21
102.3134594999
  0
LINE
  5
369
100
AcDbEntity
  8
0
100
AcDbLine
 62
7
  6
CONTINUOUS
 10
80.5441462661
 20
102.6134594999
 11
80.5441462661
 21
102.3134594999
  0
LINE
  5
36A
100
AcDbEntity
  8
0
100
AcDbLine
 62
7
  6
CONTINUOUS
 10
80.9162652571
 20
102.6134594999
 11
80.9162652571
 21
102.3134594999
  0
LINE
  5
36B
100
AcDbEntity
  8
0
100
AcDbLine
 62
7
  6
CONTINUOUS
 10
90.5439282373
 20
102.6134594999
 11
90.5439282373
 21
102.3134594999
  0
LINE
  5
36C
100
AcDbEntity
  8
0
100
AcDbLine
 62
7
  6
CONTINUOUS
 10
90.598533326
 20
102.6134594999
 11
90.598533326
 21
102.3134594999
  0
LINE
  5
36D
100
AcDbEntity
  8
0
100
AcDbLine
 62
7
  6
CONTINUOUS
 10
90.9882447577
 20
102.6134594999
 11
90.9882447577
 21
102.3134594999
  0
LINE
  5
36E
100
AcDbEntity
  8
0
100
AcDbLine
 62
7
  6
CONTINUOUS
 10
92.7419462004
 20
102.6134594999
 11
92.7419462004
 21
102.3134594999
  0
LWPOLYLINE
  5
36F
100
AcDbEntity
  8
RUNDUNGEN
100
AcDbPolyline
 62
7
  6
CONTINUOUS
 90
16
 70
0
 10
155.9173439992
 20
102.5790256473
 10
155.9918580727
 20
102.5968628573
 10
156.0692741982
 20
102.6175777928
 10
156.1535621995
 20
102.643361456
 10
156.2478660708
 20
102.6771745736
 10
156.3587350828
 20
102.7250042789
 10
156.4787492068
 20
102.7883986346
 10
156.6024820288
 20
102.8688136165
 10
156.7257722145
 20
102.9676293105
 10
156.8427235613
 20
103.0837010348
 10
156.9506715151
 20
103.2177456514
 10
157.0455280712
 20
103.3683565715
 10
157.1247537111
 20
103.5359884161
 10
157.1845842832
 20
103.7189941379
 10
157.2218839361
 20
103.9190236565
 10
157.2321176858
 20
104.0942186152
  0
LINE
  5
370
100
AcDbEntity
  8
RUNDUNGEN
100
AcDbLine
 62
7
  6
CONTINUOUS
 10
155.8288425347
 20
102.5597415018
 11
143.2497181793
 21
99.7914664504
  0
LINE
  5
371
100
AcDbEntity
  8
RUNDUNGEN
100
AcDbLine
 62
7
  6
CONTINUOUS
 10
155.8286890755
 20
102.5597077253
 11
155.9173439992
 21
102.5790256473
  0
LINE
  5
372
100
AcDbEntity
  8
RUNDUNGEN
100
AcDbLine
 62
7
  6
CONTINUOUS
 10
155.8506095568
 20
102.5644262017
 11
155.8493741437
 21
102.5641669505
  0
LINE
  5
373
100
AcDbEntity
  8
RUNDUNGEN
100
AcDbLine
 62
7
  6
CONTINUOUS
 10
66.1870344511
 20
102.5644276973
 11
66.1881429742
 21
102.5641949906
  0
LINE
  5
374
100
AcDbEntity
  8
RUNDUNGEN
100
AcDbLine
 62
7
  6
CONTINUOUS
 10
78.7879256093
 20
99.7914664504
 11
66.2088012539
 21
102.5597415018
  0
LINE
  5
375
100
AcDbEntity
  8
0
100
AcDbLine
 62
7
  6
CONTINUOUS
 10
94.9503111039
 20
102.6134594999
 11
94.9503111039
 21
102.3134594999
  0
LINE
  5
376
100
AcDbEntity
  8
0
100
AcDbLine
 62
7
  6
CONTINUOUS
 10
95.1896727775
 20
102.6134594999
 11
95.1896727775
 21
102.3134594999
  0
LINE
  5
377
100
AcDbEntity
  8
0
100
AcDbLine
 62
7
  6
CONTINUOUS
 10
95.2923977729
 20
102.6134594999
 11
95.2923977729
 21
102.3134594999
  0
LINE
  5
378
100
AcDbEntity
  8
0
100
AcDbLine
 62
7
  6
CONTINUOUS
 10
95.7607745512
 20
102.6134594999
 11
95.7607745512
 21
102.3134594999
  0
LINE
  5
379
100
AcDbEntity
  8
0
100
AcDbLine
 62
7
  6
CONTINUOUS
 10
96.147119606
 20
102.6134594999
 11
96.147119606
 21
102.3134594999
  0
LINE
  5
37A
100
AcDbEntity
  8
0
100
AcDbLine
 62
7
  6
CONTINUOUS
 10
96.3179150639
 20
102.6134594999
 11
96.3179150639
 21
102.3134594999
  0
LINE
  5
37B
100
AcDbEntity
  8
0
100
AcDbLine
 62
7
  6
CONTINUOUS
 10
96.454551742
 20
102.6134594999
 11
96.454551742
 21
102.3134594999
  0
LINE
  5
37C
100
AcDbEntity
  8
0
100
AcDbLine
 62
7
  6
CONTINUOUS
 10
96.7793111446
 20
102.6134594999
 11
96.7793111446
 21
102.3134594999
  0
LINE
  5
37D
100
AcDbEntity
  8
0
100
AcDbLine
 62
7
  6
CONTINUOUS
 10
97.1622899564
 20
102.6134594999
 11
97.1622899564
 21
102.3134594999
  0
LWPOLYLINE
  5
37E
100
AcDbEntity
  8
RUNDUNGEN
100
AcDbPolyline
 62
7
  6
CONTINUOUS
 90
3
 70
0
 10
132.6750151336
 20
99.4180340969
 10
132.766596256
 20
99.4299820917
 10
132.9426666176
 20
99.451524656
  0
LINE
  5
37F
100
AcDbEntity
  8
RUNDUNGEN
100
AcDbLine
 62
7
  6
CONTINUOUS
 10
132.9426666176
 20
99.451524656
 11
133.1346629657
 21
99.4731975009
  0
LWPOLYLINE
  5
380
100
AcDbEntity
  8
RUNDUNGEN
100
AcDbPolyline
 62
7
  6
CONTINUOUS
 90
19
 70
0
 10
133.1346629657
 20
99.4731975009
 10
133.3428379154
 20
99.4949050835
 10
133.5673954969
 20
99.5165418531
 10
133.8085996271
 20
99.5379987043
 10
134.0663516482
 20
99.5591281665
 10
134.3406905249
 20
99.5798250198
 10
134.6313292635
 20
99.5999725292
 10
134.9379358964
 20
99.6194467936
 10
135.2601689827
 20
99.6381139166
 10
135.5975940139
 20
99.655837483
 10
135.9496823132
 20
99.6725090587
 10
136.3158241778
 20
99.6880177478
 10
136.6953345978
 20
99.702241147
 10
137.087418059
 20
99.7150461423
 10
137.4912815201
 20
99.7263260852
 10
137.9060236472
 20
99.7359830866
 10
138.3306766106
 20
99.7439115833
 10
138.764170435
 20
99.7499949241
 10
139.2051775802
 20
99.7541169603
  0
LWPOLYLINE
  5
381
100
AcDbEntity
  8
RUNDUNGEN
100
AcDbPolyline
 62
7
  6
CONTINUOUS
 90
3
 70
0
 10
88.908440778
 20
99.4726043716
 10
89.0998936714
 20
99.4509462053
 10
89.2754374167
 20
99.4294217728
  0
LINE
  5
382
100
AcDbEntity
  8
RUNDUNGEN
100
AcDbLine
 62
7
  6
CONTINUOUS
 10
89.2754374167
 20
99.4294217728
 11
89.362630736
 21
99.4180338484
  0
LINE
  5
383
100
AcDbEntity
  8
0
100
AcDbLine
 62
7
  6
CONTINUOUS
 10
97.8767611623
 20
102.6134594999
 11
97.8767611623
 21
102.3134594999
  0
LINE
  5
384
100
AcDbEntity
  8
0
100
AcDbLine
 62
7
  6
CONTINUOUS
 10
98.0682505012
 20
102.6134594999
 11
98.0682505012
 21
102.3134594999
  0
LINE
  5
385
100
AcDbEntity
  8
0
100
AcDbLine
 62
7
  6
CONTINUOUS
 10
98.2154813873
 20
102.6134594999
 11
98.2154813873
 21
102.3134594999
  0
LINE
  5
386
100
AcDbEntity
  8
0
100
AcDbLine
 62
7
  6
CONTINUOUS
 10
98.4240500825
 20
102.6134594999
 11
98.4240500825
 21
102.3134594999
  0
LINE
  5
387
100
AcDbEntity
  8
0
100
AcDbLine
 62
7
  6
CONTINUOUS
 10
98.7146504678
 20
102.6134594999
 11
98.7146504678
 21
102.3134594999
  0
LINE
  5
388
100
AcDbEntity
  8
0
100
AcDbLine
 62
7
  6
CONTINUOUS
 10
99.0872825935
 20
102.6134594999
 11
99.0872825935
 21
102.3134594999
  0
LINE
  5
389
100
AcDbEntity
  8
0
100
AcDbLine
 62
7
  6
CONTINUOUS
 10
99.2787719491
 20
102.6134594999
 11
99.2787719491
 21
102.3134594999
  0
LINE
  5
38A
100
AcDbEntity
  8
RUNDUNGEN
100
AcDbLine
 62
7
  6
CONTINUOUS
 10
139.2051775802
 20
99.7541169603
 11
139.8635348832
 21
99.7564142505
  0
LINE
  5
38B
100
AcDbEntity
  8
RUNDUNGEN
100
AcDbLine
 62
7
  6
CONTINUOUS
 10
142.9273291208
 20
99.7564119425
 11
139.86353489
 21
99.7564119425
  0
LINE
  5
38C
100
AcDbEntity
  8
0
100
AcDbLine
 62
7
  6
CONTINUOUS
 10
115.8054882876
 20
102.3134594999
 11
112.9388218943
 21
102.3134594999
  0
LINE
  5
38D
100
AcDbEntity
  8
0
100
AcDbLine
 62
7
  6
CONTINUOUS
 10
112.3654886976
 20
102.3134594999
 11
109.7854884926
 21
102.3134594999
  0
LINE
  5
38E
100
AcDbEntity
  8
0
100
AcDbLine
 62
7
  6
CONTINUOUS
 10
109.212155296
 20
102.3134594999
 11
106.4888218943
 21
102.3134594999
  0
LINE
  5
38F
100
AcDbEntity
  8
0
100
AcDbLine
 62
7
  6
CONTINUOUS
 10
99.2787719491
 20
102.3134594999
 11
90.5439282373
 21
102.3134594999
  0
LINE
  5
390
100
AcDbEntity
  8
0
100
AcDbLine
 62
7
  6
CONTINUOUS
 10
80.9162652571
 20
102.3134594999
 11
70.3409034512
 21
102.3134594999
  0
LWPOLYLINE
  5
391
100
AcDbEntity
  8
RUNDUNGEN
100
AcDbPolyline
 62
7
  6
CONTINUOUS
 90
21
 70
0
 10
79.1103146678
 20
99.7564119425
 10
82.4050264873
 20
99.7561337055
 10
82.8513713812
 20
99.7539827568
 10
83.2917750382
 20
99.7497788656
 10
83.7245906311
 20
99.7436214658
 10
84.1485111681
 20
99.7356271166
 10
84.5624786863
 20
99.7259119761
 10
84.9655333456
 20
99.7145811414
 10
85.3567828843
 20
99.7017321876
 10
85.7354428159
 20
99.6874726804
 10
86.1007279681
 20
99.6719353738
 10
86.4519620074
 20
99.655241729
 10
86.7885448182
 20
99.6375017127
 10
87.1099567716
 20
99.6188235948
 10
87.4157675721
 20
99.5993440033
 10
87.7056402451
 20
99.5791957125
 10
87.9792493238
 20
99.558501438
 10
88.2363133462
 20
99.537376882
 10
88.4768710763
 20
99.515927709
 10
88.7008312259
 20
99.4943002562
 10
88.908440778
 20
99.4726043716
  0
LINE
  5
392
100
AcDbEntity
  8
RUNDUNGEN
100
AcDbLine
 62
7
  6
CONTINUOUS
 10
66.4768996864
 20
102.6134594999
 11
155.5607441022
 21
102.6134594999
  0
LINE
  5
393
100
AcDbEntity
  8
0
100
AcDbLine
 62
7
  6
CONTINUOUS
 10
106.4888218943
 20
102.6134594999
 11
106.4888218943
 21
102.3134594999
  0
LINE
  5
394
100
AcDbEntity
  8
0
100
AcDbLine
 62
7
  6
CONTINUOUS
 10
109.212155296
 20
102.6134594999
 11
109.212155296
 21
102.3134594999
  0
LINE
  5
395
100
AcDbEntity
  8
0
100
AcDbLine
 62
7
  6
CONTINUOUS
 10
109.7854884926
 20
102.6134594999
 11
109.7854884926
 21
102.3134594999
  0
LINE
  5
396
100
AcDbEntity
  8
B-ACHSEN
100
AcDbLine
 62
2
  6
CENTER
 10
111.0188218943
 20
112.6134594999
 11
111.0188218943
 21
84.6134594999
  0
LINE
  5
397
100
AcDbEntity
  8
B-ACHSEN
100
AcDbLine
 62
2
  6
CENTER
 10
111.0188218943
 20
112.6134594999
 11
111.0188218943
 21
140.6134594999
  0
LINE
  5
398
100
AcDbEntity
  8
B-ACHSEN
100
AcDbLine
 62
2
  6
CENTER
 10
111.0188218943
 20
112.6134594999
 11
83.0188218943
 21
112.6134594999
  0
LINE
  5
399
100
AcDbEntity
  8
B-ACHSEN
100
AcDbLine
 62
2
  6
CENTER
 10
111.0188218943
 20
112.6134594999
 11
139.0188218943
 21
112.6134594999
  0
LINE
  5
39A
100
AcDbEntity
  8
0
100
AcDbLine
 62
7
  6
CONTINUOUS
 10
112.3654886976
 20
102.6134594999
 11
112.3654886976
 21
102.3134594999
  0
LINE
  5
39B
100
AcDbEntity
  8
0
100
AcDbLine
 62
7
  6
CONTINUOUS
 10
112.9388218943
 20
102.6134594999
 11
112.9388218943
 21
102.3134594999
  0
LINE
  5
39C
100
AcDbEntity
  8
0
100
AcDbLine
 62
7
  6
CONTINUOUS
 10
115.8054882876
 20
102.6134594999
 11
115.8054882876
 21
102.3134594999
  0
LINE
  5
39D
100
AcDbEntity
  8
RUNDUNGEN
100
AcDbLine
 62
7
  6
CONTINUOUS
 10
155.5607441022
 20
122.6134594999
 11
66.4768996864
 21
122.6134594999
  0
LINE
  5
39E
100
AcDbEntity
  8
RUNDUNGEN
100
AcDbLine
 62
7
  6
CONTINUOUS
 10
82.8324662084
 20
125.4728020396
 11
82.1741089054
 21
125.4705047493
  0
LINE
  5
39F
100
AcDbEntity
  8
RUNDUNGEN
100
AcDbLine
 62
7
  6
CONTINUOUS
 10
79.1103146678
 20
125.4705070573
 11
82.1741088985
 21
125.4705070573
  0
LWPOLYLINE
  5
3A0
100
AcDbEntity
  8
RUNDUNGEN
100
AcDbPolyline
 62
7
  6
CONTINUOUS
 90
21
 70
0
 10
142.9273291208
 20
125.4705070573
 10
139.6326173013
 20
125.4707852943
 10
139.1862724073
 20
125.4729362431
 10
138.7458687504
 20
125.4771401342
 10
138.3130531575
 20
125.4832975341
 10
137.8891326205
 20
125.4912918832
 10
137.4751651022
 20
125.5010070237
 10
137.072110443
 20
125.5123378585
 10
136.6808609043
 20
125.5251868122
 10
136.3022009727
 20
125.5394463194
 10
135.9369158205
 20
125.554983626
 10
135.5856817812
 20
125.5716772708
 10
135.2490989704
 20
125.5894172872
 10
134.927687017
 20
125.608095405
 10
134.6218762165
 20
125.6275749965
 10
134.3320035435
 20
125.6477232873
 10
134.0583944648
 20
125.6684175618
 10
133.8013304423
 20
125.6895421178
 10
133.5607727123
 20
125.7109912908
 10
133.3368125627
 20
125.7326187436
 10
133.1292030106
 20
125.7543146283
  0
LWPOLYLINE
  5
3A1
100
AcDbEntity
  8
RUNDUNGEN
100
AcDbPolyline
 62
7
  6
CONTINUOUS
 90
3
 70
0
 10
89.362628655
 20
125.808884903
 10
89.2710475326
 20
125.7969369082
 10
89.094977171
 20
125.7753943438
  0
LINE
  5
3A2
100
AcDbEntity
  8
RUNDUNGEN
100
AcDbLine
 62
7
  6
CONTINUOUS
 10
89.094977171
 20
125.7753943438
 11
88.9029808229
 21
125.7537214989
  0
LWPOLYLINE
  5
3A3
100
AcDbEntity
  8
RUNDUNGEN
100
AcDbPolyline
 62
7
  6
CONTINUOUS
 90
19
 70
0
 10
88.9029808229
 20
125.7537214989
 10
88.6948058732
 20
125.7320139163
 10
88.4702482917
 20
125.7103771467
 10
88.2290441614
 20
125.6889202956
 10
87.9712921404
 20
125.6677908334
 10
87.6969532637
 20
125.64709398
 10
87.4063145251
 20
125.6269464706
 10
87.0997078922
 20
125.6074722063
 10
86.7774748059
 20
125.5888050833
 10
86.4400497747
 20
125.5710815169
 10
86.0879614753
 20
125.5544099412
 10
85.7218196108
 20
125.538901252
 10
85.3423091908
 20
125.5246778528
 10
84.9502257296
 20
125.5118728575
 10
84.5463622685
 20
125.5005929146
 10
84.1316201414
 20
125.4909359132
 10
83.706967178
 20
125.4830074165
 10
83.2734733535
 20
125.4769240758
 10
82.8324662084
 20
125.4728020396
  0
LWPOLYLINE
  5
3A4
100
AcDbEntity
  8
RUNDUNGEN
100
AcDbPolyline
 62
7
  6
CONTINUOUS
 90
3
 70
0
 10
133.1292030106
 20
125.7543146283
 10
132.9377501172
 20
125.7759727945
 10
132.7622063719
 20
125.797497227
  0
LINE
  5
3A5
100
AcDbEntity
  8
RUNDUNGEN
100
AcDbLine
 62
7
  6
CONTINUOUS
 10
132.7622063719
 20
125.797497227
 11
132.6750130526
 21
125.8088851514
  0
LWPOLYLINE
  5
3A6
100
AcDbEntity
  8
RUNDUNGEN
100
AcDbPolyline
 62
7
  6
CONTINUOUS
 90
16
 70
0
 10
66.1203147836
 20
122.6478966783
 10
66.0457966006
 20
122.6300589965
 10
65.968376842
 20
122.6093435981
 10
65.8840859552
 20
122.5835591739
 10
65.7897769442
 20
122.5497440687
 10
65.6789054034
 20
122.5019130218
 10
65.558888722
 20
122.4385169663
 10
65.4351500414
 20
122.3580972673
 10
65.3118542225
 20
122.2592749271
 10
65.1948992547
 20
122.1431958217
 10
65.086950498
 20
122.009144352
 10
64.9920966421
 20
121.8585295549
 10
64.9128758869
 20
121.6908971634
 10
64.8530512533
 20
121.5078951753
 10
64.8157569948
 20
121.3078732967
 10
64.8055261867
 20
121.1327055261
  0
LINE
  5
3A7
100
AcDbEntity
  8
RUNDUNGEN
100
AcDbLine
 62
7
  6
CONTINUOUS
 10
66.2088012539
 20
122.667177498
 11
78.7879256093
 21
125.4354525495
  0
LINE
  5
3A8
100
AcDbEntity
  8
RUNDUNGEN
100
AcDbLine
 62
7
  6
CONTINUOUS
 10
66.2089544856
 20
122.6672112244
 11
66.1203147836
 21
122.6478966783
  0
LINE
  5
3A9
100
AcDbEntity
  8
RUNDUNGEN
100
AcDbLine
 62
7
  6
CONTINUOUS
 10
66.1870342305
 20
122.6624927978
 11
66.1882745756
 21
122.6627530814
  0
LINE
  5
3AA
100
AcDbEntity
  8
RUNDUNGEN
100
AcDbLine
 62
7
  6
CONTINUOUS
 10
155.8506093735
 20
122.6624914294
 11
155.8495055786
 21
122.6627231434
  0
LINE
  5
3AB
100
AcDbEntity
  8
RUNDUNGEN
100
AcDbLine
 62
7
  6
CONTINUOUS
 10
143.2497181793
 20
125.4354525495
 11
155.8288425347
 21
122.667177498
  0
LWPOLYLINE
  5
3AC
100
AcDbEntity
  8
RUNDUNGEN
100
AcDbPolyline
 62
7
  6
CONTINUOUS
 90
17
 70
0
 10
157.2321176811
 20
121.1326993533
 10
157.2205166783
 20
121.3191889509
 10
157.1805363693
 20
121.5233094816
 10
157.1174304326
 20
121.708930708
 10
157.0349193464
 20
121.8775176724
 10
156.9372926751
 20
122.0275783159
 10
156.8276700131
 20
122.1596315401
 10
156.7101690582
 20
122.2729908699
 10
156.5872754912
 20
122.3689155919
 10
156.4649449133
 20
122.4464934778
 10
156.3474789901
 20
122.5072113594
 10
156.239415433
 20
122.5530148498
 10
156.1472689801
 20
122.5856164848
 10
156.0645089599
 20
122.6106912715
 10
155.9876257438
 20
122.6311196104
 10
155.9128149647
 20
122.6489217251
 10
155.8288425382
 20
122.667177497
  0
LINE
  5
3AD
100
AcDbEntity
  8
RUNDUNGEN
100
AcDbLine
 62
7
  6
CONTINUOUS
 10
157.2321177057
 20
104.0939409066
 11
157.2321177057
 21
121.132978092
  0
ARC
  5
3AE
100
AcDbEntity
  8
DEFAULT_2
100
AcDbCircle
 62
8
  6
HIDDEN
 10
110.9819445988
 20
211.6158652871
 40
24.4738067517
100
AcDbArc
 50
271.4908053163
 51
272.8259956211
  0
ARC
  5
3AF
100
AcDbEntity
  8
DEFAULT_2
100
AcDbCircle
 62
8
  6
HIDDEN
 10
111.0187879675
 20
210.4269630801
 40
23.2843522939
100
AcDbArc
 50
269.2968334645
 51
270.0000528748
  0
ARC
  5
3B0
100
AcDbEntity
  8
DEFAULT_2
100
AcDbCircle
 62
8
  6
HIDDEN
 10
111.0178883237
 20
210.3603939359
 40
23.2177771223
100
AcDbArc
 50
268.5219845576
 51
269.2970373553
  0
ARC
  5
3B1
100
AcDbEntity
  8
RUNDUNGEN
100
AcDbCircle
 62
8
  6
HIDDEN
 10
82.1718218982
 20
171.7168201833
 40
7.51770968
100
AcDbArc
 50
85.0758886371
 51
89.9825701546
  0
ARC
  5
3B2
100
AcDbEntity
  8
RUNDUNGEN
100
AcDbCircle
 62
7
  6
CONTINUOUS
 10
80.0188218943
 20
173.2345295154
 40
6.0
100
AcDbArc
 50
0.0
 51
90.0
  0
ARC
  5
3B3
100
AcDbEntity
  8
RUNDUNGEN
100
AcDbCircle
 62
7
  6
CONTINUOUS
 10
68.8055260829
 20
212.1453046988
 40
4.0
100
AcDbArc
 50
157.5
 51
202.5
  0
ARC
  5
3B4
100
AcDbEntity
  8
RUNDUNGEN
100
AcDbCircle
 62
7
  6
CONTINUOUS
 10
79.1103146678
 20
180.7345295154
 40
1.5
100
AcDbArc
 50
202.5
 51
270.0
  0
ARC
  5
3B5
100
AcDbEntity
  8
DEFAULT_2
100
AcDbCircle
 62
8
  6
HIDDEN
 10
110.8249124002
 20
214.7615870679
 40
27.623451937
100
AcDbArc
 50
272.886680689
 51
274.1214531629
  0
ARC
  5
3B6
100
AcDbEntity
  8
RUNDUNGEN
100
AcDbCircle
 62
7
  6
CONTINUOUS
 10
81.1695141698
 20
241.9946124233
 40
4.0
100
AcDbArc
 50
112.5
 51
157.5
  0
ARC
  5
3B7
100
AcDbEntity
  8
0
100
AcDbCircle
 62
7
  6
CONTINUOUS
 10
111.0188218943
 20
212.1453046988
 40
25.0
100
AcDbArc
 50
274.1090393034
 51
356.1980583946
  0
ARC
  5
3B8
100
AcDbEntity
  8
0
100
AcDbCircle
 62
7
  6
CONTINUOUS
 10
111.0188218943
 20
212.1453046988
 40
25.0
100
AcDbArc
 50
183.8019291321
 51
265.8909604661
  0
ARC
  5
3B9
100
AcDbEntity
  8
RUNDUNGEN
100
AcDbCircle
 62
7
  6
CONTINUOUS
 10
111.0188218943
 20
212.1453046988
 40
25.0
100
AcDbArc
 50
356.1980583946
 51
183.8019291321
  0
ARC
  5
3BA
100
AcDbEntity
  8
DEFAULT_2
100
AcDbCircle
 62
8
  6
HIDDEN
 10
111.0188606827
 20
210.4248424613
 40
23.2822316751
100
AcDbArc
 50
269.9998739332
 51
270.7950065503
  0
ARC
  5
3BB
100
AcDbEntity
  8
DEFAULT_2
100
AcDbCircle
 62
8
  6
HIDDEN
 10
111.0198538058
 20
210.3566348687
 40
23.2140168688
100
AcDbArc
 50
270.7948914242
 51
271.4781299239
  0
ARC
  5
3BC
100
AcDbEntity
  8
RUNDUNGEN
100
AcDbCircle
 62
8
  6
HIDDEN
 10
139.8658897548
 20
171.7195578162
 40
7.5149720682
100
AcDbArc
 50
90.0179536083
 51
94.9266232285
  0
ARC
  5
3BD
100
AcDbEntity
  8
RUNDUNGEN
100
AcDbCircle
 62
7
  6
CONTINUOUS
 10
142.0188218943
 20
173.2345295154
 40
6.0
100
AcDbArc
 50
90.0
 51
180.0
  0
ARC
  5
3BE
100
AcDbEntity
  8
RUNDUNGEN
100
AcDbCircle
 62
7
  6
CONTINUOUS
 10
142.9273291208
 20
180.7345295154
 40
1.5
100
AcDbArc
 50
270.0
 51
337.5
  0
ARC
  5
3BF
100
AcDbEntity
  8
RUNDUNGEN
100
AcDbCircle
 62
7
  6
CONTINUOUS
 10
153.2321177057
 20
212.1453046988
 40
4.0
100
AcDbArc
 50
337.5
 51
22.5
  0
ARC
  5
3C0
100
AcDbEntity
  8
DEFAULT_2
100
AcDbCircle
 62
8
  6
HIDDEN
 10
111.1398688106
 20
213.6691541285
 40
26.5286080058
100
AcDbArc
 50
265.8660646387
 51
268.4429458764
  0
ARC
  5
3C1
100
AcDbEntity
  8
RUNDUNGEN
100
AcDbCircle
 62
7
  6
CONTINUOUS
 10
140.8681296188
 20
241.9946124233
 40
4.0
100
AcDbArc
 50
22.5
 51
67.5
  0
ARC
  5
3C2
100
AcDbEntity
  8
RUNDUNGEN
100
AcDbCircle
 62
7
  6
CONTINUOUS
 10
111.0188218943
 20
254.3586005102
 40
4.0
100
AcDbArc
 50
67.5
 51
112.5
  0
ARC
  5
3C3
100
AcDbEntity
  8
RUNDUNGEN
100
AcDbCircle
 62
7
  6
CONTINUOUS
 10
325.3771295894
 20
213.0549744772
 40
20.0
100
AcDbArc
 50
180.0
 51
185.2084342388
  0
ARC
  5
3C4
100
AcDbEntity
  8
RUNDUNGEN
100
AcDbCircle
 62
7
  6
CONTINUOUS
 10
265.3771295894
 20
213.0549744772
 40
20.0
100
AcDbArc
 50
354.7915657612
 51
360.0
  0
ARC
  5
3C5
100
AcDbEntity
  8
RUNDUNGEN
100
AcDbCircle
 62
8
  6
HIDDEN
 10
295.3771295894
 20
247.1453046988
 40
10.0
100
AcDbArc
 50
180.0
 51
360.0
  0
ARC
  5
3C6
100
AcDbEntity
  8
B-ACHSEN
100
AcDbCircle
 62
7
  6
CONTINUOUS
 10
274.3771295894
 20
179.6945513365
 40
4.0
100
AcDbArc
 50
99.0
 51
180.0
  0
ARC
  5
3C7
100
AcDbEntity
  8
B-ACHSEN
100
AcDbCircle
 62
7
  6
CONTINUOUS
 10
316.3771295894
 20
179.6945513365
 40
4.0
100
AcDbArc
 50
0.0
 51
81.0
  0
ARC
  5
3C8
100
AcDbEntity
  8
RUNDUNGEN
100
AcDbCircle
 62
7
  6
CONTINUOUS
 10
286.8771295894
 20
256.8586005102
 40
1.5
100
AcDbArc
 50
90.0
 51
180.0000007014
  0
ARC
  5
3C9
100
AcDbEntity
  8
RUNDUNGEN
100
AcDbCircle
 62
7
  6
CONTINUOUS
 10
303.8771295894
 20
256.8586005102
 40
1.5
100
AcDbArc
 50
359.9999992996
 51
90.0
  0
ARC
  5
3CA
100
AcDbEntity
  8
RUNDUNGEN
100
AcDbCircle
 62
7
  6
CONTINUOUS
 10
306.7341793439
 20
180.7345054125
 40
1.4999951794
100
AcDbArc
 50
269.9999160751
 51
5.2084342388
  0
ARC
  5
3CB
100
AcDbEntity
  8
RUNDUNGEN
100
AcDbCircle
 62
7
  6
CONTINUOUS
 10
284.0200798349
 20
180.7345054125
 40
1.4999951794
100
AcDbArc
 50
174.7906412809
 51
270.0000839249
  0
ARC
  5
3CC
100
AcDbEntity
  8
RUNDUNGEN
100
AcDbCircle
 62
7
  6
CONTINUOUS
 10
308.7663781232
 20
185.9622888735
 40
0.9999995571
100
AcDbArc
 50
188.5536298127
 51
261.0000000005
  0
ARC
  5
3CD
100
AcDbEntity
  8
RUNDUNGEN
100
AcDbCircle
 62
7
  6
CONTINUOUS
 10
79.1105965504
 20
101.263373893
 40
1.5068839224
100
AcDbArc
 50
257.5973458106
 51
269.9893366293
  0
ARC
  5
3CE
100
AcDbEntity
  8
RUNDUNGEN
100
AcDbCircle
 62
7
  6
CONTINUOUS
 10
89.2303000386
 20
98.4268258349
 40
1.0000001919
100
AcDbArc
 50
33.0699257993
 51
82.3939648488
  0
ARC
  5
3CF
100
AcDbEntity
  8
RUNDUNGEN
100
AcDbCircle
 62
7
  6
CONTINUOUS
 10
79.1114033531
 20
123.9632785778
 40
1.5072288727
100
AcDbArc
 50
90.0413852737
 51
102.5139508718
  0
ARC
  5
3D0
100
AcDbEntity
  8
RUNDUNGEN
100
AcDbCircle
 62
7
  6
CONTINUOUS
 10
89.2303000087
 20
126.8000931242
 40
1.000000192
100
AcDbArc
 50
277.6060584425
 51
326.9293957876
  0
ARC
  5
3D1
100
AcDbEntity
  8
RUNDUNGEN
100
AcDbCircle
 62
7
  6
CONTINUOUS
 10
142.9262404355
 20
101.263640422
 40
1.5072288727
100
AcDbArc
 50
270.0413852737
 51
282.5139508718
  0
ARC
  5
3D2
100
AcDbEntity
  8
RUNDUNGEN
100
AcDbCircle
 62
7
  6
CONTINUOUS
 10
132.8073437799
 20
98.4268258756
 40
1.000000192
100
AcDbArc
 50
97.6060584425
 51
146.9293957876
  0
ARC
  5
3D3
100
AcDbEntity
  8
B-ACHSEN
100
AcDbCircle
 62
7
  6
CONTINUOUS
 10
111.0188218943
 20
112.6134594999
 40
25.0
100
AcDbArc
 50
32.4802036028
 51
147.5197963972
  0
ARC
  5
3D4
100
AcDbEntity
  8
B-ACHSEN
100
AcDbCircle
 62
7
  6
CONTINUOUS
 10
111.0188218943
 20
112.6134594999
 40
25.0
100
AcDbArc
 50
212.4802036028
 51
327.5197963972
  0
ARC
  5
3D5
100
AcDbEntity
  8
RUNDUNGEN
100
AcDbCircle
 62
7
  6
CONTINUOUS
 10
111.0188218943
 20
112.6134594999
 40
25.0
100
AcDbArc
 50
212.4802036028
 51
327.5197963972
  0
ARC
  5
3D6
100
AcDbEntity
  8
RUNDUNGEN
100
AcDbCircle
 62
7
  6
CONTINUOUS
 10
111.0188218943
 20
112.6134594999
 40
25.0
100
AcDbArc
 50
32.4802036028
 51
147.5197963972
  0
ARC
  5
3D7
100
AcDbEntity
  8
DEFAULT_2
100
AcDbCircle
 62
8
  6
HIDDEN
 10
111.0188218943
 20
112.6134594999
 40
11.0
100
AcDbArc
 50
290.4421464472
 51
65.4032410351
  0
ARC
  5
3D8
100
AcDbEntity
  8
DEFAULT_2
100
AcDbCircle
 62
8
  6
HIDDEN
 10
111.0188218943
 20
112.6134594999
 40
11.0
100
AcDbArc
 50
245.6344374515
 51
249.5596345714
  0
ARC
  5
3D9
100
AcDbEntity
  8
DEFAULT_2
100
AcDbCircle
 62
8
  6
HIDDEN
 10
111.0188218943
 20
112.6134594999
 40
11.0
100
AcDbArc
 50
114.6001900857
 51
245.4032189344
  0
ARC
  5
3DA
100
AcDbEntity
  8
0
100
AcDbCircle
 62
7
  6
CONTINUOUS
 10
111.0188218943
 20
112.6134594999
 40
11.0
100
AcDbArc
 50
245.4032189344
 51
245.6344374515
  0
ARC
  5
3DB
100
AcDbEntity
  8
0
100
AcDbCircle
 62
7
  6
CONTINUOUS
 10
111.0188218943
 20
112.6134594999
 40
11.0
100
AcDbArc
 50
65.4032410351
 51
114.6001900857
  0
ARC
  5
3DC
100
AcDbEntity
  8
0
100
AcDbCircle
 62
7
  6
CONTINUOUS
 10
111.0188218943
 20
112.6134594999
 40
11.0
100
AcDbArc
 50
249.5596345714
 51
290.4421464472
  0
ARC
  5
3DD
100
AcDbEntity
  8
RUNDUNGEN
100
AcDbCircle
 62
7
  6
CONTINUOUS
 10
142.9270472382
 20
123.9635451068
 40
1.5068839224
100
AcDbArc
 50
77.5973458106
 51
89.9893366293
  0
ARC
  5
3DE
100
AcDbEntity
  8
RUNDUNGEN
100
AcDbCircle
 62
7
  6
CONTINUOUS
 10
132.80734375
 20
126.8000931649
 40
1.0000001919
100
AcDbArc
 50
213.0699257993
 51
262.3939648488
  0
LINE
  5
3DF
100
AcDbEntity
  8
DEFAULT_2
100
AcDbLine
 62
8
  6
HIDDEN
 10
112.1885750353
 20
187.1718218427
 11
112.216050726
 21
187.1731867687
  0
SPLINE
  5
3E0
100
AcDbEntity
  8
RUNDUNGEN
100
AcDbSpline
 62
8
  6
HIDDEN
 70
0
 71
3
 72
13
 73
9
 74
0
 42
0.0000001
 43
0.0000001
 44
0.0000000001
 40
0.0
 40
0.0
 40
0.0
 40
0.0
 40
0.1252643732
 40
0.2502138049
 40
0.3750399196
 40
0.4998893399
 40
0.7494071505
 40
1.0
 40
1.0
 40
1.0
 40
1.0
 10
132.4879370394
 20
173.2345295154
 30
0.0
 10
132.5172434882
 20
173.6387361245
 30
0.0
 10
132.6795504007
 20
174.4415441295
 30
0.0
 10
133.1865433505
 20
175.5531743024
 30
0.0
 10
133.8980794077
 20
176.5429752056
 30
0.0
 10
135.0556483587
 20
177.6781892977
 30
0.0
 10
136.814423488
 20
178.7386805493
 30
0.0
 10
138.4127421696
 20
179.13731747
 30
0.0
 10
139.2205048653
 20
179.2067658092
 30
0.0
  0
SPLINE
  5
3E1
100
AcDbEntity
  8
0
100
AcDbSpline
 62
7
  6
CONTINUOUS
 70
0
 71
3
 72
9
 73
5
 74
0
 42
0.0000001
 43
0.0000001
 44
0.0000000001
 40
0.0
 40
0.0
 40
0.0
 40
0.0
 40
0.5000001559
 40
1.0
 40
1.0
 40
1.0
 40
1.0
 10
112.81020469
 20
187.2095687924
 30
0.0
 10
112.2141958875
 20
187.1667518363
 30
0.0
 10
111.0188216052
 20
187.1184697559
 30
0.0
 10
109.823447327
 20
187.1667518775
 30
0.0
 10
109.2274388962
 20
187.2095688092
 30
0.0
  0
SPLINE
  5
3E2
100
AcDbEntity
  8
RUNDUNGEN
100
AcDbSpline
 62
7
  6
CONTINUOUS
 70
0
 71
3
 72
13
 73
9
 74
0
 42
0.0000001
 43
0.0000001
 44
0.0000000001
 40
0.0
 40
0.0
 40
0.0
 40
0.0
 40
0.1252152187
 40
0.2501147607
 40
0.3749175849
 40
0.4997787298
 40
0.7493398977
 40
1.0
 40
1.0
 40
1.0
 40
1.0
 10
89.5497067492
 20
173.2345295154
 30
0.0
 10
89.5184860197
 20
173.6651386726
 30
0.0
 10
89.3381072286
 20
174.5201686599
 30
0.0
 10
88.7725209573
 20
175.6935450672
 30
0.0
 10
87.9826575497
 20
176.7255575287
 30
0.0
 10
86.7041981453
 20
177.8889442975
 30
0.0
 10
84.7735294546
 20
178.9292484342
 30
0.0
 10
83.0383796895
 20
179.2344833018
 30
0.0
 10
82.174108847
 20
179.2345295154
 30
0.0
  0
SPLINE
  5
3E3
100
AcDbEntity
  8
RUNDUNGEN
100
AcDbSpline
 62
7
  6
CONTINUOUS
 70
0
 71
3
 72
13
 73
9
 74
0
 42
0.0000001
 43
0.0000001
 44
0.0000000001
 40
0.0
 40
0.0
 40
0.0
 40
0.0
 40
0.2506636203
 40
0.5002361302
 40
0.6251008752
 40
0.7499026006
 40
0.8747981665
 40
1.0
 40
1.0
 40
1.0
 40
1.0
 10
139.8635349416
 20
179.2345295154
 30
0.0
 10
138.9992324352
 20
179.2344833991
 30
0.0
 10
137.2639944985
 20
178.9292098903
 30
0.0
 10
135.3332386805
 20
177.8888118314
 30
0.0
 10
134.0547717902
 20
176.7253036547
 30
0.0
 10
133.2649376388
 20
175.6932357908
 30
0.0
 10
132.6994622005
 20
174.5198440726
 30
0.0
 10
132.5191211272
 20
173.6648529816
 30
0.0
 10
132.4879113704
 20
173.2342795196
 30
0.0
  0
ENDSEC
  0
SECTION
  2
OBJECTS
  0
DICTIONARY
  5
C
100
AcDbDictionary
280
0
281
1
  3
ACAD_GROUP
350
D
  3
ACAD_MLINESTYLE
350
17
  3
ACAD_LAYOUT
350
1A
  3
ACAD_PLOTSETTINGS
350
19
  3
ACAD_PLOTSTYLENAME
350
E
  0
DICTIONARY
  5
D
102
{ACAD_REACTORS
330
C
102
}
100
AcDbDictionary
280
0
281
1
  0
ACDBDICTIONARYWDFLT
  5
E
102
{ACAD_REACTORS
330
C
102
}
100
AcDbDictionary
281
1
  3
Normal
350
F
100
AcDbDictionaryWithDefault
340
F
  0
DICTIONARY
  5
17
102
{ACAD_REACTORS
330
C
102
}
100
AcDbDictionary
280
0
281
1
  3
Standard
350
18
  0
DICTIONARY
  5
19
102
{ACAD_REACTORS
330
C
102
}
100
AcDbDictionary
281
1
  0
DICTIONARY
  5
1A
102
{ACAD_REACTORS
330
C
102
}
100
AcDbDictionary
281
1
  3
Model
350
3E4
  3
Layout1
350
3E5
  0
ACDBPLACEHOLDER
  5
F
102
{ACAD_REACTORS
330
E
102
}
  0
MLINESTYLE
  5
18
102
{ACAD_REACTORS
330
17
102
}
100
AcDbMlineStyle
  2
STANDARD
 70
0
  3

 62
256
 51
90.0
 52
90.0
 71
2
 49
0.5
 62
256
  6
BYLAYER
 49
-0.5
 62
256
  6
BYLAYER
  0
LAYOUT
  5
3E4
102
{ACAD_REACTORS
330
1A
102
}
100
AcDbPlotSettings
  1

  2
none_device
  4
ISO_A3_(420.00_x_297.00_MM)
  6

 40
0.0
 41
0.0
 42
0.0
 43
0.0
 44
420.0
 45
297.0
 46
0.0
 47
0.0
 48
0.0
 49
0.0
140
0.0
141
0.0
142
1.0
143
1.0
 70
1024
 72
1
 73
0
 74
0
  7

 75
0
147
1.0
148
0.0
149
0.0
100
AcDbLayout
  1
Model
 70
0
 71
0
 10
0.0
 20
0.0
 11
420.0
 21
297.0
 12
0.0
 22
0.0
 32
0.0
 14
0.0
 24
0.0
 34
0.0
 15
0.0
 25
0.0
 35
0.0
146
0.0
 13
0.0
 23
0.0
 33
0.0
 16
1.0
 26
0.0
 36
0.0
 17
0.0
 27
1.0
 37
0.0
 76
0
330
208
345
0
346
0
  0
LAYOUT
  5
3E5
102
{ACAD_REACTORS
330
1A
102
}
100
AcDbPlotSettings
  1

  2
none_device
  4
ISO_A3_(420.00_x_297.00_MM)
  6

 40
0.0
 41
0.0
 42
0.0
 43
0.0
 44
420.0
 45
297.0
 46
0.0
 47
0.0
 48
0.0
 49
0.0
140
0.0
141
0.0
142
1.0
143
1.0
 70
0
 72
1
 73
0
 74
0
  7

 75
0
147
1.0
148
0.0
149
0.0
100
AcDbLayout
  1
Layout1
 70
0
 71
1
 10
0.0
 20
0.0
 11
420.0
 21
297.0
 12
0.0
 22
0.0
 32
0.0
 14
0.0
 24
0.0
 34
0.0
 15
0.0
 25
0.0
 35
0.0
146
0.0
 13
0.0
 23
0.0
 33
0.0
 16
1.0
 26
0.0
 36
0.0
 17
0.0
 27
1.0
 37
0.0
 76
0
330
209
345
0
346
0
  0
ENDSEC
  0
EOF
