999
DXF file: rm-m39-001-m31470-dx2.dxf
999
Pro/ENGINEER 2011490 by Parametric Technology Corporation
  0
SECTION
  2
HEADER
  9
$ACADVER
  1
AC1021
  9
$DWGCODEPAGE
  3
ANSI_1252
  9
$EXTMAX
 10
420.0
 20
297.0
 30
0.0
  9
$EXTMIN
 10
0.0
 20
0.0
 30
0.0
  9
$LIMMIN
 10
0.0
 20
0.0
  9
$LIMMAX
 10
420.0
 20
297.0
  9
$VIEWCTR
 10
210.0
 20
148.5
  9
$VIEWSIZE
 40
297.0
  9
$CLAYER
  8
0
  9
$LTSCALE
 40
23.1
  9
$CELTYPE
  6
BYLAYER
  9
$DIMSCALE
 40
1.0
  9
$DIMASZ
 40
3.5
  9
$DIMEXO
 40
2.625
  9
$DIMDLI
 40
15.96
  9
$DIMEXE
 40
7.56
  9
$DIMCEN
 40
3.78
  9
$DIMLFAC
 40
1.0
  9
$DIMBLK
  1
_FILLED
  9
$DIMTXT
 40
3.5
  9
$DIMTOL
 70
1
  9
$DIMLIM
 70
0
  9
$DIMTFAC
 40
1.0
  9
$DIMTP
 40
0.005
  9
$DIMTM
 40
0.005
  9
$PDMODE
 70
3
  9
$PDSIZE
 40
0.3125
  9
$HANDSEED
  5
4E0
  9
$TILEMODE
 70
1
  9
$MEASUREMENT
 70
1
  9
$INSUNITS
 70
4
  0
ENDSEC
  0
SECTION
  2
CLASSES
  0
CLASS
  1
ACDBDICTIONARYWDFLT
  2
AcDbDictionaryWithDefault
  3
AutoCAD 2000
 90
0
 91
1
280
0
281
0
  0
CLASS
  1
ACDBPLACEHOLDER
  2
AcDbPlaceHolder
  3
AutoCAD 2000
 90
0
 91
1
280
0
281
0
  0
CLASS
  1
LAYOUT
  2
AcDbLayout
  3
AutoCAD 2000
 90
0
 91
0
280
0
281
0
  0
ENDSEC
  0
SECTION
  2
TABLES
  0
TABLE
  2
VPORT
  5
8
100
AcDbSymbolTable
 70
2
  0
VPORT
  5
1F4
100
AcDbSymbolTableRecord
100
AcDbViewportTableRecord
  2
*ACTIVE
 70
0
 10
0.0
 20
0.0
 11
1.0
 21
1.0
 12
210.0
 22
148.5
 13
0.0
 23
0.0
 14
1.0
 24
1.0
 15
0.0
 25
0.0
 16
0.0
 26
0.0
 36
1.0
 17
0.0
 27
0.0
 37
0.0
 40
297.0
 41
1.4141414141
 42
50.0
 43
0.0
 44
0.0
 50
0.0
 51
0.0
 71
0
 72
100
 73
1
 74
1
 75
0
 76
0
 77
0
 78
0
  0
ENDTAB
  0
TABLE
  2
LTYPE
  5
5
100
AcDbSymbolTable
 70
6
  0
LTYPE
  5
14
100
AcDbSymbolTableRecord
100
AcDbLinetypeTableRecord
  2
BYBLOCK
 70
0
  3

 72
65
 73
0
 40
0.0
  0
LTYPE
  5
15
100
AcDbSymbolTableRecord
100
AcDbLinetypeTableRecord
  2
BYLAYER
 70
0
  3

 72
65
 73
0
 40
0.0
  0
LTYPE
  5
16
100
AcDbSymbolTableRecord
100
AcDbLinetypeTableRecord
  2
CONTINUOUS
 70
64
  3
Solid line
 72
65
 73
0
 40
0.0
  0
LTYPE
  5
1F5
100
AcDbSymbolTableRecord
100
AcDbLinetypeTableRecord
  2
CENTER
 70
64
  3
____ _ ____ _ ____ _ ____ _ ____ _ ____ _ ____
 72
65
 73
4
 40
0.6
 49
0.375
 74
0
 49
-0.075
 74
0
 49
0.075
 74
0
 49
-0.075
 74
0
  0
LTYPE
  5
1F6
100
AcDbSymbolTableRecord
100
AcDbLinetypeTableRecord
  2
HIDDEN
 70
64
  3
- - - - - - - - - - - - - - - - - - - -
 72
65
 73
2
 40
0.2
 49
0.1
 74
0
 49
-0.1
 74
0
  0
LTYPE
  5
1F7
100
AcDbSymbolTableRecord
100
AcDbLinetypeTableRecord
  2
PHANTOM
 70
64
  3
_____ _ _ _____ _ _ _____ _ _ _____
 72
65
 73
6
 40
0.8
 49
0.45
 74
0
 49
-0.05
 74
0
 49
0.1
 74
0
 49
-0.05
 74
0
 49
0.1
 74
0
 49
-0.05
 74
0
  0
LTYPE
  5
1F8
100
AcDbSymbolTableRecord
100
AcDbLinetypeTableRecord
  2
DOT
 70
64
  3
. . . . . . . . . . . . . . . . . . . .
 72
65
 73
2
 40
0.2
 49
0.1
 74
0
 49
-0.1
 74
0
  0
LTYPE
  5
1F9
100
AcDbSymbolTableRecord
100
AcDbLinetypeTableRecord
  2
DASHED
 70
64
  3
- - - - - - - - - - - - - - - - - - - -
 72
65
 73
2
 40
0.2
 49
0.1
 74
0
 49
-0.1
 74
0
  0
ENDTAB
  0
TABLE
  2
LAYER
  5
2
100
AcDbSymbolTable
 70
36
  0
LAYER
  5
10
100
AcDbSymbolTableRecord
100
AcDbLayerTableRecord
  2
0
 70
0
 62
7
  6
CONTINUOUS
370
-3
390
F
  0
LAYER
  5
1FA
100
AcDbSymbolTableRecord
100
AcDbLayerTableRecord
  2
DEFAULT_1
 70
0
 62
7
  6
CENTER
370
-3
390
F
  0
LAYER
  5
1FB
100
AcDbSymbolTableRecord
100
AcDbLayerTableRecord
  2
DEFAULT_2
 70
0
 62
8
  6
HIDDEN
370
-3
390
F
  0
LAYER
  5
1FC
100
AcDbSymbolTableRecord
100
AcDbLayerTableRecord
  2
DEFAULT_3
 70
0
 62
7
  6
PHANTOM
370
-3
390
F
  0
LAYER
  5
1FD
100
AcDbSymbolTableRecord
100
AcDbLayerTableRecord
  2
B-ACHSEN
 70
0
 62
7
  6
CONTINUOUS
370
-3
390
F
  0
LAYER
  5
1FE
100
AcDbSymbolTableRecord
100
AcDbLayerTableRecord
  2
B-EBENEN
 70
0
 62
7
  6
CONTINUOUS
370
-3
390
F
  0
LAYER
  5
1FF
100
AcDbSymbolTableRecord
100
AcDbLayerTableRecord
  2
B-KOORSYS
 70
0
 62
7
  6
CONTINUOUS
370
-3
390
F
  0
LAYER
  5
200
100
AcDbSymbolTableRecord
100
AcDbLayerTableRecord
  2
B-PUNKTE
 70
0
 62
7
  6
CONTINUOUS
370
-3
390
F
  0
LAYER
  5
201
100
AcDbSymbolTableRecord
100
AcDbLayerTableRecord
  2
BEMASSUNG
 70
0
 62
7
  6
CONTINUOUS
370
-3
390
F
  0
LAYER
  5
202
100
AcDbSymbolTableRecord
100
AcDbLayerTableRecord
  2
BOHRUNGEN
 70
0
 62
7
  6
CONTINUOUS
370
-3
390
F
  0
LAYER
  5
203
100
AcDbSymbolTableRecord
100
AcDbLayerTableRecord
  2
NOTIZEN
 70
0
 62
7
  6
CONTINUOUS
370
-3
390
F
  0
LAYER
  5
204
100
AcDbSymbolTableRecord
100
AcDbLayerTableRecord
  2
RUNDUNGEN
 70
0
 62
7
  6
CONTINUOUS
370
-3
390
F
  0
LAYER
  5
205
100
AcDbSymbolTableRecord
100
AcDbLayerTableRecord
  2
VERBUNDFLAECHEN
 70
0
 62
7
  6
CONTINUOUS
370
-3
390
F
  0
ENDTAB
  0
TABLE
  2
STYLE
  5
3
100
AcDbSymbolTable
 70
1
  0
STYLE
  5
11
100
AcDbSymbolTableRecord
100
AcDbTextStyleTableRecord
  2
STANDARD
 70
0
 40
0.0
 41
0.7
 50
0.0
 71
0
 42
0.2
  3
txt
  4

  0
STYLE
  5
206
100
AcDbSymbolTableRecord
100
AcDbTextStyleTableRecord
  2
TEXTSTYLE_1
 70
0
 40
0.0
 41
0.8
 50
0.0
 71
0
 42
0.2
  3
gdt
  4

  0
ENDTAB
  0
TABLE
  2
VIEW
  5
6
100
AcDbSymbolTable
 70
0
  0
ENDTAB
  0
TABLE
  2
UCS
  5
7
100
AcDbSymbolTable
 70
0
  0
ENDTAB
  0
TABLE
  2
APPID
  5
9
100
AcDbSymbolTable
 70
1
  0
APPID
  5
207
100
AcDbSymbolTableRecord
100
AcDbRegAppTableRecord
  2
ACAD
 70
0
  0
ENDTAB
  0
TABLE
  2
BLOCK_RECORD
  5
1
100
AcDbSymbolTable
 70
0
  0
BLOCK_RECORD
  5
208
100
AcDbSymbolTableRecord
100
AcDbBlockTableRecord
  2
*Model_Space
  0
BLOCK_RECORD
  5
209
100
AcDbSymbolTableRecord
100
AcDbBlockTableRecord
  2
*Paper_Space
  0
ENDTAB
  0
TABLE
  2
DIMSTYLE
  5
A
100
AcDbSymbolTable
 70
1
100
AcDbDimStyleTable
 71
0
  0
DIMSTYLE
105
20A
100
AcDbSymbolTableRecord
100
AcDbDimStyleTableRecord
  2
STANDARD
 70
0
  3

  4

 40
1.0
 41
3.5
 42
0.0625
 43
0.38
 44
0.18
 45
0.0
 46
0.0
 47
0.005
 48
0.005
140
3.5
141
0.09
142
0.0
143
25.4
144
1.0
145
0.0
146
1.0
147
0.09
 71
1.0
 72
0.0
 73
0
 74
0
 75
0
 76
0
 77
1
 78
8
170
0
171
2
172
0
173
0
174
0
175
0
176
0
177
0
178
5
270
2
271
3
272
3
273
2
274
2
275
0
280
0
281
0
282
0
283
1
284
8
285
0
286
0
287
3
288
0
340
11
  0
ENDTAB
  0
ENDSEC
  0
SECTION
  2
BLOCKS
  0
BLOCK
  5
20
100
AcDbEntity
  8
0
100
AcDbBlockBegin
  2
*Model_Space
 70
0
 10
0.0
 20
0.0
 30
0.0
  3
*Model_Space
  1

  0
ENDBLK
  5
21
100
AcDbEntity
  8
0
100
AcDbBlockEnd
  0
BLOCK
  5
1C
100
AcDbEntity
  8
0
100
AcDbBlockBegin
  2
*Paper_Space
 70
0
 10
0.0
 20
0.0
 30
0.0
  3
*Paper_Space
  1

  0
ENDBLK
  5
1D
100
AcDbEntity
  8
0
100
AcDbBlockEnd
  0
ENDSEC
  0
SECTION
  2
ENTITIES
  0
MTEXT
  5
20B
100
AcDbEntity
  8
0
100
AcDbMText
 62
5
  6
CONTINUOUS
  7
STANDARD
 71
1
 72
1
 10
43.8052531884
 20
69.6799733945
 30
0.0
 11
1.0
 21
0.0
 31
0.0
 44
0.9
  1
RUD
 40
8.0
 41
19.8095238095
  0
MTEXT
  5
20C
100
AcDbEntity
  8
0
100
AcDbMText
 62
5
  6
CONTINUOUS
  7
STANDARD
 71
1
 72
1
 10
42.9821834501
 20
49.9262996764
 30
0.0
 11
1.0
 21
0.0
 31
0.0
 44
0.9
  1
RM M39
 40
8.0
 41
39.8095238095
  0
MTEXT
  5
20D
100
AcDbEntity
  8
0
100
AcDbMText
 62
5
  6
CONTINUOUS
  7
STANDARD
 71
1
 72
1
 10
281.0800351874
 20
168.2675044981
 30
0.0
 11
0.0
 21
1.0
 31
0.0
 44
0.9
  1
RUD
 40
8.0
 41
19.8095238095
  0
MTEXT
  5
20E
100
AcDbEntity
  8
0
100
AcDbMText
 62
5
  6
CONTINUOUS
  7
STANDARD
 71
1
 72
1
 10
300.4221740363
 20
166.6213650216
 30
0.0
 11
0.0
 21
1.0
 31
0.0
 44
0.9
  1
RM M39
 40
8.0
 41
39.8095238095
  0
LINE
  5
20F
100
AcDbEntity
  8
0
100
AcDbLine
 62
7
  6
CONTINUOUS
 10
0.0
 20
0.0
 11
0.0
 21
297.0
  0
LINE
  5
210
100
AcDbEntity
  8
0
100
AcDbLine
 62
7
  6
CONTINUOUS
 10
0.0
 20
0.0
 11
420.0
 21
0.0
  0
LINE
  5
211
100
AcDbEntity
  8
0
100
AcDbLine
 62
7
  6
CONTINUOUS
 10
0.0
 20
297.0
 11
420.0
 21
297.0
  0
LINE
  5
212
100
AcDbEntity
  8
0
100
AcDbLine
 62
7
  6
CONTINUOUS
 10
420.0
 20
0.0
 11
420.0
 21
297.0
  0
LINE
  5
213
100
AcDbEntity
  8
B-ACHSEN
100
AcDbLine
 62
7
  6
CONTINUOUS
 10
62.0188218214
 20
116.0244826562
 11
61.0188218214
 21
117.0244826562
  0
LINE
  5
214
100
AcDbEntity
  8
RUNDUNGEN
100
AcDbLine
 62
7
  6
CONTINUOUS
 10
23.8477880752
 20
205.8513169799
 11
46.6736122357
 21
260.9577312404
  0
LINE
  5
215
100
AcDbEntity
  8
B-ACHSEN
100
AcDbLine
 62
7
  6
CONTINUOUS
 10
62.0188218214
 20
116.0244826562
 11
160.0188218214
 21
116.0244826562
  0
LINE
  5
216
100
AcDbEntity
  8
B-ACHSEN
100
AcDbLine
 62
7
  6
CONTINUOUS
 10
61.0188218214
 20
117.0244826562
 11
161.0188218214
 21
117.0244826562
  0
LINE
  5
217
100
AcDbEntity
  8
DEFAULT_2
100
AcDbLine
 62
8
  6
HIDDEN
 10
91.5188218214
 20
120.0244826562
 11
130.5188218214
 21
120.0244826562
  0
LINE
  5
218
100
AcDbEntity
  8
0
100
AcDbLine
 62
7
  6
CONTINUOUS
 10
149.5508436307
 20
121.0244826562
 11
115.0188218214
 21
121.0244826562
  0
LINE
  5
219
100
AcDbEntity
  8
0
100
AcDbLine
 62
7
  6
CONTINUOUS
 10
107.0188218214
 20
121.0244826562
 11
72.4868000121
 21
121.0244826562
  0
LINE
  5
21A
100
AcDbEntity
  8
RUNDUNGEN
100
AcDbLine
 62
7
  6
CONTINUOUS
 10
47.2859869124
 20
141.6128308224
 11
23.8477880752
 21
198.1976483326
  0
LINE
  5
21B
100
AcDbEntity
  8
0
100
AcDbLine
 62
7
  6
CONTINUOUS
 10
79.2162989719
 20
270.6280699479
 11
74.3088218214
 21
267.7947366941
  0
LINE
  5
21C
100
AcDbEntity
  8
0
100
AcDbLine
 62
7
  6
CONTINUOUS
 10
75.5624244709
 20
267.2900998396
 11
79.7482138021
 21
269.7067664367
  0
LINE
  5
21D
100
AcDbEntity
  8
RUNDUNGEN
100
AcDbLine
 62
7
  6
CONTINUOUS
 10
52.0855732372
 20
266.3696922419
 11
107.1919874978
 21
289.1955164024
  0
LINE
  5
21E
100
AcDbEntity
  8
0
100
AcDbLine
 62
7
  6
CONTINUOUS
 10
141.7735855958
 20
132.0744826562
 11
141.0491926259
 21
131.9255465038
  0
LINE
  5
21F
100
AcDbEntity
  8
0
100
AcDbLine
 62
7
  6
CONTINUOUS
 10
141.6350610118
 20
132.0744826562
 11
140.9106680419
 21
131.9255465038
  0
LINE
  5
220
100
AcDbEntity
  8
0
100
AcDbLine
 62
7
  6
CONTINUOUS
 10
118.5579950458
 20
125.0744826562
 11
119.317427213
 21
125.0744826562
  0
LINE
  5
221
100
AcDbEntity
  8
0
100
AcDbLine
 62
7
  6
CONTINUOUS
 10
121.7660174604
 20
125.0744826562
 11
122.6289344222
 21
125.0744826562
  0
LINE
  5
222
100
AcDbEntity
  8
0
100
AcDbLine
 62
7
  6
CONTINUOUS
 10
123.3182864185
 20
125.0744826562
 11
124.0777188818
 21
125.0744826562
  0
LINE
  5
223
100
AcDbEntity
  8
0
100
AcDbLine
 62
7
  6
CONTINUOUS
 10
125.3879784613
 20
125.0744826562
 11
126.3543796255
 21
125.0744826562
  0
LINE
  5
224
100
AcDbEntity
  8
0
100
AcDbLine
 62
7
  6
CONTINUOUS
 10
127.6646397971
 20
125.0744826562
 11
128.4240719643
 21
125.0744826562
  0
LINE
  5
225
100
AcDbEntity
  8
0
100
AcDbLine
 62
7
  6
CONTINUOUS
 10
134.0806846264
 20
125.0744826562
 11
134.8401167936
 21
125.0744826562
  0
LINE
  5
226
100
AcDbEntity
  8
0
100
AcDbLine
 62
7
  6
CONTINUOUS
 10
136.1503769653
 20
125.0744826562
 11
137.1167775373
 21
125.0744826562
  0
LINE
  5
227
100
AcDbEntity
  8
0
100
AcDbLine
 62
7
  6
CONTINUOUS
 10
138.427037709
 20
125.0744826562
 11
139.1864698762
 21
125.0744826562
  0
LINE
  5
228
100
AcDbEntity
  8
0
100
AcDbLine
 62
7
  6
CONTINUOUS
 10
141.4631318042
 20
125.0744826562
 11
142.2910077923
 21
125.0744826562
  0
LINE
  5
229
100
AcDbEntity
  8
0
100
AcDbLine
 62
7
  6
CONTINUOUS
 10
146.2234216965
 20
125.0744826562
 11
146.6373608749
 21
125.0744826562
  0
LINE
  5
22A
100
AcDbEntity
  8
0
100
AcDbLine
 62
7
  6
CONTINUOUS
 10
140.9106680419
 20
125.2234188217
 11
141.0491926259
 21
125.2234188217
  0
LINE
  5
22B
100
AcDbEntity
  8
0
100
AcDbLine
 62
7
  6
CONTINUOUS
 10
145.5674749161
 20
125.2234188217
 11
145.7059995
 21
125.2234188217
  0
LINE
  5
22C
100
AcDbEntity
  8
0
100
AcDbLine
 62
7
  6
CONTINUOUS
 10
140.4967288635
 20
125.5212911657
 11
140.6352534475
 21
125.5212911657
  0
LINE
  5
22D
100
AcDbEntity
  8
0
100
AcDbLine
 62
7
  6
CONTINUOUS
 10
145.0500527196
 20
125.6702273182
 11
145.1885773035
 21
125.6702273182
  0
LINE
  5
22E
100
AcDbEntity
  8
0
100
AcDbLine
 62
7
  6
CONTINUOUS
 10
146.7408462616
 20
125.8191635228
 11
146.1199386784
 21
125.8191635228
  0
LINE
  5
22F
100
AcDbEntity
  8
0
100
AcDbLine
 62
7
  6
CONTINUOUS
 10
142.1875224056
 20
125.8191635228
 11
141.5666148223
 21
125.8191635228
  0
LINE
  5
230
100
AcDbEntity
  8
0
100
AcDbLine
 62
7
  6
CONTINUOUS
 10
140.1862750719
 20
125.8191635228
 11
140.3247996559
 21
125.8191635228
  0
LINE
  5
231
100
AcDbEntity
  8
0
100
AcDbLine
 62
7
  6
CONTINUOUS
 10
142.5664223867
 20
125.9680996753
 11
142.7049469706
 21
125.9680996753
  0
LINE
  5
232
100
AcDbEntity
  8
0
100
AcDbLine
 62
7
  6
CONTINUOUS
 10
142.7733907916
 20
126.1170358277
 11
142.9119153755
 21
126.1170358277
  0
LINE
  5
233
100
AcDbEntity
  8
0
100
AcDbLine
 62
7
  6
CONTINUOUS
 10
139.979306667
 20
126.2659719802
 11
140.117831251
 21
126.2659719802
  0
LINE
  5
234
100
AcDbEntity
  8
0
100
AcDbLine
 62
7
  6
CONTINUOUS
 10
144.739598928
 20
126.2659719802
 11
144.8781235119
 21
126.2659719802
  0
LINE
  5
235
100
AcDbEntity
  8
0
100
AcDbLine
 62
7
  6
CONTINUOUS
 10
147.2232292609
 20
126.2659719802
 11
147.3617538448
 21
126.2659719802
  0
LINE
  5
236
100
AcDbEntity
  8
0
100
AcDbLine
 62
7
  6
CONTINUOUS
 10
142.9803591964
 20
126.4149082369
 11
143.1188837804
 21
126.4149082369
  0
LINE
  5
237
100
AcDbEntity
  8
0
100
AcDbLine
 62
7
  6
CONTINUOUS
 10
139.8758212803
 20
126.7127805419
 11
140.5317704294
 21
126.7127805419
  0
LINE
  5
238
100
AcDbEntity
  8
0
100
AcDbLine
 62
7
  6
CONTINUOUS
 10
143.0838445832
 20
126.7127805419
 11
143.2223691671
 21
126.7127805419
  0
LINE
  5
239
100
AcDbEntity
  8
0
100
AcDbLine
 62
7
  6
CONTINUOUS
 10
144.6361135412
 20
126.7127805419
 11
145.2920603217
 21
126.7127805419
  0
LINE
  5
23A
100
AcDbEntity
  8
0
100
AcDbLine
 62
7
  6
CONTINUOUS
 10
147.4301976657
 20
126.7127805419
 11
147.5687222497
 21
126.7127805419
  0
LINE
  5
23B
100
AcDbEntity
  8
0
100
AcDbLine
 62
7
  6
CONTINUOUS
 10
147.5336830525
 20
127.1595889992
 11
147.6722076364
 21
127.1595889992
  0
LINE
  5
23C
100
AcDbEntity
  8
0
100
AcDbLine
 62
7
  6
CONTINUOUS
 10
143.0838445832
 20
127.3085251517
 11
143.2223691671
 21
127.3085251517
  0
LINE
  5
23D
100
AcDbEntity
  8
0
100
AcDbLine
 62
7
  6
CONTINUOUS
 10
146.1199386784
 20
127.6063974566
 11
146.6373608749
 21
127.6063974566
  0
LINE
  5
23E
100
AcDbEntity
  8
0
100
AcDbLine
 62
7
  6
CONTINUOUS
 10
145.4639895293
 20
127.7553338177
 11
145.6025141133
 21
127.7553338177
  0
LINE
  5
23F
100
AcDbEntity
  8
0
100
AcDbLine
 62
7
  6
CONTINUOUS
 10
142.8768761783
 20
127.9042699701
 11
143.0154007623
 21
127.9042699701
  0
LINE
  5
240
100
AcDbEntity
  8
0
100
AcDbLine
 62
7
  6
CONTINUOUS
 10
147.6371660706
 20
128.0532061226
 11
147.7756906546
 21
128.0532061226
  0
LINE
  5
241
100
AcDbEntity
  8
0
100
AcDbLine
 62
7
  6
CONTINUOUS
 10
119.317427213
 20
128.2021422751
 11
121.0766653161
 21
128.2021422751
  0
LINE
  5
242
100
AcDbEntity
  8
0
100
AcDbLine
 62
7
  6
CONTINUOUS
 10
142.5664223867
 20
128.2021422751
 11
142.7049469706
 21
128.2021422751
  0
LINE
  5
243
100
AcDbEntity
  8
0
100
AcDbLine
 62
7
  6
CONTINUOUS
 10
144.9465673328
 20
128.2021422751
 11
145.0850919168
 21
128.2021422751
  0
LINE
  5
244
100
AcDbEntity
  8
0
100
AcDbLine
 62
7
  6
CONTINUOUS
 10
146.7408462616
 20
128.3510784275
 11
146.0164532916
 21
128.3510784275
  0
LINE
  5
245
100
AcDbEntity
  8
0
100
AcDbLine
 62
7
  6
CONTINUOUS
 10
141.5315756251
 20
128.3510784275
 11
142.0840393874
 21
128.3510784275
  0
LINE
  5
246
100
AcDbEntity
  8
0
100
AcDbLine
 62
7
  6
CONTINUOUS
 10
144.6361135412
 20
128.7978868849
 11
144.7746381252
 21
128.7978868849
  0
LINE
  5
247
100
AcDbEntity
  8
0
100
AcDbLine
 62
7
  6
CONTINUOUS
 10
147.2232292609
 20
128.7978868849
 11
147.3617538448
 21
128.7978868849
  0
LINE
  5
248
100
AcDbEntity
  8
0
100
AcDbLine
 62
7
  6
CONTINUOUS
 10
141.5315756251
 20
128.9468230374
 11
142.0840393874
 21
128.9468230374
  0
LINE
  5
249
100
AcDbEntity
  8
0
100
AcDbLine
 62
7
  6
CONTINUOUS
 10
121.2836344612
 20
129.0957591898
 11
119.317427213
 21
129.0957591898
  0
LINE
  5
24A
100
AcDbEntity
  8
0
100
AcDbLine
 62
7
  6
CONTINUOUS
 10
142.5664223867
 20
129.2446953423
 11
142.7049469706
 21
129.2446953423
  0
LINE
  5
24B
100
AcDbEntity
  8
0
100
AcDbLine
 62
7
  6
CONTINUOUS
 10
147.4301976657
 20
129.2446953423
 11
147.5687222497
 21
129.2446953423
  0
LINE
  5
24C
100
AcDbEntity
  8
0
100
AcDbLine
 62
7
  6
CONTINUOUS
 10
121.6625329619
 20
129.5425676472
 11
121.8010575459
 21
129.5425676472
  0
LINE
  5
24D
100
AcDbEntity
  8
0
100
AcDbLine
 62
7
  6
CONTINUOUS
 10
142.7733907916
 20
129.5425676472
 11
142.9119153755
 21
129.5425676472
  0
LINE
  5
24E
100
AcDbEntity
  8
0
100
AcDbLine
 62
7
  6
CONTINUOUS
 10
144.4291451363
 20
129.5425676472
 11
144.5676697203
 21
129.5425676472
  0
LINE
  5
24F
100
AcDbEntity
  8
0
100
AcDbLine
 62
7
  6
CONTINUOUS
 10
147.5336830525
 20
129.6915037996
 11
147.6722076364
 21
129.6915037996
  0
LINE
  5
250
100
AcDbEntity
  8
0
100
AcDbLine
 62
7
  6
CONTINUOUS
 10
78.3433436131
 20
264.4734067128
 11
78.8143108818
 21
264.9910007285
  0
LINE
  5
251
100
AcDbEntity
  8
0
100
AcDbLine
 62
7
  6
CONTINUOUS
 10
78.2823960516
 20
265.9123042397
 11
77.6670911467
 21
265.3113768509
  0
LINE
  5
252
100
AcDbEntity
  8
0
100
AcDbLine
 62
7
  6
CONTINUOUS
 10
83.2807439197
 20
271.2549117783
 11
82.5590563585
 21
270.8382452706
  0
LINE
  5
253
100
AcDbEntity
  8
0
100
AcDbLine
 62
7
  6
CONTINUOUS
 10
85.719520911
 20
270.6974921519
 11
84.131807946
 21
269.7808256442
  0
LINE
  5
254
100
AcDbEntity
  8
0
100
AcDbLine
 62
7
  6
CONTINUOUS
 10
83.4101203848
 20
269.3641591365
 11
82.2554197088
 21
268.6974923903
  0
LINE
  5
255
100
AcDbEntity
  8
0
100
AcDbLine
 62
7
  6
CONTINUOUS
 10
79.1484214554
 20
266.4123042397
 11
78.2823960516
 21
265.9123042397
  0
LINE
  5
256
100
AcDbEntity
  8
0
100
AcDbLine
 62
7
  6
CONTINUOUS
 10
82.680951573
 20
267.9604495814
 11
83.835652249
 21
268.6271163275
  0
LINE
  5
257
100
AcDbEntity
  8
0
100
AcDbLine
 62
7
  6
CONTINUOUS
 10
84.5573398102
 20
269.0437828352
 11
86.1450527751
 21
269.9604493429
  0
LINE
  5
258
100
AcDbEntity
  8
0
100
AcDbLine
 62
7
  6
CONTINUOUS
 10
78.8143108818
 20
264.9910007285
 11
79.6803362856
 21
265.4910007285
  0
LINE
  5
259
100
AcDbEntity
  8
0
100
AcDbLine
 62
7
  6
CONTINUOUS
 10
77.0747792365
 20
263.0039579195
 11
78.0851421732
 21
263.587291233
  0
LINE
  5
25A
100
AcDbEntity
  8
0
100
AcDbLine
 62
7
  6
CONTINUOUS
 10
78.8982514837
 20
261.8456113412
 11
78.0322260799
 21
261.3456113412
  0
LINE
  5
25B
100
AcDbEntity
  8
0
100
AcDbLine
 62
7
  6
CONTINUOUS
 10
81.8079958299
 20
261.8057862965
 11
80.9419704262
 21
261.3057862965
  0
LINE
  5
25C
100
AcDbEntity
  8
0
100
AcDbLine
 62
7
  6
CONTINUOUS
 10
104.7654883291
 20
274.5619293506
 11
104.2654883291
 21
274.3491634185
  0
LINE
  5
25D
100
AcDbEntity
  8
0
100
AcDbLine
 62
7
  6
CONTINUOUS
 10
87.8626928839
 20
264.3187433746
 11
88.835101263
 21
264.6344826562
  0
LINE
  5
25E
100
AcDbEntity
  8
0
100
AcDbLine
 62
7
  6
CONTINUOUS
 10
121.7660174604
 20
129.9893761046
 11
121.9045420444
 21
129.9893761046
  0
LINE
  5
25F
100
AcDbEntity
  8
0
100
AcDbLine
 62
7
  6
CONTINUOUS
 10
147.5336830525
 20
129.9893761046
 11
147.6722076364
 21
129.9893761046
  0
LINE
  5
260
100
AcDbEntity
  8
0
100
AcDbLine
 62
7
  6
CONTINUOUS
 10
142.9803591964
 20
130.138312257
 11
143.1188837804
 21
130.138312257
  0
LINE
  5
261
100
AcDbEntity
  8
0
100
AcDbLine
 62
7
  6
CONTINUOUS
 10
144.4291451363
 20
130.138312257
 11
144.5676697203
 21
130.138312257
  0
LINE
  5
262
100
AcDbEntity
  8
0
100
AcDbLine
 62
7
  6
CONTINUOUS
 10
121.7660174604
 20
130.4361849792
 11
121.9045420444
 21
130.4361849792
  0
LINE
  5
263
100
AcDbEntity
  8
0
100
AcDbLine
 62
7
  6
CONTINUOUS
 10
139.979306667
 20
130.4361849792
 11
140.6352534475
 21
130.4361849792
  0
LINE
  5
264
100
AcDbEntity
  8
0
100
AcDbLine
 62
7
  6
CONTINUOUS
 10
142.9803591964
 20
130.4361849792
 11
143.1188837804
 21
130.4361849792
  0
LINE
  5
265
100
AcDbEntity
  8
0
100
AcDbLine
 62
7
  6
CONTINUOUS
 10
147.4301976657
 20
130.4361849792
 11
147.5687222497
 21
130.4361849792
  0
LINE
  5
266
100
AcDbEntity
  8
0
100
AcDbLine
 62
7
  6
CONTINUOUS
 10
121.6625329619
 20
130.8829934365
 11
121.8010575459
 21
130.8829934365
  0
LINE
  5
267
100
AcDbEntity
  8
0
100
AcDbLine
 62
7
  6
CONTINUOUS
 10
142.7733907916
 20
130.8829934365
 11
142.9119153755
 21
130.8829934365
  0
LINE
  5
268
100
AcDbEntity
  8
0
100
AcDbLine
 62
7
  6
CONTINUOUS
 10
144.6361135412
 20
130.8829934365
 11
144.7746381252
 21
130.8829934365
  0
LINE
  5
269
100
AcDbEntity
  8
0
100
AcDbLine
 62
7
  6
CONTINUOUS
 10
147.2232292609
 20
130.8829934365
 11
147.3617538448
 21
130.8829934365
  0
LINE
  5
26A
100
AcDbEntity
  8
0
100
AcDbLine
 62
7
  6
CONTINUOUS
 10
140.0827920538
 20
131.031929589
 11
140.2213166377
 21
131.031929589
  0
LINE
  5
26B
100
AcDbEntity
  8
0
100
AcDbLine
 62
7
  6
CONTINUOUS
 10
142.4629369999
 20
131.1808657415
 11
142.6014615839
 21
131.1808657415
  0
LINE
  5
26C
100
AcDbEntity
  8
0
100
AcDbLine
 62
7
  6
CONTINUOUS
 10
119.317427213
 20
131.3298018939
 11
121.2836344612
 21
131.3298018939
  0
LINE
  5
26D
100
AcDbEntity
  8
0
100
AcDbLine
 62
7
  6
CONTINUOUS
 10
141.6701002091
 20
131.3298018939
 11
142.0840393874
 21
131.3298018939
  0
LINE
  5
26E
100
AcDbEntity
  8
0
100
AcDbLine
 62
7
  6
CONTINUOUS
 10
146.0164532916
 20
131.3298018939
 11
146.7408462616
 21
131.3298018939
  0
LINE
  5
26F
100
AcDbEntity
  8
0
100
AcDbLine
 62
7
  6
CONTINUOUS
 10
144.9465673328
 20
131.4787380464
 11
145.0850919168
 21
131.4787380464
  0
LINE
  5
270
100
AcDbEntity
  8
0
100
AcDbLine
 62
7
  6
CONTINUOUS
 10
140.4967288635
 20
131.6276741988
 11
140.6352534475
 21
131.6276741988
  0
LINE
  5
271
100
AcDbEntity
  8
0
100
AcDbLine
 62
7
  6
CONTINUOUS
 10
140.9106680419
 20
131.9255465038
 11
141.0491926259
 21
131.9255465038
  0
LINE
  5
272
100
AcDbEntity
  8
0
100
AcDbLine
 62
7
  6
CONTINUOUS
 10
145.4639895293
 20
131.9255465038
 11
145.6025141133
 21
131.9255465038
  0
LINE
  5
273
100
AcDbEntity
  8
0
100
AcDbLine
 62
7
  6
CONTINUOUS
 10
146.6373608749
 20
132.0744826562
 11
146.1199386784
 21
132.0744826562
  0
LINE
  5
274
100
AcDbEntity
  8
0
100
AcDbLine
 62
7
  6
CONTINUOUS
 10
141.9805540007
 20
132.0744826562
 11
141.7735855958
 21
132.0744826562
  0
LINE
  5
275
100
AcDbEntity
  8
0
100
AcDbLine
 62
7
  6
CONTINUOUS
 10
118.5579950458
 20
132.0744826562
 11
121.1801499627
 21
132.0744826562
  0
LINE
  5
276
100
AcDbEntity
  8
0
100
AcDbLine
 62
7
  6
CONTINUOUS
 10
123.3182864185
 20
132.0744826562
 11
124.3881726734
 21
132.0744826562
  0
LINE
  5
277
100
AcDbEntity
  8
0
100
AcDbLine
 62
7
  6
CONTINUOUS
 10
127.3541860055
 20
132.0744826562
 11
128.4240719643
 21
132.0744826562
  0
LINE
  5
278
100
AcDbEntity
  8
0
100
AcDbLine
 62
7
  6
CONTINUOUS
 10
134.0806846264
 20
132.0744826562
 11
135.1505705852
 21
132.0744826562
  0
LINE
  5
279
100
AcDbEntity
  8
0
100
AcDbLine
 62
7
  6
CONTINUOUS
 10
138.1165839174
 20
132.0744826562
 11
139.1864698762
 21
132.0744826562
  0
LINE
  5
27A
100
AcDbEntity
  8
0
100
AcDbLine
 62
7
  6
CONTINUOUS
 10
72.4868000121
 20
136.0244826562
 11
107.0188218214
 21
136.0244826562
  0
LINE
  5
27B
100
AcDbEntity
  8
0
100
AcDbLine
 62
7
  6
CONTINUOUS
 10
115.0188218214
 20
136.0244826562
 11
149.5508436307
 21
136.0244826562
  0
LINE
  5
27C
100
AcDbEntity
  8
0
100
AcDbLine
 62
7
  6
CONTINUOUS
 10
142.0765027493
 20
128.3196585493
 11
142.5664223867
 21
128.2021422751
  0
LINE
  5
27D
100
AcDbEntity
  8
0
100
AcDbLine
 62
7
  6
CONTINUOUS
 10
142.0840393874
 20
128.3510784275
 11
142.7049469706
 21
128.2021422751
  0
LINE
  5
27E
100
AcDbEntity
  8
0
100
AcDbLine
 62
7
  6
CONTINUOUS
 10
141.5666148223
 20
125.8191635228
 11
141.0491926259
 21
125.9680996753
  0
LINE
  5
27F
100
AcDbEntity
  8
0
100
AcDbLine
 62
7
  6
CONTINUOUS
 10
121.6975730474
 20
131.9255465038
 11
121.1801499627
 21
132.0744826562
  0
LINE
  5
280
100
AcDbEntity
  8
0
100
AcDbLine
 62
7
  6
CONTINUOUS
 10
145.5674749161
 20
125.2234188217
 11
146.0848971126
 21
125.0744826562
  0
LINE
  5
281
100
AcDbEntity
  8
0
100
AcDbLine
 62
7
  6
CONTINUOUS
 10
145.7059995
 20
125.2234188217
 11
146.2234216965
 21
125.0744826562
  0
LINE
  5
282
100
AcDbEntity
  8
0
100
AcDbLine
 62
7
  6
CONTINUOUS
 10
82.2789629954
 20
262.3233802526
 11
81.8079958299
 21
261.8057862965
  0
LINE
  5
283
100
AcDbEntity
  8
0
100
AcDbLine
 62
7
  6
CONTINUOUS
 10
82.3399107347
 20
260.8844826562
 11
82.9552157334
 21
261.4854101207
  0
LINE
  5
284
100
AcDbEntity
  8
0
100
AcDbLine
 62
7
  6
CONTINUOUS
 10
104.9321553137
 20
273.4980996902
 11
105.5988218214
 21
273.9236315543
  0
LINE
  5
285
100
AcDbEntity
  8
0
100
AcDbLine
 62
7
  6
CONTINUOUS
 10
81.6348132157
 20
260.4773944138
 11
82.3399107347
 21
260.8844826562
  0
LINE
  5
286
100
AcDbEntity
  8
0
100
AcDbLine
 62
7
  6
CONTINUOUS
 10
111.765488806
 20
270.0938443298
 11
111.0988218214
 21
269.8810783977
  0
LINE
  5
287
100
AcDbEntity
  8
0
100
AcDbLine
 62
7
  6
CONTINUOUS
 10
119.7654878523
 20
270.0938443298
 11
119.0988218214
 21
269.8810783977
  0
LINE
  5
288
100
AcDbEntity
  8
RUNDUNGEN
100
AcDbLine
 62
7
  6
CONTINUOUS
 10
171.1061901776
 20
139.2643997483
 11
169.7499809593
 21
139.2643997483
  0
LINE
  5
289
100
AcDbEntity
  8
RUNDUNGEN
100
AcDbLine
 62
7
  6
CONTINUOUS
 10
52.2876626835
 20
139.2643997483
 11
50.9314534652
 21
139.2643997483
  0
LINE
  5
28A
100
AcDbEntity
  8
0
100
AcDbLine
 62
7
  6
CONTINUOUS
 10
142.7049469706
 20
131.9255465038
 11
141.9805540007
 21
132.0744826562
  0
LINE
  5
28B
100
AcDbEntity
  8
0
100
AcDbLine
 62
7
  6
CONTINUOUS
 10
145.4639895293
 20
127.7553338177
 11
145.9814140944
 21
127.6063974566
  0
LINE
  5
28C
100
AcDbEntity
  8
0
100
AcDbLine
 62
7
  6
CONTINUOUS
 10
145.6025141133
 20
127.7553338177
 11
146.1199386784
 21
127.6063974566
  0
LINE
  5
28D
100
AcDbEntity
  8
0
100
AcDbLine
 62
7
  6
CONTINUOUS
 10
142.0734403273
 20
131.292979478
 11
142.4629369999
 21
131.1808657415
  0
LINE
  5
28E
100
AcDbEntity
  8
0
100
AcDbLine
 62
7
  6
CONTINUOUS
 10
142.0840393874
 20
131.3298018939
 11
142.6014615839
 21
131.1808657415
  0
LINE
  5
28F
100
AcDbEntity
  8
0
100
AcDbLine
 62
7
  6
CONTINUOUS
 10
147.1547830714
 20
131.9255465038
 11
146.6373608749
 21
132.0744826562
  0
LINE
  5
290
100
AcDbEntity
  8
0
100
AcDbLine
 62
7
  6
CONTINUOUS
 10
140.9106680419
 20
125.2234188217
 11
141.3246072202
 21
125.0744826562
  0
LINE
  5
291
100
AcDbEntity
  8
0
100
AcDbLine
 62
7
  6
CONTINUOUS
 10
141.0491926259
 20
125.2234188217
 11
141.4631318042
 21
125.0744826562
  0
LINE
  5
292
100
AcDbEntity
  8
0
100
AcDbLine
 62
7
  6
CONTINUOUS
 10
121.1451098772
 20
131.3298018939
 11
121.4555636688
 21
131.1808657415
  0
LINE
  5
293
100
AcDbEntity
  8
0
100
AcDbLine
 62
7
  6
CONTINUOUS
 10
121.2836344612
 20
131.3298018939
 11
121.5940882528
 21
131.1808657415
  0
LINE
  5
294
100
AcDbEntity
  8
B-ACHSEN
100
AcDbLine
 62
7
  6
CONTINUOUS
 10
61.0188218214
 20
117.0244826562
 11
61.0188218214
 21
127.2643997483
  0
LINE
  5
295
100
AcDbEntity
  8
0
100
AcDbLine
 62
7
  6
CONTINUOUS
 10
78.0851421732
 20
263.587291233
 11
78.3433436131
 21
264.4734067128
  0
LINE
  5
296
100
AcDbEntity
  8
0
100
AcDbLine
 62
7
  6
CONTINUOUS
 10
77.6670911467
 20
265.3113768509
 11
77.2645522256
 21
264.3419280875
  0
LINE
  5
297
100
AcDbEntity
  8
0
100
AcDbLine
 62
7
  6
CONTINUOUS
 10
105.0988218214
 20
274.9874612147
 11
104.7654883291
 21
274.5619293506
  0
LINE
  5
298
100
AcDbEntity
  8
0
100
AcDbLine
 62
7
  6
CONTINUOUS
 10
112.265488806
 20
270.519376343
 11
111.765488806
 21
270.0938443298
  0
LINE
  5
299
100
AcDbEntity
  8
0
100
AcDbLine
 62
7
  6
CONTINUOUS
 10
111.9321548368
 20
268.8172486069
 11
112.5988218214
 21
269.242780527
  0
LINE
  5
29A
100
AcDbEntity
  8
0
100
AcDbLine
 62
7
  6
CONTINUOUS
 10
119.9321557905
 20
268.8172486069
 11
120.5988218214
 21
269.242780527
  0
LINE
  5
29B
100
AcDbEntity
  8
0
100
AcDbLine
 62
7
  6
CONTINUOUS
 10
146.1199386784
 20
125.8191635228
 11
145.8094848868
 21
125.9680996753
  0
LINE
  5
29C
100
AcDbEntity
  8
0
100
AcDbLine
 62
7
  6
CONTINUOUS
 10
146.0164532916
 20
128.3510784275
 11
145.7059995
 21
128.50001458
  0
LINE
  5
29D
100
AcDbEntity
  8
0
100
AcDbLine
 62
7
  6
CONTINUOUS
 10
146.6023216776
 20
131.3298018939
 11
146.9127754692
 21
131.1808657415
  0
LINE
  5
29E
100
AcDbEntity
  8
0
100
AcDbLine
 62
7
  6
CONTINUOUS
 10
146.7408462616
 20
131.3298018939
 11
147.0513000532
 21
131.1808657415
  0
LINE
  5
29F
100
AcDbEntity
  8
0
100
AcDbLine
 62
7
  6
CONTINUOUS
 10
143.429337572
 20
128.3510784275
 11
142.9119153755
 21
128.6489507324
  0
LINE
  5
2A0
100
AcDbEntity
  8
0
100
AcDbLine
 62
7
  6
CONTINUOUS
 10
82.4992097652
 20
262.9419016571
 11
82.2789629954
 21
262.3233802526
  0
LINE
  5
2A1
100
AcDbEntity
  8
0
100
AcDbLine
 62
7
  6
CONTINUOUS
 10
82.9552157334
 20
261.4854101207
 11
83.3577543686
 21
262.4548587836
  0
LINE
  5
2A2
100
AcDbEntity
  8
0
100
AcDbLine
 62
7
  6
CONTINUOUS
 10
105.5988218214
 20
273.9236315543
 11
106.0988218214
 21
274.7746952827
  0
LINE
  5
2A3
100
AcDbEntity
  8
0
100
AcDbLine
 62
7
  6
CONTINUOUS
 10
120.2654878523
 20
270.519376343
 11
119.7654878523
 21
270.0938443298
  0
LINE
  5
2A4
100
AcDbEntity
  8
0
100
AcDbLine
 62
7
  6
CONTINUOUS
 10
140.4967288635
 20
125.5212911657
 11
140.9106680419
 21
125.2234188217
  0
LINE
  5
2A5
100
AcDbEntity
  8
0
100
AcDbLine
 62
7
  6
CONTINUOUS
 10
140.6352534475
 20
125.5212911657
 11
141.0491926259
 21
125.2234188217
  0
LINE
  5
2A6
100
AcDbEntity
  8
0
100
AcDbLine
 62
7
  6
CONTINUOUS
 10
141.0491926259
 20
125.9680996753
 11
140.842224221
 21
126.1170358277
  0
LINE
  5
2A7
100
AcDbEntity
  8
DEFAULT_2
100
AcDbLine
 62
8
  6
HIDDEN
 10
130.5188218214
 20
120.0244826562
 11
134.5188218214
 21
116.0244826562
  0
LINE
  5
2A8
100
AcDbEntity
  8
0
100
AcDbLine
 62
7
  6
CONTINUOUS
 10
122.1115113375
 20
131.4787380464
 11
121.6975730474
 21
131.9255465038
  0
LINE
  5
2A9
100
AcDbEntity
  8
0
100
AcDbLine
 62
7
  6
CONTINUOUS
 10
72.4868000561
 20
121.0244826562
 11
72.4868000561
 21
136.0244826562
  0
LINE
  5
2AA
100
AcDbEntity
  8
0
100
AcDbLine
 62
7
  6
CONTINUOUS
 10
112.5988218214
 20
269.242780527
 11
113.265488806
 21
270.0938443298
  0
LINE
  5
2AB
100
AcDbEntity
  8
0
100
AcDbLine
 62
7
  6
CONTINUOUS
 10
120.5988218214
 20
269.242780527
 11
121.2654878523
 21
270.0938443298
  0
LINE
  5
2AC
100
AcDbEntity
  8
0
100
AcDbLine
 62
7
  6
CONTINUOUS
 10
143.1188837804
 20
131.6276741988
 11
142.7049469706
 21
131.9255465038
  0
LINE
  5
2AD
100
AcDbEntity
  8
0
100
AcDbLine
 62
7
  6
CONTINUOUS
 10
145.0500527196
 20
125.6702273182
 11
145.5674749161
 21
125.2234188217
  0
LINE
  5
2AE
100
AcDbEntity
  8
0
100
AcDbLine
 62
7
  6
CONTINUOUS
 10
145.1885773035
 20
125.6702273182
 11
145.7059995
 21
125.2234188217
  0
LINE
  5
2AF
100
AcDbEntity
  8
0
100
AcDbLine
 62
7
  6
CONTINUOUS
 10
144.9465673328
 20
128.2021422751
 11
145.4639895293
 21
127.7553338177
  0
LINE
  5
2B0
100
AcDbEntity
  8
0
100
AcDbLine
 62
7
  6
CONTINUOUS
 10
145.0850919168
 20
128.2021422751
 11
145.6025141133
 21
127.7553338177
  0
LINE
  5
2B1
100
AcDbEntity
  8
0
100
AcDbLine
 62
7
  6
CONTINUOUS
 10
140.1862750719
 20
125.8191635228
 11
140.4967288635
 21
125.5212911657
  0
LINE
  5
2B2
100
AcDbEntity
  8
0
100
AcDbLine
 62
7
  6
CONTINUOUS
 10
140.3247996559
 20
125.8191635228
 11
140.6352534475
 21
125.5212911657
  0
LINE
  5
2B3
100
AcDbEntity
  8
0
100
AcDbLine
 62
7
  6
CONTINUOUS
 10
142.5664223867
 20
128.2021422751
 11
142.8768761783
 21
127.9042699701
  0
LINE
  5
2B4
100
AcDbEntity
  8
0
100
AcDbLine
 62
7
  6
CONTINUOUS
 10
142.7049469706
 20
128.2021422751
 11
143.0154007623
 21
127.9042699701
  0
LINE
  5
2B5
100
AcDbEntity
  8
0
100
AcDbLine
 62
7
  6
CONTINUOUS
 10
121.4555636688
 20
131.1808657415
 11
121.6625329619
 21
130.8829934365
  0
LINE
  5
2B6
100
AcDbEntity
  8
0
100
AcDbLine
 62
7
  6
CONTINUOUS
 10
121.5940882528
 20
131.1808657415
 11
121.8010575459
 21
130.8829934365
  0
LINE
  5
2B7
100
AcDbEntity
  8
0
100
AcDbLine
 62
7
  6
CONTINUOUS
 10
82.4687360649
 20
263.661350639
 11
82.4992097652
 21
262.9419016571
  0
LINE
  5
2B8
100
AcDbEntity
  8
0
100
AcDbLine
 62
7
  6
CONTINUOUS
 10
83.3577543686
 20
262.4548587836
 11
83.365235169
 21
263.4419016571
  0
LINE
  5
2B9
100
AcDbEntity
  8
0
100
AcDbLine
 62
7
  6
CONTINUOUS
 10
105.2654883291
 20
275.625759011
 11
105.0988218214
 21
274.9874612147
  0
LINE
  5
2BA
100
AcDbEntity
  8
0
100
AcDbLine
 62
7
  6
CONTINUOUS
 10
112.5988218214
 20
271.1576741392
 11
112.265488806
 21
270.519376343
  0
LINE
  5
2BB
100
AcDbEntity
  8
0
100
AcDbLine
 62
7
  6
CONTINUOUS
 10
147.6722076364
 20
131.4787380464
 11
147.1547830714
 21
131.9255465038
  0
LINE
  5
2BC
100
AcDbEntity
  8
0
100
AcDbLine
 62
7
  6
CONTINUOUS
 10
145.8094848868
 20
125.9680996753
 11
145.4990310952
 21
126.2659719802
  0
LINE
  5
2BD
100
AcDbEntity
  8
0
100
AcDbLine
 62
7
  6
CONTINUOUS
 10
142.4629369999
 20
131.1808657415
 11
142.7733907916
 21
130.8829934365
  0
LINE
  5
2BE
100
AcDbEntity
  8
0
100
AcDbLine
 62
7
  6
CONTINUOUS
 10
142.6014615839
 20
131.1808657415
 11
142.9119153755
 21
130.8829934365
  0
LINE
  5
2BF
100
AcDbEntity
  8
0
100
AcDbLine
 62
7
  6
CONTINUOUS
 10
145.7059995
 20
128.50001458
 11
145.3955457084
 21
128.7978868849
  0
LINE
  5
2C0
100
AcDbEntity
  8
0
100
AcDbLine
 62
7
  6
CONTINUOUS
 10
146.9127754692
 20
131.1808657415
 11
147.2232292609
 21
130.8829934365
  0
LINE
  5
2C1
100
AcDbEntity
  8
0
100
AcDbLine
 62
7
  6
CONTINUOUS
 10
147.0513000532
 20
131.1808657415
 11
147.3617538448
 21
130.8829934365
  0
LINE
  5
2C2
100
AcDbEntity
  8
DEFAULT_2
100
AcDbLine
 62
8
  6
HIDDEN
 10
91.5188218214
 20
161.4689651524
 11
91.5188218214
 21
120.0244826562
  0
LINE
  5
2C3
100
AcDbEntity
  8
0
100
AcDbLine
 62
7
  6
CONTINUOUS
 10
106.0988218214
 20
274.7746952827
 11
106.2654883291
 21
275.4129930789
  0
LINE
  5
2C4
100
AcDbEntity
  8
0
100
AcDbLine
 62
7
  6
CONTINUOUS
 10
113.265488806
 20
270.0938443298
 11
113.5988218214
 21
270.9449082071
  0
LINE
  5
2C5
100
AcDbEntity
  8
0
100
AcDbLine
 62
7
  6
CONTINUOUS
 10
120.5988218214
 20
271.1576741392
 11
120.2654878523
 21
270.519376343
  0
LINE
  5
2C6
100
AcDbEntity
  8
0
100
AcDbLine
 62
7
  6
CONTINUOUS
 10
140.842224221
 20
126.1170358277
 11
140.6352534475
 21
126.4149082369
  0
LINE
  5
2C7
100
AcDbEntity
  8
0
100
AcDbLine
 62
7
  6
CONTINUOUS
 10
122.4219651291
 20
130.8829934365
 11
122.1115113375
 21
131.4787380464
  0
LINE
  5
2C8
100
AcDbEntity
  8
0
100
AcDbLine
 62
7
  6
CONTINUOUS
 10
100.0988218214
 20
278.6044826562
 11
100.0988218214
 21
268.6044826562
  0
LINE
  5
2C9
100
AcDbEntity
  8
0
100
AcDbLine
 62
7
  6
CONTINUOUS
 10
101.0988218214
 20
268.6044826562
 11
101.0988218214
 21
273.072567826
  0
LINE
  5
2CA
100
AcDbEntity
  8
0
100
AcDbLine
 62
7
  6
CONTINUOUS
 10
101.0988218214
 20
274.3491634185
 11
101.0988218214
 21
277.5406529958
  0
LINE
  5
2CB
100
AcDbEntity
  8
0
100
AcDbLine
 62
7
  6
CONTINUOUS
 10
113.5988218214
 20
270.9449082071
 11
113.765488806
 21
272.0087378676
  0
LINE
  5
2CC
100
AcDbEntity
  8
0
100
AcDbLine
 62
7
  6
CONTINUOUS
 10
112.765488806
 20
272.0087378676
 11
112.5988218214
 21
271.1576741392
  0
LINE
  5
2CD
100
AcDbEntity
  8
0
100
AcDbLine
 62
7
  6
CONTINUOUS
 10
121.2654878523
 20
270.0938443298
 11
121.5988218214
 21
270.9449082071
  0
LINE
  5
2CE
100
AcDbEntity
  8
0
100
AcDbLine
 62
7
  6
CONTINUOUS
 10
143.5328229587
 20
131.031929589
 11
143.1188837804
 21
131.6276741988
  0
LINE
  5
2CF
100
AcDbEntity
  8
0
100
AcDbLine
 62
7
  6
CONTINUOUS
 10
82.2939245964
 20
264.2974659996
 11
82.4687360649
 21
263.661350639
  0
LINE
  5
2D0
100
AcDbEntity
  8
0
100
AcDbLine
 62
7
  6
CONTINUOUS
 10
122.6289344222
 20
125.0744826562
 11
121.6975730474
 21
128.50001458
  0
LINE
  5
2D1
100
AcDbEntity
  8
0
100
AcDbLine
 62
7
  6
CONTINUOUS
 10
120.9472107815
 20
128.1678762712
 11
121.7660174604
 21
125.0744826562
  0
LINE
  5
2D2
100
AcDbEntity
  8
0
100
AcDbLine
 62
7
  6
CONTINUOUS
 10
121.0766653161
 20
128.2021422751
 11
121.9045420444
 21
125.0744826562
  0
LINE
  5
2D3
100
AcDbEntity
  8
0
100
AcDbLine
 62
7
  6
CONTINUOUS
 10
83.365235169
 20
263.4419016571
 11
83.1219955366
 21
264.5298720435
  0
LINE
  5
2D4
100
AcDbEntity
  8
0
100
AcDbLine
 62
7
  6
CONTINUOUS
 10
105.2654883291
 20
276.2640574033
 11
105.2654883291
 21
275.625759011
  0
LINE
  5
2D5
100
AcDbEntity
  8
0
100
AcDbLine
 62
7
  6
CONTINUOUS
 10
106.2654883291
 20
275.4129930789
 11
106.2654883291
 21
276.2640574033
  0
LINE
  5
2D6
100
AcDbEntity
  8
0
100
AcDbLine
 62
7
  6
CONTINUOUS
 10
107.0188218214
 20
121.0244826562
 11
107.0188218214
 21
136.0244826562
  0
LINE
  5
2D7
100
AcDbEntity
  8
0
100
AcDbLine
 62
7
  6
CONTINUOUS
 10
107.7654883291
 20
278.6044826562
 11
107.7654883291
 21
272.0087378676
  0
LINE
  5
2D8
100
AcDbEntity
  8
0
100
AcDbLine
 62
7
  6
CONTINUOUS
 10
108.765488806
 20
272.0087378676
 11
108.765488806
 21
278.6044826562
  0
LINE
  5
2D9
100
AcDbEntity
  8
B-ACHSEN
100
AcDbLine
 62
2
  6
CENTER
 10
111.0188218214
 20
202.0244826562
 11
111.0188218214
 21
114.3317962543
  0
LINE
  5
2DA
100
AcDbEntity
  8
B-ACHSEN
100
AcDbLine
 62
2
  6
CENTER
 10
111.0188218214
 20
202.0244826562
 11
111.0188218214
 21
250.0244826562
  0
LINE
  5
2DB
100
AcDbEntity
  8
0
100
AcDbLine
 62
7
  6
CONTINUOUS
 10
121.5988218214
 20
270.9449082071
 11
121.7654878523
 21
272.0087378676
  0
LINE
  5
2DC
100
AcDbEntity
  8
0
100
AcDbLine
 62
7
  6
CONTINUOUS
 10
120.7654878523
 20
272.0087378676
 11
120.5988218214
 21
271.1576741392
  0
LINE
  5
2DD
100
AcDbEntity
  8
B-ACHSEN
100
AcDbLine
 62
2
  6
CENTER
 10
111.0188218214
 20
202.0244826562
 11
63.0188218214
 21
202.0244826562
  0
LINE
  5
2DE
100
AcDbEntity
  8
B-ACHSEN
100
AcDbLine
 62
2
  6
CENTER
 10
111.0188218214
 20
202.0244826562
 11
159.0188218214
 21
202.0244826562
  0
LINE
  5
2DF
100
AcDbEntity
  8
0
100
AcDbLine
 62
7
  6
CONTINUOUS
 10
74.3088218214
 20
267.7947366941
 11
77.0747792365
 21
263.0039579195
  0
LINE
  5
2E0
100
AcDbEntity
  8
0
100
AcDbLine
 62
7
  6
CONTINUOUS
 10
144.739598928
 20
126.2659719802
 11
145.0500527196
 21
125.6702273182
  0
LINE
  5
2E1
100
AcDbEntity
  8
0
100
AcDbLine
 62
7
  6
CONTINUOUS
 10
144.8781235119
 20
126.2659719802
 11
145.1885773035
 21
125.6702273182
  0
LINE
  5
2E2
100
AcDbEntity
  8
0
100
AcDbLine
 62
7
  6
CONTINUOUS
 10
144.6361135412
 20
128.7978868849
 11
144.9465673328
 21
128.2021422751
  0
LINE
  5
2E3
100
AcDbEntity
  8
0
100
AcDbLine
 62
7
  6
CONTINUOUS
 10
144.7746381252
 20
128.7978868849
 11
145.0850919168
 21
128.2021422751
  0
LINE
  5
2E4
100
AcDbEntity
  8
0
100
AcDbLine
 62
7
  6
CONTINUOUS
 10
147.9826614281
 20
130.8829934365
 11
147.6722076364
 21
131.4787380464
  0
LINE
  5
2E5
100
AcDbEntity
  8
0
100
AcDbLine
 62
7
  6
CONTINUOUS
 10
139.979306667
 20
126.2659719802
 11
140.1862750719
 21
125.8191635228
  0
LINE
  5
2E6
100
AcDbEntity
  8
0
100
AcDbLine
 62
7
  6
CONTINUOUS
 10
140.117831251
 20
126.2659719802
 11
140.3247996559
 21
125.8191635228
  0
LINE
  5
2E7
100
AcDbEntity
  8
0
100
AcDbLine
 62
7
  6
CONTINUOUS
 10
143.6363083455
 20
127.9042699701
 11
143.429337572
 21
128.3510784275
  0
LINE
  5
2E8
100
AcDbEntity
  8
0
100
AcDbLine
 62
7
  6
CONTINUOUS
 10
142.7733907916
 20
130.8829934365
 11
142.9803591964
 21
130.4361849792
  0
LINE
  5
2E9
100
AcDbEntity
  8
0
100
AcDbLine
 62
7
  6
CONTINUOUS
 10
142.9119153755
 20
130.8829934365
 11
143.1188837804
 21
130.4361849792
  0
LINE
  5
2EA
100
AcDbEntity
  8
0
100
AcDbLine
 62
7
  6
CONTINUOUS
 10
145.4990310952
 20
126.2659719802
 11
145.2920603217
 21
126.7127805419
  0
LINE
  5
2EB
100
AcDbEntity
  8
0
100
AcDbLine
 62
7
  6
CONTINUOUS
 10
145.3955457084
 20
128.7978868849
 11
145.1885773035
 21
129.2446953423
  0
LINE
  5
2EC
100
AcDbEntity
  8
0
100
AcDbLine
 62
7
  6
CONTINUOUS
 10
124.0777188818
 20
130.0582249096
 11
125.3879784613
 21
125.0744826562
  0
LINE
  5
2ED
100
AcDbEntity
  8
0
100
AcDbLine
 62
7
  6
CONTINUOUS
 10
124.0777188818
 20
130.5851211316
 11
125.5265030452
 21
125.0744826562
  0
LINE
  5
2EE
100
AcDbEntity
  8
0
100
AcDbLine
 62
7
  6
CONTINUOUS
 10
125.9404416314
 20
125.8191635228
 11
124.3881726734
 21
132.0744826562
  0
LINE
  5
2EF
100
AcDbEntity
  8
0
100
AcDbLine
 62
7
  6
CONTINUOUS
 10
121.6625329619
 20
130.8829934365
 11
121.7660174604
 21
130.4361849792
  0
LINE
  5
2F0
100
AcDbEntity
  8
0
100
AcDbLine
 62
7
  6
CONTINUOUS
 10
121.8010575459
 20
130.8829934365
 11
121.9045420444
 21
130.4361849792
  0
LINE
  5
2F1
100
AcDbEntity
  8
0
100
AcDbLine
 62
7
  6
CONTINUOUS
 10
122.5254496276
 20
130.4361849792
 11
122.4219651291
 21
130.8829934365
  0
LINE
  5
2F2
100
AcDbEntity
  8
0
100
AcDbLine
 62
7
  6
CONTINUOUS
 10
112.765488806
 20
278.6044826562
 11
112.765488806
 21
272.0087378676
  0
LINE
  5
2F3
100
AcDbEntity
  8
0
100
AcDbLine
 62
7
  6
CONTINUOUS
 10
113.765488806
 20
272.0087378676
 11
113.765488806
 21
278.6044826562
  0
LINE
  5
2F4
100
AcDbEntity
  8
0
100
AcDbLine
 62
7
  6
CONTINUOUS
 10
115.0188218214
 20
121.0244826562
 11
115.0188218214
 21
136.0244826562
  0
LINE
  5
2F5
100
AcDbEntity
  8
0
100
AcDbLine
 62
7
  6
CONTINUOUS
 10
115.0988218214
 20
278.6044826562
 11
115.0988218214
 21
268.6044826562
  0
LINE
  5
2F6
100
AcDbEntity
  8
0
100
AcDbLine
 62
7
  6
CONTINUOUS
 10
116.0988218214
 20
269.8810783977
 11
116.0988218214
 21
277.3278870637
  0
LINE
  5
2F7
100
AcDbEntity
  8
0
100
AcDbLine
 62
7
  6
CONTINUOUS
 10
118.5579950458
 20
132.0744826562
 11
118.5579950458
 21
125.0744826562
  0
LINE
  5
2F8
100
AcDbEntity
  8
0
100
AcDbLine
 62
7
  6
CONTINUOUS
 10
118.6965196298
 20
132.0744826562
 11
118.6965196298
 21
125.0744826562
  0
LINE
  5
2F9
100
AcDbEntity
  8
0
100
AcDbLine
 62
7
  6
CONTINUOUS
 10
119.317427213
 20
125.0744826562
 11
119.317427213
 21
128.2021422751
  0
LINE
  5
2FA
100
AcDbEntity
  8
0
100
AcDbLine
 62
7
  6
CONTINUOUS
 10
119.317427213
 20
129.0957591898
 11
119.317427213
 21
131.3298018939
  0
LINE
  5
2FB
100
AcDbEntity
  8
0
100
AcDbLine
 62
7
  6
CONTINUOUS
 10
77.2645522256
 20
264.3419280875
 11
75.5624244709
 21
267.2900998396
  0
LINE
  5
2FC
100
AcDbEntity
  8
0
100
AcDbLine
 62
7
  6
CONTINUOUS
 10
82.0811586643
 20
264.6659874041
 11
82.2939245964
 21
264.2974659996
  0
LINE
  5
2FD
100
AcDbEntity
  8
0
100
AcDbLine
 62
7
  6
CONTINUOUS
 10
79.7482138021
 20
269.7067664367
 11
79.2162989719
 21
270.6280699479
  0
LINE
  5
2FE
100
AcDbEntity
  8
0
100
AcDbLine
 62
7
  6
CONTINUOUS
 10
83.1219955366
 20
264.5298720435
 11
82.6964636724
 21
265.2669148525
  0
LINE
  5
2FF
100
AcDbEntity
  8
0
100
AcDbLine
 62
7
  6
CONTINUOUS
 10
82.2554197088
 20
268.6974923903
 11
82.680951573
 21
267.9604495814
  0
LINE
  5
300
100
AcDbEntity
  8
0
100
AcDbLine
 62
7
  6
CONTINUOUS
 10
82.5590563585
 20
270.8382452706
 11
83.4101203848
 21
269.3641591365
  0
LINE
  5
301
100
AcDbEntity
  8
0
100
AcDbLine
 62
7
  6
CONTINUOUS
 10
83.835652249
 20
268.6271163275
 11
85.9633117933
 21
264.9419018955
  0
LINE
  5
302
100
AcDbEntity
  8
0
100
AcDbLine
 62
7
  6
CONTINUOUS
 10
147.2232292609
 20
130.8829934365
 11
147.4301976657
 21
130.4361849792
  0
LINE
  5
303
100
AcDbEntity
  8
0
100
AcDbLine
 62
7
  6
CONTINUOUS
 10
147.3617538448
 20
130.8829934365
 11
147.5687222497
 21
130.4361849792
  0
LINE
  5
304
100
AcDbEntity
  8
0
100
AcDbLine
 62
7
  6
CONTINUOUS
 10
140.6352534475
 20
126.4149082369
 11
140.5317704294
 21
126.7127805419
  0
LINE
  5
305
100
AcDbEntity
  8
0
100
AcDbLine
 62
7
  6
CONTINUOUS
 10
142.8768761783
 20
127.9042699701
 11
143.0838445832
 21
127.3085251517
  0
LINE
  5
306
100
AcDbEntity
  8
0
100
AcDbLine
 62
7
  6
CONTINUOUS
 10
143.0154007623
 20
127.9042699701
 11
143.2223691671
 21
127.3085251517
  0
LINE
  5
307
100
AcDbEntity
  8
0
100
AcDbLine
 62
7
  6
CONTINUOUS
 10
134.8401167936
 20
130.058225125
 11
136.1503769653
 21
125.0744826562
  0
LINE
  5
308
100
AcDbEntity
  8
0
100
AcDbLine
 62
7
  6
CONTINUOUS
 10
134.8401167936
 20
130.5851211316
 11
136.2889015492
 21
125.0744826562
  0
LINE
  5
309
100
AcDbEntity
  8
0
100
AcDbLine
 62
7
  6
CONTINUOUS
 10
136.7028395433
 20
125.8191635228
 11
135.1505705852
 21
132.0744826562
  0
LINE
  5
30A
100
AcDbEntity
  8
0
100
AcDbLine
 62
7
  6
CONTINUOUS
 10
107.7654883291
 20
272.0087378676
 11
107.9321553137
 21
270.9449082071
  0
LINE
  5
30B
100
AcDbEntity
  8
0
100
AcDbLine
 62
7
  6
CONTINUOUS
 10
120.7654878523
 20
275.2002271468
 11
120.7654878523
 21
272.0087378676
  0
LINE
  5
30C
100
AcDbEntity
  8
0
100
AcDbLine
 62
7
  6
CONTINUOUS
 10
121.7654878523
 20
272.0087378676
 11
121.7654878523
 21
275.2002271468
  0
LINE
  5
30D
100
AcDbEntity
  8
0
100
AcDbLine
 62
7
  6
CONTINUOUS
 10
121.7660174604
 20
130.4361849792
 11
121.7660174604
 21
129.9893761046
  0
LINE
  5
30E
100
AcDbEntity
  8
0
100
AcDbLine
 62
7
  6
CONTINUOUS
 10
121.9045420444
 20
130.4361849792
 11
121.9045420444
 21
129.9893761046
  0
LINE
  5
30F
100
AcDbEntity
  8
0
100
AcDbLine
 62
7
  6
CONTINUOUS
 10
122.5254496276
 20
129.8404399521
 11
122.5254496276
 21
130.4361849792
  0
LINE
  5
310
100
AcDbEntity
  8
0
100
AcDbLine
 62
7
  6
CONTINUOUS
 10
123.3182864185
 20
132.0744826562
 11
123.3182864185
 21
125.0744826562
  0
LINE
  5
311
100
AcDbEntity
  8
0
100
AcDbLine
 62
7
  6
CONTINUOUS
 10
123.4568110025
 20
132.0744826562
 11
123.4568110025
 21
125.0744826562
  0
LINE
  5
312
100
AcDbEntity
  8
0
100
AcDbLine
 62
7
  6
CONTINUOUS
 10
124.0777188818
 20
125.0744826562
 11
124.0777188818
 21
130.5851211316
  0
LINE
  5
313
100
AcDbEntity
  8
0
100
AcDbLine
 62
7
  6
CONTINUOUS
 10
127.6646397971
 20
130.058225125
 11
127.6646397971
 21
125.0744826562
  0
LINE
  5
314
100
AcDbEntity
  8
0
100
AcDbLine
 62
7
  6
CONTINUOUS
 10
127.8031643811
 20
130.5851211316
 11
127.8031643811
 21
125.0744826562
  0
LINE
  5
315
100
AcDbEntity
  8
0
100
AcDbLine
 62
7
  6
CONTINUOUS
 10
128.4240719643
 20
125.0744826562
 11
128.4240719643
 21
132.0744826562
  0
LINE
  5
316
100
AcDbEntity
  8
0
100
AcDbLine
 62
7
  6
CONTINUOUS
 10
86.4722333479
 20
265.7270899367
 11
84.5573398102
 21
269.0437828352
  0
LINE
  5
317
100
AcDbEntity
  8
0
100
AcDbLine
 62
7
  6
CONTINUOUS
 10
84.131807946
 20
269.7808256442
 11
83.2807439197
 21
271.2549117783
  0
LINE
  5
318
100
AcDbEntity
  8
0
100
AcDbLine
 62
7
  6
CONTINUOUS
 10
88.835101263
 20
264.6344826562
 11
88.4095693616
 21
265.3715255297
  0
LINE
  5
319
100
AcDbEntity
  8
0
100
AcDbLine
 62
7
  6
CONTINUOUS
 10
86.1450527751
 20
269.9604493429
 11
85.719520911
 21
270.6974921519
  0
LINE
  5
31A
100
AcDbEntity
  8
0
100
AcDbLine
 62
7
  6
CONTINUOUS
 10
106.4321553137
 20
268.6044826562
 11
104.9321553137
 21
273.4980996902
  0
LINE
  5
31B
100
AcDbEntity
  8
0
100
AcDbLine
 62
7
  6
CONTINUOUS
 10
103.9321550753
 20
273.072567826
 11
105.2654883291
 21
268.6044826562
  0
LINE
  5
31C
100
AcDbEntity
  8
0
100
AcDbLine
 62
7
  6
CONTINUOUS
 10
144.4291451363
 20
129.5425676472
 11
144.6361135412
 21
128.7978868849
  0
LINE
  5
31D
100
AcDbEntity
  8
0
100
AcDbLine
 62
7
  6
CONTINUOUS
 10
144.5676697203
 20
129.5425676472
 11
144.7746381252
 21
128.7978868849
  0
LINE
  5
31E
100
AcDbEntity
  8
0
100
AcDbLine
 62
7
  6
CONTINUOUS
 10
148.1896298329
 20
130.138312257
 11
147.9826614281
 21
130.8829934365
  0
LINE
  5
31F
100
AcDbEntity
  8
0
100
AcDbLine
 62
7
  6
CONTINUOUS
 10
105.0988218214
 20
276.9023551995
 11
105.2654883291
 21
276.2640574033
  0
LINE
  5
320
100
AcDbEntity
  8
0
100
AcDbLine
 62
7
  6
CONTINUOUS
 10
106.2654883291
 20
276.2640574033
 11
106.0988218214
 21
276.9023551995
  0
LINE
  5
321
100
AcDbEntity
  8
0
100
AcDbLine
 62
7
  6
CONTINUOUS
 10
139.8758212803
 20
126.7127805419
 11
139.979306667
 21
126.2659719802
  0
LINE
  5
322
100
AcDbEntity
  8
0
100
AcDbLine
 62
7
  6
CONTINUOUS
 10
140.0143458643
 20
126.7127805419
 11
140.117831251
 21
126.2659719802
  0
LINE
  5
323
100
AcDbEntity
  8
0
100
AcDbLine
 62
7
  6
CONTINUOUS
 10
144.6361135412
 20
126.7127805419
 11
144.739598928
 21
126.2659719802
  0
LINE
  5
324
100
AcDbEntity
  8
0
100
AcDbLine
 62
7
  6
CONTINUOUS
 10
144.7746381252
 20
126.7127805419
 11
144.8781235119
 21
126.2659719802
  0
LINE
  5
325
100
AcDbEntity
  8
0
100
AcDbLine
 62
7
  6
CONTINUOUS
 10
145.1885773035
 20
129.2446953423
 11
145.0850919168
 21
129.6915037996
  0
LINE
  5
326
100
AcDbEntity
  8
0
100
AcDbLine
 62
7
  6
CONTINUOUS
 10
108.9321548368
 20
271.1576741392
 11
108.765488806
 21
272.0087378676
  0
LINE
  5
327
100
AcDbEntity
  8
DEFAULT_2
100
AcDbLine
 62
8
  6
HIDDEN
 10
130.5188218214
 20
161.4689651524
 11
130.5188218214
 21
120.0244826562
  0
LINE
  5
328
100
AcDbEntity
  8
0
100
AcDbLine
 62
7
  6
CONTINUOUS
 10
134.0806846264
 20
132.0744826562
 11
134.0806846264
 21
125.0744826562
  0
LINE
  5
329
100
AcDbEntity
  8
0
100
AcDbLine
 62
7
  6
CONTINUOUS
 10
134.2192092104
 20
132.0744826562
 11
134.2192092104
 21
125.0744826562
  0
LINE
  5
32A
100
AcDbEntity
  8
0
100
AcDbLine
 62
7
  6
CONTINUOUS
 10
134.8401167936
 20
125.0744826562
 11
134.8401167936
 21
130.5851211316
  0
LINE
  5
32B
100
AcDbEntity
  8
0
100
AcDbLine
 62
7
  6
CONTINUOUS
 10
78.0322260799
 20
261.3456113412
 11
78.7464331618
 21
260.7752350748
  0
LINE
  5
32C
100
AcDbEntity
  8
0
100
AcDbLine
 62
7
  6
CONTINUOUS
 10
81.6176721875
 20
265.135436515
 11
82.0811586643
 21
264.6659874041
  0
LINE
  5
32D
100
AcDbEntity
  8
0
100
AcDbLine
 62
7
  6
CONTINUOUS
 10
107.9321553137
 20
270.9449082071
 11
108.265488806
 21
270.0938443298
  0
LINE
  5
32E
100
AcDbEntity
  8
0
100
AcDbLine
 62
7
  6
CONTINUOUS
 10
147.4301976657
 20
130.4361849792
 11
147.5336830525
 21
129.9893761046
  0
LINE
  5
32F
100
AcDbEntity
  8
0
100
AcDbLine
 62
7
  6
CONTINUOUS
 10
147.5687222497
 20
130.4361849792
 11
147.6722076364
 21
129.9893761046
  0
LINE
  5
330
100
AcDbEntity
  8
0
100
AcDbLine
 62
7
  6
CONTINUOUS
 10
120.5988218214
 20
276.0512908752
 11
120.7654878523
 21
275.2002271468
  0
LINE
  5
331
100
AcDbEntity
  8
0
100
AcDbLine
 62
7
  6
CONTINUOUS
 10
143.7397913636
 20
127.3085251517
 11
143.6363083455
 21
127.9042699701
  0
LINE
  5
332
100
AcDbEntity
  8
0
100
AcDbLine
 62
7
  6
CONTINUOUS
 10
143.6363083455
 20
130.4361849792
 11
143.5328229587
 21
131.031929589
  0
LINE
  5
333
100
AcDbEntity
  8
0
100
AcDbLine
 62
7
  6
CONTINUOUS
 10
121.7654878523
 20
275.2002271468
 11
121.5988218214
 21
276.2640574033
  0
LINE
  5
334
100
AcDbEntity
  8
0
100
AcDbLine
 62
7
  6
CONTINUOUS
 10
148.2931152197
 20
129.0957591898
 11
148.1896298329
 21
130.138312257
  0
LINE
  5
335
100
AcDbEntity
  8
0
100
AcDbLine
 62
7
  6
CONTINUOUS
 10
138.427037709
 20
130.058225125
 11
138.427037709
 21
125.0744826562
  0
LINE
  5
336
100
AcDbEntity
  8
0
100
AcDbLine
 62
7
  6
CONTINUOUS
 10
138.565562293
 20
130.5851211316
 11
138.565562293
 21
125.0744826562
  0
LINE
  5
337
100
AcDbEntity
  8
0
100
AcDbLine
 62
7
  6
CONTINUOUS
 10
139.1864698762
 20
125.0744826562
 11
139.1864698762
 21
132.0744826562
  0
LINE
  5
338
100
AcDbEntity
  8
0
100
AcDbLine
 62
7
  6
CONTINUOUS
 10
141.5315756251
 20
128.9468230374
 11
141.5315756251
 21
128.3510784275
  0
LINE
  5
339
100
AcDbEntity
  8
0
100
AcDbLine
 62
7
  6
CONTINUOUS
 10
141.6701002091
 20
128.9468230374
 11
141.6701002091
 21
128.3510784275
  0
LINE
  5
33A
100
AcDbEntity
  8
0
100
AcDbLine
 62
7
  6
CONTINUOUS
 10
142.9803591964
 20
130.4361849792
 11
142.9803591964
 21
130.138312257
  0
LINE
  5
33B
100
AcDbEntity
  8
0
100
AcDbLine
 62
7
  6
CONTINUOUS
 10
143.0838445832
 20
127.3085251517
 11
143.0838445832
 21
126.7127805419
  0
LINE
  5
33C
100
AcDbEntity
  8
0
100
AcDbLine
 62
7
  6
CONTINUOUS
 10
143.1188837804
 20
130.4361849792
 11
143.1188837804
 21
130.138312257
  0
LINE
  5
33D
100
AcDbEntity
  8
0
100
AcDbLine
 62
7
  6
CONTINUOUS
 10
143.2223691671
 20
127.3085251517
 11
143.2223691671
 21
126.7127805419
  0
LINE
  5
33E
100
AcDbEntity
  8
0
100
AcDbLine
 62
7
  6
CONTINUOUS
 10
143.6363083455
 20
130.138312257
 11
143.6363083455
 21
130.4361849792
  0
LINE
  5
33F
100
AcDbEntity
  8
0
100
AcDbLine
 62
7
  6
CONTINUOUS
 10
143.7397913636
 20
126.7127805419
 11
143.7397913636
 21
127.3085251517
  0
LINE
  5
340
100
AcDbEntity
  8
0
100
AcDbLine
 62
7
  6
CONTINUOUS
 10
144.4291451363
 20
130.138312257
 11
144.4291451363
 21
129.5425676472
  0
LINE
  5
341
100
AcDbEntity
  8
0
100
AcDbLine
 62
7
  6
CONTINUOUS
 10
144.5676697203
 20
130.138312257
 11
144.5676697203
 21
129.5425676472
  0
LINE
  5
342
100
AcDbEntity
  8
0
100
AcDbLine
 62
7
  6
CONTINUOUS
 10
145.0850919168
 20
129.6915037996
 11
145.0850919168
 21
129.9893761046
  0
LINE
  5
343
100
AcDbEntity
  8
0
100
AcDbLine
 62
7
  6
CONTINUOUS
 10
121.7660174604
 20
129.9893761046
 11
121.6625329619
 21
129.5425676472
  0
LINE
  5
344
100
AcDbEntity
  8
0
100
AcDbLine
 62
7
  6
CONTINUOUS
 10
121.9045420444
 20
129.9893761046
 11
121.8010575459
 21
129.5425676472
  0
LINE
  5
345
100
AcDbEntity
  8
0
100
AcDbLine
 62
7
  6
CONTINUOUS
 10
122.4219651291
 20
129.3936314947
 11
122.5254496276
 21
129.8404399521
  0
LINE
  5
346
100
AcDbEntity
  8
0
100
AcDbLine
 62
7
  6
CONTINUOUS
 10
127.3541860055
 20
132.0744826562
 11
125.8711793394
 21
126.0982760684
  0
LINE
  5
347
100
AcDbEntity
  8
0
100
AcDbLine
 62
7
  6
CONTINUOUS
 10
127.4927105895
 20
132.0744826562
 11
125.9404416314
 21
125.8191635228
  0
LINE
  5
348
100
AcDbEntity
  8
0
100
AcDbLine
 62
7
  6
CONTINUOUS
 10
79.6124585914
 20
261.2752350897
 11
78.8982514837
 21
261.8456113412
  0
LINE
  5
349
100
AcDbEntity
  8
0
100
AcDbLine
 62
7
  6
CONTINUOUS
 10
85.9633117933
 20
264.9419018955
 11
86.677518554
 21
264.3715255297
  0
LINE
  5
34A
100
AcDbEntity
  8
0
100
AcDbLine
 62
7
  6
CONTINUOUS
 10
82.6964636724
 20
265.2669148525
 11
81.8758734209
 21
266.0215518756
  0
LINE
  5
34B
100
AcDbEntity
  8
0
100
AcDbLine
 62
7
  6
CONTINUOUS
 10
86.9357201632
 20
265.2576411932
 11
86.4722333479
 21
265.7270899367
  0
LINE
  5
34C
100
AcDbEntity
  8
0
100
AcDbLine
 62
7
  6
CONTINUOUS
 10
106.0988218214
 20
276.9023551995
 11
105.5988218214
 21
277.7534189279
  0
LINE
  5
34D
100
AcDbEntity
  8
0
100
AcDbLine
 62
7
  6
CONTINUOUS
 10
109.265488806
 20
270.519376343
 11
108.9321548368
 21
271.1576741392
  0
LINE
  5
34E
100
AcDbEntity
  8
0
100
AcDbLine
 62
7
  6
CONTINUOUS
 10
147.5336830525
 20
129.9893761046
 11
147.5336830525
 21
129.6915037996
  0
LINE
  5
34F
100
AcDbEntity
  8
0
100
AcDbLine
 62
7
  6
CONTINUOUS
 10
147.6371660706
 20
128.2181677071
 11
147.6371660706
 21
128.0532061226
  0
LINE
  5
350
100
AcDbEntity
  8
0
100
AcDbLine
 62
7
  6
CONTINUOUS
 10
147.6722076364
 20
129.9893761046
 11
147.6722076364
 21
129.6915037996
  0
LINE
  5
351
100
AcDbEntity
  8
0
100
AcDbLine
 62
7
  6
CONTINUOUS
 10
147.7756906546
 20
128.3510784275
 11
147.7756906546
 21
128.0532061226
  0
LINE
  5
352
100
AcDbEntity
  8
0
100
AcDbLine
 62
7
  6
CONTINUOUS
 10
148.2931152197
 20
128.0532061226
 11
148.2931152197
 21
129.0957591898
  0
LINE
  5
353
100
AcDbEntity
  8
0
100
AcDbLine
 62
7
  6
CONTINUOUS
 10
149.5508435867
 20
121.0244826562
 11
149.5508435867
 21
136.0244826562
  0
LINE
  5
354
100
AcDbEntity
  8
0
100
AcDbLine
 62
7
  6
CONTINUOUS
 10
140.0827920538
 20
131.031929589
 11
139.979306667
 21
130.4361849792
  0
LINE
  5
355
100
AcDbEntity
  8
0
100
AcDbLine
 62
7
  6
CONTINUOUS
 10
140.2213166377
 20
131.031929589
 11
140.117831251
 21
130.4361849792
  0
LINE
  5
356
100
AcDbEntity
  8
0
100
AcDbLine
 62
7
  6
CONTINUOUS
 10
126.3543796255
 20
125.0744826562
 11
127.8031643811
 21
130.5851211316
  0
LINE
  5
357
100
AcDbEntity
  8
0
100
AcDbLine
 62
7
  6
CONTINUOUS
 10
78.7464331618
 20
260.7752350748
 11
79.2714577347
 21
260.4773944138
  0
LINE
  5
358
100
AcDbEntity
  8
0
100
AcDbLine
 62
7
  6
CONTINUOUS
 10
81.8758734209
 20
266.0215518756
 11
81.0173288549
 21
266.5085946846
  0
LINE
  5
359
100
AcDbEntity
  8
0
100
AcDbLine
 62
7
  6
CONTINUOUS
 10
81.0098480171
 20
265.5215518756
 11
81.6176721875
 21
265.135436515
  0
LINE
  5
35A
100
AcDbEntity
  8
0
100
AcDbLine
 62
7
  6
CONTINUOUS
 10
108.265488806
 20
270.0938443298
 11
108.9321548368
 21
269.242780527
  0
LINE
  5
35B
100
AcDbEntity
  8
0
100
AcDbLine
 62
7
  6
CONTINUOUS
 10
104.7654883291
 20
277.3278870637
 11
105.0988218214
 21
276.9023551995
  0
LINE
  5
35C
100
AcDbEntity
  8
0
100
AcDbLine
 62
7
  6
CONTINUOUS
 10
120.2654878523
 20
276.6895892675
 11
120.5988218214
 21
276.0512908752
  0
LINE
  5
35D
100
AcDbEntity
  8
0
100
AcDbLine
 62
7
  6
CONTINUOUS
 10
121.5988218214
 20
276.2640574033
 11
121.2654878523
 21
277.1151211316
  0
LINE
  5
35E
100
AcDbEntity
  8
B-ACHSEN
100
AcDbLine
 62
7
  6
CONTINUOUS
 10
161.0188218214
 20
117.0244826562
 11
161.0188218214
 21
127.2643997483
  0
LINE
  5
35F
100
AcDbEntity
  8
0
100
AcDbLine
 62
7
  6
CONTINUOUS
 10
148.1896298329
 20
127.0106528468
 11
148.2931152197
 21
128.0532061226
  0
LINE
  5
360
100
AcDbEntity
  8
0
100
AcDbLine
 62
7
  6
CONTINUOUS
 10
147.6371660706
 20
128.0532061226
 11
147.5336830525
 21
127.1595889992
  0
LINE
  5
361
100
AcDbEntity
  8
0
100
AcDbLine
 62
7
  6
CONTINUOUS
 10
147.7756906546
 20
128.0532061226
 11
147.6722076364
 21
127.1595889992
  0
LINE
  5
362
100
AcDbEntity
  8
0
100
AcDbLine
 62
7
  6
CONTINUOUS
 10
143.5328229587
 20
129.5425676472
 11
143.6363083455
 21
130.138312257
  0
LINE
  5
363
100
AcDbEntity
  8
0
100
AcDbLine
 62
7
  6
CONTINUOUS
 10
143.6363083455
 20
126.2659719802
 11
143.7397913636
 21
126.7127805419
  0
LINE
  5
364
100
AcDbEntity
  8
0
100
AcDbLine
 62
7
  6
CONTINUOUS
 10
145.0850919168
 20
129.9893761046
 11
145.1885773035
 21
130.4361849792
  0
LINE
  5
365
100
AcDbEntity
  8
0
100
AcDbLine
 62
7
  6
CONTINUOUS
 10
138.1165839174
 20
132.0744826562
 11
136.6335772513
 21
126.0982760684
  0
LINE
  5
366
100
AcDbEntity
  8
0
100
AcDbLine
 62
7
  6
CONTINUOUS
 10
138.2551085013
 20
132.0744826562
 11
136.7028395433
 21
125.8191635228
  0
LINE
  5
367
100
AcDbEntity
  8
0
100
AcDbLine
 62
7
  6
CONTINUOUS
 10
137.1167775373
 20
125.0744826562
 11
138.565562293
 21
130.5851211316
  0
LINE
  5
368
100
AcDbEntity
  8
0
100
AcDbLine
 62
7
  6
CONTINUOUS
 10
122.1115113375
 20
128.7978868849
 11
122.4219651291
 21
129.3936314947
  0
LINE
  5
369
100
AcDbEntity
  8
DEFAULT_2
100
AcDbLine
 62
8
  6
HIDDEN
 10
91.5188218214
 20
120.0244826562
 11
87.5188218214
 21
116.0244826562
  0
LINE
  5
36A
100
AcDbEntity
  8
0
100
AcDbLine
 62
7
  6
CONTINUOUS
 10
109.765488806
 20
270.0938443298
 11
109.265488806
 21
270.519376343
  0
LINE
  5
36B
100
AcDbEntity
  8
0
100
AcDbLine
 62
7
  6
CONTINUOUS
 10
105.5988218214
 20
277.7534189279
 11
104.9321553137
 21
278.3917167241
  0
LINE
  5
36C
100
AcDbEntity
  8
0
100
AcDbLine
 62
7
  6
CONTINUOUS
 10
147.5336830525
 20
129.6915037996
 11
147.4301976657
 21
129.2446953423
  0
LINE
  5
36D
100
AcDbEntity
  8
0
100
AcDbLine
 62
7
  6
CONTINUOUS
 10
147.6722076364
 20
129.6915037996
 11
147.5687222497
 21
129.2446953423
  0
LINE
  5
36E
100
AcDbEntity
  8
0
100
AcDbLine
 62
7
  6
CONTINUOUS
 10
147.5336830525
 20
127.1595889992
 11
147.4301976657
 21
126.7127805419
  0
LINE
  5
36F
100
AcDbEntity
  8
0
100
AcDbLine
 62
7
  6
CONTINUOUS
 10
147.6722076364
 20
127.1595889992
 11
147.5687222497
 21
126.7127805419
  0
LINE
  5
370
100
AcDbEntity
  8
0
100
AcDbLine
 62
7
  6
CONTINUOUS
 10
144.6361135412
 20
130.8829934365
 11
144.4291451363
 21
130.138312257
  0
LINE
  5
371
100
AcDbEntity
  8
0
100
AcDbLine
 62
7
  6
CONTINUOUS
 10
144.7746381252
 20
130.8829934365
 11
144.5676697203
 21
130.138312257
  0
LINE
  5
372
100
AcDbEntity
  8
0
100
AcDbLine
 62
7
  6
CONTINUOUS
 10
147.9826614281
 20
126.2659719802
 11
148.1896298329
 21
127.0106528468
  0
LINE
  5
373
100
AcDbEntity
  8
0
100
AcDbLine
 62
7
  6
CONTINUOUS
 10
142.9803591964
 20
130.138312257
 11
142.7733907916
 21
129.5425676472
  0
LINE
  5
374
100
AcDbEntity
  8
0
100
AcDbLine
 62
7
  6
CONTINUOUS
 10
143.1188837804
 20
130.138312257
 11
142.9119153755
 21
129.5425676472
  0
LINE
  5
375
100
AcDbEntity
  8
0
100
AcDbLine
 62
7
  6
CONTINUOUS
 10
143.0838445832
 20
126.7127805419
 11
142.9803591964
 21
126.4149082369
  0
LINE
  5
376
100
AcDbEntity
  8
0
100
AcDbLine
 62
7
  6
CONTINUOUS
 10
143.2223691671
 20
126.7127805419
 11
143.1188837804
 21
126.4149082369
  0
LINE
  5
377
100
AcDbEntity
  8
0
100
AcDbLine
 62
7
  6
CONTINUOUS
 10
140.6352534475
 20
130.4361849792
 11
140.842224221
 21
130.8829934365
  0
LINE
  5
378
100
AcDbEntity
  8
0
100
AcDbLine
 62
7
  6
CONTINUOUS
 10
121.6625329619
 20
129.5425676472
 11
121.4555636688
 21
129.2446953423
  0
LINE
  5
379
100
AcDbEntity
  8
0
100
AcDbLine
 62
7
  6
CONTINUOUS
 10
121.8010575459
 20
129.5425676472
 11
121.5940882528
 21
129.2446953423
  0
LINE
  5
37A
100
AcDbEntity
  8
0
100
AcDbLine
 62
7
  6
CONTINUOUS
 10
79.2714577347
 20
260.4773944138
 11
81.6348132157
 21
260.4773944138
  0
LINE
  5
37B
100
AcDbEntity
  8
0
100
AcDbLine
 62
7
  6
CONTINUOUS
 10
80.2582372253
 20
261.1567136853
 11
79.6124585914
 21
261.2752350897
  0
LINE
  5
37C
100
AcDbEntity
  8
0
100
AcDbLine
 62
7
  6
CONTINUOUS
 10
86.677518554
 20
264.3715255297
 11
87.3232972067
 21
264.253004093
  0
LINE
  5
37D
100
AcDbEntity
  8
0
100
AcDbLine
 62
7
  6
CONTINUOUS
 10
80.3640693832
 20
265.6400732801
 11
81.0098480171
 21
265.5215518756
  0
LINE
  5
37E
100
AcDbEntity
  8
0
100
AcDbLine
 62
7
  6
CONTINUOUS
 10
87.5814987971
 20
265.1391197888
 11
86.9357201632
 21
265.2576411932
  0
LINE
  5
37F
100
AcDbEntity
  8
0
100
AcDbLine
 62
7
  6
CONTINUOUS
 10
108.9321548368
 20
269.242780527
 11
109.5988218214
 21
268.8172486069
  0
LINE
  5
380
100
AcDbEntity
  8
0
100
AcDbLine
 62
7
  6
CONTINUOUS
 10
121.2654878523
 20
277.1151211316
 11
120.5988218214
 21
277.96618486
  0
LINE
  5
381
100
AcDbEntity
  8
0
100
AcDbLine
 62
7
  6
CONTINUOUS
 10
143.3258545539
 20
129.0957591898
 11
143.5328229587
 21
129.5425676472
  0
LINE
  5
382
100
AcDbEntity
  8
0
100
AcDbLine
 62
7
  6
CONTINUOUS
 10
145.1885773035
 20
130.4361849792
 11
145.3955457084
 21
130.8829934365
  0
LINE
  5
383
100
AcDbEntity
  8
0
100
AcDbLine
 62
7
  6
CONTINUOUS
 10
143.429337572
 20
125.8191635228
 11
143.6363083455
 21
126.2659719802
  0
LINE
  5
384
100
AcDbEntity
  8
0
100
AcDbLine
 62
7
  6
CONTINUOUS
 10
147.4301976657
 20
129.2446953423
 11
147.2232292609
 21
128.7978868849
  0
LINE
  5
385
100
AcDbEntity
  8
0
100
AcDbLine
 62
7
  6
CONTINUOUS
 10
147.5687222497
 20
129.2446953423
 11
147.3617538448
 21
128.7978868849
  0
LINE
  5
386
100
AcDbEntity
  8
0
100
AcDbLine
 62
7
  6
CONTINUOUS
 10
147.4301976657
 20
126.7127805419
 11
147.2232292609
 21
126.2659719802
  0
LINE
  5
387
100
AcDbEntity
  8
0
100
AcDbLine
 62
7
  6
CONTINUOUS
 10
147.5687222497
 20
126.7127805419
 11
147.3617538448
 21
126.2659719802
  0
LINE
  5
388
100
AcDbEntity
  8
0
100
AcDbLine
 62
7
  6
CONTINUOUS
 10
144.9465673328
 20
131.4787380464
 11
144.6361135412
 21
130.8829934365
  0
LINE
  5
389
100
AcDbEntity
  8
0
100
AcDbLine
 62
7
  6
CONTINUOUS
 10
145.0850919168
 20
131.4787380464
 11
144.7746381252
 21
130.8829934365
  0
LINE
  5
38A
100
AcDbEntity
  8
0
100
AcDbLine
 62
7
  6
CONTINUOUS
 10
140.4967288635
 20
131.6276741988
 11
140.0827920538
 21
131.031929589
  0
LINE
  5
38B
100
AcDbEntity
  8
0
100
AcDbLine
 62
7
  6
CONTINUOUS
 10
140.6352534475
 20
131.6276741988
 11
140.2213166377
 21
131.031929589
  0
LINE
  5
38C
100
AcDbEntity
  8
0
100
AcDbLine
 62
7
  6
CONTINUOUS
 10
121.6975730474
 20
128.50001458
 11
122.1115113375
 21
128.7978868849
  0
LINE
  5
38D
100
AcDbEntity
  8
0
100
AcDbLine
 62
7
  6
CONTINUOUS
 10
88.4095693616
 20
265.3715255297
 11
87.5814987971
 21
265.1391197888
  0
LINE
  5
38E
100
AcDbEntity
  8
0
100
AcDbLine
 62
7
  6
CONTINUOUS
 10
119.0988218214
 20
268.6044826562
 11
119.9321557905
 21
268.8172486069
  0
LINE
  5
38F
100
AcDbEntity
  8
0
100
AcDbLine
 62
7
  6
CONTINUOUS
 10
111.0988218214
 20
268.6044826562
 11
111.9321548368
 21
268.8172486069
  0
LINE
  5
390
100
AcDbEntity
  8
0
100
AcDbLine
 62
7
  6
CONTINUOUS
 10
80.9419704262
 20
261.3057862965
 11
80.2582372253
 21
261.1567136853
  0
LINE
  5
391
100
AcDbEntity
  8
0
100
AcDbLine
 62
7
  6
CONTINUOUS
 10
87.3232972067
 20
264.253004093
 11
87.8626928839
 21
264.3187433746
  0
LINE
  5
392
100
AcDbEntity
  8
0
100
AcDbLine
 62
7
  6
CONTINUOUS
 10
100.0988218214
 20
268.6044826562
 11
101.0988218214
 21
268.6044826562
  0
LINE
  5
393
100
AcDbEntity
  8
0
100
AcDbLine
 62
7
  6
CONTINUOUS
 10
105.2654883291
 20
268.6044826562
 11
106.4321553137
 21
268.6044826562
  0
LINE
  5
394
100
AcDbEntity
  8
0
100
AcDbLine
 62
7
  6
CONTINUOUS
 10
110.4321548368
 20
268.6044826562
 11
111.0988218214
 21
268.6044826562
  0
LINE
  5
395
100
AcDbEntity
  8
0
100
AcDbLine
 62
7
  6
CONTINUOUS
 10
115.0988218214
 20
268.6044826562
 11
119.0988218214
 21
268.6044826562
  0
LINE
  5
396
100
AcDbEntity
  8
0
100
AcDbLine
 62
7
  6
CONTINUOUS
 10
119.0988218214
 20
269.8810783977
 11
116.0988218214
 21
269.8810783977
  0
LINE
  5
397
100
AcDbEntity
  8
0
100
AcDbLine
 62
7
  6
CONTINUOUS
 10
111.0988218214
 20
269.8810783977
 11
110.4321548368
 21
269.8810783977
  0
LINE
  5
398
100
AcDbEntity
  8
0
100
AcDbLine
 62
7
  6
CONTINUOUS
 10
81.0173288549
 20
266.5085946846
 11
79.9764923956
 21
266.6447102836
  0
LINE
  5
399
100
AcDbEntity
  8
0
100
AcDbLine
 62
7
  6
CONTINUOUS
 10
109.5988218214
 20
268.8172486069
 11
110.4321548368
 21
268.6044826562
  0
LINE
  5
39A
100
AcDbEntity
  8
0
100
AcDbLine
 62
7
  6
CONTINUOUS
 10
110.4321548368
 20
269.8810783977
 11
109.765488806
 21
270.0938443298
  0
LINE
  5
39B
100
AcDbEntity
  8
0
100
AcDbLine
 62
7
  6
CONTINUOUS
 10
104.2654883291
 20
277.5406529958
 11
104.7654883291
 21
277.3278870637
  0
LINE
  5
39C
100
AcDbEntity
  8
0
100
AcDbLine
 62
7
  6
CONTINUOUS
 10
119.7654878523
 20
277.1151211316
 11
120.2654878523
 21
276.6895892675
  0
LINE
  5
39D
100
AcDbEntity
  8
0
100
AcDbLine
 62
7
  6
CONTINUOUS
 10
147.6722076364
 20
125.6702273182
 11
147.9826614281
 21
126.2659719802
  0
LINE
  5
39E
100
AcDbEntity
  8
0
100
AcDbLine
 62
7
  6
CONTINUOUS
 10
142.7733907916
 20
129.5425676472
 11
142.5664223867
 21
129.2446953423
  0
LINE
  5
39F
100
AcDbEntity
  8
0
100
AcDbLine
 62
7
  6
CONTINUOUS
 10
142.9119153755
 20
129.5425676472
 11
142.7049469706
 21
129.2446953423
  0
LINE
  5
3A0
100
AcDbEntity
  8
0
100
AcDbLine
 62
7
  6
CONTINUOUS
 10
142.9803591964
 20
126.4149082369
 11
142.7733907916
 21
126.1170358277
  0
LINE
  5
3A1
100
AcDbEntity
  8
0
100
AcDbLine
 62
7
  6
CONTINUOUS
 10
143.1188837804
 20
126.4149082369
 11
142.9119153755
 21
126.1170358277
  0
LINE
  5
3A2
100
AcDbEntity
  8
0
100
AcDbLine
 62
7
  6
CONTINUOUS
 10
142.9119153755
 20
128.6489507324
 11
143.3258545539
 21
129.0957591898
  0
LINE
  5
3A3
100
AcDbEntity
  8
0
100
AcDbLine
 62
7
  6
CONTINUOUS
 10
140.842224221
 20
130.8829934365
 11
141.1526780126
 21
131.1808657415
  0
LINE
  5
3A4
100
AcDbEntity
  8
0
100
AcDbLine
 62
7
  6
CONTINUOUS
 10
140.9106680419
 20
131.9255465038
 11
140.4967288635
 21
131.6276741988
  0
LINE
  5
3A5
100
AcDbEntity
  8
0
100
AcDbLine
 62
7
  6
CONTINUOUS
 10
141.0491926259
 20
131.9255465038
 11
140.6352534475
 21
131.6276741988
  0
LINE
  5
3A6
100
AcDbEntity
  8
0
100
AcDbLine
 62
7
  6
CONTINUOUS
 10
121.4555636688
 20
129.2446953423
 11
121.2577179833
 21
129.1497814582
  0
LINE
  5
3A7
100
AcDbEntity
  8
0
100
AcDbLine
 62
7
  6
CONTINUOUS
 10
121.5940882528
 20
129.2446953423
 11
121.2836344612
 21
129.0957591898
  0
LINE
  5
3A8
100
AcDbEntity
  8
0
100
AcDbLine
 62
7
  6
CONTINUOUS
 10
79.9764923956
 20
266.6447102836
 11
79.1484214554
 21
266.4123042397
  0
LINE
  5
3A9
100
AcDbEntity
  8
0
100
AcDbLine
 62
7
  6
CONTINUOUS
 10
79.6803362856
 20
265.4910007285
 11
80.3640693832
 21
265.6400732801
  0
LINE
  5
3AA
100
AcDbEntity
  8
0
100
AcDbLine
 62
7
  6
CONTINUOUS
 10
101.0988218214
 20
273.072567826
 11
103.9321550753
 21
273.072567826
  0
LINE
  5
3AB
100
AcDbEntity
  8
0
100
AcDbLine
 62
7
  6
CONTINUOUS
 10
104.2654883291
 20
274.3491634185
 11
101.0988218214
 21
274.3491634185
  0
LINE
  5
3AC
100
AcDbEntity
  8
0
100
AcDbLine
 62
7
  6
CONTINUOUS
 10
116.0988218214
 20
277.3278870637
 11
119.0988218214
 21
277.3278870637
  0
LINE
  5
3AD
100
AcDbEntity
  8
0
100
AcDbLine
 62
7
  6
CONTINUOUS
 10
101.0988218214
 20
277.5406529958
 11
104.2654883291
 21
277.5406529958
  0
LINE
  5
3AE
100
AcDbEntity
  8
0
100
AcDbLine
 62
7
  6
CONTINUOUS
 10
104.9321553137
 20
278.3917167241
 11
104.0988218214
 21
278.6044826562
  0
LINE
  5
3AF
100
AcDbEntity
  8
0
100
AcDbLine
 62
7
  6
CONTINUOUS
 10
119.9321557905
 20
278.3917167241
 11
119.0988218214
 21
278.6044826562
  0
LINE
  5
3B0
100
AcDbEntity
  8
0
100
AcDbLine
 62
7
  6
CONTINUOUS
 10
119.0988218214
 20
277.3278870637
 11
119.7654878523
 21
277.1151211316
  0
LINE
  5
3B1
100
AcDbEntity
  8
0
100
AcDbLine
 62
7
  6
CONTINUOUS
 10
120.5988218214
 20
277.96618486
 11
119.9321557905
 21
278.3917167241
  0
LINE
  5
3B2
100
AcDbEntity
  8
RUNDUNGEN
100
AcDbLine
 62
7
  6
CONTINUOUS
 10
174.7516567304
 20
141.6128308224
 11
198.1898555676
 21
198.1976483326
  0
LINE
  5
3B3
100
AcDbEntity
  8
0
100
AcDbLine
 62
7
  6
CONTINUOUS
 10
145.3955457084
 20
130.8829934365
 11
145.7059995
 21
131.1808657415
  0
LINE
  5
3B4
100
AcDbEntity
  8
0
100
AcDbLine
 62
7
  6
CONTINUOUS
 10
143.1188837804
 20
125.5212911657
 11
143.429337572
 21
125.8191635228
  0
LINE
  5
3B5
100
AcDbEntity
  8
0
100
AcDbLine
 62
7
  6
CONTINUOUS
 10
147.2232292609
 20
128.7978868849
 11
146.9127754692
 21
128.50001458
  0
LINE
  5
3B6
100
AcDbEntity
  8
0
100
AcDbLine
 62
7
  6
CONTINUOUS
 10
147.3617538448
 20
128.7978868849
 11
147.0513000532
 21
128.50001458
  0
LINE
  5
3B7
100
AcDbEntity
  8
0
100
AcDbLine
 62
7
  6
CONTINUOUS
 10
147.1547830714
 20
127.7553338177
 11
147.7756906546
 21
128.3510784275
  0
LINE
  5
3B8
100
AcDbEntity
  8
0
100
AcDbLine
 62
7
  6
CONTINUOUS
 10
147.2232292609
 20
126.2659719802
 11
146.9127754692
 21
125.9680996753
  0
LINE
  5
3B9
100
AcDbEntity
  8
0
100
AcDbLine
 62
7
  6
CONTINUOUS
 10
147.3617538448
 20
126.2659719802
 11
147.0513000532
 21
125.9680996753
  0
LINE
  5
3BA
100
AcDbEntity
  8
0
100
AcDbLine
 62
7
  6
CONTINUOUS
 10
145.4639895293
 20
131.9255465038
 11
144.9465673328
 21
131.4787380464
  0
LINE
  5
3BB
100
AcDbEntity
  8
0
100
AcDbLine
 62
7
  6
CONTINUOUS
 10
145.6025141133
 20
131.9255465038
 11
145.0850919168
 21
131.4787380464
  0
LINE
  5
3BC
100
AcDbEntity
  8
0
100
AcDbLine
 62
7
  6
CONTINUOUS
 10
147.1547830714
 20
125.2234188217
 11
147.6722076364
 21
125.6702273182
  0
LINE
  5
3BD
100
AcDbEntity
  8
0
100
AcDbLine
 62
7
  6
CONTINUOUS
 10
142.7733907916
 20
126.1170358277
 11
142.5664223867
 21
125.9680996753
  0
LINE
  5
3BE
100
AcDbEntity
  8
0
100
AcDbLine
 62
7
  6
CONTINUOUS
 10
142.9119153755
 20
126.1170358277
 11
142.7049469706
 21
125.9680996753
  0
LINE
  5
3BF
100
AcDbEntity
  8
0
100
AcDbLine
 62
7
  6
CONTINUOUS
 10
142.7049469706
 20
125.2234188217
 11
143.1188837804
 21
125.5212911657
  0
LINE
  5
3C0
100
AcDbEntity
  8
0
100
AcDbLine
 62
7
  6
CONTINUOUS
 10
145.7059995
 20
131.1808657415
 11
146.0164532916
 21
131.3298018939
  0
LINE
  5
3C1
100
AcDbEntity
  8
0
100
AcDbLine
 62
7
  6
CONTINUOUS
 10
142.5664223867
 20
129.2446953423
 11
142.0581229096
 21
129.0008453058
  0
LINE
  5
3C2
100
AcDbEntity
  8
0
100
AcDbLine
 62
7
  6
CONTINUOUS
 10
142.7049469706
 20
129.2446953423
 11
142.0840393874
 21
128.9468230374
  0
LINE
  5
3C3
100
AcDbEntity
  8
0
100
AcDbLine
 62
7
  6
CONTINUOUS
 10
146.9127754692
 20
128.50001458
 11
146.7149297838
 21
128.4051006959
  0
LINE
  5
3C4
100
AcDbEntity
  8
0
100
AcDbLine
 62
7
  6
CONTINUOUS
 10
147.0513000532
 20
128.50001458
 11
146.7408462616
 21
128.3510784275
  0
LINE
  5
3C5
100
AcDbEntity
  8
0
100
AcDbLine
 62
7
  6
CONTINUOUS
 10
141.1526780126
 20
131.1808657415
 11
141.6701002091
 21
131.3298018939
  0
LINE
  5
3C6
100
AcDbEntity
  8
0
100
AcDbLine
 62
7
  6
CONTINUOUS
 10
145.9814140944
 20
132.0744826562
 11
145.4639895293
 21
131.9255465038
  0
LINE
  5
3C7
100
AcDbEntity
  8
0
100
AcDbLine
 62
7
  6
CONTINUOUS
 10
146.1199386784
 20
132.0744826562
 11
145.6025141133
 21
131.9255465038
  0
LINE
  5
3C8
100
AcDbEntity
  8
0
100
AcDbLine
 62
7
  6
CONTINUOUS
 10
146.6373608749
 20
127.6063974566
 11
147.1547830714
 21
127.7553338177
  0
LINE
  5
3C9
100
AcDbEntity
  8
0
100
AcDbLine
 62
7
  6
CONTINUOUS
 10
142.5664223867
 20
125.9680996753
 11
142.1769234351
 21
125.855985796
  0
LINE
  5
3CA
100
AcDbEntity
  8
0
100
AcDbLine
 62
7
  6
CONTINUOUS
 10
142.7049469706
 20
125.9680996753
 11
142.1875224056
 21
125.8191635228
  0
LINE
  5
3CB
100
AcDbEntity
  8
0
100
AcDbLine
 62
7
  6
CONTINUOUS
 10
119.0988218214
 20
278.6044826562
 11
115.0988218214
 21
278.6044826562
  0
LINE
  5
3CC
100
AcDbEntity
  8
0
100
AcDbLine
 62
7
  6
CONTINUOUS
 10
113.765488806
 20
278.6044826562
 11
112.765488806
 21
278.6044826562
  0
LINE
  5
3CD
100
AcDbEntity
  8
0
100
AcDbLine
 62
7
  6
CONTINUOUS
 10
108.765488806
 20
278.6044826562
 11
107.7654883291
 21
278.6044826562
  0
LINE
  5
3CE
100
AcDbEntity
  8
0
100
AcDbLine
 62
7
  6
CONTINUOUS
 10
104.0988218214
 20
278.6044826562
 11
100.0988218214
 21
278.6044826562
  0
LINE
  5
3CF
100
AcDbEntity
  8
RUNDUNGEN
100
AcDbLine
 62
7
  6
CONTINUOUS
 10
114.8456561451
 20
289.1955164024
 11
169.9520704056
 21
266.3696922419
  0
LINE
  5
3D0
100
AcDbEntity
  8
RUNDUNGEN
100
AcDbLine
 62
7
  6
CONTINUOUS
 10
175.3640314071
 20
260.9577312404
 11
198.1898555676
 21
205.8513169799
  0
LINE
  5
3D1
100
AcDbEntity
  8
0
100
AcDbLine
 62
7
  6
CONTINUOUS
 10
146.9127754692
 20
125.9680996753
 11
146.7149297838
 21
125.8731857912
  0
LINE
  5
3D2
100
AcDbEntity
  8
0
100
AcDbLine
 62
7
  6
CONTINUOUS
 10
147.0513000532
 20
125.9680996753
 11
146.7408462616
 21
125.8191635228
  0
LINE
  5
3D3
100
AcDbEntity
  8
0
100
AcDbLine
 62
7
  6
CONTINUOUS
 10
142.2910077923
 20
125.0744826562
 11
142.7049469706
 21
125.2234188217
  0
LINE
  5
3D4
100
AcDbEntity
  8
0
100
AcDbLine
 62
7
  6
CONTINUOUS
 10
146.6373608749
 20
125.0744826562
 11
147.1547830714
 21
125.2234188217
  0
LINE
  5
3D5
100
AcDbEntity
  8
B-ACHSEN
100
AcDbLine
 62
7
  6
CONTINUOUS
 10
160.0188218214
 20
116.0244826562
 11
161.0188218214
 21
117.0244826562
  0
LINE
  5
3D6
100
AcDbEntity
  8
B-ACHSEN
100
AcDbLine
 62
7
  6
CONTINUOUS
 10
246.3771295736
 20
116.0244826562
 11
245.3771295736
 21
117.0244826562
  0
LINE
  5
3D7
100
AcDbEntity
  8
B-ACHSEN
100
AcDbLine
 62
7
  6
CONTINUOUS
 10
246.3779860255
 20
116.0244826562
 11
344.3762731217
 21
116.0244826562
  0
LINE
  5
3D8
100
AcDbEntity
  8
B-ACHSEN
100
AcDbLine
 62
7
  6
CONTINUOUS
 10
245.3771295736
 20
117.0244826562
 11
345.3771295736
 21
117.0244826562
  0
LINE
  5
3D9
100
AcDbEntity
  8
DEFAULT_2
100
AcDbLine
 62
8
  6
HIDDEN
 10
314.8771295736
 20
120.0244826562
 11
275.8771295736
 21
120.0244826562
  0
LINE
  5
3DA
100
AcDbEntity
  8
RUNDUNGEN
100
AcDbLine
 62
7
  6
CONTINUOUS
 10
315.2429531488
 20
139.2643997483
 11
310.6581034963
 21
139.2643997483
  0
LINE
  5
3DB
100
AcDbEntity
  8
RUNDUNGEN
100
AcDbLine
 62
7
  6
CONTINUOUS
 10
280.0961556509
 20
139.2643997483
 11
275.5113059984
 21
139.2643997483
  0
LINE
  5
3DC
100
AcDbEntity
  8
B-ACHSEN
100
AcDbLine
 62
7
  6
CONTINUOUS
 10
245.3771295736
 20
117.0244826562
 11
245.3771295736
 21
139.1475992503
  0
LINE
  5
3DD
100
AcDbEntity
  8
B-ACHSEN
100
AcDbLine
 62
7
  6
CONTINUOUS
 10
253.8127849232
 20
149.0244826562
 11
269.4518576984
 21
151.5014684449
  0
LINE
  5
3DE
100
AcDbEntity
  8
B-ACHSEN
100
AcDbLine
 62
7
  6
CONTINUOUS
 10
336.941474224
 20
149.0244826562
 11
321.3024001096
 21
151.501468657
  0
LINE
  5
3DF
100
AcDbEntity
  8
DEFAULT_2
100
AcDbLine
 62
8
  6
HIDDEN
 10
314.8771295736
 20
120.0244826562
 11
318.8771295736
 21
116.0244826562
  0
LINE
  5
3E0
100
AcDbEntity
  8
DEFAULT_2
100
AcDbLine
 62
8
  6
HIDDEN
 10
275.8771295736
 20
157.0252684938
 11
275.8771295736
 21
120.0244826562
  0
LINE
  5
3E1
100
AcDbEntity
  8
RUNDUNGEN
100
AcDbLine
 62
7
  6
CONTINUOUS
 10
276.2222948611
 20
286.0886482858
 11
271.3268710595
 21
137.7414034984
  0
LWPOLYLINE
  5
3E2
100
AcDbEntity
  8
RUNDUNGEN
100
AcDbPolyline
 62
7
  6
CONTINUOUS
 90
6
 70
0
 10
271.8396520618
 20
153.6519661694
 10
271.8001776132
 20
153.4613540257
 10
271.765169556
 20
153.3479116257
 10
271.7428524661
 20
153.289068506
 10
271.7331939779
 20
153.2656776373
 10
271.7411115533
 20
153.2841515677
  0
LINE
  5
3E3
100
AcDbEntity
  8
B-ACHSEN
100
AcDbLine
 62
2
  6
CENTER
 10
295.3771295736
 20
293.1059165721
 11
295.3771295736
 21
113.0244826562
  0
LWPOLYLINE
  5
3E4
100
AcDbEntity
  8
RUNDUNGEN
100
AcDbPolyline
 62
7
  6
CONTINUOUS
 90
7
 70
0
 10
319.0131475615
 20
153.2841516451
 10
319.0213143188
 20
153.265096439
 10
319.0117996455
 20
153.2880797475
 10
318.9894697836
 20
153.346857128
 10
318.95443976
 20
153.4600046633
 10
318.9149889054
 20
153.6494286715
 10
318.8963833991
 20
153.8529777775
  0
LINE
  5
3E5
100
AcDbEntity
  8
DEFAULT_2
100
AcDbLine
 62
8
  6
HIDDEN
 10
314.8771295736
 20
157.0252565505
 11
314.8771295736
 21
120.0244826562
  0
LINE
  5
3E6
100
AcDbEntity
  8
0
100
AcDbLine
 62
7
  6
CONTINUOUS
 10
315.3771295736
 20
278.6044826562
 11
315.3771295736
 21
260.7752350748
  0
LINE
  5
3E7
100
AcDbEntity
  8
RUNDUNGEN
100
AcDbLine
 62
7
  6
CONTINUOUS
 10
319.4273880256
 20
137.7414053808
 11
314.5319642861
 21
286.0886482859
  0
LINE
  5
3E8
100
AcDbEntity
  8
DEFAULT_2
100
AcDbLine
 62
8
  6
HIDDEN
 10
275.8771295736
 20
120.0244826562
 11
271.8771295736
 21
116.0244826562
  0
LINE
  5
3E9
100
AcDbEntity
  8
B-ACHSEN
100
AcDbLine
 62
7
  6
CONTINUOUS
 10
345.3771295736
 20
117.0244826562
 11
345.3771295736
 21
139.1475992503
  0
LINE
  5
3EA
100
AcDbEntity
  8
0
100
AcDbLine
 62
7
  6
CONTINUOUS
 10
315.3771295736
 20
261.3456113412
 11
315.3484786215
 21
261.3456113412
  0
LINE
  5
3EB
100
AcDbEntity
  8
0
100
AcDbLine
 62
7
  6
CONTINUOUS
 10
315.3771295736
 20
261.8456113412
 11
315.3319787404
 21
261.8456113412
  0
LINE
  5
3EC
100
AcDbEntity
  8
0
100
AcDbLine
 62
7
  6
CONTINUOUS
 10
315.3771295736
 20
262.3233802526
 11
315.3162124799
 21
262.3233802526
  0
LINE
  5
3ED
100
AcDbEntity
  8
0
100
AcDbLine
 62
7
  6
CONTINUOUS
 10
315.3771295736
 20
262.9419016571
 11
315.2958014206
 21
262.9419016571
  0
LINE
  5
3EE
100
AcDbEntity
  8
0
100
AcDbLine
 62
7
  6
CONTINUOUS
 10
315.3771295736
 20
263.0039579195
 11
315.2937535787
 21
263.0039579195
  0
LINE
  5
3EF
100
AcDbEntity
  8
0
100
AcDbLine
 62
7
  6
CONTINUOUS
 10
315.3771295736
 20
267.7947366941
 11
315.1356590184
 21
267.7947366941
  0
LINE
  5
3F0
100
AcDbEntity
  8
0
100
AcDbLine
 62
7
  6
CONTINUOUS
 10
315.3771295736
 20
270.6280699479
 11
315.0421596948
 21
270.6280699479
  0
LINE
  5
3F1
100
AcDbEntity
  8
0
100
AcDbLine
 62
7
  6
CONTINUOUS
 10
315.3771295736
 20
270.8382452706
 11
315.0352239591
 21
270.8382452706
  0
LINE
  5
3F2
100
AcDbEntity
  8
0
100
AcDbLine
 62
7
  6
CONTINUOUS
 10
315.3771295736
 20
271.2549117783
 11
315.0214740634
 21
271.2549117783
  0
LINE
  5
3F3
100
AcDbEntity
  8
0
100
AcDbLine
 62
7
  6
CONTINUOUS
 10
315.3771295736
 20
278.6044826562
 11
314.7789399722
 21
278.6044826562
  0
LINE
  5
3F4
100
AcDbEntity
  8
RUNDUNGEN
100
AcDbLine
 62
7
  6
CONTINUOUS
 10
310.534140485
 20
289.9567210773
 11
280.2201186622
 21
289.9567210773
  0
LINE
  5
3F5
100
AcDbEntity
  8
B-ACHSEN
100
AcDbLine
 62
7
  6
CONTINUOUS
 10
344.3771295736
 20
116.0244826562
 11
345.3771295736
 21
117.0244826562
  0
LWPOLYLINE
  5
3F6
100
AcDbEntity
  8
RUNDUNGEN
100
AcDbPolyline
 62
7
  6
CONTINUOUS
 90
22
 70
0
 10
23.0865834562
 20
37.7671373007
 10
23.1154506091
 20
37.2870445436
 10
23.1922945852
 20
36.8528486445
 10
23.3096652196
 20
36.4488431662
 10
23.4630484539
 20
36.0715027754
 10
23.6479587287
 20
35.7217039985
 10
23.862439205
 20
35.3972748756
 10
24.1010576344
 20
35.1021551765
 10
24.3591231123
 20
34.8377282169
 10
24.6316414702
 20
34.6048995965
 10
24.913959506
 20
34.4035788746
 10
25.2009545444
 20
34.2333950428
 10
25.4901565593
 20
34.0920740117
 10
25.7715493917
 20
33.980220744
 10
26.039114426
 20
33.8949722397
 10
26.2836465106
 20
33.8333664942
 10
26.4920322862
 20
33.7918909255
 10
26.6784795663
 20
33.7622513203
 10
26.8502129029
 20
33.7401200167
 10
27.0184483884
 20
33.7222164135
 10
27.1961655401
 20
33.7063781632
 10
50.6137861045
 20
31.8406956554
  0
LINE
  5
3F7
100
AcDbEntity
  8
RUNDUNGEN
100
AcDbLine
 62
7
  6
CONTINUOUS
 10
23.0865834004
 20
37.7671301369
 11
23.0865834004
 21
73.6206402819
  0
LWPOLYLINE
  5
3F8
100
AcDbEntity
  8
RUNDUNGEN
100
AcDbPolyline
 62
7
  6
CONTINUOUS
 90
7
 70
0
 10
68.0242114994
 20
81.2176952376
 10
67.7711224938
 20
80.8556905161
 10
67.4676154624
 20
80.5347657007
 10
67.1202677496
 20
80.2618811438
 10
66.7366059717
 20
80.0429549875
 10
66.3249443124
 20
79.8827368801
 10
65.8942074993
 20
79.7847055053
  0
LINE
  5
3F9
100
AcDbEntity
  8
0
100
AcDbLine
 62
7
  6
CONTINUOUS
 10
74.3088218214
 20
35.6938852093
 11
74.3088218214
 21
35.9353557645
  0
LWPOLYLINE
  5
3FA
100
AcDbEntity
  8
RUNDUNGEN
100
AcDbPolyline
 62
7
  6
CONTINUOUS
 90
7
 70
0
 10
65.8942286303
 20
31.6030625014
 10
66.3249744239
 20
31.5050249011
 10
66.7366433017
 20
31.344798025
 10
67.1203099977
 20
31.1258610126
 10
67.4676599455
 20
30.8529640258
 10
67.7711662442
 20
30.532025775
 10
67.9930356813
 20
30.2146588334
  0
LINE
  5
3FB
100
AcDbEntity
  8
0
100
AcDbLine
 62
7
  6
CONTINUOUS
 10
79.2162989719
 20
35.6938852093
 11
79.2162989719
 21
36.0288550882
  0
LINE
  5
3FC
100
AcDbEntity
  8
0
100
AcDbLine
 62
7
  6
CONTINUOUS
 10
79.7482138021
 20
35.6938852093
 11
79.7482138021
 21
35.9984522914
  0
LINE
  5
3FD
100
AcDbEntity
  8
0
100
AcDbLine
 62
7
  6
CONTINUOUS
 10
79.9764923956
 20
35.6938852093
 11
79.9764923956
 21
35.8974051665
  0
LINE
  5
3FE
100
AcDbEntity
  8
0
100
AcDbLine
 62
7
  6
CONTINUOUS
 10
81.0173288549
 20
35.6938852093
 11
81.0173288549
 21
35.8929133841
  0
LINE
  5
3FF
100
AcDbEntity
  8
0
100
AcDbLine
 62
7
  6
CONTINUOUS
 10
81.8758734209
 20
35.6938852093
 11
81.8758734209
 21
35.8768410872
  0
LINE
  5
400
100
AcDbEntity
  8
0
100
AcDbLine
 62
7
  6
CONTINUOUS
 10
82.2554197088
 20
35.6938852093
 11
82.2554197088
 21
35.9651464878
  0
LINE
  5
401
100
AcDbEntity
  8
0
100
AcDbLine
 62
7
  6
CONTINUOUS
 10
82.5590563585
 20
35.6938852093
 11
82.5590563585
 21
36.0357908238
  0
LINE
  5
402
100
AcDbEntity
  8
0
100
AcDbLine
 62
7
  6
CONTINUOUS
 10
83.2807439197
 20
35.6938852093
 11
83.2807439197
 21
36.0495407195
  0
LINE
  5
403
100
AcDbEntity
  8
0
100
AcDbLine
 62
7
  6
CONTINUOUS
 10
84.131807946
 20
35.6938852093
 11
84.131807946
 21
36.0008962276
  0
LINE
  5
404
100
AcDbEntity
  8
RUNDUNGEN
100
AcDbLine
 62
7
  6
CONTINUOUS
 10
156.1434361435
 20
31.6030649133
 11
156.481567789
 21
31.6347569288
  0
LWPOLYLINE
  5
405
100
AcDbEntity
  8
RUNDUNGEN
100
AcDbPolyline
 62
7
  6
CONTINUOUS
 90
21
 70
0
 10
194.8681398394
 20
33.7085866659
 10
195.0565062543
 20
33.7259131909
 10
195.2335188427
 20
33.745635304
 10
195.4151014512
 20
33.770474774
 10
195.616854279
 20
33.8050110137
 10
195.8401694924
 20
33.8534000955
 10
196.0934909507
 20
33.9229991875
 10
196.3658065744
 20
34.0171361767
 10
196.6471053425
 20
34.1375800848
 10
196.9329059289
 20
34.286917521
 10
197.2145804025
 20
34.4644443018
 10
197.4902529748
 20
34.6724603906
 10
197.7557797155
 20
34.9118857025
 10
198.0063885869
 20
35.182722389
 10
198.2372489166
 20
35.4843116524
 10
198.4434919295
 20
35.8152073713
 10
198.6203025165
 20
36.1730300809
 10
198.7633885361
 20
36.5552509857
 10
198.8686103649
 20
36.9585004464
 10
198.932183375
 20
37.3786677841
 10
198.9510601905
 20
37.7671407377
  0
LINE
  5
406
100
AcDbEntity
  8
RUNDUNGEN
100
AcDbLine
 62
7
  6
CONTINUOUS
 10
194.8681398394
 20
33.7085866659
 11
171.4238575383
 21
31.8406956554
  0
LINE
  5
407
100
AcDbEntity
  8
RUNDUNGEN
100
AcDbLine
 62
7
  6
CONTINUOUS
 10
171.1061901776
 20
31.8280616341
 11
171.4303947125
 21
31.841222787
  0
LINE
  5
408
100
AcDbEntity
  8
RUNDUNGEN
100
AcDbLine
 62
7
  6
CONTINUOUS
 10
50.622861329
 20
31.8399848311
 11
50.9314534652
 21
31.8280625716
  0
LINE
  5
409
100
AcDbEntity
  8
RUNDUNGEN
100
AcDbLine
 62
7
  6
CONTINUOUS
 10
65.5560778084
 20
31.6347577813
 11
65.8942286303
 21
31.6030625014
  0
LINE
  5
40A
100
AcDbEntity
  8
0
100
AcDbLine
 62
7
  6
CONTINUOUS
 10
85.719520911
 20
35.6938852093
 11
85.719520911
 21
36.0311460044
  0
LINE
  5
40B
100
AcDbEntity
  8
0
100
AcDbLine
 62
7
  6
CONTINUOUS
 10
86.1450527751
 20
35.6938852093
 11
86.1450527751
 21
36.0068237669
  0
LINE
  5
40C
100
AcDbEntity
  8
0
100
AcDbLine
 62
7
  6
CONTINUOUS
 10
86.4722333479
 20
35.6938852093
 11
86.4722333479
 21
35.8671239132
  0
LINE
  5
40D
100
AcDbEntity
  8
0
100
AcDbLine
 62
7
  6
CONTINUOUS
 10
86.9357201632
 20
35.6938852093
 11
86.9357201632
 21
35.8516322163
  0
LINE
  5
40E
100
AcDbEntity
  8
0
100
AcDbLine
 62
7
  6
CONTINUOUS
 10
87.5814987971
 20
35.6938852093
 11
87.5814987971
 21
35.8477210382
  0
LINE
  5
40F
100
AcDbEntity
  8
0
100
AcDbLine
 62
7
  6
CONTINUOUS
 10
88.4095693616
 20
35.6938852093
 11
88.4095693616
 21
35.8553903723
  0
LINE
  5
410
100
AcDbEntity
  8
0
100
AcDbLine
 62
7
  6
CONTINUOUS
 10
88.835101263
 20
35.6938852093
 11
88.835101263
 21
35.8310681328
  0
LINE
  5
411
100
AcDbEntity
  8
0
100
AcDbLine
 62
7
  6
CONTINUOUS
 10
112.765488806
 20
36.0744168012
 11
112.5988218214
 21
36.0463319005
  0
LINE
  5
412
100
AcDbEntity
  8
0
100
AcDbLine
 62
7
  6
CONTINUOUS
 10
112.5988218214
 20
36.0463319005
 11
112.265488806
 21
36.025268225
  0
LINE
  5
413
100
AcDbEntity
  8
RUNDUNGEN
100
AcDbLine
 62
7
  6
CONTINUOUS
 10
156.481735632
 20
31.6347631072
 11
157.0079497774
 21
31.6531905371
  0
LINE
  5
414
100
AcDbEntity
  8
RUNDUNGEN
100
AcDbLine
 62
7
  6
CONTINUOUS
 10
157.0079497774
 20
31.6531905371
 11
157.9262914641
 21
31.6817612762
  0
LINE
  5
415
100
AcDbEntity
  8
0
100
AcDbLine
 62
7
  6
CONTINUOUS
 10
112.265488806
 20
36.025268225
 11
111.765488806
 21
36.0112257698
  0
LINE
  5
416
100
AcDbEntity
  8
RUNDUNGEN
100
AcDbLine
 62
7
  6
CONTINUOUS
 10
157.9262914641
 20
31.6817612762
 11
159.5389624819
 21
31.7231387644
  0
LINE
  5
417
100
AcDbEntity
  8
RUNDUNGEN
100
AcDbLine
 62
7
  6
CONTINUOUS
 10
73.8382370635
 20
35.447741756
 11
78.2853272181
 21
35.5472606743
  0
LINE
  5
418
100
AcDbEntity
  8
RUNDUNGEN
100
AcDbLine
 62
7
  6
CONTINUOUS
 10
159.5389624819
 20
31.7231387644
 11
161.4326503528
 21
31.7606939848
  0
LINE
  5
419
100
AcDbEntity
  8
RUNDUNGEN
100
AcDbLine
 62
7
  6
CONTINUOUS
 10
78.2853272181
 20
35.5472606743
 11
83.4109882366
 21
35.6408986966
  0
LINE
  5
41A
100
AcDbEntity
  8
RUNDUNGEN
100
AcDbLine
 62
7
  6
CONTINUOUS
 10
83.4109882366
 20
35.6408986966
 11
84.5578686635
 21
35.6591510727
  0
LINE
  5
41B
100
AcDbEntity
  8
RUNDUNGEN
100
AcDbLine
 62
7
  6
CONTINUOUS
 10
161.4326503528
 20
31.7606939848
 11
163.583828604
 21
31.7919433908
  0
LINE
  5
41C
100
AcDbEntity
  8
0
100
AcDbLine
 62
7
  6
CONTINUOUS
 10
111.765488806
 20
36.0112257698
 11
111.0988218214
 21
36.0042045446
  0
LINE
  5
41D
100
AcDbEntity
  8
RUNDUNGEN
100
AcDbLine
 62
7
  6
CONTINUOUS
 10
88.8347740392
 20
35.7190859338
 11
94.2077201623
 21
35.7775929681
  0
LINE
  5
41E
100
AcDbEntity
  8
0
100
AcDbLine
 62
7
  6
CONTINUOUS
 10
88.4095693616
 20
35.8553903723
 11
87.5814987971
 21
35.8477210382
  0
LINE
  5
41F
100
AcDbEntity
  8
0
100
AcDbLine
 62
7
  6
CONTINUOUS
 10
79.9764923956
 20
35.8974051665
 11
79.7463486029
 21
35.8952736438
  0
LINE
  5
420
100
AcDbEntity
  8
RUNDUNGEN
100
AcDbLine
 62
7
  6
CONTINUOUS
 10
163.583828604
 20
31.7919433908
 11
165.9532705149
 21
31.814578716
  0
LINE
  5
421
100
AcDbEntity
  8
RUNDUNGEN
100
AcDbLine
 62
7
  6
CONTINUOUS
 10
94.2077201623
 20
35.7775929681
 11
100.0981004264
 21
35.8217711202
  0
LINE
  5
422
100
AcDbEntity
  8
RUNDUNGEN
100
AcDbLine
 62
7
  6
CONTINUOUS
 10
165.9532705149
 20
31.814578716
 11
168.4861326904
 21
31.826575004
  0
LINE
  5
423
100
AcDbEntity
  8
RUNDUNGEN
100
AcDbLine
 62
7
  6
CONTINUOUS
 10
106.4317487443
 20
35.8479742029
 11
107.7652301038
 21
35.8507097778
  0
LINE
  5
424
100
AcDbEntity
  8
RUNDUNGEN
100
AcDbLine
 62
7
  6
CONTINUOUS
 10
171.1061901776
 20
31.8280616341
 11
168.4861326904
 21
31.826575004
  0
LINE
  5
425
100
AcDbEntity
  8
0
100
AcDbLine
 62
7
  6
CONTINUOUS
 10
121.7654878523
 20
35.6938852093
 11
115.0988218214
 21
35.6938852093
  0
LINE
  5
426
100
AcDbEntity
  8
0
100
AcDbLine
 62
7
  6
CONTINUOUS
 10
113.765488806
 20
35.6938852093
 11
107.7654883291
 21
35.6938852093
  0
LINE
  5
427
100
AcDbEntity
  8
0
100
AcDbLine
 62
7
  6
CONTINUOUS
 10
106.4321553137
 20
35.6938852093
 11
100.0988218214
 21
35.6938852093
  0
LINE
  5
428
100
AcDbEntity
  8
0
100
AcDbLine
 62
7
  6
CONTINUOUS
 10
88.835101263
 20
35.6938852093
 11
74.3088218214
 21
35.6938852093
  0
LINE
  5
429
100
AcDbEntity
  8
0
100
AcDbLine
 62
7
  6
CONTINUOUS
 10
111.0988218214
 20
36.0042045446
 11
110.4321548368
 21
36.0042045446
  0
LINE
  5
42A
100
AcDbEntity
  8
0
100
AcDbLine
 62
7
  6
CONTINUOUS
 10
119.0988218214
 20
36.2920748108
 11
115.0988218214
 21
36.2920748108
  0
LINE
  5
42B
100
AcDbEntity
  8
0
100
AcDbLine
 62
7
  6
CONTINUOUS
 10
113.765488806
 20
36.2920748108
 11
112.765488806
 21
36.2920748108
  0
LINE
  5
42C
100
AcDbEntity
  8
0
100
AcDbLine
 62
7
  6
CONTINUOUS
 10
108.765488806
 20
36.2920748108
 11
107.7654883291
 21
36.2920748108
  0
LINE
  5
42D
100
AcDbEntity
  8
0
100
AcDbLine
 62
7
  6
CONTINUOUS
 10
104.0988218214
 20
36.2920748108
 11
100.0988218214
 21
36.2920748108
  0
LINE
  5
42E
100
AcDbEntity
  8
RUNDUNGEN
100
AcDbLine
 62
7
  6
CONTINUOUS
 10
113.7656971673
 20
35.8515255246
 11
115.0991808952
 21
35.8491195476
  0
LINE
  5
42F
100
AcDbEntity
  8
RUNDUNGEN
100
AcDbLine
 62
7
  6
CONTINUOUS
 10
50.9314534652
 20
31.8280616341
 11
54.5095450703
 21
31.8234646049
  0
LINE
  5
430
100
AcDbEntity
  8
0
100
AcDbLine
 62
7
  6
CONTINUOUS
 10
81.0173288549
 20
35.8929133841
 11
79.9764923956
 21
35.8974051665
  0
LINE
  5
431
100
AcDbEntity
  8
0
100
AcDbLine
 62
7
  6
CONTINUOUS
 10
87.5814987971
 20
35.8477210382
 11
86.9357201632
 21
35.8516322163
  0
LINE
  5
432
100
AcDbEntity
  8
RUNDUNGEN
100
AcDbLine
 62
7
  6
CONTINUOUS
 10
54.5095450703
 20
31.8234646049
 11
56.9625559626
 21
31.8075287758
  0
LINE
  5
433
100
AcDbEntity
  8
RUNDUNGEN
100
AcDbLine
 62
7
  6
CONTINUOUS
 10
121.7661732599
 20
35.8229240908
 11
127.2565818081
 21
35.7827902863
  0
LINE
  5
434
100
AcDbEntity
  8
0
100
AcDbLine
 62
7
  6
CONTINUOUS
 10
104.9321553137
 20
36.2850535856
 11
104.0988218214
 21
36.2920748108
  0
LINE
  5
435
100
AcDbEntity
  8
0
100
AcDbLine
 62
7
  6
CONTINUOUS
 10
119.9321557905
 20
36.2850535856
 11
119.0988218214
 21
36.2920748108
  0
LINE
  5
436
100
AcDbEntity
  8
0
100
AcDbLine
 62
7
  6
CONTINUOUS
 10
110.4321548368
 20
36.0042045446
 11
109.765488806
 21
36.0112257698
  0
LINE
  5
437
100
AcDbEntity
  8
RUNDUNGEN
100
AcDbLine
 62
7
  6
CONTINUOUS
 10
127.2565818081
 20
35.7827902863
 11
132.4673346778
 21
35.7282415244
  0
LINE
  5
438
100
AcDbEntity
  8
RUNDUNGEN
100
AcDbLine
 62
7
  6
CONTINUOUS
 10
56.9625559626
 20
31.8075287758
 11
59.1833921026
 21
31.7825659275
  0
LINE
  5
439
100
AcDbEntity
  8
RUNDUNGEN
100
AcDbLine
 62
7
  6
CONTINUOUS
 10
132.4673346778
 20
35.7282415244
 11
137.4259637732
 21
35.6601709165
  0
LINE
  5
43A
100
AcDbEntity
  8
RUNDUNGEN
100
AcDbLine
 62
7
  6
CONTINUOUS
 10
59.1833921026
 20
31.7825659275
 11
61.1651574584
 21
31.7506599345
  0
LINE
  5
43B
100
AcDbEntity
  8
RUNDUNGEN
100
AcDbLine
 62
7
  6
CONTINUOUS
 10
137.4259637732
 20
35.6601709165
 11
142.0826867364
 21
35.5802442546
  0
LINE
  5
43C
100
AcDbEntity
  8
0
100
AcDbLine
 62
7
  6
CONTINUOUS
 10
81.8758734209
 20
35.8768410872
 11
81.0173288549
 21
35.8929133841
  0
LINE
  5
43D
100
AcDbEntity
  8
RUNDUNGEN
100
AcDbLine
 62
7
  6
CONTINUOUS
 10
142.0826867364
 20
35.5802442546
 11
146.4003138361
 21
35.4903146184
  0
LINE
  5
43E
100
AcDbEntity
  8
RUNDUNGEN
100
AcDbLine
 62
7
  6
CONTINUOUS
 10
61.1651574584
 20
31.7506599345
 11
62.9088870535
 21
31.7135337814
  0
LINE
  5
43F
100
AcDbEntity
  8
RUNDUNGEN
100
AcDbLine
 62
7
  6
CONTINUOUS
 10
146.4003138361
 20
35.4903146184
 11
149.0830896775
 21
35.4256211391
  0
LINE
  5
440
100
AcDbEntity
  8
0
100
AcDbLine
 62
7
  6
CONTINUOUS
 10
109.765488806
 20
36.0112257698
 11
109.265488806
 21
36.025268225
  0
LINE
  5
441
100
AcDbEntity
  8
RUNDUNGEN
100
AcDbLine
 62
7
  6
CONTINUOUS
 10
62.9088870535
 20
31.7135337814
 11
64.3981755598
 21
31.6732828329
  0
LINE
  5
442
100
AcDbEntity
  8
0
100
AcDbLine
 62
7
  6
CONTINUOUS
 10
82.2606176202
 20
35.8651650721
 11
81.8758734209
 21
35.8768410872
  0
LINE
  5
443
100
AcDbEntity
  8
0
100
AcDbLine
 62
7
  6
CONTINUOUS
 10
105.5988218214
 20
36.2639899101
 11
104.9321553137
 21
36.2850535856
  0
LINE
  5
444
100
AcDbEntity
  8
RUNDUNGEN
100
AcDbLine
 62
7
  6
CONTINUOUS
 10
64.3981755598
 20
31.6732828329
 11
65.2382155134
 21
31.6460795826
  0
LINE
  5
445
100
AcDbEntity
  8
0
100
AcDbLine
 62
7
  6
CONTINUOUS
 10
86.9357201632
 20
35.8516322163
 11
86.4722333479
 21
35.8671239132
  0
LINE
  5
446
100
AcDbEntity
  8
RUNDUNGEN
100
AcDbLine
 62
7
  6
CONTINUOUS
 10
65.2382155134
 20
31.6460795826
 11
65.555161836
 21
31.6347653238
  0
LINE
  5
447
100
AcDbEntity
  8
0
100
AcDbLine
 62
7
  6
CONTINUOUS
 10
106.0988218214
 20
36.2359050095
 11
105.5988218214
 21
36.2639899101
  0
LINE
  5
448
100
AcDbEntity
  8
0
100
AcDbLine
 62
7
  6
CONTINUOUS
 10
79.7482138021
 20
35.9984522914
 11
79.2162989719
 21
36.0288550882
  0
LINE
  5
449
100
AcDbEntity
  8
0
100
AcDbLine
 62
7
  6
CONTINUOUS
 10
86.4722333479
 20
35.8671239132
 11
86.155987785
 21
35.8851996446
  0
LINE
  5
44A
100
AcDbEntity
  8
0
100
AcDbLine
 62
7
  6
CONTINUOUS
 10
84.131807946
 20
36.0008962276
 11
83.2807439197
 21
36.0495407195
  0
LINE
  5
44B
100
AcDbEntity
  8
0
100
AcDbLine
 62
7
  6
CONTINUOUS
 10
88.835101263
 20
35.8310681328
 11
88.4095693616
 21
35.8553903723
  0
LINE
  5
44C
100
AcDbEntity
  8
0
100
AcDbLine
 62
7
  6
CONTINUOUS
 10
86.1450527751
 20
36.0068237669
 11
85.719520911
 21
36.0311460044
  0
LINE
  5
44D
100
AcDbEntity
  8
0
100
AcDbLine
 62
7
  6
CONTINUOUS
 10
109.265488806
 20
36.025268225
 11
108.9321548368
 21
36.0463319005
  0
LINE
  5
44E
100
AcDbEntity
  8
0
100
AcDbLine
 62
7
  6
CONTINUOUS
 10
106.4321553137
 20
35.9620771887
 11
106.2654883291
 21
35.9800203561
  0
LINE
  5
44F
100
AcDbEntity
  8
0
100
AcDbLine
 62
7
  6
CONTINUOUS
 10
106.2654883291
 20
36.214841334
 11
106.0988218214
 21
36.2359050095
  0
LINE
  5
450
100
AcDbEntity
  8
0
100
AcDbLine
 62
7
  6
CONTINUOUS
 10
108.9321548368
 20
36.0463319005
 11
108.765488806
 21
36.0744168012
  0
LINE
  5
451
100
AcDbEntity
  8
RUNDUNGEN
100
AcDbLine
 62
7
  6
CONTINUOUS
 10
54.6850707867
 20
34.6613158398
 11
55.7459831586
 21
34.7363216097
  0
LINE
  5
452
100
AcDbEntity
  8
RUNDUNGEN
100
AcDbLine
 62
7
  6
CONTINUOUS
 10
55.7459831586
 20
34.7363216097
 11
56.9716911734
 21
34.8135355674
  0
LINE
  5
453
100
AcDbEntity
  8
RUNDUNGEN
100
AcDbLine
 62
7
  6
CONTINUOUS
 10
56.9716911734
 20
34.8135355674
 11
58.3584268845
 21
34.8917853828
  0
LINE
  5
454
100
AcDbEntity
  8
RUNDUNGEN
100
AcDbLine
 62
7
  6
CONTINUOUS
 10
58.3584268845
 20
34.8917853828
 11
59.9045111983
 21
34.9702419489
  0
LINE
  5
455
100
AcDbEntity
  8
RUNDUNGEN
100
AcDbLine
 62
7
  6
CONTINUOUS
 10
59.9045111983
 20
34.9702419489
 11
61.6096831548
 21
35.0482743157
  0
LINE
  5
456
100
AcDbEntity
  8
RUNDUNGEN
100
AcDbLine
 62
7
  6
CONTINUOUS
 10
61.6096831548
 20
35.0482743157
 11
64.4660996536
 21
35.1633641733
  0
LINE
  5
457
100
AcDbEntity
  8
RUNDUNGEN
100
AcDbLine
 62
7
  6
CONTINUOUS
 10
64.4660996536
 20
35.1633641733
 11
67.6816801832
 21
35.2746809669
  0
LINE
  5
458
100
AcDbEntity
  8
RUNDUNGEN
100
AcDbLine
 62
7
  6
CONTINUOUS
 10
67.6816801832
 20
35.2746809669
 11
71.2564080505
 21
35.380716579
  0
LINE
  5
459
100
AcDbEntity
  8
RUNDUNGEN
100
AcDbLine
 62
7
  6
CONTINUOUS
 10
71.2564080505
 20
35.380716579
 11
73.8382370635
 21
35.447741756
  0
LINE
  5
45A
100
AcDbEntity
  8
0
100
AcDbLine
 62
7
  6
CONTINUOUS
 10
85.719520911
 20
36.0311460044
 11
84.131807946
 21
36.0008962276
  0
LINE
  5
45B
100
AcDbEntity
  8
0
100
AcDbLine
 62
7
  6
CONTINUOUS
 10
82.5602916372
 20
35.9709550364
 11
82.2554197088
 21
35.9651464878
  0
LINE
  5
45C
100
AcDbEntity
  8
0
100
AcDbLine
 62
7
  6
CONTINUOUS
 10
83.2807439197
 20
36.0495407195
 11
82.5590563585
 21
36.0357908238
  0
LINE
  5
45D
100
AcDbEntity
  8
0
100
AcDbLine
 62
7
  6
CONTINUOUS
 10
79.2162989719
 20
36.0288550882
 11
74.3088218214
 21
35.9353557645
  0
LINE
  5
45E
100
AcDbEntity
  8
0
100
AcDbLine
 62
7
  6
CONTINUOUS
 10
120.5988218214
 20
36.2710111353
 11
119.9321557905
 21
36.2850535856
  0
LINE
  5
45F
100
AcDbEntity
  8
RUNDUNGEN
100
AcDbLine
 62
7
  6
CONTINUOUS
 10
149.0830896775
 20
35.4256211391
 11
152.8112016052
 21
35.3225560952
  0
LINE
  5
460
100
AcDbEntity
  8
RUNDUNGEN
100
AcDbLine
 62
7
  6
CONTINUOUS
 10
152.8112016052
 20
35.3225560952
 11
156.1829166084
 21
35.2135297163
  0
LINE
  5
461
100
AcDbEntity
  8
RUNDUNGEN
100
AcDbLine
 62
7
  6
CONTINUOUS
 10
156.1829166084
 20
35.2135297163
 11
159.1986133801
 21
35.0999590743
  0
LINE
  5
462
100
AcDbEntity
  8
0
100
AcDbLine
 62
7
  6
CONTINUOUS
 10
121.2654878523
 20
36.2429262346
 11
120.5988218214
 21
36.2710111353
  0
LINE
  5
463
100
AcDbEntity
  8
RUNDUNGEN
100
AcDbLine
 62
7
  6
CONTINUOUS
 10
159.1986133801
 20
35.0999590743
 11
161.0118348196
 21
35.0224442021
  0
LINE
  5
464
100
AcDbEntity
  8
RUNDUNGEN
100
AcDbLine
 62
7
  6
CONTINUOUS
 10
161.0118348196
 20
35.0224442021
 11
162.667561046
 21
34.9440388326
  0
LINE
  5
465
100
AcDbEntity
  8
RUNDUNGEN
100
AcDbLine
 62
7
  6
CONTINUOUS
 10
162.667561046
 20
34.9440388326
 11
164.1657039738
 21
34.8652835424
  0
LINE
  5
466
100
AcDbEntity
  8
RUNDUNGEN
100
AcDbLine
 62
7
  6
CONTINUOUS
 10
164.1657039738
 20
34.8652835424
 11
165.5052386757
 21
34.7868481252
  0
LWPOLYLINE
  5
467
100
AcDbEntity
  8
RUNDUNGEN
100
AcDbPolyline
 62
7
  6
CONTINUOUS
 90
12
 70
0
 10
165.5052386757
 20
34.7868481252
 10
166.6828907332
 20
34.7096818155
 10
167.2093565581
 20
34.6719824519
 10
167.6934461923
 20
34.6351312129
 10
168.1339501105
 20
34.5994091246
 10
168.5302355218
 20
34.5650950438
 10
168.8803955651
 20
34.5326347102
 10
169.1834990863
 20
34.502462927
 10
169.4363046015
 20
34.4753501479
 10
169.6373074129
 20
34.4520360155
 10
169.7807827033
 20
34.4339663432
 10
169.8162262839
 20
34.4292237043
  0
LINE
  5
468
100
AcDbEntity
  8
0
100
AcDbLine
 62
7
  6
CONTINUOUS
 10
121.5988218214
 20
36.214841334
 11
121.2654878523
 21
36.2429262346
  0
LINE
  5
469
100
AcDbEntity
  8
0
100
AcDbLine
 62
7
  6
CONTINUOUS
 10
121.7654878523
 20
36.1797351885
 11
121.5988218214
 21
36.214841334
  0
LINE
  5
46A
100
AcDbEntity
  8
0
100
AcDbLine
 62
7
  6
CONTINUOUS
 10
100.0988218214
 20
35.6938852093
 11
100.0988218214
 21
36.2920748108
  0
LINE
  5
46B
100
AcDbEntity
  8
0
100
AcDbLine
 62
7
  6
CONTINUOUS
 10
104.0988218214
 20
35.6938852093
 11
104.0988218214
 21
36.2920748108
  0
LINE
  5
46C
100
AcDbEntity
  8
0
100
AcDbLine
 62
7
  6
CONTINUOUS
 10
104.9321553137
 20
35.6938852093
 11
104.9321553137
 21
36.2850535856
  0
LWPOLYLINE
  5
46D
100
AcDbEntity
  8
RUNDUNGEN
100
AcDbPolyline
 62
7
  6
CONTINUOUS
 90
12
 70
0
 10
52.1789063587
 20
34.4236504589
 10
52.1638646709
 20
34.4211768767
 10
52.1668810628
 20
34.4215600164
 10
52.2370404001
 20
34.4313320894
 10
52.3672041341
 20
34.4479929043
 10
52.5542568583
 20
34.4700522495
 10
52.7921948081
 20
34.4960054895
 10
53.079763921
 20
34.5251264834
 10
53.4139656133
 20
34.5566498603
 10
53.7939118452
 20
34.5901293462
 10
54.2177982308
 20
34.6251129499
 10
54.6850707867
 20
34.6613158398
  0
LINE
  5
46E
100
AcDbEntity
  8
0
100
AcDbLine
 62
7
  6
CONTINUOUS
 10
105.5988218214
 20
35.6938852093
 11
105.5988218214
 21
36.2639899101
  0
LINE
  5
46F
100
AcDbEntity
  8
0
100
AcDbLine
 62
7
  6
CONTINUOUS
 10
106.0988218214
 20
35.6938852093
 11
106.0988218214
 21
36.2359050095
  0
LINE
  5
470
100
AcDbEntity
  8
0
100
AcDbLine
 62
7
  6
CONTINUOUS
 10
106.2654883291
 20
35.6938852093
 11
106.2654883291
 21
36.214841334
  0
LINE
  5
471
100
AcDbEntity
  8
0
100
AcDbLine
 62
7
  6
CONTINUOUS
 10
106.4321553137
 20
35.6938852093
 11
106.4321553137
 21
35.9620771887
  0
LINE
  5
472
100
AcDbEntity
  8
0
100
AcDbLine
 62
7
  6
CONTINUOUS
 10
107.7654883291
 20
35.6938852093
 11
107.7654883291
 21
36.2920748108
  0
LINE
  5
473
100
AcDbEntity
  8
0
100
AcDbLine
 62
7
  6
CONTINUOUS
 10
108.765488806
 20
35.6938852093
 11
108.765488806
 21
36.2920748108
  0
LINE
  5
474
100
AcDbEntity
  8
0
100
AcDbLine
 62
7
  6
CONTINUOUS
 10
108.9321548368
 20
35.6938852093
 11
108.9321548368
 21
36.0463319005
  0
LINE
  5
475
100
AcDbEntity
  8
0
100
AcDbLine
 62
7
  6
CONTINUOUS
 10
109.265488806
 20
35.6938852093
 11
109.265488806
 21
36.025268225
  0
LINE
  5
476
100
AcDbEntity
  8
0
100
AcDbLine
 62
7
  6
CONTINUOUS
 10
109.765488806
 20
35.6938852093
 11
109.765488806
 21
36.0112257698
  0
LINE
  5
477
100
AcDbEntity
  8
0
100
AcDbLine
 62
7
  6
CONTINUOUS
 10
110.4321548368
 20
35.6938852093
 11
110.4321548368
 21
36.0042045446
  0
LINE
  5
478
100
AcDbEntity
  8
B-ACHSEN
100
AcDbLine
 62
2
  6
CENTER
 10
111.0188218214
 20
55.6938852093
 11
111.0188218214
 21
2.6938852093
  0
LINE
  5
479
100
AcDbEntity
  8
B-ACHSEN
100
AcDbLine
 62
2
  6
CENTER
 10
111.0188218214
 20
55.6938852093
 11
111.0188218214
 21
108.6938852093
  0
LINE
  5
47A
100
AcDbEntity
  8
0
100
AcDbLine
 62
7
  6
CONTINUOUS
 10
111.0988218214
 20
35.6938852093
 11
111.0988218214
 21
36.0042045446
  0
LINE
  5
47B
100
AcDbEntity
  8
0
100
AcDbLine
 62
7
  6
CONTINUOUS
 10
111.765488806
 20
35.6938852093
 11
111.765488806
 21
36.0112257698
  0
LINE
  5
47C
100
AcDbEntity
  8
B-ACHSEN
100
AcDbLine
 62
2
  6
CENTER
 10
111.0188218214
 20
55.6938852093
 11
58.0188218214
 21
55.6938852093
  0
LINE
  5
47D
100
AcDbEntity
  8
B-ACHSEN
100
AcDbLine
 62
2
  6
CENTER
 10
111.0188218214
 20
55.6938852093
 11
164.0188218214
 21
55.6938852093
  0
LINE
  5
47E
100
AcDbEntity
  8
0
100
AcDbLine
 62
7
  6
CONTINUOUS
 10
112.265488806
 20
35.6938852093
 11
112.265488806
 21
36.025268225
  0
LINE
  5
47F
100
AcDbEntity
  8
0
100
AcDbLine
 62
7
  6
CONTINUOUS
 10
112.5988218214
 20
35.6938852093
 11
112.5988218214
 21
36.0463319005
  0
LINE
  5
480
100
AcDbEntity
  8
0
100
AcDbLine
 62
7
  6
CONTINUOUS
 10
112.765488806
 20
35.6938852093
 11
112.765488806
 21
36.2920748108
  0
LINE
  5
481
100
AcDbEntity
  8
0
100
AcDbLine
 62
7
  6
CONTINUOUS
 10
113.765488806
 20
35.6938852093
 11
113.765488806
 21
36.2920748108
  0
LINE
  5
482
100
AcDbEntity
  8
0
100
AcDbLine
 62
7
  6
CONTINUOUS
 10
115.0988218214
 20
35.6938852093
 11
115.0988218214
 21
36.2920748108
  0
LINE
  5
483
100
AcDbEntity
  8
0
100
AcDbLine
 62
7
  6
CONTINUOUS
 10
119.0988218214
 20
35.6938852093
 11
119.0988218214
 21
36.2920748108
  0
LINE
  5
484
100
AcDbEntity
  8
0
100
AcDbLine
 62
7
  6
CONTINUOUS
 10
119.9321557905
 20
35.6938852093
 11
119.9321557905
 21
36.2850535856
  0
LINE
  5
485
100
AcDbEntity
  8
0
100
AcDbLine
 62
7
  6
CONTINUOUS
 10
120.5988218214
 20
35.6938852093
 11
120.5988218214
 21
36.2710111353
  0
LINE
  5
486
100
AcDbEntity
  8
0
100
AcDbLine
 62
7
  6
CONTINUOUS
 10
121.2654878523
 20
35.6938852093
 11
121.2654878523
 21
36.2429262346
  0
LINE
  5
487
100
AcDbEntity
  8
0
100
AcDbLine
 62
7
  6
CONTINUOUS
 10
121.5988218214
 20
35.6938852093
 11
121.5988218214
 21
36.214841334
  0
LINE
  5
488
100
AcDbEntity
  8
0
100
AcDbLine
 62
7
  6
CONTINUOUS
 10
121.7654878523
 20
35.6938852093
 11
121.7654878523
 21
36.1797351885
  0
LWPOLYLINE
  5
489
100
AcDbEntity
  8
RUNDUNGEN
100
AcDbPolyline
 62
7
  6
CONTINUOUS
 90
12
 70
0
 10
169.8586830954
 20
76.9641109113
 10
169.8737482823
 20
76.9665885967
 10
169.8708031815
 20
76.9662163576
 10
169.8007138887
 20
76.9564531609
 10
169.6706194319
 20
76.9397996562
 10
169.4836354626
 20
76.9177463906
 10
169.2457661893
 20
76.8917983013
 10
168.9582665966
 20
76.86268175
 10
168.6241361436
 20
76.8311623352
 10
168.2442631578
 20
76.7976863837
 10
167.8204517837
 20
76.7627059648
 10
167.3532565129
 20
76.7265059478
  0
LINE
  5
48A
100
AcDbEntity
  8
RUNDUNGEN
100
AcDbLine
 62
7
  6
CONTINUOUS
 10
167.3532565129
 20
76.7265059478
 11
166.2925048538
 21
76.6515051485
  0
LINE
  5
48B
100
AcDbEntity
  8
RUNDUNGEN
100
AcDbLine
 62
7
  6
CONTINUOUS
 10
166.2925048538
 20
76.6515051485
 11
165.0669655863
 21
76.5742952453
  0
LINE
  5
48C
100
AcDbEntity
  8
RUNDUNGEN
100
AcDbLine
 62
7
  6
CONTINUOUS
 10
165.0669655863
 20
76.5742952453
 11
163.6804061972
 21
76.4960486809
  0
LINE
  5
48D
100
AcDbEntity
  8
RUNDUNGEN
100
AcDbLine
 62
7
  6
CONTINUOUS
 10
163.6804061972
 20
76.4960486809
 11
162.1345071945
 21
76.4175947238
  0
LINE
  5
48E
100
AcDbEntity
  8
RUNDUNGEN
100
AcDbLine
 62
7
  6
CONTINUOUS
 10
162.1345071945
 20
76.4175947238
 11
160.4295307273
 21
76.3395644136
  0
LINE
  5
48F
100
AcDbEntity
  8
RUNDUNGEN
100
AcDbLine
 62
7
  6
CONTINUOUS
 10
160.4295307273
 20
76.3395644136
 11
157.5734296475
 21
76.224476715
  0
LINE
  5
490
100
AcDbEntity
  8
RUNDUNGEN
100
AcDbLine
 62
7
  6
CONTINUOUS
 10
157.5734296475
 20
76.224476715
 11
154.3581948634
 21
76.1131610444
  0
LINE
  5
491
100
AcDbEntity
  8
RUNDUNGEN
100
AcDbLine
 62
7
  6
CONTINUOUS
 10
154.3581948634
 20
76.1131610444
 11
150.7838488182
 21
76.007125483
  0
LINE
  5
492
100
AcDbEntity
  8
RUNDUNGEN
100
AcDbLine
 62
7
  6
CONTINUOUS
 10
150.7838488182
 20
76.007125483
 11
146.8523372981
 21
75.9078517445
  0
LINE
  5
493
100
AcDbEntity
  8
RUNDUNGEN
100
AcDbLine
 62
7
  6
CONTINUOUS
 10
146.8523372981
 20
75.9078517445
 11
142.5683528417
 21
75.8168389972
  0
LINE
  5
494
100
AcDbEntity
  8
RUNDUNGEN
100
AcDbLine
 62
7
  6
CONTINUOUS
 10
142.5683528417
 20
75.8168389972
 11
137.945257809
 21
75.7357089756
  0
LINE
  5
495
100
AcDbEntity
  8
RUNDUNGEN
100
AcDbLine
 62
7
  6
CONTINUOUS
 10
137.945257809
 20
75.7357089756
 11
133.0181002866
 21
75.6662828441
  0
LINE
  5
496
100
AcDbEntity
  8
RUNDUNGEN
100
AcDbLine
 62
7
  6
CONTINUOUS
 10
133.0181002866
 20
75.6662828441
 11
127.834900849
 21
75.6102234218
  0
LINE
  5
497
100
AcDbEntity
  8
RUNDUNGEN
100
AcDbLine
 62
7
  6
CONTINUOUS
 10
127.834900849
 20
75.6102234218
 11
122.4510546385
 21
75.5688874227
  0
LINE
  5
498
100
AcDbEntity
  8
RUNDUNGEN
100
AcDbLine
 62
7
  6
CONTINUOUS
 10
122.4510546385
 20
75.5688874227
 11
116.9279958664
 21
75.5432874367
  0
LINE
  5
499
100
AcDbEntity
  8
RUNDUNGEN
100
AcDbLine
 62
7
  6
CONTINUOUS
 10
116.9279958664
 20
75.5432874367
 11
111.3314168914
 21
75.5340600266
  0
LINE
  5
49A
100
AcDbEntity
  8
RUNDUNGEN
100
AcDbLine
 62
7
  6
CONTINUOUS
 10
111.3314168914
 20
75.5340600266
 11
105.7296816717
 21
75.541444121
  0
LINE
  5
49B
100
AcDbEntity
  8
RUNDUNGEN
100
AcDbLine
 62
7
  6
CONTINUOUS
 10
105.7296816717
 20
75.541444121
 11
100.1921093553
 21
75.5652651509
  0
LINE
  5
49C
100
AcDbEntity
  8
RUNDUNGEN
100
AcDbLine
 62
7
  6
CONTINUOUS
 10
100.1921093553
 20
75.5652651509
 11
94.7860832973
 21
75.6049354765
  0
LINE
  5
49D
100
AcDbEntity
  8
RUNDUNGEN
100
AcDbLine
 62
7
  6
CONTINUOUS
 10
94.7860832973
 20
75.6049354765
 11
89.5748698238
 21
75.659473788
  0
LINE
  5
49E
100
AcDbEntity
  8
RUNDUNGEN
100
AcDbLine
 62
7
  6
CONTINUOUS
 10
89.5748698238
 20
75.659473788
 11
84.6157362644
 21
75.7275369277
  0
LINE
  5
49F
100
AcDbEntity
  8
RUNDUNGEN
100
AcDbLine
 62
7
  6
CONTINUOUS
 10
84.6157362644
 20
75.7275369277
 11
79.9585040282
 21
75.8074588658
  0
LINE
  5
4A0
100
AcDbEntity
  8
RUNDUNGEN
100
AcDbLine
 62
7
  6
CONTINUOUS
 10
79.9585040282
 20
75.8074588658
 11
75.6404011279
 21
75.8973858337
  0
LINE
  5
4A1
100
AcDbEntity
  8
RUNDUNGEN
100
AcDbLine
 62
7
  6
CONTINUOUS
 10
75.6404011279
 20
75.8973858337
 11
71.67493563
 21
75.995683226
  0
LINE
  5
4A2
100
AcDbEntity
  8
RUNDUNGEN
100
AcDbLine
 62
7
  6
CONTINUOUS
 10
71.67493563
 20
75.995683226
 11
68.0651890824
 21
76.1008925085
  0
LINE
  5
4A3
100
AcDbEntity
  8
RUNDUNGEN
100
AcDbLine
 62
7
  6
CONTINUOUS
 10
68.0651890824
 20
76.1008925085
 11
64.8118968364
 21
76.2115933168
  0
LINE
  5
4A4
100
AcDbEntity
  8
RUNDUNGEN
100
AcDbLine
 62
7
  6
CONTINUOUS
 10
64.8118968364
 20
76.2115933168
 11
61.9143315181
 21
76.3263577948
  0
LINE
  5
4A5
100
AcDbEntity
  8
RUNDUNGEN
100
AcDbLine
 62
7
  6
CONTINUOUS
 10
61.9143315181
 20
76.3263577948
 11
60.1796808544
 21
76.4043823642
  0
LINE
  5
4A6
100
AcDbEntity
  8
RUNDUNGEN
100
AcDbLine
 62
7
  6
CONTINUOUS
 10
60.1796808544
 20
76.4043823642
 11
58.6025382961
 21
76.4830371309
  0
LINE
  5
4A7
100
AcDbEntity
  8
RUNDUNGEN
100
AcDbLine
 62
7
  6
CONTINUOUS
 10
58.6025382961
 20
76.4830371309
 11
57.1833330968
 21
76.5617292892
  0
LINE
  5
4A8
100
AcDbEntity
  8
RUNDUNGEN
100
AcDbLine
 62
7
  6
CONTINUOUS
 10
57.1833330968
 20
76.5617292892
 11
55.9239633783
 21
76.6396780357
  0
LWPOLYLINE
  5
4A9
100
AcDbEntity
  8
RUNDUNGEN
100
AcDbPolyline
 62
7
  6
CONTINUOUS
 90
11
 70
0
 10
55.9239633783
 20
76.6396780357
 10
54.8289980589
 20
76.7157354916
 10
54.3448303416
 20
76.7525894643
 10
53.9042510427
 20
76.788314594
 10
53.507891554
 20
76.8226320423
 10
53.1576597175
 20
76.8550961771
 10
52.8544852531
 20
76.8852722656
 10
52.6016100486
 20
76.9123900368
 10
52.4005379431
 20
76.9357099914
 10
52.2569924019
 20
76.9537867335
 10
52.2215240151
 20
76.9585322472
  0
LINE
  5
4AA
100
AcDbEntity
  8
RUNDUNGEN
100
AcDbLine
 62
7
  6
CONTINUOUS
 10
50.9314534652
 20
79.5597087845
 11
50.6072489304
 21
79.5465476316
  0
LINE
  5
4AB
100
AcDbEntity
  8
RUNDUNGEN
100
AcDbLine
 62
7
  6
CONTINUOUS
 10
65.5559080108
 20
79.7530073114
 11
65.0296938654
 21
79.7345798815
  0
LINE
  5
4AC
100
AcDbEntity
  8
RUNDUNGEN
100
AcDbLine
 62
7
  6
CONTINUOUS
 10
65.0296938654
 20
79.7345798815
 11
64.1113521787
 21
79.7060091424
  0
LINE
  5
4AD
100
AcDbEntity
  8
RUNDUNGEN
100
AcDbLine
 62
7
  6
CONTINUOUS
 10
64.1113521787
 20
79.7060091424
 11
62.4986811609
 21
79.6646316543
  0
LINE
  5
4AE
100
AcDbEntity
  8
RUNDUNGEN
100
AcDbLine
 62
7
  6
CONTINUOUS
 10
62.4986811609
 20
79.6646316543
 11
60.60499329
 21
79.6270764339
  0
LINE
  5
4AF
100
AcDbEntity
  8
RUNDUNGEN
100
AcDbLine
 62
7
  6
CONTINUOUS
 10
60.60499329
 20
79.6270764339
 11
58.4538150388
 21
79.5958270278
  0
LINE
  5
4B0
100
AcDbEntity
  8
RUNDUNGEN
100
AcDbLine
 62
7
  6
CONTINUOUS
 10
58.4538150388
 20
79.5958270278
 11
56.0843731279
 21
79.5731917026
  0
LINE
  5
4B1
100
AcDbEntity
  8
RUNDUNGEN
100
AcDbLine
 62
7
  6
CONTINUOUS
 10
56.0843731279
 20
79.5731917026
 11
53.5515109524
 21
79.5611954147
  0
LINE
  5
4B2
100
AcDbEntity
  8
RUNDUNGEN
100
AcDbLine
 62
7
  6
CONTINUOUS
 10
50.9314534652
 20
79.5597087845
 11
53.5515109524
 21
79.5611954147
  0
LINE
  5
4B3
100
AcDbEntity
  8
RUNDUNGEN
100
AcDbLine
 62
7
  6
CONTINUOUS
 10
171.1061901776
 20
79.5597087845
 11
167.5280985725
 21
79.5643058138
  0
LINE
  5
4B4
100
AcDbEntity
  8
RUNDUNGEN
100
AcDbLine
 62
7
  6
CONTINUOUS
 10
167.5280985725
 20
79.5643058138
 11
165.0750876802
 21
79.5802416429
  0
LINE
  5
4B5
100
AcDbEntity
  8
RUNDUNGEN
100
AcDbLine
 62
7
  6
CONTINUOUS
 10
165.0750876802
 20
79.5802416429
 11
162.8542515402
 21
79.6052044912
  0
LINE
  5
4B6
100
AcDbEntity
  8
RUNDUNGEN
100
AcDbLine
 62
7
  6
CONTINUOUS
 10
162.8542515402
 20
79.6052044912
 11
160.8724861844
 21
79.6371104841
  0
LINE
  5
4B7
100
AcDbEntity
  8
RUNDUNGEN
100
AcDbLine
 62
7
  6
CONTINUOUS
 10
160.8724861844
 20
79.6371104841
 11
159.1287565893
 21
79.6742366372
  0
LINE
  5
4B8
100
AcDbEntity
  8
RUNDUNGEN
100
AcDbLine
 62
7
  6
CONTINUOUS
 10
159.1287565893
 20
79.6742366372
 11
157.639468083
 21
79.7144875858
  0
LINE
  5
4B9
100
AcDbEntity
  8
RUNDUNGEN
100
AcDbLine
 62
7
  6
CONTINUOUS
 10
157.639468083
 20
79.7144875858
 11
156.7994281294
 21
79.741690836
  0
LINE
  5
4BA
100
AcDbEntity
  8
RUNDUNGEN
100
AcDbLine
 62
7
  6
CONTINUOUS
 10
156.7994281294
 20
79.741690836
 11
156.4824818068
 21
79.7530050948
  0
LINE
  5
4BB
100
AcDbEntity
  8
RUNDUNGEN
100
AcDbLine
 62
7
  6
CONTINUOUS
 10
171.4147824065
 20
79.5477855804
 11
171.1061901776
 21
79.559707847
  0
LINE
  5
4BC
100
AcDbEntity
  8
RUNDUNGEN
100
AcDbLine
 62
7
  6
CONTINUOUS
 10
65.8942074993
 20
79.7847055053
 11
65.5560758538
 21
79.7530134898
  0
LWPOLYLINE
  5
4BD
100
AcDbEntity
  8
RUNDUNGEN
100
AcDbPolyline
 62
7
  6
CONTINUOUS
 90
21
 70
0
 10
27.169446313
 20
77.6791786072
 10
26.9810203927
 20
77.6618454949
 10
26.8039298978
 20
77.6421116846
 10
26.6222788721
 20
77.6172558952
 10
26.4204918362
 20
77.5827021368
 10
26.1971562037
 20
77.534292795
 10
25.9438257113
 20
77.4646704295
 10
25.6715147133
 20
77.370510292
 10
25.3902385891
 20
77.2500489583
 10
25.1044690433
 20
77.1006993552
 10
24.8228251895
 20
76.9231630164
 10
24.5471839556
 20
76.7151409566
 10
24.281687147
 20
76.4757120136
 10
24.0311076546
 20
76.2048750828
 10
23.8002759799
 20
75.9032894701
 10
23.5940605287
 20
75.572401845
 10
23.4172757767
 20
75.2145921513
 10
23.2742130643
 20
74.8323896793
 10
23.1690108959
 20
74.4291642997
 10
23.105452608
 20
74.0090271373
 10
23.0865834526
 20
73.6206347701
  0
LINE
  5
4BE
100
AcDbEntity
  8
RUNDUNGEN
100
AcDbLine
 62
7
  6
CONTINUOUS
 10
27.169446313
 20
77.6791786072
 11
50.6137861045
 21
79.5470747632
  0
LINE
  5
4BF
100
AcDbEntity
  8
RUNDUNGEN
100
AcDbLine
 62
7
  6
CONTINUOUS
 10
156.4815658344
 20
79.7530126374
 11
156.1434150125
 21
79.7847079173
  0
LWPOLYLINE
  5
4C0
100
AcDbEntity
  8
RUNDUNGEN
100
AcDbPolyline
 62
7
  6
CONTINUOUS
 90
7
 70
0
 10
156.1434150125
 20
79.7847079173
 10
155.712669219
 20
79.8827455175
 10
155.3010003411
 20
80.0429723936
 10
154.9173336451
 20
80.2619094061
 10
154.5699836973
 20
80.5348063928
 10
154.2664773986
 20
80.8557446437
 10
154.0446079615
 20
81.1731115852
  0
LWPOLYLINE
  5
4C1
100
AcDbEntity
  8
RUNDUNGEN
100
AcDbPolyline
 62
7
  6
CONTINUOUS
 90
7
 70
0
 10
154.0134321434
 20
30.170075181
 10
154.266521149
 20
30.5320799026
 10
154.5700281804
 20
30.8530047179
 10
154.9173758932
 20
31.1258892749
 10
155.3010376711
 20
31.3448154312
 10
155.7126993304
 20
31.5050335385
 10
156.1434361435
 20
31.6030649133
  0
LINE
  5
4C2
100
AcDbEntity
  8
RUNDUNGEN
100
AcDbLine
 62
7
  6
CONTINUOUS
 10
154.017118538
 20
81.2114571838
 11
154.0158995941
 21
81.2135110492
  0
LINE
  5
4C3
100
AcDbEntity
  8
RUNDUNGEN
100
AcDbLine
 62
7
  6
CONTINUOUS
 10
198.9510602425
 20
37.7671306575
 11
198.9510602425
 21
73.620639761
  0
LWPOLYLINE
  5
4C4
100
AcDbEntity
  8
RUNDUNGEN
100
AcDbPolyline
 62
7
  6
CONTINUOUS
 90
22
 70
0
 10
198.9510601869
 20
73.6206280621
 10
198.9221767929
 20
74.1008573147
 10
198.8453057406
 20
74.5351036742
 10
198.7279008626
 20
74.9391471594
 10
198.5744792276
 20
75.316513451
 10
198.3895298829
 20
75.6663253613
 10
198.175013412
 20
75.9907540693
 10
197.9363631643
 20
76.2858638752
 10
197.6782707857
 20
76.5502740906
 10
197.4057295744
 20
76.7830822341
 10
197.1233895067
 20
76.9843821502
 10
196.8363759113
 20
77.154543417
 10
196.5471579223
 20
77.2958411382
 10
196.2657583792
 20
77.4076691263
 10
195.9982034517
 20
77.4928904718
 10
195.7536928764
 20
77.5544718738
 10
195.5453384516
 20
77.5959278613
 10
195.3589295101
 20
77.625552002
 10
195.1872557035
 20
77.6476703643
 10
195.0190858546
 20
77.6655646548
 10
194.8414230856
 20
77.6813970999
 10
171.4238575383
 20
79.5470747632
  0
CIRCLE
  5
4C5
100
AcDbEntity
  8
RUNDUNGEN
100
AcDbCircle
 62
7
  6
CONTINUOUS
 10
111.0188218214
 20
202.0244826562
 40
45.0
  0
ARC
  5
4C6
100
AcDbEntity
  8
RUNDUNGEN
100
AcDbCircle
 62
7
  6
CONTINUOUS
 10
49.0188218214
 20
127.2643997483
 40
12.0
100
AcDbArc
 50
0.0
 51
82.9544863088
  0
ARC
  5
4C7
100
AcDbEntity
  8
RUNDUNGEN
100
AcDbCircle
 62
7
  6
CONTINUOUS
 10
173.0188218214
 20
127.2643997483
 40
12.0
100
AcDbArc
 50
97.0455136912
 51
180.0
  0
ARC
  5
4C8
100
AcDbEntity
  8
RUNDUNGEN
100
AcDbCircle
 62
7
  6
CONTINUOUS
 10
33.0865834004
 20
202.0244826562
 40
10.0
100
AcDbArc
 50
157.5
 51
202.5
  0
ARC
  5
4C9
100
AcDbEntity
  8
RUNDUNGEN
100
AcDbCircle
 62
7
  6
CONTINUOUS
 10
55.9124075608
 20
257.1308969168
 40
10.0
100
AcDbArc
 50
112.5
 51
157.5
  0
ARC
  5
4CA
100
AcDbEntity
  8
RUNDUNGEN
100
AcDbCircle
 62
7
  6
CONTINUOUS
 10
111.0188218214
 20
279.9567210773
 40
10.0
100
AcDbArc
 50
67.5
 51
112.5
  0
ARC
  5
4CB
100
AcDbEntity
  8
RUNDUNGEN
100
AcDbCircle
 62
7
  6
CONTINUOUS
 10
166.125236082
 20
257.1308969168
 40
10.0
100
AcDbArc
 50
22.5
 51
67.5
  0
ARC
  5
4CC
100
AcDbEntity
  8
RUNDUNGEN
100
AcDbCircle
 62
7
  6
CONTINUOUS
 10
188.9510602425
 20
202.0244826562
 40
10.0
100
AcDbArc
 50
337.5
 51
22.5
  0
ARC
  5
4CD
100
AcDbEntity
  8
RUNDUNGEN
100
AcDbCircle
 62
7
  6
CONTINUOUS
 10
50.9815050456
 20
143.1435645441
 40
4.0
100
AcDbArc
 50
202.5
 51
262.9539116534
  0
ARC
  5
4CE
100
AcDbEntity
  8
RUNDUNGEN
100
AcDbCircle
 62
7
  6
CONTINUOUS
 10
171.0561385972
 20
143.1435645441
 40
4.0
100
AcDbArc
 50
277.0460883466
 51
337.5
  0
ARC
  5
4CF
100
AcDbEntity
  8
RUNDUNGEN
100
AcDbCircle
 62
7
  6
CONTINUOUS
 10
171.1061901776
 20
143.2643997483
 40
4.0
100
AcDbArc
 50
270.0
 51
337.5
  0
ARC
  5
4D0
100
AcDbEntity
  8
RUNDUNGEN
100
AcDbCircle
 62
7
  6
CONTINUOUS
 10
50.9314534652
 20
143.2643997483
 40
4.0
100
AcDbArc
 50
202.5
 51
270.0
  0
ARC
  5
4D1
100
AcDbEntity
  8
B-ACHSEN
100
AcDbCircle
 62
7
  6
CONTINUOUS
 10
255.3771295736
 20
139.1475992503
 40
10.0
100
AcDbArc
 50
99.0
 51
180.0
  0
ARC
  5
4D2
100
AcDbEntity
  8
B-ACHSEN
100
AcDbCircle
 62
7
  6
CONTINUOUS
 10
335.3771295736
 20
139.1475992503
 40
10.0
100
AcDbArc
 50
0.0
 51
81.0
  0
ARC
  5
4D3
100
AcDbEntity
  8
RUNDUNGEN
100
AcDbCircle
 62
7
  6
CONTINUOUS
 10
280.2201186697
 20
285.9567210512
 40
4.0
100
AcDbArc
 50
90.000000018
 51
178.109938784
  0
ARC
  5
4D4
100
AcDbEntity
  8
RUNDUNGEN
100
AcDbCircle
 62
7
  6
CONTINUOUS
 10
310.5341404775
 20
285.9567210512
 40
4.0
100
AcDbArc
 50
1.890061216
 51
89.999999982
  0
ARC
  5
4D5
100
AcDbEntity
  8
RUNDUNGEN
100
AcDbCircle
 62
7
  6
CONTINUOUS
 10
315.2429531488
 20
143.2643997483
 40
4.0
100
AcDbArc
 50
270.0
 51
1.890061216
  0
ARC
  5
4D6
100
AcDbEntity
  8
RUNDUNGEN
100
AcDbCircle
 62
7
  6
CONTINUOUS
 10
275.5113059949
 20
143.2643996428
 40
3.9999999736
100
AcDbArc
 50
178.109938784
 51
270.0000000499
  0
ARC
  5
4D7
100
AcDbEntity
  8
RUNDUNGEN
100
AcDbCircle
 62
7
  6
CONTINUOUS
 10
268.983117872
 20
154.4645836764
 40
2.9999980143
100
AcDbArc
 50
279.0000000221
 51
336.8288853822
  0
ARC
  5
4D8
100
AcDbEntity
  8
RUNDUNGEN
100
AcDbCircle
 62
7
  6
CONTINUOUS
 10
321.7711412762
 20
154.4645836763
 40
2.9999980143
100
AcDbArc
 50
203.1711130048
 51
260.9999999773
  0
ARC
  5
4D9
100
AcDbEntity
  8
RUNDUNGEN
100
AcDbCircle
 62
7
  6
CONTINUOUS
 10
111.0188218214
 20
55.6938852093
 40
50.0
100
AcDbArc
 50
210.6330276603
 51
329.3669723397
  0
ARC
  5
4DA
100
AcDbEntity
  8
B-ACHSEN
100
AcDbCircle
 62
7
  6
CONTINUOUS
 10
111.0188218214
 20
55.6938852093
 40
50.0
100
AcDbArc
 50
210.6330276603
 51
329.3669723397
  0
ARC
  5
4DB
100
AcDbEntity
  8
RUNDUNGEN
100
AcDbCircle
 62
7
  6
CONTINUOUS
 10
111.0188218214
 20
55.6938852093
 40
50.0
100
AcDbArc
 50
30.6330276603
 51
149.3669723397
  0
ARC
  5
4DC
100
AcDbEntity
  8
B-ACHSEN
100
AcDbCircle
 62
7
  6
CONTINUOUS
 10
111.0188218214
 20
55.6938852093
 40
50.0
100
AcDbArc
 50
30.6330276603
 51
149.3669723397
  0
CIRCLE
  5
4DD
100
AcDbEntity
  8
DEFAULT_2
100
AcDbCircle
 62
8
  6
HIDDEN
 10
111.0188218214
 20
55.6938852093
 40
19.5
  0
ENDSEC
  0
SECTION
  2
OBJECTS
  0
DICTIONARY
  5
C
100
AcDbDictionary
280
0
281
1
  3
ACAD_GROUP
350
D
  3
ACAD_MLINESTYLE
350
17
  3
ACAD_LAYOUT
350
1A
  3
ACAD_PLOTSETTINGS
350
19
  3
ACAD_PLOTSTYLENAME
350
E
  0
DICTIONARY
  5
D
102
{ACAD_REACTORS
330
C
102
}
100
AcDbDictionary
280
0
281
1
  0
ACDBDICTIONARYWDFLT
  5
E
102
{ACAD_REACTORS
330
C
102
}
100
AcDbDictionary
281
1
  3
Normal
350
F
100
AcDbDictionaryWithDefault
340
F
  0
DICTIONARY
  5
17
102
{ACAD_REACTORS
330
C
102
}
100
AcDbDictionary
280
0
281
1
  3
Standard
350
18
  0
DICTIONARY
  5
19
102
{ACAD_REACTORS
330
C
102
}
100
AcDbDictionary
281
1
  0
DICTIONARY
  5
1A
102
{ACAD_REACTORS
330
C
102
}
100
AcDbDictionary
281
1
  3
Model
350
4DE
  3
Layout1
350
4DF
  0
ACDBPLACEHOLDER
  5
F
102
{ACAD_REACTORS
330
E
102
}
  0
MLINESTYLE
  5
18
102
{ACAD_REACTORS
330
17
102
}
100
AcDbMlineStyle
  2
STANDARD
 70
0
  3

 62
256
 51
90.0
 52
90.0
 71
2
 49
0.5
 62
256
  6
BYLAYER
 49
-0.5
 62
256
  6
BYLAYER
  0
LAYOUT
  5
4DE
102
{ACAD_REACTORS
330
1A
102
}
100
AcDbPlotSettings
  1

  2
none_device
  4
ISO_A3_(420.00_x_297.00_MM)
  6

 40
0.0
 41
0.0
 42
0.0
 43
0.0
 44
420.0
 45
297.0
 46
0.0
 47
0.0
 48
0.0
 49
0.0
140
0.0
141
0.0
142
1.0
143
1.0
 70
1024
 72
1
 73
0
 74
0
  7

 75
0
147
1.0
148
0.0
149
0.0
100
AcDbLayout
  1
Model
 70
0
 71
0
 10
0.0
 20
0.0
 11
420.0
 21
297.0
 12
0.0
 22
0.0
 32
0.0
 14
0.0
 24
0.0
 34
0.0
 15
0.0
 25
0.0
 35
0.0
146
0.0
 13
0.0
 23
0.0
 33
0.0
 16
1.0
 26
0.0
 36
0.0
 17
0.0
 27
1.0
 37
0.0
 76
0
330
208
345
0
346
0
  0
LAYOUT
  5
4DF
102
{ACAD_REACTORS
330
1A
102
}
100
AcDbPlotSettings
  1

  2
none_device
  4
ISO_A3_(420.00_x_297.00_MM)
  6

 40
0.0
 41
0.0
 42
0.0
 43
0.0
 44
420.0
 45
297.0
 46
0.0
 47
0.0
 48
0.0
 49
0.0
140
0.0
141
0.0
142
1.0
143
1.0
 70
0
 72
1
 73
0
 74
0
  7

 75
0
147
1.0
148
0.0
149
0.0
100
AcDbLayout
  1
Layout1
 70
0
 71
1
 10
0.0
 20
0.0
 11
420.0
 21
297.0
 12
0.0
 22
0.0
 32
0.0
 14
0.0
 24
0.0
 34
0.0
 15
0.0
 25
0.0
 35
0.0
146
0.0
 13
0.0
 23
0.0
 33
0.0
 16
1.0
 26
0.0
 36
0.0
 17
0.0
 27
1.0
 37
0.0
 76
0
330
209
345
0
346
0
  0
ENDSEC
  0
EOF
