999
DXF file: rm-m14-001-m31736-dx1.dxf
999
Pro/ENGINEER 2011490 by Parametric Technology Corporation
  0
SECTION
  2
HEADER
  9
$ACADVER
  1
AC1021
  9
$DWGCODEPAGE
  3
ANSI_1252
  9
$EXTMAX
 10
420.0
 20
297.0
 30
0.0
  9
$EXTMIN
 10
0.0
 20
0.0
 30
0.0
  9
$LIMMIN
 10
0.0
 20
0.0
  9
$LIMMAX
 10
420.0
 20
297.0
  9
$VIEWCTR
 10
210.0
 20
148.5
  9
$VIEWSIZE
 40
297.0
  9
$CLAYER
  8
0
  9
$LTSCALE
 40
23.1
  9
$CELTYPE
  6
BYLAYER
  9
$DIMSCALE
 40
1.0
  9
$DIMASZ
 40
3.5
  9
$DIMEXO
 40
2.625
  9
$DIMDLI
 40
15.96
  9
$DIMEXE
 40
7.56
  9
$DIMCEN
 40
3.78
  9
$DIMLFAC
 40
1.0
  9
$DIMBLK
  1
_FILLED
  9
$DIMTXT
 40
3.5
  9
$DIMTOL
 70
1
  9
$DIMLIM
 70
0
  9
$DIMTFAC
 40
1.0
  9
$DIMTP
 40
0.005
  9
$DIMTM
 40
0.005
  9
$PDMODE
 70
3
  9
$PDSIZE
 40
0.3125
  9
$HANDSEED
  5
423
  9
$TILEMODE
 70
1
  9
$MEASUREMENT
 70
1
  9
$INSUNITS
 70
4
  0
ENDSEC
  0
SECTION
  2
CLASSES
  0
CLASS
  1
ACDBDICTIONARYWDFLT
  2
AcDbDictionaryWithDefault
  3
AutoCAD 2000
 90
0
 91
1
280
0
281
0
  0
CLASS
  1
ACDBPLACEHOLDER
  2
AcDbPlaceHolder
  3
AutoCAD 2000
 90
0
 91
1
280
0
281
0
  0
CLASS
  1
LAYOUT
  2
AcDbLayout
  3
AutoCAD 2000
 90
0
 91
0
280
0
281
0
  0
ENDSEC
  0
SECTION
  2
TABLES
  0
TABLE
  2
VPORT
  5
8
100
AcDbSymbolTable
 70
2
  0
VPORT
  5
1F4
100
AcDbSymbolTableRecord
100
AcDbViewportTableRecord
  2
*ACTIVE
 70
0
 10
0.0
 20
0.0
 11
1.0
 21
1.0
 12
210.0
 22
148.5
 13
0.0
 23
0.0
 14
1.0
 24
1.0
 15
0.0
 25
0.0
 16
0.0
 26
0.0
 36
1.0
 17
0.0
 27
0.0
 37
0.0
 40
297.0
 41
1.4141414141
 42
50.0
 43
0.0
 44
0.0
 50
0.0
 51
0.0
 71
0
 72
100
 73
1
 74
1
 75
0
 76
0
 77
0
 78
0
  0
ENDTAB
  0
TABLE
  2
LTYPE
  5
5
100
AcDbSymbolTable
 70
6
  0
LTYPE
  5
14
100
AcDbSymbolTableRecord
100
AcDbLinetypeTableRecord
  2
BYBLOCK
 70
0
  3

 72
65
 73
0
 40
0.0
  0
LTYPE
  5
15
100
AcDbSymbolTableRecord
100
AcDbLinetypeTableRecord
  2
BYLAYER
 70
0
  3

 72
65
 73
0
 40
0.0
  0
LTYPE
  5
16
100
AcDbSymbolTableRecord
100
AcDbLinetypeTableRecord
  2
CONTINUOUS
 70
64
  3
Solid line
 72
65
 73
0
 40
0.0
  0
LTYPE
  5
1F5
100
AcDbSymbolTableRecord
100
AcDbLinetypeTableRecord
  2
CENTER
 70
64
  3
____ _ ____ _ ____ _ ____ _ ____ _ ____ _ ____
 72
65
 73
4
 40
0.6
 49
0.375
 74
0
 49
-0.075
 74
0
 49
0.075
 74
0
 49
-0.075
 74
0
  0
LTYPE
  5
1F6
100
AcDbSymbolTableRecord
100
AcDbLinetypeTableRecord
  2
HIDDEN
 70
64
  3
- - - - - - - - - - - - - - - - - - - -
 72
65
 73
2
 40
0.2
 49
0.1
 74
0
 49
-0.1
 74
0
  0
LTYPE
  5
1F7
100
AcDbSymbolTableRecord
100
AcDbLinetypeTableRecord
  2
PHANTOM
 70
64
  3
_____ _ _ _____ _ _ _____ _ _ _____
 72
65
 73
6
 40
0.8
 49
0.45
 74
0
 49
-0.05
 74
0
 49
0.1
 74
0
 49
-0.05
 74
0
 49
0.1
 74
0
 49
-0.05
 74
0
  0
LTYPE
  5
1F8
100
AcDbSymbolTableRecord
100
AcDbLinetypeTableRecord
  2
DOT
 70
64
  3
. . . . . . . . . . . . . . . . . . . .
 72
65
 73
2
 40
0.2
 49
0.1
 74
0
 49
-0.1
 74
0
  0
LTYPE
  5
1F9
100
AcDbSymbolTableRecord
100
AcDbLinetypeTableRecord
  2
DASHED
 70
64
  3
- - - - - - - - - - - - - - - - - - - -
 72
65
 73
2
 40
0.2
 49
0.1
 74
0
 49
-0.1
 74
0
  0
ENDTAB
  0
TABLE
  2
LAYER
  5
2
100
AcDbSymbolTable
 70
36
  0
LAYER
  5
10
100
AcDbSymbolTableRecord
100
AcDbLayerTableRecord
  2
0
 70
0
 62
7
  6
CONTINUOUS
370
-3
390
F
  0
LAYER
  5
1FA
100
AcDbSymbolTableRecord
100
AcDbLayerTableRecord
  2
DEFAULT_1
 70
0
 62
7
  6
CENTER
370
-3
390
F
  0
LAYER
  5
1FB
100
AcDbSymbolTableRecord
100
AcDbLayerTableRecord
  2
DEFAULT_2
 70
0
 62
8
  6
HIDDEN
370
-3
390
F
  0
LAYER
  5
1FC
100
AcDbSymbolTableRecord
100
AcDbLayerTableRecord
  2
DEFAULT_3
 70
0
 62
7
  6
PHANTOM
370
-3
390
F
  0
LAYER
  5
1FD
100
AcDbSymbolTableRecord
100
AcDbLayerTableRecord
  2
B-ACHSEN
 70
0
 62
7
  6
CONTINUOUS
370
-3
390
F
  0
LAYER
  5
1FE
100
AcDbSymbolTableRecord
100
AcDbLayerTableRecord
  2
B-EBENEN
 70
0
 62
7
  6
CONTINUOUS
370
-3
390
F
  0
LAYER
  5
1FF
100
AcDbSymbolTableRecord
100
AcDbLayerTableRecord
  2
B-KOORSYS
 70
0
 62
7
  6
CONTINUOUS
370
-3
390
F
  0
LAYER
  5
200
100
AcDbSymbolTableRecord
100
AcDbLayerTableRecord
  2
B-PUNKTE
 70
0
 62
7
  6
CONTINUOUS
370
-3
390
F
  0
LAYER
  5
201
100
AcDbSymbolTableRecord
100
AcDbLayerTableRecord
  2
BEMASSUNG
 70
0
 62
7
  6
CONTINUOUS
370
-3
390
F
  0
LAYER
  5
202
100
AcDbSymbolTableRecord
100
AcDbLayerTableRecord
  2
BOHRUNGEN
 70
0
 62
7
  6
CONTINUOUS
370
-3
390
F
  0
LAYER
  5
203
100
AcDbSymbolTableRecord
100
AcDbLayerTableRecord
  2
NOTIZEN
 70
0
 62
7
  6
CONTINUOUS
370
-3
390
F
  0
LAYER
  5
204
100
AcDbSymbolTableRecord
100
AcDbLayerTableRecord
  2
RUNDUNGEN
 70
0
 62
7
  6
CONTINUOUS
370
-3
390
F
  0
LAYER
  5
205
100
AcDbSymbolTableRecord
100
AcDbLayerTableRecord
  2
VERBUNDFLAECHEN
 70
0
 62
7
  6
CONTINUOUS
370
-3
390
F
  0
ENDTAB
  0
TABLE
  2
STYLE
  5
3
100
AcDbSymbolTable
 70
1
  0
STYLE
  5
11
100
AcDbSymbolTableRecord
100
AcDbTextStyleTableRecord
  2
STANDARD
 70
0
 40
0.0
 41
0.7
 50
0.0
 71
0
 42
0.2
  3
txt
  4

  0
STYLE
  5
206
100
AcDbSymbolTableRecord
100
AcDbTextStyleTableRecord
  2
TEXTSTYLE_1
 70
0
 40
0.0
 41
0.8
 50
0.0
 71
0
 42
0.2
  3
gdt
  4

  0
ENDTAB
  0
TABLE
  2
VIEW
  5
6
100
AcDbSymbolTable
 70
0
  0
ENDTAB
  0
TABLE
  2
UCS
  5
7
100
AcDbSymbolTable
 70
0
  0
ENDTAB
  0
TABLE
  2
APPID
  5
9
100
AcDbSymbolTable
 70
1
  0
APPID
  5
207
100
AcDbSymbolTableRecord
100
AcDbRegAppTableRecord
  2
ACAD
 70
0
  0
ENDTAB
  0
TABLE
  2
BLOCK_RECORD
  5
1
100
AcDbSymbolTable
 70
0
  0
BLOCK_RECORD
  5
208
100
AcDbSymbolTableRecord
100
AcDbBlockTableRecord
  2
*Model_Space
  0
BLOCK_RECORD
  5
209
100
AcDbSymbolTableRecord
100
AcDbBlockTableRecord
  2
*Paper_Space
  0
ENDTAB
  0
TABLE
  2
DIMSTYLE
  5
A
100
AcDbSymbolTable
 70
1
100
AcDbDimStyleTable
 71
0
  0
DIMSTYLE
105
20A
100
AcDbSymbolTableRecord
100
AcDbDimStyleTableRecord
  2
STANDARD
 70
0
  3

  4

 40
1.0
 41
3.5
 42
0.0625
 43
0.38
 44
0.18
 45
0.0
 46
0.0
 47
0.005
 48
0.005
140
3.5
141
0.09
142
0.0
143
25.4
144
1.0
145
0.0
146
1.0
147
0.09
 71
1.0
 72
0.0
 73
0
 74
0
 75
0
 76
0
 77
1
 78
8
170
0
171
2
172
0
173
0
174
0
175
0
176
0
177
0
178
5
270
2
271
3
272
3
273
2
274
2
275
0
280
0
281
0
282
0
283
1
284
8
285
0
286
0
287
3
288
0
340
11
  0
ENDTAB
  0
ENDSEC
  0
SECTION
  2
BLOCKS
  0
BLOCK
  5
20
100
AcDbEntity
  8
0
100
AcDbBlockBegin
  2
*Model_Space
 70
0
 10
0.0
 20
0.0
 30
0.0
  3
*Model_Space
  1

  0
ENDBLK
  5
21
100
AcDbEntity
  8
0
100
AcDbBlockEnd
  0
BLOCK
  5
1C
100
AcDbEntity
  8
0
100
AcDbBlockBegin
  2
*Paper_Space
 70
0
 10
0.0
 20
0.0
 30
0.0
  3
*Paper_Space
  1

  0
ENDBLK
  5
1D
100
AcDbEntity
  8
0
100
AcDbBlockEnd
  0
ENDSEC
  0
SECTION
  2
ENTITIES
  0
MTEXT
  5
20B
100
AcDbEntity
  8
0
100
AcDbMText
 62
5
  6
CONTINUOUS
  7
STANDARD
 71
1
 72
1
 10
86.3814309908
 20
117.6339352251
 30
0.0
 11
1.0
 21
0.0
 31
0.0
 44
0.9
  1
RUD
 40
3.5
 41
8.6666666667
  0
MTEXT
  5
20C
100
AcDbEntity
  8
0
100
AcDbMText
 62
5
  6
CONTINUOUS
  7
STANDARD
 71
1
 72
1
 10
85.5110646994
 20
110.9321147813
 30
0.0
 11
1.0
 21
0.0
 31
0.0
 44
0.9
  1
RM M14
 40
3.5
 41
16.9166666667
  0
MTEXT
  5
20D
100
AcDbEntity
  8
0
100
AcDbMText
 62
5
  6
CONTINUOUS
  7
STANDARD
 71
1
 72
1
 10
289.6365078417
 20
195.3403666236
 30
0.0
 11
0.0
 21
1.0
 31
0.0
 44
0.9
  1
RUD
 40
3.5
 41
8.6666666667
  0
MTEXT
  5
20E
100
AcDbEntity
  8
0
100
AcDbMText
 62
5
  6
CONTINUOUS
  7
STANDARD
 71
1
 72
1
 10
297.2629990401
 20
195.7417608972
 30
0.0
 11
0.0
 21
1.0
 31
0.0
 44
0.9
  1
RM M14
 40
3.5
 41
16.9166666667
  0
LINE
  5
20F
100
AcDbEntity
  8
0
100
AcDbLine
 62
7
  6
CONTINUOUS
 10
0.0
 20
0.0
 11
0.0
 21
297.0
  0
LINE
  5
210
100
AcDbEntity
  8
0
100
AcDbLine
 62
7
  6
CONTINUOUS
 10
0.0
 20
0.0
 11
420.0
 21
0.0
  0
LINE
  5
211
100
AcDbEntity
  8
0
100
AcDbLine
 62
7
  6
CONTINUOUS
 10
0.0
 20
297.0
 11
420.0
 21
297.0
  0
LINE
  5
212
100
AcDbEntity
  8
0
100
AcDbLine
 62
7
  6
CONTINUOUS
 10
420.0
 20
0.0
 11
420.0
 21
297.0
  0
LINE
  5
213
100
AcDbEntity
  8
B-ACHSEN
100
AcDbLine
 62
7
  6
CONTINUOUS
 10
94.0188218795
 20
181.9102559507
 11
93.5188218795
 21
182.4102559507
  0
LINE
  5
214
100
AcDbEntity
  8
RUNDUNGEN
100
AcDbLine
 62
7
  6
CONTINUOUS
 10
78.6399104417
 20
212.9409896801
 11
87.0410818341
 21
233.2232115955
  0
LINE
  5
215
100
AcDbEntity
  8
B-ACHSEN
100
AcDbLine
 62
7
  6
CONTINUOUS
 10
94.0188218795
 20
181.9102559507
 11
128.0188218795
 21
181.9102559507
  0
LINE
  5
216
100
AcDbEntity
  8
B-ACHSEN
100
AcDbLine
 62
7
  6
CONTINUOUS
 10
93.5188218795
 20
182.4102559507
 11
128.5188218795
 21
182.4102559507
  0
LINE
  5
217
100
AcDbEntity
  8
RUNDUNGEN
100
AcDbLine
 62
7
  6
CONTINUOUS
 10
87.2915811633
 20
188.9925414278
 11
78.6399104417
 21
209.8795222212
  0
LINE
  5
218
100
AcDbEntity
  8
0
100
AcDbLine
 62
7
  6
CONTINUOUS
 10
87.7686659129
 20
229.0149118115
 11
87.6514465743
 21
228.7387603554
  0
LINE
  5
219
100
AcDbEntity
  8
0
100
AcDbLine
 62
7
  6
CONTINUOUS
 10
87.0262764706
 20
227.2659518876
 11
86.9090571321
 21
226.9898004316
  0
LINE
  5
21A
100
AcDbEntity
  8
0
100
AcDbLine
 62
7
  6
CONTINUOUS
 10
86.6355454912
 20
226.3454473853
 11
86.4597164834
 21
225.9312202013
  0
LINE
  5
21B
100
AcDbEntity
  8
0
100
AcDbLine
 62
7
  6
CONTINUOUS
 10
85.8736197906
 20
224.5504629211
 11
85.6977907828
 21
224.136235737
  0
LINE
  5
21C
100
AcDbEntity
  8
0
100
AcDbLine
 62
7
  6
CONTINUOUS
 10
84.6037436603
 20
221.5588222351
 11
84.4279146525
 21
221.1445950511
  0
LINE
  5
21D
100
AcDbEntity
  8
0
100
AcDbLine
 62
7
  6
CONTINUOUS
 10
83.8418179598
 20
219.7638377709
 11
83.665988896
 21
219.3496104552
  0
LINE
  5
21E
100
AcDbEntity
  8
0
100
AcDbLine
 62
7
  6
CONTINUOUS
 10
83.2361846733
 20
218.3370551603
 11
82.7673073191
 21
217.2324493361
  0
LINE
  5
21F
100
AcDbEntity
  8
0
100
AcDbLine
 62
7
  6
CONTINUOUS
 10
83.1783047674
 20
217.383899383
 11
83.5494993208
 21
218.2583789499
  0
LINE
  5
220
100
AcDbEntity
  8
0
100
AcDbLine
 62
7
  6
CONTINUOUS
 10
100.3998084241
 20
238.3971783085
 11
100.1472174886
 21
238.2513448639
  0
LINE
  5
221
100
AcDbEntity
  8
0
100
AcDbLine
 62
7
  6
CONTINUOUS
 10
97.4192374667
 20
236.6763448639
 11
95.7016204641
 21
235.6846782251
  0
LINE
  5
222
100
AcDbEntity
  8
0
100
AcDbLine
 62
7
  6
CONTINUOUS
 10
95.2974752275
 20
235.4513448639
 11
93.4788218795
 21
234.4013448639
  0
LINE
  5
223
100
AcDbEntity
  8
0
100
AcDbLine
 62
7
  6
CONTINUOUS
 10
93.6649920701
 20
234.078888635
 11
95.1805365267
 21
234.953888635
  0
LINE
  5
224
100
AcDbEntity
  8
0
100
AcDbLine
 62
7
  6
CONTINUOUS
 10
96.1403814456
 20
235.5080553573
 11
97.6054076573
 21
236.353888635
  0
LINE
  5
225
100
AcDbEntity
  8
RUNDUNGEN
100
AcDbLine
 62
7
  6
CONTINUOUS
 10
89.2058662347
 20
235.3879959961
 11
109.48808815
 21
243.7891673885
  0
LINE
  5
226
100
AcDbEntity
  8
0
100
AcDbLine
 62
7
  6
CONTINUOUS
 10
99.174088363
 20
237.6035201735
 11
98.8337454335
 21
237.4930114193
  0
LINE
  5
227
100
AcDbEntity
  8
DEFAULT_2
100
AcDbLine
 62
8
  6
HIDDEN
 10
104.0188218795
 20
183.4102559507
 11
118.0188218795
 21
183.4102559507
  0
LINE
  5
228
100
AcDbEntity
  8
0
100
AcDbLine
 62
7
  6
CONTINUOUS
 10
84.4306878619
 20
218.0472906625
 11
84.4308338145
 21
217.8842746527
  0
LINE
  5
229
100
AcDbEntity
  8
0
100
AcDbLine
 62
7
  6
CONTINUOUS
 10
84.4308338145
 20
217.8842746527
 11
84.0596392611
 21
217.0097950858
  0
LINE
  5
22A
100
AcDbEntity
  8
0
100
AcDbLine
 62
7
  6
CONTINUOUS
 10
84.4121729927
 20
216.8601533949
 11
84.7442944426
 21
217.6425824984
  0
LINE
  5
22B
100
AcDbEntity
  8
0
100
AcDbLine
 62
7
  6
CONTINUOUS
 10
89.550433136
 20
228.8017758568
 11
89.3550678698
 21
228.3415241323
  0
LINE
  5
22C
100
AcDbEntity
  8
0
100
AcDbLine
 62
7
  6
CONTINUOUS
 10
89.2378485313
 20
228.0653726763
 11
88.905726774
 21
227.2829428486
  0
LINE
  5
22D
100
AcDbEntity
  8
0
100
AcDbLine
 62
7
  6
CONTINUOUS
 10
89.121504991
 20
226.8111251263
 11
89.5903823452
 21
227.9157309504
  0
LINE
  5
22E
100
AcDbEntity
  8
0
100
AcDbLine
 62
7
  6
CONTINUOUS
 10
89.7076016838
 20
228.1918824065
 11
89.9029669499
 21
228.6521341309
  0
LINE
  5
22F
100
AcDbEntity
  8
0
100
AcDbLine
 62
7
  6
CONTINUOUS
 10
85.5288218795
 20
216.0602559507
 11
85.6460412181
 21
216.3364074067
  0
LINE
  5
230
100
AcDbEntity
  8
0
100
AcDbLine
 62
7
  6
CONTINUOUS
 10
86.13445511
 20
217.4870384296
 11
86.2712110423
 21
217.8092152161
  0
LINE
  5
231
100
AcDbEntity
  8
0
100
AcDbLine
 62
7
  6
CONTINUOUS
 10
86.4275034564
 20
218.1774170697
 11
86.5447228508
 21
218.4535686574
  0
LINE
  5
232
100
AcDbEntity
  8
0
100
AcDbLine
 62
7
  6
CONTINUOUS
 10
86.8182346035
 20
219.0979219671
 11
86.9745270177
 21
219.4661238206
  0
LINE
  5
233
100
AcDbEntity
  8
0
100
AcDbLine
 62
7
  6
CONTINUOUS
 10
87.2480388821
 20
220.1104773936
 11
87.3652582207
 21
220.3866288497
  0
LINE
  5
234
100
AcDbEntity
  8
0
100
AcDbLine
 62
7
  6
CONTINUOUS
 10
88.4593053432
 20
222.9640423516
 11
88.5765246817
 21
223.2401938076
  0
LINE
  5
235
100
AcDbEntity
  8
0
100
AcDbLine
 62
7
  6
CONTINUOUS
 10
88.8500365462
 20
223.8845473806
 11
89.0063288485
 21
224.2527489708
  0
LINE
  5
236
100
AcDbEntity
  8
0
100
AcDbLine
 62
7
  6
CONTINUOUS
 10
89.279840713
 20
224.8971025438
 11
89.3970600516
 21
225.1732539998
  0
LINE
  5
237
100
AcDbEntity
  8
0
100
AcDbLine
 62
7
  6
CONTINUOUS
 10
89.6705716924
 20
225.8176070461
 11
89.787791031
 21
226.0937585021
  0
LINE
  5
238
100
AcDbEntity
  8
0
100
AcDbLine
 62
7
  6
CONTINUOUS
 10
90.4129611347
 20
227.56656697
 11
90.5301804732
 21
227.842718426
  0
LINE
  5
239
100
AcDbEntity
  8
0
100
AcDbLine
 62
7
  6
CONTINUOUS
 10
83.392623096
 20
218.5422411357
 11
83.2361846733
 21
218.3370551603
  0
LINE
  5
23A
100
AcDbEntity
  8
0
100
AcDbLine
 62
7
  6
CONTINUOUS
 10
97.1137031273
 20
234.5222127525
 11
97.2785414907
 21
234.7033705537
  0
LINE
  5
23B
100
AcDbEntity
  8
0
100
AcDbLine
 62
7
  6
CONTINUOUS
 10
98.8045593049
 20
236.9602308338
 11
99.0199156241
 21
237.1705551904
  0
LINE
  5
23C
100
AcDbEntity
  8
0
100
AcDbLine
 62
7
  6
CONTINUOUS
 10
97.0923713001
 20
235.0258267826
 11
96.8770146918
 21
234.8155022591
  0
LINE
  5
23D
100
AcDbEntity
  8
0
100
AcDbLine
 62
7
  6
CONTINUOUS
 10
98.8337454335
 20
237.4930114193
 11
98.5678705803
 21
237.2535201735
  0
LINE
  5
23E
100
AcDbEntity
  8
0
100
AcDbLine
 62
7
  6
CONTINUOUS
 10
104.1409618809
 20
239.2673091073
 11
103.8883715236
 21
239.1214759965
  0
LINE
  5
23F
100
AcDbEntity
  8
0
100
AcDbLine
 62
7
  6
CONTINUOUS
 10
103.4337081866
 20
238.8589759965
 11
103.1305992953
 21
238.6839759965
  0
LINE
  5
240
100
AcDbEntity
  8
0
100
AcDbLine
 62
7
  6
CONTINUOUS
 10
101.91816373
 20
237.9839759965
 11
101.6150548386
 21
237.8089759965
  0
LINE
  5
241
100
AcDbEntity
  8
0
100
AcDbLine
 62
7
  6
CONTINUOUS
 10
97.3954801914
 20
235.2008267826
 11
97.0923713001
 21
235.0258267826
  0
LINE
  5
242
100
AcDbEntity
  8
0
100
AcDbLine
 62
7
  6
CONTINUOUS
 10
103.3167694858
 20
238.3615197675
 11
103.6198783772
 21
238.5365197675
  0
LINE
  5
243
100
AcDbEntity
  8
0
100
AcDbLine
 62
7
  6
CONTINUOUS
 10
97.2785414907
 20
234.7033705537
 11
97.581650382
 21
234.8783705537
  0
LINE
  5
244
100
AcDbEntity
  8
0
100
AcDbLine
 62
7
  6
CONTINUOUS
 10
96.6697055594
 20
234.007905654
 11
97.0233325511
 21
234.2120722928
  0
LINE
  5
245
100
AcDbEntity
  8
0
100
AcDbLine
 62
7
  6
CONTINUOUS
 10
97.3079207013
 20
233.6024842681
 11
97.0048119545
 21
233.4274843516
  0
LINE
  5
246
100
AcDbEntity
  8
0
100
AcDbLine
 62
7
  6
CONTINUOUS
 10
104.4390272939
 20
237.1177122248
 11
104.2369548924
 21
237.0010456693
  0
LINE
  5
247
100
AcDbEntity
  8
0
100
AcDbLine
 62
7
  6
CONTINUOUS
 10
98.3263312225
 20
233.5885455025
 11
98.0232223312
 21
233.4135455025
  0
LINE
  5
248
100
AcDbEntity
  8
0
100
AcDbLine
 62
7
  6
CONTINUOUS
 10
95.734003353
 20
231.6619226104
 11
96.0371122805
 21
231.8369226312
  0
LINE
  5
249
100
AcDbEntity
  8
0
100
AcDbLine
 62
7
  6
CONTINUOUS
 10
98.2093925478
 20
233.0910892284
 11
98.5125014392
 21
233.2660892284
  0
LINE
  5
24A
100
AcDbEntity
  8
0
100
AcDbLine
 62
7
  6
CONTINUOUS
 10
101.8972174886
 20
235.2202559507
 11
102.1498084241
 21
235.3660893953
  0
LINE
  5
24B
100
AcDbEntity
  8
0
100
AcDbLine
 62
7
  6
CONTINUOUS
 10
103.0086165641
 20
235.8619225061
 11
103.3117254554
 21
236.0369225061
  0
LINE
  5
24C
100
AcDbEntity
  8
0
100
AcDbLine
 62
7
  6
CONTINUOUS
 10
104.3220886192
 20
236.6202559507
 11
104.6251975106
 21
236.7952559507
  0
LINE
  5
24D
100
AcDbEntity
  8
0
100
AcDbLine
 62
7
  6
CONTINUOUS
 10
108.9921551572
 20
238.8653622937
 11
108.8171551572
 21
238.7908942175
  0
LINE
  5
24E
100
AcDbEntity
  8
RUNDUNGEN
100
AcDbLine
 62
7
  6
CONTINUOUS
 10
133.3602432969
 20
188.0665665764
 11
132.2789297348
 21
188.0665665764
  0
LINE
  5
24F
100
AcDbEntity
  8
RUNDUNGEN
100
AcDbLine
 62
7
  6
CONTINUOUS
 10
89.7587140242
 20
188.0665665764
 11
88.6774004621
 21
188.0665665764
  0
LINE
  5
250
100
AcDbEntity
  8
0
100
AcDbLine
 62
7
  6
CONTINUOUS
 10
84.7440025652
 20
217.9686145839
 11
84.7046375284
 21
218.2025960743
  0
LINE
  5
251
100
AcDbEntity
  8
0
100
AcDbLine
 62
7
  6
CONTINUOUS
 10
96.8770146918
 20
234.8155022591
 11
96.7361261597
 21
234.476195244
  0
LINE
  5
252
100
AcDbEntity
  8
0
100
AcDbLine
 62
7
  6
CONTINUOUS
 10
98.5678705803
 20
237.2535201735
 11
98.4269820482
 21
236.9142131585
  0
LINE
  5
253
100
AcDbEntity
  8
0
100
AcDbLine
 62
7
  6
CONTINUOUS
 10
98.491169875
 20
233.7697034705
 11
98.3263312225
 21
233.5885455025
  0
LINE
  5
254
100
AcDbEntity
  8
0
100
AcDbLine
 62
7
  6
CONTINUOUS
 10
103.1305992953
 20
238.6839759965
 11
102.9657609319
 21
238.5028181953
  0
LINE
  5
255
100
AcDbEntity
  8
0
100
AcDbLine
 62
7
  6
CONTINUOUS
 10
104.6038656573
 20
237.2988700259
 11
104.4390272939
 21
237.1177122248
  0
LINE
  5
256
100
AcDbEntity
  8
0
100
AcDbLine
 62
7
  6
CONTINUOUS
 10
104.6251975106
 20
236.7952559507
 11
104.7900358707
 21
236.9764137575
  0
LINE
  5
257
100
AcDbEntity
  8
0
100
AcDbLine
 62
7
  6
CONTINUOUS
 10
98.5125014392
 20
233.2660892284
 11
98.7278583333
 21
233.4764139244
  0
LINE
  5
258
100
AcDbEntity
  8
0
100
AcDbLine
 62
7
  6
CONTINUOUS
 10
100.6129321142
 20
234.9947034705
 11
100.3975752169
 21
234.7843787802
  0
LINE
  5
259
100
AcDbEntity
  8
0
100
AcDbLine
 62
7
  6
CONTINUOUS
 10
83.5494993208
 20
218.2583789499
 11
83.666864612
 21
218.3715143961
  0
LINE
  5
25A
100
AcDbEntity
  8
0
100
AcDbLine
 62
7
  6
CONTINUOUS
 10
100.5837454335
 20
234.4619225061
 11
100.8496202835
 21
234.7014137575
  0
LINE
  5
25B
100
AcDbEntity
  8
0
100
AcDbLine
 62
7
  6
CONTINUOUS
 10
109.0504886018
 20
238.4930219125
 11
109.2838218795
 21
238.641958065
  0
LINE
  5
25C
100
AcDbEntity
  8
0
100
AcDbLine
 62
7
  6
CONTINUOUS
 10
104.1173979376
 20
236.1581243895
 11
103.8648070021
 21
236.0122909449
  0
LINE
  5
25D
100
AcDbEntity
  8
0
100
AcDbLine
 62
7
  6
CONTINUOUS
 10
105.0720060201
 20
236.0213609109
 11
104.7688971288
 21
235.8463609109
  0
LINE
  5
25E
100
AcDbEntity
  8
0
100
AcDbLine
 62
7
  6
CONTINUOUS
 10
104.9178332812
 20
235.5883959278
 11
105.2209421726
 21
235.7633959278
  0
LINE
  5
25F
100
AcDbEntity
  8
0
100
AcDbLine
 62
7
  6
CONTINUOUS
 10
100.2434025008
 20
234.3514137575
 11
100.5837454335
 21
234.4619225061
  0
LINE
  5
260
100
AcDbEntity
  8
0
100
AcDbLine
 62
7
  6
CONTINUOUS
 10
111.4421553241
 20
237.3015325364
 11
111.2088218795
 21
237.2270644602
  0
LINE
  5
261
100
AcDbEntity
  8
0
100
AcDbLine
 62
7
  6
CONTINUOUS
 10
114.2421549903
 20
237.3015325364
 11
114.0088218795
 21
237.2270644602
  0
LINE
  5
262
100
AcDbEntity
  8
0
100
AcDbLine
 62
7
  6
CONTINUOUS
 10
84.3522497495
 20
218.1892217554
 11
84.4306878619
 21
218.0472906625
  0
LINE
  5
263
100
AcDbEntity
  8
0
100
AcDbLine
 62
7
  6
CONTINUOUS
 10
97.0233325511
 20
234.2120722928
 11
97.1137031273
 21
234.5222127525
  0
LINE
  5
264
100
AcDbEntity
  8
0
100
AcDbLine
 62
7
  6
CONTINUOUS
 10
98.7274729354
 20
236.7437483422
 11
98.8045593049
 21
236.9602308338
  0
LINE
  5
265
100
AcDbEntity
  8
0
100
AcDbLine
 62
7
  6
CONTINUOUS
 10
98.5682562444
 20
233.9861859621
 11
98.491169875
 21
233.7697034705
  0
LINE
  5
266
100
AcDbEntity
  8
0
100
AcDbLine
 62
7
  6
CONTINUOUS
 10
98.7278583333
 20
233.4764139244
 11
98.8687468556
 21
233.8157209564
  0
LINE
  5
267
100
AcDbEntity
  8
0
100
AcDbLine
 62
7
  6
CONTINUOUS
 10
100.8496202835
 20
234.7014137575
 11
100.9905090948
 21
235.0407209564
  0
LINE
  5
268
100
AcDbEntity
  8
0
100
AcDbLine
 62
7
  6
CONTINUOUS
 10
103.1891651606
 20
238.1158707206
 11
103.3167694858
 21
238.3615197675
  0
LINE
  5
269
100
AcDbEntity
  8
0
100
AcDbLine
 62
7
  6
CONTINUOUS
 10
105.3857805359
 20
235.9445537289
 11
105.5001015216
 21
236.0965453085
  0
LINE
  5
26A
100
AcDbEntity
  8
0
100
AcDbLine
 62
7
  6
CONTINUOUS
 10
105.2368443835
 20
236.2025187121
 11
105.0720060201
 21
236.0213609109
  0
LINE
  5
26B
100
AcDbEntity
  8
0
100
AcDbLine
 62
7
  6
CONTINUOUS
 10
105.2209421726
 20
235.7633959278
 11
105.3857805359
 21
235.9445537289
  0
LINE
  5
26C
100
AcDbEntity
  8
0
100
AcDbLine
 62
7
  6
CONTINUOUS
 10
111.6171553241
 20
237.450468741
 11
111.4421553241
 21
237.3015325364
  0
LINE
  5
26D
100
AcDbEntity
  8
0
100
AcDbLine
 62
7
  6
CONTINUOUS
 10
111.5004884349
 20
236.8547240334
 11
111.7338218795
 21
237.0036602054
  0
LINE
  5
26E
100
AcDbEntity
  8
0
100
AcDbLine
 62
7
  6
CONTINUOUS
 10
114.3004887687
 20
236.8547240334
 11
114.5338218795
 21
237.0036602054
  0
LINE
  5
26F
100
AcDbEntity
  8
0
100
AcDbLine
 62
7
  6
CONTINUOUS
 10
84.7046375284
 20
218.2025960743
 11
84.5282247099
 21
218.4404329296
  0
LINE
  5
270
100
AcDbEntity
  8
B-ACHSEN
100
AcDbLine
 62
7
  6
CONTINUOUS
 10
93.5188218795
 20
182.4102559507
 11
93.5188218795
 21
183.0665665764
  0
LINE
  5
271
100
AcDbEntity
  8
0
100
AcDbLine
 62
7
  6
CONTINUOUS
 10
98.4269820482
 20
236.9142131585
 11
98.3871297169
 21
236.6332394211
  0
LINE
  5
272
100
AcDbEntity
  8
0
100
AcDbLine
 62
7
  6
CONTINUOUS
 10
100.6900184837
 20
235.2111859621
 11
100.6129321142
 21
234.9947034705
  0
LINE
  5
273
100
AcDbEntity
  8
0
100
AcDbLine
 62
7
  6
CONTINUOUS
 10
102.9657609319
 20
238.5028181953
 11
102.8886745624
 21
238.2863357037
  0
LINE
  5
274
100
AcDbEntity
  8
0
100
AcDbLine
 62
7
  6
CONTINUOUS
 10
104.7900358707
 20
236.9764137575
 11
104.8538383191
 21
237.0992384535
  0
LINE
  5
275
100
AcDbEntity
  8
0
100
AcDbLine
 62
7
  6
CONTINUOUS
 10
109.1088218795
 20
239.0142984461
 11
108.9921551572
 21
238.8653622937
  0
LINE
  5
276
100
AcDbEntity
  8
0
100
AcDbLine
 62
7
  6
CONTINUOUS
 10
114.4171549903
 20
237.450468741
 11
114.2421549903
 21
237.3015325364
  0
LINE
  5
277
100
AcDbEntity
  8
0
100
AcDbLine
 62
7
  6
CONTINUOUS
 10
83.6470361689
 20
218.651521217
 11
83.392623096
 21
218.5422411357
  0
LINE
  5
278
100
AcDbEntity
  8
DEFAULT_2
100
AcDbLine
 62
8
  6
HIDDEN
 10
118.0188218795
 20
183.4102559507
 11
119.5188218795
 21
181.9102559507
  0
LINE
  5
279
100
AcDbEntity
  8
0
100
AcDbLine
 62
7
  6
CONTINUOUS
 10
98.8687468556
 20
233.8157209564
 11
98.8713651357
 21
234.1611859621
  0
LINE
  5
27A
100
AcDbEntity
  8
0
100
AcDbLine
 62
7
  6
CONTINUOUS
 10
100.9905090948
 20
235.0407209564
 11
101.0303614131
 21
235.3216947163
  0
LINE
  5
27B
100
AcDbEntity
  8
0
100
AcDbLine
 62
7
  6
CONTINUOUS
 10
101.7402339527
 20
236.0754931892
 11
101.8066541195
 21
236.543782529
  0
LINE
  5
27C
100
AcDbEntity
  8
0
100
AcDbLine
 62
7
  6
CONTINUOUS
 10
104.6809526049
 20
237.5153528513
 11
104.6038656573
 21
237.2988700259
  0
LINE
  5
27D
100
AcDbEntity
  8
0
100
AcDbLine
 62
7
  6
CONTINUOUS
 10
105.5001015216
 20
236.0965453085
 11
105.5771878911
 21
236.3130278001
  0
LINE
  5
27E
100
AcDbEntity
  8
0
100
AcDbLine
 62
7
  6
CONTINUOUS
 10
109.2838218795
 20
238.641958065
 11
109.4588218795
 21
238.9398303699
  0
LINE
  5
27F
100
AcDbEntity
  8
0
100
AcDbLine
 62
7
  6
CONTINUOUS
 10
111.7338218795
 20
237.0036602054
 11
111.9671553241
 21
237.3015325364
  0
LINE
  5
280
100
AcDbEntity
  8
0
100
AcDbLine
 62
7
  6
CONTINUOUS
 10
114.5338218795
 20
237.0036602054
 11
114.7671549903
 21
237.3015325364
  0
LINE
  5
281
100
AcDbEntity
  8
0
100
AcDbLine
 62
7
  6
CONTINUOUS
 10
84.1955194214
 20
218.3100677997
 11
84.3522497495
 21
218.1892217554
  0
LINE
  5
282
100
AcDbEntity
  8
0
100
AcDbLine
 62
7
  6
CONTINUOUS
 10
84.5282247099
 20
218.4404329296
 11
84.3714943819
 21
218.5612789739
  0
LINE
  5
283
100
AcDbEntity
  8
0
100
AcDbLine
 62
7
  6
CONTINUOUS
 10
86.9090571321
 20
226.9898004316
 11
87.2031271471
 21
226.5390670028
  0
LINE
  5
284
100
AcDbEntity
  8
0
100
AcDbLine
 62
7
  6
CONTINUOUS
 10
87.6731722872
 20
226.3395446783
 11
87.3791021076
 21
226.790278177
  0
LINE
  5
285
100
AcDbEntity
  8
0
100
AcDbLine
 62
7
  6
CONTINUOUS
 10
95.1805365267
 20
234.953888635
 11
95.734003353
 21
231.6619226104
  0
LINE
  5
286
100
AcDbEntity
  8
0
100
AcDbLine
 62
7
  6
CONTINUOUS
 10
96.0371122805
 20
231.8369226312
 11
95.483645418
 21
235.128888635
  0
LINE
  5
287
100
AcDbEntity
  8
0
100
AcDbLine
 62
7
  6
CONTINUOUS
 10
98.5575903047
 20
234.2379930223
 11
98.5682562444
 21
233.9861859621
  0
LINE
  5
288
100
AcDbEntity
  8
0
100
AcDbLine
 62
7
  6
CONTINUOUS
 10
98.7488045779
 20
236.2401339645
 11
98.7274729354
 21
236.7437483422
  0
LINE
  5
289
100
AcDbEntity
  8
0
100
AcDbLine
 62
7
  6
CONTINUOUS
 10
100.6686866304
 20
235.7148000374
 11
100.6900184837
 21
235.2111859621
  0
LINE
  5
28A
100
AcDbEntity
  8
0
100
AcDbLine
 62
7
  6
CONTINUOUS
 10
101.8465063987
 20
236.8247563567
 11
101.91816373
 21
237.9839759965
  0
LINE
  5
28B
100
AcDbEntity
  8
0
100
AcDbLine
 62
7
  6
CONTINUOUS
 10
101.6150548386
 20
237.8089759965
 11
101.516829724
 21
236.4624406639
  0
LINE
  5
28C
100
AcDbEntity
  8
0
100
AcDbLine
 62
7
  6
CONTINUOUS
 10
102.8886745624
 20
238.2863357037
 11
102.8488222311
 21
238.0053619663
  0
LINE
  5
28D
100
AcDbEntity
  8
0
100
AcDbLine
 62
7
  6
CONTINUOUS
 10
104.8538383191
 20
237.0992384535
 11
104.8804061481
 21
237.2865540672
  0
LINE
  5
28E
100
AcDbEntity
  8
0
100
AcDbLine
 62
7
  6
CONTINUOUS
 10
105.2766972669
 20
236.4834928284
 11
105.2368443835
 21
236.2025187121
  0
LINE
  5
28F
100
AcDbEntity
  8
0
100
AcDbLine
 62
7
  6
CONTINUOUS
 10
111.7338218795
 20
237.6738729697
 11
111.6171553241
 21
237.450468741
  0
LINE
  5
290
100
AcDbEntity
  8
0
100
AcDbLine
 62
7
  6
CONTINUOUS
 10
84.4279146525
 20
221.1445950511
 11
86.6026027156
 21
219.4067244521
  0
LINE
  5
291
100
AcDbEntity
  8
0
100
AcDbLine
 62
7
  6
CONTINUOUS
 10
86.9745270177
 20
219.4661238206
 11
85.0740805412
 21
221.0332679609
  0
LINE
  5
292
100
AcDbEntity
  8
0
100
AcDbLine
 62
7
  6
CONTINUOUS
 10
87.6514465743
 20
228.7387603554
 11
88.7689711771
 21
226.9607668522
  0
LINE
  5
293
100
AcDbEntity
  8
0
100
AcDbLine
 62
7
  6
CONTINUOUS
 10
88.905726774
 20
227.2829428486
 11
88.1214915498
 21
228.5392381008
  0
LINE
  5
294
100
AcDbEntity
  8
0
100
AcDbLine
 62
7
  6
CONTINUOUS
 10
98.3871297169
 20
236.6332394211
 11
98.4350296686
 21
236.3169411603
  0
LINE
  5
295
100
AcDbEntity
  8
0
100
AcDbLine
 62
7
  6
CONTINUOUS
 10
103.1998307851
 20
237.8640635386
 11
103.1891651606
 21
238.1158707206
  0
LINE
  5
296
100
AcDbEntity
  8
DEFAULT_2
100
AcDbLine
 62
8
  6
HIDDEN
 10
104.0188218795
 20
195.3712410183
 11
104.0188218795
 21
183.4102559507
  0
LINE
  5
297
100
AcDbEntity
  8
0
100
AcDbLine
 62
7
  6
CONTINUOUS
 10
109.1671551572
 20
239.2377026748
 11
109.1088218795
 21
239.0142984461
  0
LINE
  5
298
100
AcDbEntity
  8
0
100
AcDbLine
 62
7
  6
CONTINUOUS
 10
109.4588218795
 20
238.9398303699
 11
109.5171551572
 21
239.1632345986
  0
LINE
  5
299
100
AcDbEntity
  8
0
100
AcDbLine
 62
7
  6
CONTINUOUS
 10
111.9671553241
 20
237.3015325364
 11
112.0838218795
 21
237.5994048935
  0
LINE
  5
29A
100
AcDbEntity
  8
0
100
AcDbLine
 62
7
  6
CONTINUOUS
 10
114.5338218795
 20
237.6738729697
 11
114.4171549903
 21
237.450468741
  0
LINE
  5
29B
100
AcDbEntity
  8
0
100
AcDbLine
 62
7
  6
CONTINUOUS
 10
82.7673073191
 20
217.2324493361
 11
85.5288218795
 21
216.0602559507
  0
LINE
  5
29C
100
AcDbEntity
  8
0
100
AcDbLine
 62
7
  6
CONTINUOUS
 10
85.6460412181
 20
216.3364074067
 11
84.4121729927
 21
216.8601533949
  0
LINE
  5
29D
100
AcDbEntity
  8
0
100
AcDbLine
 62
7
  6
CONTINUOUS
 10
84.0596392611
 20
217.0097950858
 11
83.1783047674
 21
217.383899383
  0
LINE
  5
29E
100
AcDbEntity
  8
0
100
AcDbLine
 62
7
  6
CONTINUOUS
 10
98.4964064353
 20
234.460633482
 11
98.5575903047
 21
234.2379930223
  0
LINE
  5
29F
100
AcDbEntity
  8
0
100
AcDbLine
 62
7
  6
CONTINUOUS
 10
98.4350296686
 20
236.3169411603
 11
98.4962136424
 21
236.0943005199
  0
LINE
  5
2A0
100
AcDbEntity
  8
0
100
AcDbLine
 62
7
  6
CONTINUOUS
 10
98.8713651357
 20
234.1611859621
 11
98.7862311198
 21
234.5419755139
  0
LINE
  5
2A1
100
AcDbEntity
  8
0
100
AcDbLine
 62
7
  6
CONTINUOUS
 10
101.0303614131
 20
235.3216947163
 11
100.9824617244
 21
235.6379931892
  0
LINE
  5
2A2
100
AcDbEntity
  8
0
100
AcDbLine
 62
7
  6
CONTINUOUS
 10
104.6702863761
 20
237.7671597446
 11
104.6809526049
 21
237.5153528513
  0
LINE
  5
2A3
100
AcDbEntity
  8
0
100
AcDbLine
 62
7
  6
CONTINUOUS
 10
105.5771878911
 20
236.3130278001
 11
105.5665216884
 21
236.5648346483
  0
LINE
  5
2A4
100
AcDbEntity
  8
0
100
AcDbLine
 62
7
  6
CONTINUOUS
 10
107.3588218795
 20
240.2802559507
 11
107.3588218795
 21
236.7802559507
  0
LINE
  5
2A5
100
AcDbEntity
  8
0
100
AcDbLine
 62
7
  6
CONTINUOUS
 10
107.7088218795
 20
236.7802559507
 11
107.7088218795
 21
238.3440857601
  0
LINE
  5
2A6
100
AcDbEntity
  8
0
100
AcDbLine
 62
7
  6
CONTINUOUS
 10
107.7088218795
 20
238.7908942175
 11
107.7088218795
 21
239.9079155695
  0
LINE
  5
2A7
100
AcDbEntity
  8
0
100
AcDbLine
 62
7
  6
CONTINUOUS
 10
112.0838218795
 20
237.5994048935
 11
112.1421553241
 21
237.9717452746
  0
LINE
  5
2A8
100
AcDbEntity
  8
0
100
AcDbLine
 62
7
  6
CONTINUOUS
 10
111.7921553241
 20
237.9717452746
 11
111.7338218795
 21
237.6738729697
  0
LINE
  5
2A9
100
AcDbEntity
  8
0
100
AcDbLine
 62
7
  6
CONTINUOUS
 10
114.7671549903
 20
237.3015325364
 11
114.8838218795
 21
237.5994048935
  0
LINE
  5
2AA
100
AcDbEntity
  8
0
100
AcDbLine
 62
7
  6
CONTINUOUS
 10
84.019252391
 20
218.384888715
 11
84.1955194214
 21
218.3100677997
  0
LINE
  5
2AB
100
AcDbEntity
  8
0
100
AcDbLine
 62
7
  6
CONTINUOUS
 10
84.3714943819
 20
218.5612789739
 11
84.1364717296
 21
218.6610401711
  0
LINE
  5
2AC
100
AcDbEntity
  8
0
100
AcDbLine
 62
7
  6
CONTINUOUS
 10
83.665988896
 20
219.3496104552
 11
86.4275034564
 21
218.1774170697
  0
LINE
  5
2AD
100
AcDbEntity
  8
0
100
AcDbLine
 62
7
  6
CONTINUOUS
 10
86.5447228508
 20
218.4535686574
 11
84.3707645099
 21
219.3763592246
  0
LINE
  5
2AE
100
AcDbEntity
  8
0
100
AcDbLine
 62
7
  6
CONTINUOUS
 10
85.0740805412
 20
221.0332679609
 11
87.2480388821
 21
220.1104773936
  0
LINE
  5
2AF
100
AcDbEntity
  8
0
100
AcDbLine
 62
7
  6
CONTINUOUS
 10
86.4597164834
 20
225.9312202013
 11
88.6344045465
 21
224.1933496023
  0
LINE
  5
2B0
100
AcDbEntity
  8
0
100
AcDbLine
 62
7
  6
CONTINUOUS
 10
89.0063288485
 20
224.2527489708
 11
87.105882372
 21
225.819893111
  0
LINE
  5
2B1
100
AcDbEntity
  8
0
100
AcDbLine
 62
7
  6
CONTINUOUS
 10
93.4788218795
 20
234.4013448639
 11
93.6649920701
 21
234.078888635
  0
LINE
  5
2B2
100
AcDbEntity
  8
0
100
AcDbLine
 62
7
  6
CONTINUOUS
 10
98.4962136424
 20
236.0943005199
 11
98.6318658771
 21
235.7426777356
  0
LINE
  5
2B3
100
AcDbEntity
  8
0
100
AcDbLine
 62
7
  6
CONTINUOUS
 10
100.9824617244
 20
235.6379931892
 11
100.9212775659
 21
235.860633482
  0
LINE
  5
2B4
100
AcDbEntity
  8
0
100
AcDbLine
 62
7
  6
CONTINUOUS
 10
102.8488222311
 20
238.0053619663
 11
102.8727717734
 21
237.8472125856
  0
LINE
  5
2B5
100
AcDbEntity
  8
0
100
AcDbLine
 62
7
  6
CONTINUOUS
 10
109.1671551572
 20
239.4611071121
 11
109.1671551572
 21
239.2377026748
  0
LINE
  5
2B6
100
AcDbEntity
  8
0
100
AcDbLine
 62
7
  6
CONTINUOUS
 10
109.5171551572
 20
239.1632345986
 11
109.5171551572
 21
239.4611071121
  0
LINE
  5
2B7
100
AcDbEntity
  8
0
100
AcDbLine
 62
7
  6
CONTINUOUS
 10
110.0421551572
 20
240.2802559507
 11
110.0421551572
 21
237.9717452746
  0
LINE
  5
2B8
100
AcDbEntity
  8
0
100
AcDbLine
 62
7
  6
CONTINUOUS
 10
110.3921553241
 20
237.9717452746
 11
110.3921553241
 21
240.2802559507
  0
LINE
  5
2B9
100
AcDbEntity
  8
B-ACHSEN
100
AcDbLine
 62
2
  6
CENTER
 10
111.0188218795
 20
211.4102559507
 11
111.0188218795
 21
179.1672105562
  0
LINE
  5
2BA
100
AcDbEntity
  8
B-ACHSEN
100
AcDbLine
 62
2
  6
CENTER
 10
111.0188218795
 20
211.4102559507
 11
111.0188218795
 21
231.9102559507
  0
LINE
  5
2BB
100
AcDbEntity
  8
0
100
AcDbLine
 62
7
  6
CONTINUOUS
 10
114.8838218795
 20
237.5994048935
 11
114.9421549903
 21
237.9717452746
  0
LINE
  5
2BC
100
AcDbEntity
  8
0
100
AcDbLine
 62
7
  6
CONTINUOUS
 10
114.5921549903
 20
237.9717452746
 11
114.5338218795
 21
237.6738729697
  0
LINE
  5
2BD
100
AcDbEntity
  8
B-ACHSEN
100
AcDbLine
 62
2
  6
CENTER
 10
111.0188218795
 20
211.4102559507
 11
90.5188218795
 21
211.4102559507
  0
LINE
  5
2BE
100
AcDbEntity
  8
B-ACHSEN
100
AcDbLine
 62
2
  6
CENTER
 10
111.0188218795
 20
211.4102559507
 11
131.5188218795
 21
211.4102559507
  0
LINE
  5
2BF
100
AcDbEntity
  8
0
100
AcDbLine
 62
7
  6
CONTINUOUS
 10
87.3652582207
 20
220.3866288497
 11
84.6037436603
 21
221.5588222351
  0
LINE
  5
2C0
100
AcDbEntity
  8
0
100
AcDbLine
 62
7
  6
CONTINUOUS
 10
85.6977907828
 20
224.136235737
 11
88.4593053432
 21
222.9640423516
  0
LINE
  5
2C1
100
AcDbEntity
  8
0
100
AcDbLine
 62
7
  6
CONTINUOUS
 10
95.483645418
 20
235.128888635
 11
95.2974752275
 21
235.4513448639
  0
LINE
  5
2C2
100
AcDbEntity
  8
0
100
AcDbLine
 62
7
  6
CONTINUOUS
 10
95.7016204641
 20
235.6846782251
 11
96.6697055594
 21
234.007905654
  0
LINE
  5
2C3
100
AcDbEntity
  8
0
100
AcDbLine
 62
7
  6
CONTINUOUS
 10
96.7361261597
 20
234.476195244
 11
96.1403814456
 21
235.5080553573
  0
LINE
  5
2C4
100
AcDbEntity
  8
0
100
AcDbLine
 62
7
  6
CONTINUOUS
 10
98.4219383591
 20
234.5896159736
 11
98.4964064353
 21
234.460633482
  0
LINE
  5
2C5
100
AcDbEntity
  8
0
100
AcDbLine
 62
7
  6
CONTINUOUS
 10
97.6054076573
 20
236.353888635
 11
97.4192374667
 21
236.6763448639
  0
LINE
  5
2C6
100
AcDbEntity
  8
0
100
AcDbLine
 62
7
  6
CONTINUOUS
 10
98.7862311198
 20
234.5419755139
 11
98.6372949674
 21
234.799940497
  0
LINE
  5
2C7
100
AcDbEntity
  8
0
100
AcDbLine
 62
7
  6
CONTINUOUS
 10
98.9216905616
 20
235.8240197675
 11
98.7488045779
 21
236.2401339645
  0
LINE
  5
2C8
100
AcDbEntity
  8
0
100
AcDbLine
 62
7
  6
CONTINUOUS
 10
100.4958008836
 20
236.1309144916
 11
100.6686866304
 21
235.7148000374
  0
LINE
  5
2C9
100
AcDbEntity
  8
0
100
AcDbLine
 62
7
  6
CONTINUOUS
 10
100.9212775659
 20
235.860633482
 11
100.785625279
 21
236.2122563567
  0
LINE
  5
2CA
100
AcDbEntity
  8
0
100
AcDbLine
 62
7
  6
CONTINUOUS
 10
102.8727717734
 20
237.8472125856
 11
102.97118997
 21
237.560081047
  0
LINE
  5
2CB
100
AcDbEntity
  8
0
100
AcDbLine
 62
7
  6
CONTINUOUS
 10
103.2610149436
 20
237.6414232458
 11
103.1998307851
 21
237.8640635386
  0
LINE
  5
2CC
100
AcDbEntity
  8
0
100
AcDbLine
 62
7
  6
CONTINUOUS
 10
104.8804061481
 20
237.2865540672
 11
104.8564565928
 21
237.4447034705
  0
LINE
  5
2CD
100
AcDbEntity
  8
0
100
AcDbLine
 62
7
  6
CONTINUOUS
 10
105.2527465683
 20
236.6416415416
 11
105.2766972669
 21
236.4834928284
  0
LINE
  5
2CE
100
AcDbEntity
  8
0
100
AcDbLine
 62
7
  6
CONTINUOUS
 10
111.7921553241
 20
240.2802559507
 11
111.7921553241
 21
237.9717452746
  0
LINE
  5
2CF
100
AcDbEntity
  8
0
100
AcDbLine
 62
7
  6
CONTINUOUS
 10
112.1421553241
 20
237.9717452746
 11
112.1421553241
 21
240.2802559507
  0
LINE
  5
2D0
100
AcDbEntity
  8
0
100
AcDbLine
 62
7
  6
CONTINUOUS
 10
112.6088218795
 20
240.2802559507
 11
112.6088218795
 21
236.7802559507
  0
LINE
  5
2D1
100
AcDbEntity
  8
0
100
AcDbLine
 62
7
  6
CONTINUOUS
 10
112.9588218795
 20
237.2270644602
 11
112.9588218795
 21
239.8334474933
  0
LINE
  5
2D2
100
AcDbEntity
  8
0
100
AcDbLine
 62
7
  6
CONTINUOUS
 10
86.2712110423
 20
217.8092152161
 11
84.7440025652
 21
217.9686145839
  0
LINE
  5
2D3
100
AcDbEntity
  8
0
100
AcDbLine
 62
7
  6
CONTINUOUS
 10
84.7442944426
 20
217.6425824984
 11
86.13445511
 21
217.4870384296
  0
LINE
  5
2D4
100
AcDbEntity
  8
0
100
AcDbLine
 62
7
  6
CONTINUOUS
 10
84.3707645099
 20
219.3763592246
 11
86.8182346035
 21
219.0979219671
  0
LINE
  5
2D5
100
AcDbEntity
  8
0
100
AcDbLine
 62
7
  6
CONTINUOUS
 10
86.6026027156
 20
219.4067244521
 11
83.8418179598
 21
219.7638377709
  0
LINE
  5
2D6
100
AcDbEntity
  8
0
100
AcDbLine
 62
7
  6
CONTINUOUS
 10
83.8234489874
 20
218.4136843617
 11
84.019252391
 21
218.384888715
  0
LINE
  5
2D7
100
AcDbEntity
  8
0
100
AcDbLine
 62
7
  6
CONTINUOUS
 10
84.1364717296
 20
218.6610401711
 11
83.9406683259
 21
218.6898358177
  0
LINE
  5
2D8
100
AcDbEntity
  8
0
100
AcDbLine
 62
7
  6
CONTINUOUS
 10
88.5765246817
 20
223.2401938076
 11
86.4025663408
 21
224.1629843748
  0
LINE
  5
2D9
100
AcDbEntity
  8
0
100
AcDbLine
 62
7
  6
CONTINUOUS
 10
87.105882372
 20
225.819893111
 11
89.279840713
 21
224.8971025438
  0
LINE
  5
2DA
100
AcDbEntity
  8
0
100
AcDbLine
 62
7
  6
CONTINUOUS
 10
89.3970600516
 20
225.1732539998
 11
86.6355454912
 21
226.3454473853
  0
LINE
  5
2DB
100
AcDbEntity
  8
0
100
AcDbLine
 62
7
  6
CONTINUOUS
 10
87.2031271471
 20
226.5390670028
 11
87.6731722872
 21
226.3395446783
  0
LINE
  5
2DC
100
AcDbEntity
  8
0
100
AcDbLine
 62
7
  6
CONTINUOUS
 10
98.6318658771
 20
235.7426777356
 11
98.9669722201
 21
235.1622565235
  0
LINE
  5
2DD
100
AcDbEntity
  8
0
100
AcDbLine
 62
7
  6
CONTINUOUS
 10
99.1823288284
 20
235.372581047
 11
98.9216905616
 21
235.8240197675
  0
LINE
  5
2DE
100
AcDbEntity
  8
0
100
AcDbLine
 62
7
  6
CONTINUOUS
 10
100.2351626168
 20
236.5823532121
 11
100.4958008836
 21
236.1309144916
  0
LINE
  5
2DF
100
AcDbEntity
  8
0
100
AcDbLine
 62
7
  6
CONTINUOUS
 10
100.785625279
 20
236.2122563567
 11
100.450518936
 21
236.7926775687
  0
LINE
  5
2E0
100
AcDbEntity
  8
0
100
AcDbLine
 62
7
  6
CONTINUOUS
 10
100.1472174886
 20
238.2513448639
 11
101.8972174886
 21
235.2202559507
  0
LINE
  5
2E1
100
AcDbEntity
  8
0
100
AcDbLine
 62
7
  6
CONTINUOUS
 10
105.1543289303
 20
236.9287734478
 11
105.2527465683
 21
236.6416415416
  0
LINE
  5
2E2
100
AcDbEntity
  8
0
100
AcDbLine
 62
7
  6
CONTINUOUS
 10
105.5665216884
 20
236.5648346483
 11
105.4069192877
 21
237.0746065586
  0
LINE
  5
2E3
100
AcDbEntity
  8
0
100
AcDbLine
 62
7
  6
CONTINUOUS
 10
110.0421551572
 20
237.9717452746
 11
110.1004886018
 21
237.5994048935
  0
LINE
  5
2E4
100
AcDbEntity
  8
0
100
AcDbLine
 62
7
  6
CONTINUOUS
 10
114.5921549903
 20
239.0887665224
 11
114.5921549903
 21
237.9717452746
  0
LINE
  5
2E5
100
AcDbEntity
  8
0
100
AcDbLine
 62
7
  6
CONTINUOUS
 10
114.9421549903
 20
237.9717452746
 11
114.9421549903
 21
239.0887665224
  0
LINE
  5
2E6
100
AcDbEntity
  8
0
100
AcDbLine
 62
7
  6
CONTINUOUS
 10
87.3791021076
 20
226.790278177
 11
89.6705716924
 21
225.8176070461
  0
LINE
  5
2E7
100
AcDbEntity
  8
0
100
AcDbLine
 62
7
  6
CONTINUOUS
 10
89.787791031
 20
226.0937585021
 11
87.0262764706
 21
227.2659518876
  0
LINE
  5
2E8
100
AcDbEntity
  8
0
100
AcDbLine
 62
7
  6
CONTINUOUS
 10
88.7689711771
 20
226.9607668522
 11
89.121504991
 21
226.8111251263
  0
LINE
  5
2E9
100
AcDbEntity
  8
0
100
AcDbLine
 62
7
  6
CONTINUOUS
 10
88.1214915498
 20
228.5392381008
 11
89.2378485313
 21
228.0653726763
  0
LINE
  5
2EA
100
AcDbEntity
  8
0
100
AcDbLine
 62
7
  6
CONTINUOUS
 10
89.5903823452
 20
227.9157309504
 11
90.4129611347
 21
227.56656697
  0
LINE
  5
2EB
100
AcDbEntity
  8
0
100
AcDbLine
 62
7
  6
CONTINUOUS
 10
90.5301804732
 20
227.842718426
 11
89.7076016838
 21
228.1918824065
  0
LINE
  5
2EC
100
AcDbEntity
  8
0
100
AcDbLine
 62
7
  6
CONTINUOUS
 10
89.3550678698
 20
228.3415241323
 11
87.7686659129
 21
229.0149118115
  0
LINE
  5
2ED
100
AcDbEntity
  8
0
100
AcDbLine
 62
7
  6
CONTINUOUS
 10
89.9029669499
 20
228.6521341309
 11
89.550433136
 21
228.8017758568
  0
LINE
  5
2EE
100
AcDbEntity
  8
0
100
AcDbLine
 62
7
  6
CONTINUOUS
 10
98.2597179477
 20
234.7539230789
 11
98.4219383591
 21
234.5896159736
  0
LINE
  5
2EF
100
AcDbEntity
  8
0
100
AcDbLine
 62
7
  6
CONTINUOUS
 10
98.9669722201
 20
235.1622565235
 11
99.2036604187
 21
234.8689667597
  0
LINE
  5
2F0
100
AcDbEntity
  8
0
100
AcDbLine
 62
7
  6
CONTINUOUS
 10
99.4562513542
 20
235.0148002043
 11
99.1823288284
 21
235.372581047
  0
LINE
  5
2F1
100
AcDbEntity
  8
0
100
AcDbLine
 62
7
  6
CONTINUOUS
 10
99.9612398541
 20
236.9401337976
 11
100.2351626168
 21
236.5823532121
  0
LINE
  5
2F2
100
AcDbEntity
  8
0
100
AcDbLine
 62
7
  6
CONTINUOUS
 10
102.1498084241
 20
235.3660893953
 11
101.7402339527
 21
236.0754931892
  0
LINE
  5
2F3
100
AcDbEntity
  8
0
100
AcDbLine
 62
7
  6
CONTINUOUS
 10
101.516829724
 20
236.4624406639
 11
100.3998084241
 21
238.3971783085
  0
LINE
  5
2F4
100
AcDbEntity
  8
0
100
AcDbLine
 62
7
  6
CONTINUOUS
 10
102.97118997
 20
237.560081047
 11
103.2690623271
 21
237.0441509904
  0
LINE
  5
2F5
100
AcDbEntity
  8
0
100
AcDbLine
 62
7
  6
CONTINUOUS
 10
103.4844192244
 20
237.2544756808
 11
103.2610149436
 21
237.6414232458
  0
LINE
  5
2F6
100
AcDbEntity
  8
0
100
AcDbLine
 62
7
  6
CONTINUOUS
 10
109.5754886018
 20
236.7802559507
 11
109.0504886018
 21
238.4930219125
  0
LINE
  5
2F7
100
AcDbEntity
  8
0
100
AcDbLine
 62
7
  6
CONTINUOUS
 10
108.7004885184
 20
238.3440857601
 11
109.1671551572
 21
236.7802559507
  0
LINE
  5
2F8
100
AcDbEntity
  8
0
100
AcDbLine
 62
7
  6
CONTINUOUS
 10
109.1088218795
 20
239.6845113408
 11
109.1671551572
 21
239.4611071121
  0
LINE
  5
2F9
100
AcDbEntity
  8
0
100
AcDbLine
 62
7
  6
CONTINUOUS
 10
109.5171551572
 20
239.4611071121
 11
109.4588218795
 21
239.6845113408
  0
LINE
  5
2FA
100
AcDbEntity
  8
0
100
AcDbLine
 62
7
  6
CONTINUOUS
 10
110.4504884349
 20
237.6738729697
 11
110.3921553241
 21
237.9717452746
  0
LINE
  5
2FB
100
AcDbEntity
  8
DEFAULT_2
100
AcDbLine
 62
8
  6
HIDDEN
 10
118.0188218795
 20
195.3712410183
 11
118.0188218795
 21
183.4102559507
  0
LINE
  5
2FC
100
AcDbEntity
  8
0
100
AcDbLine
 62
7
  6
CONTINUOUS
 10
83.9406683259
 20
218.6898358177
 11
83.6470361689
 21
218.651521217
  0
LINE
  5
2FD
100
AcDbEntity
  8
0
100
AcDbLine
 62
7
  6
CONTINUOUS
 10
86.4025663408
 20
224.1629843748
 11
88.8500365462
 21
223.8845473806
  0
LINE
  5
2FE
100
AcDbEntity
  8
0
100
AcDbLine
 62
7
  6
CONTINUOUS
 10
88.6344045465
 20
224.1933496023
 11
85.8736197906
 21
224.5504629211
  0
LINE
  5
2FF
100
AcDbEntity
  8
0
100
AcDbLine
 62
7
  6
CONTINUOUS
 10
97.0048119545
 20
233.4274843516
 11
97.2547843338
 21
233.227852601
  0
LINE
  5
300
100
AcDbEntity
  8
0
100
AcDbLine
 62
7
  6
CONTINUOUS
 10
97.5578933697
 20
233.4028526844
 11
97.3079207013
 21
233.6024842681
  0
LINE
  5
301
100
AcDbEntity
  8
0
100
AcDbLine
 62
7
  6
CONTINUOUS
 10
98.6372949674
 20
234.799940497
 11
98.3500885239
 21
235.0640635386
  0
LINE
  5
302
100
AcDbEntity
  8
0
100
AcDbLine
 62
7
  6
CONTINUOUS
 10
99.2036604187
 20
234.8689667597
 11
99.365880778
 21
234.7046597446
  0
LINE
  5
303
100
AcDbEntity
  8
0
100
AcDbLine
 62
7
  6
CONTINUOUS
 10
100.2138307896
 20
237.0859672422
 11
100.0516106151
 21
237.2502746049
  0
LINE
  5
304
100
AcDbEntity
  8
0
100
AcDbLine
 62
7
  6
CONTINUOUS
 10
100.450518936
 20
236.7926775687
 11
100.2138307896
 21
237.0859672422
  0
LINE
  5
305
100
AcDbEntity
  8
0
100
AcDbLine
 62
7
  6
CONTINUOUS
 10
103.8883715236
 20
239.1214759965
 11
104.1117757523
 21
238.7345285217
  0
LINE
  5
306
100
AcDbEntity
  8
0
100
AcDbLine
 62
7
  6
CONTINUOUS
 10
104.2979459428
 20
238.4120722928
 11
104.6702863761
 21
237.7671597446
  0
LINE
  5
307
100
AcDbEntity
  8
0
100
AcDbLine
 62
7
  6
CONTINUOUS
 10
104.8564565928
 20
237.4447034705
 11
105.1543289303
 21
236.9287734478
  0
LINE
  5
308
100
AcDbEntity
  8
0
100
AcDbLine
 62
7
  6
CONTINUOUS
 10
105.4069192877
 20
237.0746065586
 11
104.1409618809
 21
239.2673091073
  0
LINE
  5
309
100
AcDbEntity
  8
0
100
AcDbLine
 62
7
  6
CONTINUOUS
 10
110.1004886018
 20
237.5994048935
 11
110.2171553241
 21
237.3015325364
  0
LINE
  5
30A
100
AcDbEntity
  8
0
100
AcDbLine
 62
7
  6
CONTINUOUS
 10
114.5338218795
 20
239.3866388273
 11
114.5921549903
 21
239.0887665224
  0
LINE
  5
30B
100
AcDbEntity
  8
0
100
AcDbLine
 62
7
  6
CONTINUOUS
 10
114.9421549903
 20
239.0887665224
 11
114.8838218795
 21
239.4611071121
  0
LINE
  5
30C
100
AcDbEntity
  8
0
100
AcDbLine
 62
7
  6
CONTINUOUS
 10
83.666864612
 20
218.3715143961
 11
83.8234489874
 21
218.4136843617
  0
LINE
  5
30D
100
AcDbEntity
  8
0
100
AcDbLine
 62
7
  6
CONTINUOUS
 10
97.2547843338
 20
233.227852601
 11
97.5552750895
 21
233.0573876787
  0
LINE
  5
30E
100
AcDbEntity
  8
0
100
AcDbLine
 62
7
  6
CONTINUOUS
 10
98.0469796326
 20
234.8890635386
 11
98.2597179477
 21
234.7539230789
  0
LINE
  5
30F
100
AcDbEntity
  8
0
100
AcDbLine
 62
7
  6
CONTINUOUS
 10
99.8817282995
 20
234.7445194067
 11
99.4562513542
 21
235.0148002043
  0
LINE
  5
310
100
AcDbEntity
  8
0
100
AcDbLine
 62
7
  6
CONTINUOUS
 10
99.365880778
 20
234.7046597446
 11
99.6158531572
 21
234.505027994
  0
LINE
  5
311
100
AcDbEntity
  8
0
100
AcDbLine
 62
7
  6
CONTINUOUS
 10
100.0516106151
 20
237.2502746049
 11
99.8016379728
 21
237.4499061434
  0
LINE
  5
312
100
AcDbEntity
  8
0
100
AcDbLine
 62
7
  6
CONTINUOUS
 10
103.8648070021
 20
236.0122909449
 11
104.1892477597
 21
235.6836768471
  0
LINE
  5
313
100
AcDbEntity
  8
0
100
AcDbLine
 62
7
  6
CONTINUOUS
 10
104.2796180208
 20
235.993817185
 11
104.1173979376
 21
236.1581243895
  0
LINE
  5
314
100
AcDbEntity
  8
0
100
AcDbLine
 62
7
  6
CONTINUOUS
 10
103.6466392946
 20
237.0901684988
 11
103.4844192244
 21
237.2544756808
  0
LINE
  5
315
100
AcDbEntity
  8
0
100
AcDbLine
 62
7
  6
CONTINUOUS
 10
103.2690623271
 20
237.0441509904
 11
103.4685164614
 21
236.8153525175
  0
LINE
  5
316
100
AcDbEntity
  8
0
100
AcDbLine
 62
7
  6
CONTINUOUS
 10
109.4588218795
 20
239.6845113408
 11
109.2838218795
 21
239.9823836457
  0
LINE
  5
317
100
AcDbEntity
  8
0
100
AcDbLine
 62
7
  6
CONTINUOUS
 10
110.5671553241
 20
237.450468741
 11
110.4504884349
 21
237.6738729697
  0
LINE
  5
318
100
AcDbEntity
  8
0
100
AcDbLine
 62
7
  6
CONTINUOUS
 10
98.3500885239
 20
235.0640635386
 11
98.0495979258
 21
235.2345285217
  0
LINE
  5
319
100
AcDbEntity
  8
0
100
AcDbLine
 62
7
  6
CONTINUOUS
 10
99.5357631196
 20
237.2104148976
 11
99.9612398541
 21
236.9401337976
  0
LINE
  5
31A
100
AcDbEntity
  8
0
100
AcDbLine
 62
7
  6
CONTINUOUS
 10
103.4685164614
 20
236.8153525175
 11
103.5935030716
 21
236.7155369151
  0
LINE
  5
31B
100
AcDbEntity
  8
0
100
AcDbLine
 62
7
  6
CONTINUOUS
 10
103.7716253528
 20
236.9903525175
 11
103.6466392946
 21
237.0901684988
  0
LINE
  5
31C
100
AcDbEntity
  8
0
100
AcDbLine
 62
7
  6
CONTINUOUS
 10
110.2171553241
 20
237.3015325364
 11
110.4504884349
 21
237.0036602054
  0
LINE
  5
31D
100
AcDbEntity
  8
0
100
AcDbLine
 62
7
  6
CONTINUOUS
 10
108.9921551572
 20
239.8334474933
 11
109.1088218795
 21
239.6845113408
  0
LINE
  5
31E
100
AcDbEntity
  8
0
100
AcDbLine
 62
7
  6
CONTINUOUS
 10
114.4171549903
 20
239.6100432646
 11
114.5338218795
 21
239.3866388273
  0
LINE
  5
31F
100
AcDbEntity
  8
0
100
AcDbLine
 62
7
  6
CONTINUOUS
 10
114.8838218795
 20
239.4611071121
 11
114.7671549903
 21
239.7589794171
  0
LINE
  5
320
100
AcDbEntity
  8
B-ACHSEN
100
AcDbLine
 62
7
  6
CONTINUOUS
 10
128.5188218795
 20
182.4102559507
 11
128.5188218795
 21
183.0665665764
  0
LINE
  5
321
100
AcDbEntity
  8
DEFAULT_2
100
AcDbLine
 62
8
  6
HIDDEN
 10
104.0188218795
 20
183.4102559507
 11
102.5188218795
 21
181.9102559507
  0
LINE
  5
322
100
AcDbEntity
  8
0
100
AcDbLine
 62
7
  6
CONTINUOUS
 10
97.5552750895
 20
233.0573876787
 11
97.9195678601
 21
233.0097472021
  0
LINE
  5
323
100
AcDbEntity
  8
0
100
AcDbLine
 62
7
  6
CONTINUOUS
 10
97.7839158916
 20
233.3613701928
 11
97.5578933697
 21
233.4028526844
  0
LINE
  5
324
100
AcDbEntity
  8
0
100
AcDbLine
 62
7
  6
CONTINUOUS
 10
99.6158531572
 20
234.505027994
 11
99.8791097303
 21
234.3990542341
  0
LINE
  5
325
100
AcDbEntity
  8
0
100
AcDbLine
 62
7
  6
CONTINUOUS
 10
103.3117254554
 20
236.0369225061
 11
101.8465063987
 21
236.8247563567
  0
LINE
  5
326
100
AcDbEntity
  8
0
100
AcDbLine
 62
7
  6
CONTINUOUS
 10
101.8066541195
 20
236.543782529
 11
103.0086165641
 21
235.8619225061
  0
LINE
  5
327
100
AcDbEntity
  8
0
100
AcDbLine
 62
7
  6
CONTINUOUS
 10
104.492356651
 20
235.8586768471
 11
104.2796180208
 21
235.993817185
  0
LINE
  5
328
100
AcDbEntity
  8
0
100
AcDbLine
 62
7
  6
CONTINUOUS
 10
104.0852079168
 20
238.5472129194
 11
104.2979459428
 21
238.4120722928
  0
LINE
  5
329
100
AcDbEntity
  8
0
100
AcDbLine
 62
7
  6
CONTINUOUS
 10
104.1117757523
 20
238.7345285217
 11
103.9867891421
 21
238.8343441241
  0
LINE
  5
32A
100
AcDbEntity
  8
0
100
AcDbLine
 62
7
  6
CONTINUOUS
 10
110.7421553241
 20
237.3015325364
 11
110.5671553241
 21
237.450468741
  0
LINE
  5
32B
100
AcDbEntity
  8
0
100
AcDbLine
 62
7
  6
CONTINUOUS
 10
109.2838218795
 20
239.9823836457
 11
109.0504886018
 21
240.2057878744
  0
LINE
  5
32C
100
AcDbEntity
  8
0
100
AcDbLine
 62
7
  6
CONTINUOUS
 10
99.8791097303
 20
234.3990542341
 11
100.2434025008
 21
234.3514137575
  0
LINE
  5
32D
100
AcDbEntity
  8
0
100
AcDbLine
 62
7
  6
CONTINUOUS
 10
98.0495979258
 20
235.2345285217
 11
97.685305165
 21
235.2821689814
  0
LINE
  5
32E
100
AcDbEntity
  8
0
100
AcDbLine
 62
7
  6
CONTINUOUS
 10
97.8209571107
 20
234.9305460302
 11
98.0469796326
 21
234.8890635386
  0
LINE
  5
32F
100
AcDbEntity
  8
0
100
AcDbLine
 62
7
  6
CONTINUOUS
 10
100.1077508214
 20
234.7030369151
 11
99.8817282995
 21
234.7445194067
  0
LINE
  5
330
100
AcDbEntity
  8
0
100
AcDbLine
 62
7
  6
CONTINUOUS
 10
104.4525043197
 20
235.5777031097
 11
104.6785268416
 21
235.5362206181
  0
LINE
  5
331
100
AcDbEntity
  8
0
100
AcDbLine
 62
7
  6
CONTINUOUS
 10
104.1892477597
 20
235.6836768471
 11
104.4525043197
 21
235.5777031097
  0
LINE
  5
332
100
AcDbEntity
  8
0
100
AcDbLine
 62
7
  6
CONTINUOUS
 10
99.8016379728
 20
237.4499061434
 11
99.5383814128
 21
237.5558798808
  0
LINE
  5
333
100
AcDbEntity
  8
0
100
AcDbLine
 62
7
  6
CONTINUOUS
 10
103.5935030716
 20
236.7155369151
 11
103.8567596447
 21
236.6095631552
  0
LINE
  5
334
100
AcDbEntity
  8
0
100
AcDbLine
 62
7
  6
CONTINUOUS
 10
103.9867891421
 20
238.8343441241
 11
103.8112851541
 21
238.9049935049
  0
LINE
  5
335
100
AcDbEntity
  8
0
100
AcDbLine
 62
7
  6
CONTINUOUS
 10
110.4504884349
 20
237.0036602054
 11
110.6838218795
 21
236.8547240334
  0
LINE
  5
336
100
AcDbEntity
  8
0
100
AcDbLine
 62
7
  6
CONTINUOUS
 10
114.7671549903
 20
239.7589794171
 11
114.5338218795
 21
240.056851722
  0
LINE
  5
337
100
AcDbEntity
  8
0
100
AcDbLine
 62
7
  6
CONTINUOUS
 10
97.9195678601
 20
233.0097472021
 11
98.2093925478
 21
233.0910892284
  0
LINE
  5
338
100
AcDbEntity
  8
0
100
AcDbLine
 62
7
  6
CONTINUOUS
 10
100.3975752169
 20
234.7843787802
 11
100.1077508214
 21
234.7030369151
  0
LINE
  5
339
100
AcDbEntity
  8
0
100
AcDbLine
 62
7
  6
CONTINUOUS
 10
114.0088218795
 20
236.7802559507
 11
114.3004887687
 21
236.8547240334
  0
LINE
  5
33A
100
AcDbEntity
  8
0
100
AcDbLine
 62
7
  6
CONTINUOUS
 10
111.2088218795
 20
236.7802559507
 11
111.5004884349
 21
236.8547240334
  0
LINE
  5
33B
100
AcDbEntity
  8
0
100
AcDbLine
 62
7
  6
CONTINUOUS
 10
98.0232223312
 20
233.4135455025
 11
97.7839158916
 21
233.3613701928
  0
LINE
  5
33C
100
AcDbEntity
  8
0
100
AcDbLine
 62
7
  6
CONTINUOUS
 10
104.6785268416
 20
235.5362206181
 11
104.9178332812
 21
235.5883959278
  0
LINE
  5
33D
100
AcDbEntity
  8
0
100
AcDbLine
 62
7
  6
CONTINUOUS
 10
97.581650382
 20
234.8783705537
 11
97.8209571107
 21
234.9305460302
  0
LINE
  5
33E
100
AcDbEntity
  8
0
100
AcDbLine
 62
7
  6
CONTINUOUS
 10
107.3588218795
 20
236.7802559507
 11
107.7088218795
 21
236.7802559507
  0
LINE
  5
33F
100
AcDbEntity
  8
0
100
AcDbLine
 62
7
  6
CONTINUOUS
 10
109.1671551572
 20
236.7802559507
 11
109.5754886018
 21
236.7802559507
  0
LINE
  5
340
100
AcDbEntity
  8
0
100
AcDbLine
 62
7
  6
CONTINUOUS
 10
110.9754884349
 20
236.7802559507
 11
111.2088218795
 21
236.7802559507
  0
LINE
  5
341
100
AcDbEntity
  8
0
100
AcDbLine
 62
7
  6
CONTINUOUS
 10
112.6088218795
 20
236.7802559507
 11
114.0088218795
 21
236.7802559507
  0
LINE
  5
342
100
AcDbEntity
  8
0
100
AcDbLine
 62
7
  6
CONTINUOUS
 10
114.0088218795
 20
237.2270644602
 11
112.9588218795
 21
237.2270644602
  0
LINE
  5
343
100
AcDbEntity
  8
0
100
AcDbLine
 62
7
  6
CONTINUOUS
 10
111.2088218795
 20
237.2270644602
 11
110.9754884349
 21
237.2270644602
  0
LINE
  5
344
100
AcDbEntity
  8
0
100
AcDbLine
 62
7
  6
CONTINUOUS
 10
104.7688971288
 20
235.8463609109
 11
104.492356651
 21
235.8586768471
  0
LINE
  5
345
100
AcDbEntity
  8
0
100
AcDbLine
 62
7
  6
CONTINUOUS
 10
99.5383814128
 20
237.5558798808
 11
99.174088363
 21
237.6035201735
  0
LINE
  5
346
100
AcDbEntity
  8
0
100
AcDbLine
 62
7
  6
CONTINUOUS
 10
99.3097405977
 20
237.2518973892
 11
99.5357631196
 21
237.2104148976
  0
LINE
  5
347
100
AcDbEntity
  8
0
100
AcDbLine
 62
7
  6
CONTINUOUS
 10
103.8567596447
 20
236.6095631552
 11
104.0827821764
 21
236.5680806467
  0
LINE
  5
348
100
AcDbEntity
  8
0
100
AcDbLine
 62
7
  6
CONTINUOUS
 10
103.9976478747
 20
236.9488700259
 11
103.7716253528
 21
236.9903525175
  0
LINE
  5
349
100
AcDbEntity
  8
0
100
AcDbLine
 62
7
  6
CONTINUOUS
 10
103.8591848168
 20
238.5886950771
 11
104.0852079168
 21
238.5472129194
  0
LINE
  5
34A
100
AcDbEntity
  8
0
100
AcDbLine
 62
7
  6
CONTINUOUS
 10
110.6838218795
 20
236.8547240334
 11
110.9754884349
 21
236.7802559507
  0
LINE
  5
34B
100
AcDbEntity
  8
0
100
AcDbLine
 62
7
  6
CONTINUOUS
 10
110.9754884349
 20
237.2270644602
 11
110.7421553241
 21
237.3015325364
  0
LINE
  5
34C
100
AcDbEntity
  8
0
100
AcDbLine
 62
7
  6
CONTINUOUS
 10
108.8171551572
 20
239.9079155695
 11
108.9921551572
 21
239.8334474933
  0
LINE
  5
34D
100
AcDbEntity
  8
0
100
AcDbLine
 62
7
  6
CONTINUOUS
 10
114.2421549903
 20
239.7589794171
 11
114.4171549903
 21
239.6100432646
  0
LINE
  5
34E
100
AcDbEntity
  8
0
100
AcDbLine
 62
7
  6
CONTINUOUS
 10
97.685305165
 20
235.2821689814
 11
97.3954801914
 21
235.2008267826
  0
LINE
  5
34F
100
AcDbEntity
  8
0
100
AcDbLine
 62
7
  6
CONTINUOUS
 10
99.0199156241
 20
237.1705551904
 11
99.3097405977
 21
237.2518973892
  0
LINE
  5
350
100
AcDbEntity
  8
0
100
AcDbLine
 62
7
  6
CONTINUOUS
 10
104.0827821764
 20
236.5680806467
 11
104.3220886192
 21
236.6202559507
  0
LINE
  5
351
100
AcDbEntity
  8
0
100
AcDbLine
 62
7
  6
CONTINUOUS
 10
104.2369548924
 20
237.0010456693
 11
103.9976478747
 21
236.9488700259
  0
LINE
  5
352
100
AcDbEntity
  8
0
100
AcDbLine
 62
7
  6
CONTINUOUS
 10
103.6198783772
 20
238.5365197675
 11
103.8591848168
 21
238.5886950771
  0
LINE
  5
353
100
AcDbEntity
  8
0
100
AcDbLine
 62
7
  6
CONTINUOUS
 10
103.6730146262
 20
238.9111513061
 11
103.4337081866
 21
238.8589759965
  0
LINE
  5
354
100
AcDbEntity
  8
0
100
AcDbLine
 62
7
  6
CONTINUOUS
 10
107.7088218795
 20
238.3440857601
 11
108.7004885184
 21
238.3440857601
  0
LINE
  5
355
100
AcDbEntity
  8
0
100
AcDbLine
 62
7
  6
CONTINUOUS
 10
108.8171551572
 20
238.7908942175
 11
107.7088218795
 21
238.7908942175
  0
LINE
  5
356
100
AcDbEntity
  8
0
100
AcDbLine
 62
7
  6
CONTINUOUS
 10
112.9588218795
 20
239.8334474933
 11
114.0088218795
 21
239.8334474933
  0
LINE
  5
357
100
AcDbEntity
  8
0
100
AcDbLine
 62
7
  6
CONTINUOUS
 10
107.7088218795
 20
239.9079155695
 11
108.8171551572
 21
239.9079155695
  0
LINE
  5
358
100
AcDbEntity
  8
0
100
AcDbLine
 62
7
  6
CONTINUOUS
 10
114.0088218795
 20
240.2802559507
 11
112.6088218795
 21
240.2802559507
  0
LINE
  5
359
100
AcDbEntity
  8
0
100
AcDbLine
 62
7
  6
CONTINUOUS
 10
112.1421553241
 20
240.2802559507
 11
111.7921553241
 21
240.2802559507
  0
LINE
  5
35A
100
AcDbEntity
  8
0
100
AcDbLine
 62
7
  6
CONTINUOUS
 10
110.3921553241
 20
240.2802559507
 11
110.0421551572
 21
240.2802559507
  0
LINE
  5
35B
100
AcDbEntity
  8
0
100
AcDbLine
 62
7
  6
CONTINUOUS
 10
108.7588218795
 20
240.2802559507
 11
107.3588218795
 21
240.2802559507
  0
LINE
  5
35C
100
AcDbEntity
  8
0
100
AcDbLine
 62
7
  6
CONTINUOUS
 10
103.8112851541
 20
238.9049935049
 11
103.6730146262
 21
238.9111513061
  0
LINE
  5
35D
100
AcDbEntity
  8
0
100
AcDbLine
 62
7
  6
CONTINUOUS
 10
109.0504886018
 20
240.2057878744
 11
108.7588218795
 21
240.2802559507
  0
LINE
  5
35E
100
AcDbEntity
  8
0
100
AcDbLine
 62
7
  6
CONTINUOUS
 10
114.3004887687
 20
240.2057878744
 11
114.0088218795
 21
240.2802559507
  0
LINE
  5
35F
100
AcDbEntity
  8
0
100
AcDbLine
 62
7
  6
CONTINUOUS
 10
114.0088218795
 20
239.8334474933
 11
114.2421549903
 21
239.7589794171
  0
LINE
  5
360
100
AcDbEntity
  8
0
100
AcDbLine
 62
7
  6
CONTINUOUS
 10
114.5338218795
 20
240.056851722
 11
114.3004887687
 21
240.2057878744
  0
LINE
  5
361
100
AcDbEntity
  8
RUNDUNGEN
100
AcDbLine
 62
7
  6
CONTINUOUS
 10
112.549555609
 20
243.7891673885
 11
132.8317775243
 21
235.3879959961
  0
LINE
  5
362
100
AcDbEntity
  8
RUNDUNGEN
100
AcDbLine
 62
7
  6
CONTINUOUS
 10
134.9965619249
 20
233.2232115955
 11
143.3977333173
 21
212.9409896801
  0
LINE
  5
363
100
AcDbEntity
  8
RUNDUNGEN
100
AcDbLine
 62
7
  6
CONTINUOUS
 10
143.3977333173
 20
209.8795222212
 11
134.7460625957
 21
188.9925414278
  0
LINE
  5
364
100
AcDbEntity
  8
RUNDUNGEN
100
AcDbLine
 62
7
  6
CONTINUOUS
 10
143.3977333173
 20
212.9409896801
 11
143.5683296555
 21
212.436491264
  0
LINE
  5
365
100
AcDbEntity
  8
B-ACHSEN
100
AcDbLine
 62
7
  6
CONTINUOUS
 10
128.0188218795
 20
181.9102559507
 11
128.5188218795
 21
182.4102559507
  0
LINE
  5
366
100
AcDbEntity
  8
B-ACHSEN
100
AcDbLine
 62
7
  6
CONTINUOUS
 10
278.3771303606
 20
181.9102559507
 11
277.8771303606
 21
182.4102559507
  0
LINE
  5
367
100
AcDbEntity
  8
B-ACHSEN
100
AcDbLine
 62
7
  6
CONTINUOUS
 10
278.377427497
 20
181.9102559507
 11
312.3768332242
 21
181.9102559507
  0
LINE
  5
368
100
AcDbEntity
  8
B-ACHSEN
100
AcDbLine
 62
7
  6
CONTINUOUS
 10
277.8771303606
 20
182.4102559507
 11
312.8771303606
 21
182.4102559507
  0
LINE
  5
369
100
AcDbEntity
  8
DEFAULT_2
100
AcDbLine
 62
8
  6
HIDDEN
 10
302.3771303606
 20
183.4102559507
 11
288.3771303606
 21
183.4102559507
  0
LINE
  5
36A
100
AcDbEntity
  8
RUNDUNGEN
100
AcDbLine
 62
7
  6
CONTINUOUS
 10
302.7431207204
 20
188.0665665764
 11
298.0437553906
 21
188.0665665764
  0
LINE
  5
36B
100
AcDbEntity
  8
RUNDUNGEN
100
AcDbLine
 62
7
  6
CONTINUOUS
 10
292.7105053306
 20
188.0665665764
 11
288.0111400008
 21
188.0665665764
  0
LINE
  5
36C
100
AcDbEntity
  8
B-ACHSEN
100
AcDbLine
 62
7
  6
CONTINUOUS
 10
277.8771303606
 20
182.4102559507
 11
277.8771303606
 21
188.9471909289
  0
LINE
  5
36D
100
AcDbEntity
  8
B-ACHSEN
100
AcDbLine
 62
7
  6
CONTINUOUS
 10
280.4078269655
 20
191.9102559507
 11
286.1641787605
 21
192.821972508
  0
LINE
  5
36E
100
AcDbEntity
  8
B-ACHSEN
100
AcDbLine
 62
7
  6
CONTINUOUS
 10
310.3464337557
 20
191.9102559507
 11
304.5930825305
 21
192.8214972644
  0
LWPOLYLINE
  5
36F
100
AcDbEntity
  8
RUNDUNGEN
100
AcDbPolyline
 62
7
  6
CONTINUOUS
 90
5
 70
0
 10
304.5882600828
 20
192.8222130494
 10
304.545181648
 20
192.8300061477
 10
304.4017949992
 20
192.8705285201
 10
304.2661271055
 20
192.9318480492
 10
304.1411622909
 20
193.0125572939
  0
LINE
  5
370
100
AcDbEntity
  8
RUNDUNGEN
100
AcDbLine
 62
7
  6
CONTINUOUS
 10
304.1411622909
 20
193.0125572939
 11
304.0296371736
 21
193.1108254243
  0
LINE
  5
371
100
AcDbEntity
  8
RUNDUNGEN
100
AcDbLine
 62
7
  6
CONTINUOUS
 10
288.3771303606
 20
242.5936492492
 11
288.3771303606
 21
212.0516530215
  0
LINE
  5
372
100
AcDbEntity
  8
DEFAULT_2
100
AcDbLine
 62
8
  6
HIDDEN
 10
288.3771303606
 20
193.9104167259
 11
288.3771303606
 21
183.4102559507
  0
LINE
  5
373
100
AcDbEntity
  8
RUNDUNGEN
100
AcDbLine
 62
7
  6
CONTINUOUS
 10
288.3223784421
 20
210.7712000612
 11
286.290299915
 21
187.0530951014
  0
LWPOLYLINE
  5
374
100
AcDbEntity
  8
RUNDUNGEN
100
AcDbPolyline
 62
7
  6
CONTINUOUS
 90
3
 70
0
 10
304.0296371736
 20
193.1108254243
 10
304.0318966694
 20
193.1084030169
 10
304.0197276741
 20
193.122063559
  0
LINE
  5
375
100
AcDbEntity
  8
RUNDUNGEN
100
AcDbLine
 62
7
  6
CONTINUOUS
 10
304.0199983735
 20
193.1217596801
 11
303.9999585986
 21
193.1495322887
  0
LINE
  5
376
100
AcDbEntity
  8
B-ACHSEN
100
AcDbLine
 62
2
  6
CENTER
 10
295.3771303606
 20
249.7233967083
 11
295.3771303606
 21
178.9102559507
  0
LINE
  5
377
100
AcDbEntity
  8
RUNDUNGEN
100
AcDbLine
 62
7
  6
CONTINUOUS
 10
286.8090306345
 20
193.2669679679
 11
286.7695007166
 21
193.1743150388
  0
LWPOLYLINE
  5
378
100
AcDbEntity
  8
RUNDUNGEN
100
AcDbPolyline
 62
7
  6
CONTINUOUS
 90
4
 70
0
 10
303.9981299835
 20
193.1520731122
 10
303.9686467697
 20
193.2061846449
 10
303.9377904911
 20
193.2928565554
 10
303.9240191514
 20
193.3725878509
  0
LINE
  5
379
100
AcDbEntity
  8
RUNDUNGEN
100
AcDbLine
 62
7
  6
CONTINUOUS
 10
286.7696531371
 20
193.1746722924
 11
286.7434762548
 21
193.1336279356
  0
LINE
  5
37A
100
AcDbEntity
  8
0
100
AcDbLine
 62
7
  6
CONTINUOUS
 10
302.3771303606
 20
216.0602559507
 11
302.6771303606
 21
216.0602559507
  0
LINE
  5
37B
100
AcDbEntity
  8
RUNDUNGEN
100
AcDbLine
 62
7
  6
CONTINUOUS
 10
304.4639608061
 20
187.0530951017
 11
302.4318822791
 21
210.7712000612
  0
LINE
  5
37C
100
AcDbEntity
  8
DEFAULT_2
100
AcDbLine
 62
8
  6
HIDDEN
 10
302.3771303606
 20
193.9104525876
 11
302.3771303606
 21
183.4102559507
  0
LINE
  5
37D
100
AcDbEntity
  8
RUNDUNGEN
100
AcDbLine
 62
7
  6
CONTINUOUS
 10
302.3771303606
 20
212.0516530215
 11
302.3771303606
 21
242.5936492493
  0
LINE
  5
37E
100
AcDbEntity
  8
0
100
AcDbLine
 62
7
  6
CONTINUOUS
 10
302.3771303606
 20
234.0021766973
 11
302.3771303606
 21
242.4033480897
  0
LINE
  5
37F
100
AcDbEntity
  8
0
100
AcDbLine
 62
7
  6
CONTINUOUS
 10
302.6771303606
 20
240.2802559507
 11
302.6771303606
 21
231.6619226104
  0
LINE
  5
380
100
AcDbEntity
  8
0
100
AcDbLine
 62
7
  6
CONTINUOUS
 10
302.6771303606
 20
229.0149118115
 11
302.6771303606
 21
227.2829428486
  0
LINE
  5
381
100
AcDbEntity
  8
0
100
AcDbLine
 62
7
  6
CONTINUOUS
 10
302.6771303606
 20
227.2659518876
 11
302.6771303606
 21
222.9640423516
  0
LINE
  5
382
100
AcDbEntity
  8
0
100
AcDbLine
 62
7
  6
CONTINUOUS
 10
302.6771303606
 20
221.5588222351
 11
302.6771303606
 21
216.0602559507
  0
LWPOLYLINE
  5
383
100
AcDbEntity
  8
RUNDUNGEN
100
AcDbPolyline
 62
7
  6
CONTINUOUS
 90
4
 70
0
 10
286.7434762548
 20
193.1336279356
 10
286.7312062317
 20
193.1180765688
 10
286.7243632256
 20
193.1105444437
 10
286.7182229743
 20
193.1043861176
  0
LINE
  5
384
100
AcDbEntity
  8
RUNDUNGEN
100
AcDbLine
 62
7
  6
CONTINUOUS
 10
286.7182229743
 20
193.1043861176
 11
286.6219761238
 21
193.0194017314
  0
LINE
  5
385
100
AcDbEntity
  8
0
100
AcDbLine
 62
7
  6
CONTINUOUS
 10
302.3771303606
 20
221.5588222351
 11
302.6771303606
 21
221.5588222351
  0
LWPOLYLINE
  5
386
100
AcDbEntity
  8
RUNDUNGEN
100
AcDbPolyline
 62
7
  6
CONTINUOUS
 90
5
 70
0
 10
286.6219761238
 20
193.0194017314
 10
286.5153215912
 20
192.9472672476
 10
286.3999530259
 20
192.8892950323
 10
286.2777219086
 20
192.8465719978
 10
286.1660119949
 20
192.8222623849
  0
LINE
  5
387
100
AcDbEntity
  8
0
100
AcDbLine
 62
7
  6
CONTINUOUS
 10
302.3771303606
 20
222.9640423516
 11
302.6771303606
 21
222.9640423516
  0
LINE
  5
388
100
AcDbEntity
  8
DEFAULT_2
100
AcDbLine
 62
8
  6
HIDDEN
 10
288.3771303606
 20
183.4102559507
 11
286.8771303606
 21
181.9102559507
  0
LINE
  5
389
100
AcDbEntity
  8
0
100
AcDbLine
 62
7
  6
CONTINUOUS
 10
302.3771303606
 20
228.7387603554
 11
302.6771303606
 21
228.7387603554
  0
LINE
  5
38A
100
AcDbEntity
  8
0
100
AcDbLine
 62
7
  6
CONTINUOUS
 10
302.3771303606
 20
229.0149118115
 11
302.6771303606
 21
229.0149118115
  0
LINE
  5
38B
100
AcDbEntity
  8
B-ACHSEN
100
AcDbLine
 62
7
  6
CONTINUOUS
 10
312.8771303606
 20
182.4102559507
 11
312.8771303606
 21
188.9471909289
  0
LINE
  5
38C
100
AcDbEntity
  8
0
100
AcDbLine
 62
7
  6
CONTINUOUS
 10
302.3771303606
 20
231.6619226104
 11
302.6771303606
 21
231.6619226104
  0
LINE
  5
38D
100
AcDbEntity
  8
0
100
AcDbLine
 62
7
  6
CONTINUOUS
 10
302.3771303606
 20
234.078888635
 11
302.6771303606
 21
234.078888635
  0
LINE
  5
38E
100
AcDbEntity
  8
0
100
AcDbLine
 62
7
  6
CONTINUOUS
 10
302.3771303606
 20
234.4013448639
 11
302.6771303606
 21
234.4013448639
  0
LINE
  5
38F
100
AcDbEntity
  8
0
100
AcDbLine
 62
7
  6
CONTINUOUS
 10
302.3771303606
 20
235.4513448639
 11
302.6771303606
 21
235.4513448639
  0
LINE
  5
390
100
AcDbEntity
  8
0
100
AcDbLine
 62
7
  6
CONTINUOUS
 10
302.3771303606
 20
235.6846782251
 11
302.6771303606
 21
235.6846782251
  0
LINE
  5
391
100
AcDbEntity
  8
0
100
AcDbLine
 62
7
  6
CONTINUOUS
 10
302.3771303606
 20
236.6763448639
 11
302.6771303606
 21
236.6763448639
  0
LINE
  5
392
100
AcDbEntity
  8
0
100
AcDbLine
 62
7
  6
CONTINUOUS
 10
302.3771303606
 20
236.9142131585
 11
302.6771303606
 21
236.9142131585
  0
LINE
  5
393
100
AcDbEntity
  8
0
100
AcDbLine
 62
7
  6
CONTINUOUS
 10
302.3771303606
 20
237.2535201735
 11
302.6771303606
 21
237.2535201735
  0
LINE
  5
394
100
AcDbEntity
  8
0
100
AcDbLine
 62
7
  6
CONTINUOUS
 10
302.3771303606
 20
237.4930114193
 11
302.6771303606
 21
237.4930114193
  0
LINE
  5
395
100
AcDbEntity
  8
0
100
AcDbLine
 62
7
  6
CONTINUOUS
 10
302.3771303606
 20
237.6035201735
 11
302.6771303606
 21
237.6035201735
  0
LINE
  5
396
100
AcDbEntity
  8
0
100
AcDbLine
 62
7
  6
CONTINUOUS
 10
302.3771303606
 20
238.2513448639
 11
302.6771303606
 21
238.2513448639
  0
LINE
  5
397
100
AcDbEntity
  8
0
100
AcDbLine
 62
7
  6
CONTINUOUS
 10
302.3771303606
 20
238.3971783085
 11
302.6771303606
 21
238.3971783085
  0
LINE
  5
398
100
AcDbEntity
  8
0
100
AcDbLine
 62
7
  6
CONTINUOUS
 10
302.3771303606
 20
238.5028181953
 11
302.6771303606
 21
238.5028181953
  0
LINE
  5
399
100
AcDbEntity
  8
0
100
AcDbLine
 62
7
  6
CONTINUOUS
 10
302.3771303606
 20
238.6839759965
 11
302.6771303606
 21
238.6839759965
  0
LINE
  5
39A
100
AcDbEntity
  8
0
100
AcDbLine
 62
7
  6
CONTINUOUS
 10
302.3771303606
 20
238.8589759965
 11
302.6771303606
 21
238.8589759965
  0
LINE
  5
39B
100
AcDbEntity
  8
0
100
AcDbLine
 62
7
  6
CONTINUOUS
 10
302.3771303606
 20
238.9111513061
 11
302.6771303606
 21
238.9111513061
  0
LINE
  5
39C
100
AcDbEntity
  8
0
100
AcDbLine
 62
7
  6
CONTINUOUS
 10
302.3771303606
 20
239.1214759965
 11
302.6771303606
 21
239.1214759965
  0
LINE
  5
39D
100
AcDbEntity
  8
0
100
AcDbLine
 62
7
  6
CONTINUOUS
 10
302.3771303606
 20
239.2673091073
 11
302.6771303606
 21
239.2673091073
  0
LINE
  5
39E
100
AcDbEntity
  8
0
100
AcDbLine
 62
7
  6
CONTINUOUS
 10
302.3771303606
 20
240.2802559507
 11
302.6771303606
 21
240.2802559507
  0
LINE
  5
39F
100
AcDbEntity
  8
RUNDUNGEN
100
AcDbLine
 62
7
  6
CONTINUOUS
 10
300.8771303606
 20
244.0936492584
 11
289.8771303606
 21
244.0936492584
  0
LINE
  5
3A0
100
AcDbEntity
  8
B-ACHSEN
100
AcDbLine
 62
7
  6
CONTINUOUS
 10
312.3771303606
 20
181.9102559507
 11
312.8771303606
 21
182.4102559507
  0
LWPOLYLINE
  5
3A1
100
AcDbEntity
  8
RUNDUNGEN
100
AcDbPolyline
 62
7
  6
CONTINUOUS
 90
17
 70
0
 10
78.3354358536
 20
107.1009790363
 10
78.3492048125
 20
106.8979389377
 10
78.3860865064
 20
106.7139456616
 10
78.4423224193
 20
106.544084763
 10
78.5142143245
 20
106.3896788413
 10
78.5984807131
 20
106.2510382104
 10
78.6924272064
 20
106.1277826495
 10
78.7928020476
 20
106.0202828336
 10
78.8969460293
 20
105.9279454292
 10
79.0018959227
 20
105.8502744428
 10
79.1063003684
 20
105.7855194653
 10
79.2052904521
 20
105.7338665138
 10
79.2939583244
 20
105.6945416804
 10
79.3737973967
 20
105.6639762181
 10
79.4440317292
 20
105.6403114575
 10
79.5090261096
 20
105.6206359119
 10
79.5722618023
 20
105.6031554258
  0
LINE
  5
3A2
100
AcDbEntity
  8
RUNDUNGEN
100
AcDbLine
 62
7
  6
CONTINUOUS
 10
78.3354285718
 20
107.1004066871
 11
78.3354285718
 21
118.1265107708
  0
LINE
  5
3A3
100
AcDbEntity
  8
0
100
AcDbLine
 62
7
  6
CONTINUOUS
 10
82.7673073191
 20
105.6134587287
 11
82.7673073191
 21
105.3134587287
  0
LINE
  5
3A4
100
AcDbEntity
  8
0
100
AcDbLine
 62
7
  6
CONTINUOUS
 10
87.6514465743
 20
105.6134587287
 11
87.6514465743
 21
105.3134587287
  0
LINE
  5
3A5
100
AcDbEntity
  8
0
100
AcDbLine
 62
7
  6
CONTINUOUS
 10
87.7686659129
 20
105.6134587287
 11
87.7686659129
 21
105.3134587287
  0
LINE
  5
3A6
100
AcDbEntity
  8
0
100
AcDbLine
 62
7
  6
CONTINUOUS
 10
89.3550678698
 20
105.6134587287
 11
89.3550678698
 21
105.3134587287
  0
LINE
  5
3A7
100
AcDbEntity
  8
0
100
AcDbLine
 62
7
  6
CONTINUOUS
 10
89.550433136
 20
105.6134587287
 11
89.550433136
 21
105.3134587287
  0
LINE
  5
3A8
100
AcDbEntity
  8
0
100
AcDbLine
 62
7
  6
CONTINUOUS
 10
89.9029669499
 20
105.6134587287
 11
89.9029669499
 21
105.3134587287
  0
LINE
  5
3A9
100
AcDbEntity
  8
0
100
AcDbLine
 62
7
  6
CONTINUOUS
 10
90.5301804732
 20
105.6134587287
 11
90.5301804732
 21
105.3134587287
  0
LINE
  5
3AA
100
AcDbEntity
  8
0
100
AcDbLine
 62
7
  6
CONTINUOUS
 10
93.4788218795
 20
105.6134587287
 11
93.4788218795
 21
105.3134587287
  0
LWPOLYLINE
  5
3AB
100
AcDbEntity
  8
RUNDUNGEN
100
AcDbPolyline
 62
7
  6
CONTINUOUS
 90
3
 70
0
 10
96.361878049
 20
122.1750555061
 10
96.2748809769
 20
122.0606100537
 10
96.1718632979
 20
121.9593879423
  0
LINE
  5
3AC
100
AcDbEntity
  8
RUNDUNGEN
100
AcDbLine
 62
7
  6
CONTINUOUS
 10
96.1718614176
 20
103.2675311056
 11
96.2748788912
 21
103.1663097805
  0
LINE
  5
3AD
100
AcDbEntity
  8
RUNDUNGEN
100
AcDbLine
 62
7
  6
CONTINUOUS
 10
96.2748788912
 20
103.1663097805
 11
96.3618781021
 21
103.0518618997
  0
LINE
  5
3AE
100
AcDbEntity
  8
0
100
AcDbLine
 62
7
  6
CONTINUOUS
 10
95.2974752275
 20
105.6134587287
 11
95.2974752275
 21
105.3134587287
  0
LINE
  5
3AF
100
AcDbEntity
  8
0
100
AcDbLine
 62
7
  6
CONTINUOUS
 10
95.483645418
 20
105.6134587287
 11
95.483645418
 21
105.3134587287
  0
LINE
  5
3B0
100
AcDbEntity
  8
0
100
AcDbLine
 62
7
  6
CONTINUOUS
 10
95.7016204641
 20
105.6134587287
 11
95.7016204641
 21
105.3134587287
  0
LWPOLYLINE
  5
3B1
100
AcDbEntity
  8
RUNDUNGEN
100
AcDbPolyline
 62
7
  6
CONTINUOUS
 90
5
 70
0
 10
96.1718632979
 20
121.9593879423
 10
96.0553381697
 20
121.8740603625
 10
95.9277358521
 20
121.8064075557
 10
95.791717757
 20
121.7578411612
 10
95.6371431961
 20
121.7278154316
  0
LWPOLYLINE
  5
3B2
100
AcDbEntity
  8
RUNDUNGEN
100
AcDbPolyline
 62
7
  6
CONTINUOUS
 90
19
 70
0
 10
79.5527609046
 20
119.6185256865
 10
79.4808033631
 20
119.5979726508
 10
79.4124470745
 20
119.5763022288
 10
79.3424220015
 20
119.5514312059
 10
79.2664760451
 20
119.5208316679
 10
79.184547645
 20
119.4829425159
 10
79.095323934
 20
119.4351143922
 10
79.0021342447
 20
119.3768041756
 10
78.9080049021
 20
119.3078253191
 10
78.8145802291
 20
119.2273852396
 10
78.7241244231
 20
119.1353865142
 10
78.6388779521
 20
119.0321224242
 10
78.5610741087
 20
118.9184374375
 10
78.4925211733
 20
118.7952239293
 10
78.4350117966
 20
118.6641235774
 10
78.3895662245
 20
118.5258115584
 10
78.3572809658
 20
118.3813410239
 10
78.3392036362
 20
118.2323273154
 10
78.3354358452
 20
118.1259431698
  0
LWPOLYLINE
  5
3B3
100
AcDbEntity
  8
RUNDUNGEN
100
AcDbPolyline
 62
7
  6
CONTINUOUS
 90
5
 70
0
 10
79.5707837107
 20
105.6035460213
 10
79.5838805753
 20
105.6001042818
 10
79.6352156146
 20
105.58732832
 10
79.6881479564
 20
105.5752531967
 10
79.7219380394
 20
105.5680720862
  0
LINE
  5
3B4
100
AcDbEntity
  8
0
100
AcDbLine
 62
7
  6
CONTINUOUS
 10
97.4192374667
 20
105.6134587287
 11
97.4192374667
 21
105.3134587287
  0
LINE
  5
3B5
100
AcDbEntity
  8
0
100
AcDbLine
 62
7
  6
CONTINUOUS
 10
97.6054076573
 20
105.6134587287
 11
97.6054076573
 21
105.3134587287
  0
LINE
  5
3B6
100
AcDbEntity
  8
0
100
AcDbLine
 62
7
  6
CONTINUOUS
 10
97.685305165
 20
105.6134587287
 11
97.685305165
 21
105.3134587287
  0
LINE
  5
3B7
100
AcDbEntity
  8
0
100
AcDbLine
 62
7
  6
CONTINUOUS
 10
98.0495979258
 20
105.6134587287
 11
98.0495979258
 21
105.3134587287
  0
LINE
  5
3B8
100
AcDbEntity
  8
0
100
AcDbLine
 62
7
  6
CONTINUOUS
 10
98.3500885239
 20
105.6134587287
 11
98.3500885239
 21
105.3134587287
  0
LINE
  5
3B9
100
AcDbEntity
  8
0
100
AcDbLine
 62
7
  6
CONTINUOUS
 10
98.3871297169
 20
105.6134587287
 11
98.3871297169
 21
105.3134587287
  0
LINE
  5
3BA
100
AcDbEntity
  8
0
100
AcDbLine
 62
7
  6
CONTINUOUS
 10
98.4269820482
 20
105.6134587287
 11
98.4269820482
 21
105.3134587287
  0
LINE
  5
3BB
100
AcDbEntity
  8
0
100
AcDbLine
 62
7
  6
CONTINUOUS
 10
98.5678705803
 20
105.6134587287
 11
98.5678705803
 21
105.3134587287
  0
LINE
  5
3BC
100
AcDbEntity
  8
0
100
AcDbLine
 62
7
  6
CONTINUOUS
 10
98.8337454335
 20
105.6134587287
 11
98.8337454335
 21
105.3134587287
  0
LWPOLYLINE
  5
3BD
100
AcDbEntity
  8
RUNDUNGEN
100
AcDbPolyline
 62
7
  6
CONTINUOUS
 90
5
 70
0
 10
142.3156996587
 20
105.5680708277
 10
142.3563308548
 20
105.5767540399
 10
142.4095541784
 20
105.5890364173
 10
142.4612240106
 20
105.6020554717
 10
142.4848828517
 20
105.6083917703
  0
LINE
  5
3BE
100
AcDbEntity
  8
RUNDUNGEN
100
AcDbLine
 62
7
  6
CONTINUOUS
 10
142.315743876
 20
105.5680798873
 11
133.6640731544
 21
103.7785614904
  0
LINE
  5
3BF
100
AcDbEntity
  8
RUNDUNGEN
100
AcDbLine
 62
7
  6
CONTINUOUS
 10
88.3735706046
 20
103.7785614904
 11
79.7218998832
 21
105.5680798873
  0
LINE
  5
3C0
100
AcDbEntity
  8
0
100
AcDbLine
 62
7
  6
CONTINUOUS
 10
99.174088363
 20
105.6134587287
 11
99.174088363
 21
105.3134587287
  0
LINE
  5
3C1
100
AcDbEntity
  8
0
100
AcDbLine
 62
7
  6
CONTINUOUS
 10
99.5383814128
 20
105.6134587287
 11
99.5383814128
 21
105.3134587287
  0
LINE
  5
3C2
100
AcDbEntity
  8
0
100
AcDbLine
 62
7
  6
CONTINUOUS
 10
99.8016379728
 20
105.6134587287
 11
99.8016379728
 21
105.3134587287
  0
LINE
  5
3C3
100
AcDbEntity
  8
0
100
AcDbLine
 62
7
  6
CONTINUOUS
 10
100.0516106151
 20
105.6134587287
 11
100.0516106151
 21
105.3134587287
  0
LINE
  5
3C4
100
AcDbEntity
  8
0
100
AcDbLine
 62
7
  6
CONTINUOUS
 10
100.1472174886
 20
105.6134587287
 11
100.1472174886
 21
105.3134587287
  0
LINE
  5
3C5
100
AcDbEntity
  8
0
100
AcDbLine
 62
7
  6
CONTINUOUS
 10
100.3998084241
 20
105.6134587287
 11
100.3998084241
 21
105.3134587287
  0
LWPOLYLINE
  5
3C6
100
AcDbEntity
  8
RUNDUNGEN
100
AcDbPolyline
 62
7
  6
CONTINUOUS
 90
3
 70
0
 10
126.4005274716
 20
103.4991032499
 10
126.4356640265
 20
103.5030554205
 10
126.5995734546
 20
103.5206011589
  0
LWPOLYLINE
  5
3C7
100
AcDbEntity
  8
RUNDUNGEN
100
AcDbPolyline
 62
7
  6
CONTINUOUS
 90
18
 70
0
 10
126.5995734546
 20
103.5206011589
 10
126.7783157422
 20
103.5382631947
 10
126.9724006701
 20
103.5559542989
 10
127.1817584145
 20
103.5735426452
 10
127.4063818684
 20
103.5909168231
 10
127.6462466671
 20
103.6079582776
 10
127.9012127988
 20
103.6245448699
 10
128.1712312334
 20
103.6405797908
 10
128.4561351425
 20
103.6559516377
 10
128.7557405081
 20
103.6705383606
 10
129.0697727717
 20
103.6842294116
 10
129.3978611813
 20
103.696913247
 10
129.7395621741
 20
103.7084648654
 10
130.0943013048
 20
103.7187550797
 10
130.4613541225
 20
103.7276699806
 10
130.8400644438
 20
103.7350967765
 10
131.2296148566
 20
103.7409101553
 10
131.6289834291
 20
103.7449666765
  0
LINE
  5
3C8
100
AcDbEntity
  8
RUNDUNGEN
100
AcDbLine
 62
7
  6
CONTINUOUS
 10
95.4220203227
 20
103.5222462334
 11
95.5859590513
 21
103.5048337966
  0
LINE
  5
3C9
100
AcDbEntity
  8
RUNDUNGEN
100
AcDbLine
 62
7
  6
CONTINUOUS
 10
95.5859590513
 20
103.5048337966
 11
95.6371169498
 21
103.4991031747
  0
LWPOLYLINE
  5
3CA
100
AcDbEntity
  8
RUNDUNGEN
100
AcDbPolyline
 62
7
  6
CONTINUOUS
 90
5
 70
0
 10
95.6371431432
 20
103.4991019877
 10
95.7917171078
 20
103.4690764402
 10
95.9277347324
 20
103.4205103672
 10
96.0553366255
 20
103.3528580438
 10
96.1718614176
 20
103.2675311056
  0
LINE
  5
3CB
100
AcDbEntity
  8
0
100
AcDbLine
 62
7
  6
CONTINUOUS
 10
101.516829724
 20
105.6134587287
 11
101.516829724
 21
105.3134587287
  0
LINE
  5
3CC
100
AcDbEntity
  8
0
100
AcDbLine
 62
7
  6
CONTINUOUS
 10
101.6150548386
 20
105.6134587287
 11
101.6150548386
 21
105.3134587287
  0
LINE
  5
3CD
100
AcDbEntity
  8
0
100
AcDbLine
 62
7
  6
CONTINUOUS
 10
101.91816373
 20
105.6134587287
 11
101.91816373
 21
105.3134587287
  0
LINE
  5
3CE
100
AcDbEntity
  8
0
100
AcDbLine
 62
7
  6
CONTINUOUS
 10
102.8488222311
 20
105.6134587287
 11
102.8488222311
 21
105.3134587287
  0
LINE
  5
3CF
100
AcDbEntity
  8
0
100
AcDbLine
 62
7
  6
CONTINUOUS
 10
102.8886745624
 20
105.6134587287
 11
102.8886745624
 21
105.3134587287
  0
LINE
  5
3D0
100
AcDbEntity
  8
0
100
AcDbLine
 62
7
  6
CONTINUOUS
 10
102.9657609319
 20
105.6134587287
 11
102.9657609319
 21
105.3134587287
  0
LINE
  5
3D1
100
AcDbEntity
  8
0
100
AcDbLine
 62
7
  6
CONTINUOUS
 10
103.1305992953
 20
105.6134587287
 11
103.1305992953
 21
105.3134587287
  0
LINE
  5
3D2
100
AcDbEntity
  8
0
100
AcDbLine
 62
7
  6
CONTINUOUS
 10
103.4337081866
 20
105.6134587287
 11
103.4337081866
 21
105.3134587287
  0
LINE
  5
3D3
100
AcDbEntity
  8
0
100
AcDbLine
 62
7
  6
CONTINUOUS
 10
103.6730146262
 20
105.6134587287
 11
103.6730146262
 21
105.3134587287
  0
LINE
  5
3D4
100
AcDbEntity
  8
0
100
AcDbLine
 62
7
  6
CONTINUOUS
 10
103.8112851541
 20
105.6134587287
 11
103.8112851541
 21
105.3134587287
  0
LINE
  5
3D5
100
AcDbEntity
  8
0
100
AcDbLine
 62
7
  6
CONTINUOUS
 10
103.8883715236
 20
105.6134587287
 11
103.8883715236
 21
105.3134587287
  0
LINE
  5
3D6
100
AcDbEntity
  8
RUNDUNGEN
100
AcDbLine
 62
7
  6
CONTINUOUS
 10
131.6289834291
 20
103.7449666765
 11
132.278929695
 21
103.7474716005
  0
LINE
  5
3D7
100
AcDbEntity
  8
RUNDUNGEN
100
AcDbLine
 62
7
  6
CONTINUOUS
 10
133.3602432969
 20
103.7474683689
 11
132.2789296998
 21
103.7474683689
  0
LINE
  5
3D8
100
AcDbEntity
  8
0
100
AcDbLine
 62
7
  6
CONTINUOUS
 10
114.9421549903
 20
105.3134587287
 11
112.6088218795
 21
105.3134587287
  0
LINE
  5
3D9
100
AcDbEntity
  8
0
100
AcDbLine
 62
7
  6
CONTINUOUS
 10
112.1421553241
 20
105.3134587287
 11
110.0421551572
 21
105.3134587287
  0
LINE
  5
3DA
100
AcDbEntity
  8
0
100
AcDbLine
 62
7
  6
CONTINUOUS
 10
109.5754886018
 20
105.3134587287
 11
107.3588218795
 21
105.3134587287
  0
LINE
  5
3DB
100
AcDbEntity
  8
0
100
AcDbLine
 62
7
  6
CONTINUOUS
 10
105.5771878911
 20
105.3134587287
 11
93.4788218795
 21
105.3134587287
  0
LINE
  5
3DC
100
AcDbEntity
  8
0
100
AcDbLine
 62
7
  6
CONTINUOUS
 10
90.5301804732
 20
105.3134587287
 11
82.7673073191
 21
105.3134587287
  0
LWPOLYLINE
  5
3DD
100
AcDbEntity
  8
RUNDUNGEN
100
AcDbPolyline
 62
7
  6
CONTINUOUS
 90
20
 70
0
 10
88.6774004621
 20
103.7474683689
 10
90.0120638507
 20
103.7470962812
 10
90.4169117422
 20
103.7449023909
 10
90.8133990495
 20
103.7408425181
 10
91.2001966252
 20
103.7350514766
 10
91.576304584
 20
103.7276696215
 10
91.9409236946
 20
103.7188194803
 10
92.2934103626
 20
103.7086114263
 10
92.6330538057
 20
103.6971567841
 10
92.9592897239
 20
103.6845817757
 10
93.2716791421
 20
103.6710091511
 10
93.5698537735
 20
103.6565485153
 10
93.8535419138
 20
103.641307442
 10
94.1225604066
 20
103.625405526
 10
94.3767386287
 20
103.6089527893
 10
94.6160355489
 20
103.5920431899
 10
94.8402709955
 20
103.574798193
 10
95.0494070183
 20
103.557336124
 10
95.2433735089
 20
103.5397728802
 10
95.4220203227
 20
103.5222462334
  0
LINE
  5
3DE
100
AcDbEntity
  8
0
100
AcDbLine
 62
7
  6
CONTINUOUS
 10
104.1409618809
 20
105.6134587287
 11
104.1409618809
 21
105.3134587287
  0
LINE
  5
3DF
100
AcDbEntity
  8
0
100
AcDbLine
 62
7
  6
CONTINUOUS
 10
105.4069192877
 20
105.6134587287
 11
105.4069192877
 21
105.3134587287
  0
LINE
  5
3E0
100
AcDbEntity
  8
0
100
AcDbLine
 62
7
  6
CONTINUOUS
 10
105.5665216884
 20
105.6134587287
 11
105.5665216884
 21
105.3134587287
  0
LINE
  5
3E1
100
AcDbEntity
  8
0
100
AcDbLine
 62
7
  6
CONTINUOUS
 10
105.5771878911
 20
105.6134587287
 11
105.5771878911
 21
105.3134587287
  0
LINE
  5
3E2
100
AcDbEntity
  8
0
100
AcDbLine
 62
7
  6
CONTINUOUS
 10
89.7798913832
 20
105.6134587287
 11
110.0621132986
 21
105.6134587287
  0
LINE
  5
3E3
100
AcDbEntity
  8
RUNDUNGEN
100
AcDbLine
 62
7
  6
CONTINUOUS
 10
79.9191070291
 20
105.6134587287
 11
142.1185367299
 21
105.6134587287
  0
LINE
  5
3E4
100
AcDbEntity
  8
0
100
AcDbLine
 62
7
  6
CONTINUOUS
 10
107.3588218795
 20
105.6134587287
 11
107.3588218795
 21
105.3134587287
  0
LINE
  5
3E5
100
AcDbEntity
  8
0
100
AcDbLine
 62
7
  6
CONTINUOUS
 10
109.5754886018
 20
105.6134587287
 11
109.5754886018
 21
105.3134587287
  0
LINE
  5
3E6
100
AcDbEntity
  8
0
100
AcDbLine
 62
7
  6
CONTINUOUS
 10
110.0421551572
 20
105.6134587287
 11
110.0421551572
 21
105.3134587287
  0
LINE
  5
3E7
100
AcDbEntity
  8
B-ACHSEN
100
AcDbLine
 62
2
  6
CENTER
 10
111.0188218795
 20
112.6134587287
 11
111.0188218795
 21
92.1134587287
  0
LINE
  5
3E8
100
AcDbEntity
  8
B-ACHSEN
100
AcDbLine
 62
2
  6
CENTER
 10
111.0188218795
 20
112.6134587287
 11
111.0188218795
 21
133.1134587287
  0
LINE
  5
3E9
100
AcDbEntity
  8
B-ACHSEN
100
AcDbLine
 62
2
  6
CENTER
 10
111.0188218795
 20
112.6134587287
 11
90.5188218795
 21
112.6134587287
  0
LINE
  5
3EA
100
AcDbEntity
  8
B-ACHSEN
100
AcDbLine
 62
2
  6
CENTER
 10
111.0188218795
 20
112.6134587287
 11
131.5188218795
 21
112.6134587287
  0
LINE
  5
3EB
100
AcDbEntity
  8
0
100
AcDbLine
 62
7
  6
CONTINUOUS
 10
112.1421553241
 20
105.6134587287
 11
112.1421553241
 21
105.3134587287
  0
LINE
  5
3EC
100
AcDbEntity
  8
0
100
AcDbLine
 62
7
  6
CONTINUOUS
 10
112.6088218795
 20
105.6134587287
 11
112.6088218795
 21
105.3134587287
  0
LINE
  5
3ED
100
AcDbEntity
  8
0
100
AcDbLine
 62
7
  6
CONTINUOUS
 10
114.9421549903
 20
105.6134587287
 11
114.9421549903
 21
105.3134587287
  0
LINE
  5
3EE
100
AcDbEntity
  8
RUNDUNGEN
100
AcDbLine
 62
7
  6
CONTINUOUS
 10
142.1185367299
 20
119.6134587287
 11
79.9191070291
 21
119.6134587287
  0
LINE
  5
3EF
100
AcDbEntity
  8
RUNDUNGEN
100
AcDbLine
 62
7
  6
CONTINUOUS
 10
90.4086603299
 20
121.4819507809
 11
89.758714064
 21
121.4794458569
  0
LINE
  5
3F0
100
AcDbEntity
  8
RUNDUNGEN
100
AcDbLine
 62
7
  6
CONTINUOUS
 10
88.6774004621
 20
121.4794490885
 11
89.7587140592
 21
121.4794490885
  0
LWPOLYLINE
  5
3F1
100
AcDbEntity
  8
RUNDUNGEN
100
AcDbPolyline
 62
7
  6
CONTINUOUS
 90
20
 70
0
 10
133.3602432969
 20
121.4794490885
 10
132.0255799083
 20
121.4798211762
 10
131.6207320168
 20
121.4820150665
 10
131.2242447095
 20
121.4860749393
 10
130.8374471338
 20
121.4918659809
 10
130.461339175
 20
121.4992478359
 10
130.0967200644
 20
121.5080979771
 10
129.7442333964
 20
121.5183060311
 10
129.4045899534
 20
121.5297606733
 10
129.0783540351
 20
121.5423356818
 10
128.7659646169
 20
121.5559083063
 10
128.4677899856
 20
121.5703689421
 10
128.1841018452
 20
121.5856100154
 10
127.9150833524
 20
121.6015119314
 10
127.6609051303
 20
121.6179646682
 10
127.4216082101
 20
121.6348742675
 10
127.1973727635
 20
121.6521192644
 10
126.9882367407
 20
121.6695813334
 10
126.7942702502
 20
121.6871445773
 10
126.6156234363
 20
121.704671224
  0
LWPOLYLINE
  5
3F2
100
AcDbEntity
  8
RUNDUNGEN
100
AcDbPolyline
 62
7
  6
CONTINUOUS
 90
3
 70
0
 10
95.6371162874
 20
121.7278142076
 10
95.6019797325
 20
121.7238620369
 10
95.4380703045
 20
121.7063162985
  0
LWPOLYLINE
  5
3F3
100
AcDbEntity
  8
RUNDUNGEN
100
AcDbPolyline
 62
7
  6
CONTINUOUS
 90
18
 70
0
 10
95.4380703045
 20
121.7063162985
 10
95.2593280168
 20
121.6886542628
 10
95.065243089
 20
121.6709631586
 10
94.8558853445
 20
121.6533748123
 10
94.6312618906
 20
121.6360006343
 10
94.3913970919
 20
121.6189591799
 10
94.1364309602
 20
121.6023725876
 10
93.8664125256
 20
121.5863376666
 10
93.5815086165
 20
121.5709658197
 10
93.2819032509
 20
121.5563790968
 10
92.9678709874
 20
121.5426880458
 10
92.6397825777
 20
121.5300042104
 10
92.2980815849
 20
121.518452592
 10
91.9433424543
 20
121.5081623777
 10
91.5762896365
 20
121.4992474768
 10
91.1975793152
 20
121.4918206809
 10
90.8080289024
 20
121.4860073021
 10
90.4086603299
 20
121.4819507809
  0
LINE
  5
3F4
100
AcDbEntity
  8
RUNDUNGEN
100
AcDbLine
 62
7
  6
CONTINUOUS
 10
126.6156234363
 20
121.704671224
 11
126.4516847077
 21
121.7220836609
  0
LINE
  5
3F5
100
AcDbEntity
  8
RUNDUNGEN
100
AcDbLine
 62
7
  6
CONTINUOUS
 10
126.4516847077
 20
121.7220836609
 11
126.4005268092
 21
121.7278142827
  0
LWPOLYLINE
  5
3F6
100
AcDbEntity
  8
RUNDUNGEN
100
AcDbPolyline
 62
7
  6
CONTINUOUS
 90
5
 70
0
 10
126.4005006158
 20
121.7278154698
 10
126.2459266512
 20
121.7578410172
 10
126.1099090266
 20
121.8064070902
 10
125.9823071335
 20
121.8740594136
 10
125.8657823414
 20
121.9593863518
  0
LWPOLYLINE
  5
3F7
100
AcDbEntity
  8
RUNDUNGEN
100
AcDbPolyline
 62
7
  6
CONTINUOUS
 90
5
 70
0
 10
79.7219439228
 20
119.6588465879
 10
79.6813135093
 20
119.6501635586
 10
79.6280900397
 20
119.6378811528
 10
79.5764197041
 20
119.6248619757
 10
79.5527609046
 20
119.6185256865
  0
LINE
  5
3F8
100
AcDbEntity
  8
RUNDUNGEN
100
AcDbLine
 62
7
  6
CONTINUOUS
 10
79.721899883
 20
119.6588375701
 11
88.3735706046
 21
121.448355967
  0
LINE
  5
3F9
100
AcDbEntity
  8
RUNDUNGEN
100
AcDbLine
 62
7
  6
CONTINUOUS
 10
133.6640731544
 20
121.448355967
 11
142.3157438758
 21
119.6588375701
  0
LWPOLYLINE
  5
3FA
100
AcDbEntity
  8
RUNDUNGEN
100
AcDbPolyline
 62
7
  6
CONTINUOUS
 90
5
 70
0
 10
142.4668599825
 20
119.6233714521
 10
142.4537632087
 20
119.6268131673
 10
142.4024288158
 20
119.6395889751
 10
142.3494966913
 20
119.6516640601
 10
142.3157057399
 20
119.658845372
  0
LWPOLYLINE
  5
3FB
100
AcDbEntity
  8
RUNDUNGEN
100
AcDbPolyline
 62
7
  6
CONTINUOUS
 90
3
 70
0
 10
125.67576571
 20
103.0518619513
 10
125.7627627821
 20
103.1663074037
 10
125.8657804612
 20
103.2675295151
  0
LWPOLYLINE
  5
3FC
100
AcDbEntity
  8
RUNDUNGEN
100
AcDbPolyline
 62
7
  6
CONTINUOUS
 90
5
 70
0
 10
125.8657804612
 20
103.2675295151
 10
125.9823055893
 20
103.3528570949
 10
126.1099079069
 20
103.4205099017
 10
126.245926002
 20
103.4690762963
 10
126.4005005629
 20
103.4991020259
  0
LWPOLYLINE
  5
3FD
100
AcDbEntity
  8
RUNDUNGEN
100
AcDbPolyline
 62
7
  6
CONTINUOUS
 90
19
 70
0
 10
142.4848828517
 20
105.6083917703
 10
142.5568403924
 20
105.6289448056
 10
142.6251966792
 20
105.6506152268
 10
142.6952217507
 20
105.6754862487
 10
142.7711677097
 20
105.7060857872
 10
142.8530961134
 20
105.7439749407
 10
142.9423198271
 20
105.7918030658
 10
143.0355095185
 20
105.850113284
 10
143.1296388618
 20
105.9190921418
 10
143.2230635347
 20
105.999532222
 10
143.31351934
 20
106.0915309477
 10
143.3987658099
 20
106.1947950375
 10
143.4765696522
 20
106.3084800237
 10
143.5451225866
 20
106.4316935313
 10
143.6026319626
 20
106.5627938827
 10
143.6480775341
 20
106.7011059013
 10
143.6803627923
 20
106.8455764351
 10
143.6984401216
 20
106.9945901429
 10
143.7022079125
 20
107.100974286
  0
LINE
  5
3FE
100
AcDbEntity
  8
RUNDUNGEN
100
AcDbLine
 62
7
  6
CONTINUOUS
 10
125.8657823414
 20
121.9593863518
 11
125.7627648678
 21
122.0606076769
  0
LINE
  5
3FF
100
AcDbEntity
  8
RUNDUNGEN
100
AcDbLine
 62
7
  6
CONTINUOUS
 10
125.7627648678
 20
122.0606076769
 11
125.675765657
 21
122.1750555577
  0
LWPOLYLINE
  5
400
100
AcDbEntity
  8
RUNDUNGEN
100
AcDbPolyline
 62
7
  6
CONTINUOUS
 90
17
 70
0
 10
143.7022142413
 20
118.1259306784
 10
143.6884542737
 20
118.3289058794
 10
143.6515817347
 20
118.5128959488
 10
143.5953505277
 20
118.6827666674
 10
143.5234568529
 20
118.8371899172
 10
143.4391849761
 20
118.9758467433
 10
143.3452383741
 20
119.0991070209
 10
143.2448646681
 20
119.2066098362
 10
143.1407189775
 20
119.2989527695
 10
143.0357644838
 20
119.3766305419
 10
142.9313521045
 20
119.4413928174
 10
142.8323512183
 20
119.4930522896
 10
142.7436611063
 20
119.5323858674
 10
142.663806431
 20
119.5629547308
 10
142.5935914966
 20
119.5866113975
 10
142.528630403
 20
119.6062775037
 10
142.4654078201
 20
119.6237554393
  0
LINE
  5
401
100
AcDbEntity
  8
RUNDUNGEN
100
AcDbLine
 62
7
  6
CONTINUOUS
 10
143.7022151873
 20
107.100406663
 11
143.7022151873
 21
118.1265101014
  0
ARC
  5
402
100
AcDbEntity
  8
RUNDUNGEN
100
AcDbCircle
 62
7
  6
CONTINUOUS
 10
88.5188218795
 20
183.0665665764
 40
5.0
100
AcDbArc
 50
0.0
 51
88.7506915331
  0
ARC
  5
403
100
AcDbEntity
  8
RUNDUNGEN
100
AcDbCircle
 62
7
  6
CONTINUOUS
 10
82.3354285718
 20
211.4102559507
 40
4.0
100
AcDbArc
 50
157.5
 51
202.5
  0
ARC
  5
404
100
AcDbEntity
  8
RUNDUNGEN
100
AcDbCircle
 62
7
  6
CONTINUOUS
 10
88.677361959
 20
189.5666595312
 40
1.5
100
AcDbArc
 50
202.5038431565
 51
270.0014706212
  0
ARC
  5
405
100
AcDbEntity
  8
RUNDUNGEN
100
AcDbCircle
 62
7
  6
CONTINUOUS
 10
90.7365999642
 20
231.692477866
 40
4.0
100
AcDbArc
 50
112.5
 51
157.5
  0
CIRCLE
  5
406
100
AcDbEntity
  8
RUNDUNGEN
100
AcDbCircle
 62
7
  6
CONTINUOUS
 10
111.0188218795
 20
211.4102559507
 40
17.5
  0
ARC
  5
407
100
AcDbEntity
  8
RUNDUNGEN
100
AcDbCircle
 62
7
  6
CONTINUOUS
 10
133.5188218795
 20
183.0665665764
 40
5.0
100
AcDbArc
 50
91.2493084669
 51
180.0
  0
ARC
  5
408
100
AcDbEntity
  8
RUNDUNGEN
100
AcDbCircle
 62
7
  6
CONTINUOUS
 10
133.3602432969
 20
189.5665665764
 40
1.5
100
AcDbArc
 50
270.0
 51
337.5
  0
ARC
  5
409
100
AcDbEntity
  8
RUNDUNGEN
100
AcDbCircle
 62
7
  6
CONTINUOUS
 10
139.7022151873
 20
211.4102559507
 40
4.0
100
AcDbArc
 50
337.5
 51
22.5
  0
ARC
  5
40A
100
AcDbEntity
  8
RUNDUNGEN
100
AcDbCircle
 62
7
  6
CONTINUOUS
 10
131.3010437949
 20
231.692477866
 40
4.0
100
AcDbArc
 50
22.5
 51
67.5
  0
ARC
  5
40B
100
AcDbEntity
  8
RUNDUNGEN
100
AcDbCircle
 62
7
  6
CONTINUOUS
 10
111.0188218795
 20
240.0936492584
 40
4.0
100
AcDbArc
 50
67.5
 51
112.5
  0
ARC
  5
40C
100
AcDbEntity
  8
RUNDUNGEN
100
AcDbCircle
 62
7
  6
CONTINUOUS
 10
295.3771303218
 20
2586.0371633724
 40
2397.9720794693
100
AcDbArc
 50
269.9362854918
 51
270.0637145082
  0
ARC
  5
40D
100
AcDbEntity
  8
RUNDUNGEN
100
AcDbCircle
 62
7
  6
CONTINUOUS
 10
317.3771303606
 20
212.0516530215
 40
15.0
100
AcDbArc
 50
180.0
 51
184.8969296235
  0
ARC
  5
40E
100
AcDbEntity
  8
RUNDUNGEN
100
AcDbCircle
 62
7
  6
CONTINUOUS
 10
273.3771303606
 20
212.0516530215
 40
15.0
100
AcDbArc
 50
355.1030703765
 51
360.0
  0
ARC
  5
40F
100
AcDbEntity
  8
RUNDUNGEN
100
AcDbCircle
 62
8
  6
HIDDEN
 10
295.3771303606
 20
235.9102559507
 40
7.0
100
AcDbArc
 50
180.0
 51
360.0
  0
ARC
  5
410
100
AcDbEntity
  8
B-ACHSEN
100
AcDbCircle
 62
7
  6
CONTINUOUS
 10
280.8771303606
 20
188.9471909289
 40
3.0
100
AcDbArc
 50
99.0
 51
180.0
  0
ARC
  5
411
100
AcDbEntity
  8
B-ACHSEN
100
AcDbCircle
 62
7
  6
CONTINUOUS
 10
309.8771303606
 20
188.9471909289
 40
3.0
100
AcDbArc
 50
0.0
 51
81.0
  0
ARC
  5
412
100
AcDbEntity
  8
RUNDUNGEN
100
AcDbCircle
 62
7
  6
CONTINUOUS
 10
289.8771303606
 20
242.5936492584
 40
1.5
100
AcDbArc
 50
90.0
 51
180.0000003246
  0
ARC
  5
413
100
AcDbEntity
  8
RUNDUNGEN
100
AcDbCircle
 62
7
  6
CONTINUOUS
 10
300.8771303606
 20
242.5936492584
 40
1.5
100
AcDbArc
 50
359.9999996759
 51
90.0
  0
ARC
  5
414
100
AcDbEntity
  8
RUNDUNGEN
100
AcDbCircle
 62
7
  6
CONTINUOUS
 10
302.7431223926
 20
189.5665470587
 40
1.4999954959
100
AcDbArc
 50
269.9999361258
 51
4.8969296235
  0
ARC
  5
415
100
AcDbEntity
  8
RUNDUNGEN
100
AcDbCircle
 62
7
  6
CONTINUOUS
 10
288.0111383286
 20
189.5665470587
 40
1.4999954959
100
AcDbArc
 50
175.1030703765
 51
270.0000638742
  0
ARC
  5
416
100
AcDbEntity
  8
B-ACHSEN
100
AcDbCircle
 62
7
  6
CONTINUOUS
 10
111.0188218795
 20
112.6134587287
 40
17.5
100
AcDbArc
 50
32.4565766901
 51
147.5434233099
  0
ARC
  5
417
100
AcDbEntity
  8
B-ACHSEN
100
AcDbCircle
 62
7
  6
CONTINUOUS
 10
111.0188218795
 20
112.6134587287
 40
17.5
100
AcDbArc
 50
212.4565766901
 51
327.5434233099
  0
ARC
  5
418
100
AcDbEntity
  8
RUNDUNGEN
100
AcDbCircle
 62
7
  6
CONTINUOUS
 10
111.0188218795
 20
112.6134587287
 40
17.5
100
AcDbArc
 50
212.4565766901
 51
327.5434233099
  0
ARC
  5
419
100
AcDbEntity
  8
RUNDUNGEN
100
AcDbCircle
 62
7
  6
CONTINUOUS
 10
111.0188218795
 20
112.6134587287
 40
17.5
100
AcDbArc
 50
32.4565766901
 51
147.5434233099
  0
CIRCLE
  5
41A
100
AcDbEntity
  8
DEFAULT_2
100
AcDbCircle
 62
8
  6
HIDDEN
 10
111.0188218795
 20
112.6134587287
 40
7.0
  0
ARC
  5
41B
100
AcDbEntity
  8
RUNDUNGEN
100
AcDbCircle
 62
7
  6
CONTINUOUS
 10
88.6777051009
 20
105.2548333136
 40
1.5072925441
100
AcDbArc
 50
258.3238678725
 51
269.9884589567
  0
ARC
  5
41C
100
AcDbEntity
  8
RUNDUNGEN
100
AcDbCircle
 62
7
  6
CONTINUOUS
 10
133.3599386581
 20
119.9720841438
 40
1.5072925441
100
AcDbArc
 50
78.3238678725
 51
89.9884589567
  0
ARC
  5
41D
100
AcDbEntity
  8
RUNDUNGEN
100
AcDbCircle
 62
7
  6
CONTINUOUS
 10
88.6781024012
 20
119.9734402667
 40
1.5060089854
100
AcDbArc
 50
90.0267051183
 51
101.7041105581
  0
ARC
  5
41E
100
AcDbEntity
  8
RUNDUNGEN
100
AcDbCircle
 62
7
  6
CONTINUOUS
 10
133.3595413578
 20
105.2534771907
 40
1.5060089854
100
AcDbArc
 50
270.0267051183
 51
281.7041105581
  0
LINE
  5
41F
100
AcDbEntity
  8
RUNDUNGEN
100
AcDbLine
 62
7
  6
CONTINUOUS
 10
133.3962453754
 20
188.065083903
 11
133.3804006007
 21
188.0661176413
  0
LINE
  5
420
100
AcDbEntity
  8
RUNDUNGEN
100
AcDbLine
 62
7
  6
CONTINUOUS
 10
88.6773996734
 20
188.0665665764
 11
88.6413983836
 21
188.065083903
  0
ENDSEC
  0
SECTION
  2
OBJECTS
  0
DICTIONARY
  5
C
100
AcDbDictionary
280
0
281
1
  3
ACAD_GROUP
350
D
  3
ACAD_MLINESTYLE
350
17
  3
ACAD_LAYOUT
350
1A
  3
ACAD_PLOTSETTINGS
350
19
  3
ACAD_PLOTSTYLENAME
350
E
  0
DICTIONARY
  5
D
102
{ACAD_REACTORS
330
C
102
}
100
AcDbDictionary
280
0
281
1
  0
ACDBDICTIONARYWDFLT
  5
E
102
{ACAD_REACTORS
330
C
102
}
100
AcDbDictionary
281
1
  3
Normal
350
F
100
AcDbDictionaryWithDefault
340
F
  0
DICTIONARY
  5
17
102
{ACAD_REACTORS
330
C
102
}
100
AcDbDictionary
280
0
281
1
  3
Standard
350
18
  0
DICTIONARY
  5
19
102
{ACAD_REACTORS
330
C
102
}
100
AcDbDictionary
281
1
  0
DICTIONARY
  5
1A
102
{ACAD_REACTORS
330
C
102
}
100
AcDbDictionary
281
1
  3
Model
350
421
  3
Layout1
350
422
  0
ACDBPLACEHOLDER
  5
F
102
{ACAD_REACTORS
330
E
102
}
  0
MLINESTYLE
  5
18
102
{ACAD_REACTORS
330
17
102
}
100
AcDbMlineStyle
  2
STANDARD
 70
0
  3

 62
256
 51
90.0
 52
90.0
 71
2
 49
0.5
 62
256
  6
BYLAYER
 49
-0.5
 62
256
  6
BYLAYER
  0
LAYOUT
  5
421
102
{ACAD_REACTORS
330
1A
102
}
100
AcDbPlotSettings
  1

  2
none_device
  4
ISO_A3_(420.00_x_297.00_MM)
  6

 40
0.0
 41
0.0
 42
0.0
 43
0.0
 44
420.0
 45
297.0
 46
0.0
 47
0.0
 48
0.0
 49
0.0
140
0.0
141
0.0
142
1.0
143
1.0
 70
1024
 72
1
 73
0
 74
0
  7

 75
0
147
1.0
148
0.0
149
0.0
100
AcDbLayout
  1
Model
 70
0
 71
0
 10
0.0
 20
0.0
 11
420.0
 21
297.0
 12
0.0
 22
0.0
 32
0.0
 14
0.0
 24
0.0
 34
0.0
 15
0.0
 25
0.0
 35
0.0
146
0.0
 13
0.0
 23
0.0
 33
0.0
 16
1.0
 26
0.0
 36
0.0
 17
0.0
 27
1.0
 37
0.0
 76
0
330
208
345
0
346
0
  0
LAYOUT
  5
422
102
{ACAD_REACTORS
330
1A
102
}
100
AcDbPlotSettings
  1

  2
none_device
  4
ISO_A3_(420.00_x_297.00_MM)
  6

 40
0.0
 41
0.0
 42
0.0
 43
0.0
 44
420.0
 45
297.0
 46
0.0
 47
0.0
 48
0.0
 49
0.0
140
0.0
141
0.0
142
1.0
143
1.0
 70
0
 72
1
 73
0
 74
0
  7

 75
0
147
1.0
148
0.0
149
0.0
100
AcDbLayout
  1
Layout1
 70
0
 71
1
 10
0.0
 20
0.0
 11
420.0
 21
297.0
 12
0.0
 22
0.0
 32
0.0
 14
0.0
 24
0.0
 34
0.0
 15
0.0
 25
0.0
 35
0.0
146
0.0
 13
0.0
 23
0.0
 33
0.0
 16
1.0
 26
0.0
 36
0.0
 17
0.0
 27
1.0
 37
0.0
 76
0
330
209
345
0
346
0
  0
ENDSEC
  0
EOF
