999
DXF file: RM-M18_55342_M31320-P-12.dxf
999
Pro/ENGINEER 2010140 by Parametric Technology Corporation
  0
SECTION
  2
HEADER
  9
$ACADVER
  1
AC1015
  9
$DWGCODEPAGE
  3
ANSI_1252
  9
$EXTMAX
 10
420.0
 20
297.0
 30
0.0
  9
$EXTMIN
 10
0.0
 20
0.0
 30
0.0
  9
$LIMMIN
 10
0.0
 20
0.0
  9
$LIMMAX
 10
420.0
 20
297.0
  9
$VIEWCTR
 10
210.0
 20
148.5
  9
$VIEWSIZE
 40
297.0
  9
$CLAYER
  8
0
  9
$LTSCALE
 40
23.1
  9
$CELTYPE
  6
BYLAYER
  9
$DIMSCALE
 40
1.0
  9
$DIMASZ
 40
3.5
  9
$DIMEXO
 40
2.625
  9
$DIMDLI
 40
15.96
  9
$DIMEXE
 40
7.56
  9
$DIMCEN
 40
3.78
  9
$DIMLFAC
 40
1.0
  9
$DIMBLK
  1
_FILLED
  9
$DIMTXT
 40
3.5
  9
$DIMTOL
 70
1
  9
$DIMLIM
 70
0
  9
$DIMTFAC
 40
1.0
  9
$DIMTP
 40
0.005
  9
$DIMTM
 40
0.005
  9
$PDMODE
 70
3
  9
$PDSIZE
 40
0.3125
  9
$HANDSEED
  5
3F8
  9
$TILEMODE
 70
1
  9
$MEASUREMENT
 70
1
  9
$INSUNITS
 70
4
  0
ENDSEC
  0
SECTION
  2
CLASSES
  0
CLASS
  1
ACDBDICTIONARYWDFLT
  2
AcDbDictionaryWithDefault
  3
AutoCAD 2000
 90
0
280
0
281
0
  0
CLASS
  1
ACDBPLACEHOLDER
  2
AcDbPlaceHolder
  3
AutoCAD 2000
 90
0
280
0
281
0
  0
CLASS
  1
LAYOUT
  2
AcDbLayout
  3
AutoCAD 2000
 90
0
280
0
281
0
  0
ENDSEC
  0
SECTION
  2
TABLES
  0
TABLE
  2
VPORT
  5
8
100
AcDbSymbolTable
 70
2
  0
VPORT
  5
1F4
100
AcDbSymbolTableRecord
100
AcDbViewportTableRecord
  2
*ACTIVE
 70
0
 10
0.0
 20
0.0
 11
1.0
 21
1.0
 12
210.0
 22
148.5
 13
0.0
 23
0.0
 14
1.0
 24
1.0
 15
0.0
 25
0.0
 16
0.0
 26
0.0
 36
1.0
 17
0.0
 27
0.0
 37
0.0
 40
297.0
 41
1.4141414141
 42
50.0
 43
0.0
 44
0.0
 50
0.0
 51
0.0
 71
0
 72
100
 73
1
 74
1
 75
0
 76
0
 77
0
 78
0
  0
ENDTAB
  0
TABLE
  2
LTYPE
  5
5
100
AcDbSymbolTable
 70
6
  0
LTYPE
  5
14
100
AcDbSymbolTableRecord
100
AcDbLinetypeTableRecord
  2
BYBLOCK
 70
0
  3

 72
65
 73
0
 40
0.0
  0
LTYPE
  5
15
100
AcDbSymbolTableRecord
100
AcDbLinetypeTableRecord
  2
BYLAYER
 70
0
  3

 72
65
 73
0
 40
0.0
  0
LTYPE
  5
16
100
AcDbSymbolTableRecord
100
AcDbLinetypeTableRecord
  2
CONTINUOUS
 70
64
  3
Solid line
 72
65
 73
0
 40
0.0
  0
LTYPE
  5
1F5
100
AcDbSymbolTableRecord
100
AcDbLinetypeTableRecord
  2
CENTER
 70
64
  3
____ _ ____ _ ____ _ ____ _ ____ _ ____ _ ____
 72
65
 73
4
 40
0.6
 49
0.375
 74
0
 49
-0.075
 74
0
 49
0.075
 74
0
 49
-0.075
 74
0
  0
LTYPE
  5
1F6
100
AcDbSymbolTableRecord
100
AcDbLinetypeTableRecord
  2
HIDDEN
 70
64
  3
- - - - - - - - - - - - - - - - - - - -
 72
65
 73
2
 40
0.2
 49
0.1
 74
0
 49
-0.1
 74
0
  0
LTYPE
  5
1F7
100
AcDbSymbolTableRecord
100
AcDbLinetypeTableRecord
  2
PHANTOM
 70
64
  3
_____ _ _ _____ _ _ _____ _ _ _____
 72
65
 73
6
 40
0.8
 49
0.45
 74
0
 49
-0.05
 74
0
 49
0.1
 74
0
 49
-0.05
 74
0
 49
0.1
 74
0
 49
-0.05
 74
0
  0
LTYPE
  5
1F8
100
AcDbSymbolTableRecord
100
AcDbLinetypeTableRecord
  2
DOT
 70
64
  3
. . . . . . . . . . . . . . . . . . . .
 72
65
 73
2
 40
0.2
 49
0.1
 74
0
 49
-0.1
 74
0
  0
LTYPE
  5
1F9
100
AcDbSymbolTableRecord
100
AcDbLinetypeTableRecord
  2
DASHED
 70
64
  3
- - - - - - - - - - - - - - - - - - - -
 72
65
 73
2
 40
0.2
 49
0.1
 74
0
 49
-0.1
 74
0
  0
ENDTAB
  0
TABLE
  2
LAYER
  5
2
100
AcDbSymbolTable
 70
36
  0
LAYER
  5
10
100
AcDbSymbolTableRecord
100
AcDbLayerTableRecord
  2
0
 70
0
 62
7
  6
CONTINUOUS
370
-3
390
F
  0
LAYER
  5
1FA
100
AcDbSymbolTableRecord
100
AcDbLayerTableRecord
  2
DEFAULT_1
 70
0
 62
7
  6
CENTER
370
-3
390
F
  0
LAYER
  5
1FB
100
AcDbSymbolTableRecord
100
AcDbLayerTableRecord
  2
DEFAULT_2
 70
0
 62
8
  6
HIDDEN
370
-3
390
F
  0
LAYER
  5
1FC
100
AcDbSymbolTableRecord
100
AcDbLayerTableRecord
  2
DEFAULT_3
 70
0
 62
7
  6
PHANTOM
370
-3
390
F
  0
LAYER
  5
1FD
100
AcDbSymbolTableRecord
100
AcDbLayerTableRecord
  2
B-ACHSEN
 70
0
 62
7
  6
CONTINUOUS
370
-3
390
F
  0
LAYER
  5
1FE
100
AcDbSymbolTableRecord
100
AcDbLayerTableRecord
  2
B-EBENEN
 70
0
 62
7
  6
CONTINUOUS
370
-3
390
F
  0
LAYER
  5
1FF
100
AcDbSymbolTableRecord
100
AcDbLayerTableRecord
  2
B-KOORSYS
 70
0
 62
7
  6
CONTINUOUS
370
-3
390
F
  0
LAYER
  5
200
100
AcDbSymbolTableRecord
100
AcDbLayerTableRecord
  2
B-PUNKTE
 70
0
 62
7
  6
CONTINUOUS
370
-3
390
F
  0
LAYER
  5
201
100
AcDbSymbolTableRecord
100
AcDbLayerTableRecord
  2
BEMASSUNG
 70
0
 62
7
  6
CONTINUOUS
370
-3
390
F
  0
LAYER
  5
202
100
AcDbSymbolTableRecord
100
AcDbLayerTableRecord
  2
BOHRUNGEN
 70
0
 62
7
  6
CONTINUOUS
370
-3
390
F
  0
LAYER
  5
203
100
AcDbSymbolTableRecord
100
AcDbLayerTableRecord
  2
NOTIZEN
 70
0
 62
7
  6
CONTINUOUS
370
-3
390
F
  0
LAYER
  5
204
100
AcDbSymbolTableRecord
100
AcDbLayerTableRecord
  2
RUNDUNGEN
 70
0
 62
7
  6
CONTINUOUS
370
-3
390
F
  0
LAYER
  5
205
100
AcDbSymbolTableRecord
100
AcDbLayerTableRecord
  2
VERBUNDFLAECHEN
 70
0
 62
7
  6
CONTINUOUS
370
-3
390
F
  0
ENDTAB
  0
TABLE
  2
STYLE
  5
3
100
AcDbSymbolTable
 70
1
  0
STYLE
  5
11
100
AcDbSymbolTableRecord
100
AcDbTextStyleTableRecord
  2
STANDARD
 70
0
 40
0.0
 41
0.7
 50
0.0
 71
0
 42
0.2
  3
txt
  4

  0
STYLE
  5
206
100
AcDbSymbolTableRecord
100
AcDbTextStyleTableRecord
  2
TEXTSTYLE_1
 70
0
 40
0.0
 41
0.8
 50
0.0
 71
0
 42
0.2
  3
gdt
  4

  0
ENDTAB
  0
TABLE
  2
VIEW
  5
6
100
AcDbSymbolTable
 70
0
  0
ENDTAB
  0
TABLE
  2
UCS
  5
7
100
AcDbSymbolTable
 70
0
  0
ENDTAB
  0
TABLE
  2
APPID
  5
9
100
AcDbSymbolTable
 70
1
  0
APPID
  5
207
100
AcDbSymbolTableRecord
100
AcDbRegAppTableRecord
  2
ACAD
 70
0
  0
ENDTAB
  0
TABLE
  2
BLOCK_RECORD
  5
1
100
AcDbSymbolTable
 70
0
  0
BLOCK_RECORD
  5
208
100
AcDbSymbolTableRecord
100
AcDbBlockTableRecord
  2
*Model_Space
  0
BLOCK_RECORD
  5
209
100
AcDbSymbolTableRecord
100
AcDbBlockTableRecord
  2
*Paper_Space
  0
ENDTAB
  0
TABLE
  2
DIMSTYLE
  5
A
100
AcDbSymbolTable
 70
1
100
AcDbDimStyleTable
 71
0
  0
DIMSTYLE
105
20A
100
AcDbSymbolTableRecord
100
AcDbDimStyleTableRecord
  2
STANDARD
 70
0
  3

  4

 40
1.0
 41
3.5
 42
0.0625
 43
0.38
 44
0.18
 45
0.0
 46
0.0
 47
0.005
 48
0.005
140
3.5
141
0.09
142
0.0
143
25.4
144
1.0
145
0.0
146
1.0
147
0.09
 71
1.0
 72
0.0
 73
0
 74
0
 75
0
 76
0
 77
1
 78
8
170
0
171
2
172
0
173
0
174
0
175
0
176
0
177
0
178
5
270
2
271
3
272
3
273
2
274
2
275
0
280
0
281
0
282
0
283
1
284
8
285
0
286
0
287
3
288
0
340
11
  0
ENDTAB
  0
ENDSEC
  0
SECTION
  2
BLOCKS
  0
BLOCK
  5
20
100
AcDbEntity
  8
0
100
AcDbBlockBegin
  2
*Model_Space
 70
0
 10
0.0
 20
0.0
 30
0.0
  3
*Model_Space
  1

  0
ENDBLK
  5
21
100
AcDbEntity
  8
0
100
AcDbBlockEnd
  0
BLOCK
  5
1C
100
AcDbEntity
  8
0
100
AcDbBlockBegin
  2
*Paper_Space
 70
0
 10
0.0
 20
0.0
 30
0.0
  3
*Paper_Space
  1

  0
ENDBLK
  5
1D
100
AcDbEntity
  8
0
100
AcDbBlockEnd
  0
ENDSEC
  0
SECTION
  2
ENTITIES
  0
MTEXT
  5
20B
100
AcDbEntity
  8
0
100
AcDbMText
 62
5
  6
CONTINUOUS
  7
STANDARD
 71
1
 72
1
 10
289.7087147939
 20
195.0055178668
 30
0.0
 11
0.0
 21
1.0
 31
0.0
 44
0.9
  1
RUD
 40
3.5
 41
8.6666666667
  0
MTEXT
  5
20C
100
AcDbEntity
  8
0
100
AcDbMText
 62
5
  6
CONTINUOUS
  7
STANDARD
 71
1
 72
1
 10
298.3120287157
 20
194.2873283265
 30
0.0
 11
0.0
 21
1.0
 31
0.0
 44
0.9
  1
RM M18
 40
3.5
 41
16.9166666667
  0
MTEXT
  5
20D
100
AcDbEntity
  8
0
100
AcDbMText
 62
5
  6
CONTINUOUS
  7
STANDARD
 71
1
 72
1
 10
81.2780813771
 20
118.7004444279
 30
0.0
 11
1.0
 21
0.0
 31
0.0
 44
0.9
  1
RUD
 40
3.5
 41
8.6666666667
  0
MTEXT
  5
20E
100
AcDbEntity
  8
0
100
AcDbMText
 62
5
  6
CONTINUOUS
  7
STANDARD
 71
1
 72
1
 10
80.4798410468
 20
110.6673239265
 30
0.0
 11
1.0
 21
0.0
 31
0.0
 44
0.9
  1
RM M18
 40
3.5
 41
16.9166666667
  0
LINE
  5
20F
100
AcDbEntity
  8
0
100
AcDbLine
 62
7
  6
CONTINUOUS
 10
0.0
 20
0.0
 11
0.0
 21
297.0
  0
LINE
  5
210
100
AcDbEntity
  8
0
100
AcDbLine
 62
7
  6
CONTINUOUS
 10
0.0
 20
0.0
 11
420.0
 21
0.0
  0
LINE
  5
211
100
AcDbEntity
  8
0
100
AcDbLine
 62
7
  6
CONTINUOUS
 10
0.0
 20
297.0
 11
420.0
 21
297.0
  0
LINE
  5
212
100
AcDbEntity
  8
0
100
AcDbLine
 62
7
  6
CONTINUOUS
 10
420.0
 20
0.0
 11
420.0
 21
297.0
  0
LINE
  5
213
100
AcDbEntity
  8
B-ACHSEN
100
AcDbLine
 62
7
  6
CONTINUOUS
 10
91.5188219928
 20
176.7248735
 11
91.0188219928
 21
177.2248735
  0
LINE
  5
214
100
AcDbEntity
  8
RUNDUNGEN
100
AcDbLine
 62
7
  6
CONTINUOUS
 10
73.695686676
 20
213.064579274
 11
73.7691456537
 21
213.2556072295
  0
LINE
  5
215
100
AcDbEntity
  8
RUNDUNGEN
100
AcDbLine
 62
7
  6
CONTINUOUS
 10
73.7691456537
 20
213.2556072295
 11
83.5969310561
 21
236.9819800361
  0
LINE
  5
216
100
AcDbEntity
  8
B-ACHSEN
100
AcDbLine
 62
7
  6
CONTINUOUS
 10
91.5188219928
 20
176.7248735
 11
130.5188219928
 21
176.7248735
  0
LINE
  5
217
100
AcDbEntity
  8
B-ACHSEN
100
AcDbLine
 62
7
  6
CONTINUOUS
 10
91.0188219928
 20
177.2248735
 11
131.0188219928
 21
177.2248735
  0
LINE
  5
218
100
AcDbEntity
  8
DEFAULT_2
100
AcDbLine
 62
8
  6
HIDDEN
 10
102.0188219928
 20
178.2248735
 11
120.0188219928
 21
178.2248735
  0
LINE
  5
219
100
AcDbEntity
  8
RUNDUNGEN
100
AcDbLine
 62
7
  6
CONTINUOUS
 10
83.8474303854
 20
185.8630080859
 11
73.7691456537
 21
210.1941397705
  0
LINE
  5
21A
100
AcDbEntity
  8
0
100
AcDbLine
 62
7
  6
CONTINUOUS
 10
79.9978522371
 20
217.9917841351
 11
79.9980371105
 21
217.7852971893
  0
LINE
  5
21B
100
AcDbEntity
  8
0
100
AcDbLine
 62
7
  6
CONTINUOUS
 10
83.9784945316
 20
231.301117405
 11
83.8795091235
 21
231.0679223974
  0
LINE
  5
21C
100
AcDbEntity
  8
0
100
AcDbLine
 62
7
  6
CONTINUOUS
 10
83.2855978082
 20
229.6687550201
 11
83.1371199794
 21
229.3189631758
  0
LINE
  5
21D
100
AcDbEntity
  8
0
100
AcDbLine
 62
7
  6
CONTINUOUS
 10
82.790671901
 20
228.5027826506
 11
82.5679551577
 21
227.9780948841
  0
LINE
  5
21E
100
AcDbEntity
  8
0
100
AcDbLine
 62
7
  6
CONTINUOUS
 10
81.8255660136
 20
226.2291356625
 11
81.6028492703
 21
225.7044478961
  0
LINE
  5
21F
100
AcDbEntity
  8
0
100
AcDbLine
 62
7
  6
CONTINUOUS
 10
80.2170562485
 20
222.439724127
 11
79.9943395053
 21
221.9150363605
  0
LINE
  5
220
100
AcDbEntity
  8
0
100
AcDbLine
 62
7
  6
CONTINUOUS
 10
79.2519503611
 20
220.166077139
 11
79.0292335471
 21
219.6413892057
  0
LINE
  5
221
100
AcDbEntity
  8
0
100
AcDbLine
 62
7
  6
CONTINUOUS
 10
78.484814865
 20
218.3588191655
 11
77.8909035497
 21
216.9596517883
  0
LINE
  5
222
100
AcDbEntity
  8
0
100
AcDbLine
 62
7
  6
CONTINUOUS
 10
78.4115003175
 20
217.1514885144
 11
78.8816800852
 21
218.2591626324
  0
LINE
  5
223
100
AcDbEntity
  8
0
100
AcDbLine
 62
7
  6
CONTINUOUS
 10
84.2516280625
 20
230.9099672792
 11
84.3506134705
 21
231.1431622868
  0
LINE
  5
224
100
AcDbEntity
  8
0
100
AcDbLine
 62
7
  6
CONTINUOUS
 10
84.1766496546
 20
231.5610191402
 11
83.9784945316
 21
231.301117405
  0
LINE
  5
225
100
AcDbEntity
  8
0
100
AcDbLine
 62
7
  6
CONTINUOUS
 10
84.3506134705
 20
231.1431622868
 11
84.5240226663
 21
231.3447662708
  0
LINE
  5
226
100
AcDbEntity
  8
0
100
AcDbLine
 62
7
  6
CONTINUOUS
 10
95.0719833902
 20
240.5256417182
 11
94.7103916084
 21
240.2186042312
  0
LINE
  5
227
100
AcDbEntity
  8
0
100
AcDbLine
 62
7
  6
CONTINUOUS
 10
95.302923608
 20
240.6589751151
 11
95.0719833902
 21
240.5256417182
  0
LINE
  5
228
100
AcDbEntity
  8
0
100
AcDbLine
 62
7
  6
CONTINUOUS
 10
92.5316423158
 20
239.0589751151
 11
92.1852321543
 21
238.8589751151
  0
LINE
  5
229
100
AcDbEntity
  8
0
100
AcDbLine
 62
7
  6
CONTINUOUS
 10
95.2270145156
 20
240.1237871076
 11
95.457954403
 21
240.2571203137
  0
LINE
  5
22A
100
AcDbEntity
  8
0
100
AcDbLine
 62
7
  6
CONTINUOUS
 10
97.679256882
 20
241.3430451489
 11
97.3905818575
 21
241.1763785458
  0
LINE
  5
22B
100
AcDbEntity
  8
0
100
AcDbLine
 62
7
  6
CONTINUOUS
 10
94.6163080651
 20
239.1815613268
 11
94.9049832548
 21
239.3482280253
  0
LINE
  5
22C
100
AcDbEntity
  8
RUNDUNGEN
100
AcDbLine
 62
7
  6
CONTINUOUS
 10
85.7617154567
 20
239.1467644367
 11
109.4880882634
 21
248.9745498391
  0
LINE
  5
22D
100
AcDbEntity
  8
0
100
AcDbLine
 62
7
  6
CONTINUOUS
 10
95.6918869559
 20
240.7852708342
 11
95.302923608
 21
240.6589751151
  0
LINE
  5
22E
100
AcDbEntity
  8
0
100
AcDbLine
 62
7
  6
CONTINUOUS
 10
84.2270670087
 20
230.6451825822
 11
84.2516280625
 21
230.9099672792
  0
LINE
  5
22F
100
AcDbEntity
  8
0
100
AcDbLine
 62
7
  6
CONTINUOUS
 10
83.8795091235
 20
231.0679223974
 11
83.8302015761
 21
230.7448386149
  0
LINE
  5
230
100
AcDbEntity
  8
0
100
AcDbLine
 62
7
  6
CONTINUOUS
 10
79.9980371105
 20
217.7852971893
 11
79.5278573428
 21
216.6776230712
  0
LINE
  5
231
100
AcDbEntity
  8
0
100
AcDbLine
 62
7
  6
CONTINUOUS
 10
85.5413942836
 20
230.63770582
 11
85.4424088756
 21
230.4045108124
  0
LINE
  5
232
100
AcDbEntity
  8
0
100
AcDbLine
 62
7
  6
CONTINUOUS
 10
85.7401040268
 20
230.2781467178
 11
85.8390894348
 21
230.5113417255
  0
LINE
  5
233
100
AcDbEntity
  8
0
100
AcDbLine
 62
7
  6
CONTINUOUS
 10
79.9744000696
 20
216.4880769293
 11
80.3950872394
 21
217.4791537938
  0
LINE
  5
234
100
AcDbEntity
  8
0
100
AcDbLine
 62
7
  6
CONTINUOUS
 10
87.1042939836
 20
229.9742942571
 11
87.0053085756
 21
229.7410992495
  0
LINE
  5
235
100
AcDbEntity
  8
0
100
AcDbLine
 62
7
  6
CONTINUOUS
 10
81.3888219928
 20
215.4748735
 11
81.5372998216
 21
215.8246653443
  0
LINE
  5
236
100
AcDbEntity
  8
0
100
AcDbLine
 62
7
  6
CONTINUOUS
 10
82.1559574182
 20
217.2821313067
 11
82.329181599
 21
217.6902219029
  0
LINE
  5
237
100
AcDbEntity
  8
0
100
AcDbLine
 62
7
  6
CONTINUOUS
 10
82.5271519902
 20
218.1566109175
 11
82.6756298898
 21
218.5064029286
  0
LINE
  5
238
100
AcDbEntity
  8
0
100
AcDbLine
 62
7
  6
CONTINUOUS
 10
83.0220781099
 20
219.3225837874
 11
83.2200485011
 21
219.788972802
  0
LINE
  5
239
100
AcDbEntity
  8
0
100
AcDbLine
 62
7
  6
CONTINUOUS
 10
83.5664968628
 20
220.6051539944
 11
83.7149746916
 21
220.9549458388
  0
LINE
  5
23A
100
AcDbEntity
  8
0
100
AcDbLine
 62
7
  6
CONTINUOUS
 10
85.1007677135
 20
224.2196696078
 11
85.2492455423
 21
224.5694614521
  0
LINE
  5
23B
100
AcDbEntity
  8
0
100
AcDbLine
 62
7
  6
CONTINUOUS
 10
85.595693904
 20
225.3856426446
 11
85.7936641536
 21
225.8520313255
  0
LINE
  5
23C
100
AcDbEntity
  8
0
100
AcDbLine
 62
7
  6
CONTINUOUS
 10
86.1401125153
 20
226.668212518
 11
86.2885903441
 21
227.0180043623
  0
LINE
  5
23D
100
AcDbEntity
  8
0
100
AcDbLine
 62
7
  6
CONTINUOUS
 10
86.6350384225
 20
227.8341848876
 11
86.7835162514
 21
228.1839767319
  0
LINE
  5
23E
100
AcDbEntity
  8
0
100
AcDbLine
 62
7
  6
CONTINUOUS
 10
87.3526816395
 20
229.524846358
 11
87.5011594683
 21
229.8746382023
  0
LINE
  5
23F
100
AcDbEntity
  8
0
100
AcDbLine
 62
7
  6
CONTINUOUS
 10
78.6829702004
 20
218.6187214011
 11
78.484814865
 21
218.3588191655
  0
LINE
  5
240
100
AcDbEntity
  8
0
100
AcDbLine
 62
7
  6
CONTINUOUS
 10
87.1545259435
 20
229.2649432912
 11
87.3526816395
 21
229.524846358
  0
LINE
  5
241
100
AcDbEntity
  8
0
100
AcDbLine
 62
7
  6
CONTINUOUS
 10
85.4424088756
 20
230.4045108124
 11
85.2690002462
 21
230.2029081627
  0
LINE
  5
242
100
AcDbEntity
  8
0
100
AcDbLine
 62
7
  6
CONTINUOUS
 10
85.8390894348
 20
230.5113417255
 11
86.0124986306
 21
230.7129457095
  0
LINE
  5
243
100
AcDbEntity
  8
0
100
AcDbLine
 62
7
  6
CONTINUOUS
 10
87.0053085756
 20
229.7410992495
 11
86.8318999462
 21
229.5394965998
  0
LINE
  5
244
100
AcDbEntity
  8
0
100
AcDbLine
 62
7
  6
CONTINUOUS
 10
94.9808923471
 20
239.8834160328
 11
95.2270145156
 21
240.1237871076
  0
LINE
  5
245
100
AcDbEntity
  8
0
100
AcDbLine
 62
7
  6
CONTINUOUS
 10
86.0121288839
 20
231.1259196011
 11
85.8882121089
 21
231.0409124537
  0
LINE
  5
246
100
AcDbEntity
  8
0
100
AcDbLine
 62
7
  6
CONTINUOUS
 10
86.0124986306
 20
230.7129457095
 11
86.2603310478
 21
230.8829573355
  0
LINE
  5
247
100
AcDbEntity
  8
0
100
AcDbLine
 62
7
  6
CONTINUOUS
 10
85.269369993
 20
229.7899342711
 11
85.3932862016
 21
229.8749400841
  0
LINE
  5
248
100
AcDbEntity
  8
0
100
AcDbLine
 62
7
  6
CONTINUOUS
 10
98.6547680089
 20
241.120077489
 11
98.0196824925
 21
240.7534106952
  0
LINE
  5
249
100
AcDbEntity
  8
0
100
AcDbLine
 62
7
  6
CONTINUOUS
 10
97.731007468
 20
240.5867440921
 11
97.2691270324
 21
240.3200772983
  0
LINE
  5
24A
100
AcDbEntity
  8
0
100
AcDbLine
 62
7
  6
CONTINUOUS
 10
97.4393397781
 20
240.0252601747
 11
97.9012202137
 21
240.2919269685
  0
LINE
  5
24B
100
AcDbEntity
  8
0
100
AcDbLine
 62
7
  6
CONTINUOUS
 10
98.1898952382
 20
240.4585935716
 11
98.8249807545
 21
240.8252603654
  0
LINE
  5
24C
100
AcDbEntity
  8
0
100
AcDbLine
 62
7
  6
CONTINUOUS
 10
97.9561830499
 20
238.0633949561
 11
96.3396023512
 21
237.1300616546
  0
LINE
  5
24D
100
AcDbEntity
  8
0
100
AcDbLine
 62
7
  6
CONTINUOUS
 10
95.4158418104
 20
236.5967282577
 11
95.1271667859
 21
236.4300616546
  0
LINE
  5
24E
100
AcDbEntity
  8
0
100
AcDbLine
 62
7
  6
CONTINUOUS
 10
94.1852321543
 20
235.3948735
 11
94.5316423158
 21
235.5948735
  0
LINE
  5
24F
100
AcDbEntity
  8
0
100
AcDbLine
 62
7
  6
CONTINUOUS
 10
96.0904880427
 20
236.4948735
 11
98.1689490117
 21
237.6948735
  0
LINE
  5
250
100
AcDbEntity
  8
0
100
AcDbLine
 62
7
  6
CONTINUOUS
 10
84.5236529196
 20
231.7577401624
 11
84.1766496546
 21
231.5610191402
  0
LINE
  5
251
100
AcDbEntity
  8
0
100
AcDbLine
 62
7
  6
CONTINUOUS
 10
108.3554885911
 20
243.3465755786
 11
108.1404885911
 21
243.2550862278
  0
LINE
  5
252
100
AcDbEntity
  8
0
100
AcDbLine
 62
7
  6
CONTINUOUS
 10
99.5120364677
 20
238.5685777874
 11
99.9009998193
 21
238.6948735
  0
LINE
  5
253
100
AcDbEntity
  8
RUNDUNGEN
100
AcDbLine
 62
7
  6
CONTINUOUS
 10
136.8043943015
 20
184.9370332344
 11
134.2155557167
 21
184.9370332344
  0
LINE
  5
254
100
AcDbEntity
  8
RUNDUNGEN
100
AcDbLine
 62
7
  6
CONTINUOUS
 10
87.8219038853
 20
184.9370332344
 11
85.2332496841
 21
184.9370332344
  0
LINE
  5
255
100
AcDbEntity
  8
0
100
AcDbLine
 62
7
  6
CONTINUOUS
 10
80.3947175281
 20
217.8921277687
 11
80.3448551481
 21
218.1885043233
  0
LINE
  5
256
100
AcDbEntity
  8
0
100
AcDbLine
 62
7
  6
CONTINUOUS
 10
85.5659559039
 20
230.9024918513
 11
85.5413942836
 21
230.63770582
  0
LINE
  5
257
100
AcDbEntity
  8
0
100
AcDbLine
 62
7
  6
CONTINUOUS
 10
85.715542973
 20
230.0133620208
 11
85.7401040268
 21
230.2781467178
  0
LINE
  5
258
100
AcDbEntity
  8
0
100
AcDbLine
 62
7
  6
CONTINUOUS
 10
87.1288556038
 20
230.2390802884
 11
87.1042939836
 21
229.9742942571
  0
LINE
  5
259
100
AcDbEntity
  8
0
100
AcDbLine
 62
7
  6
CONTINUOUS
 10
87.5011594683
 20
229.8746382023
 11
87.5504670092
 21
230.1977219875
  0
LINE
  5
25A
100
AcDbEntity
  8
0
100
AcDbLine
 62
7
  6
CONTINUOUS
 10
94.8927938044
 20
239.6360075664
 11
94.9808923471
 21
239.8834160328
  0
LINE
  5
25B
100
AcDbEntity
  8
0
100
AcDbLine
 62
7
  6
CONTINUOUS
 10
94.7103916084
 20
240.2186042312
 11
94.5645577634
 21
239.9378622724
  0
LINE
  5
25C
100
AcDbEntity
  8
0
100
AcDbLine
 62
7
  6
CONTINUOUS
 10
78.8816800852
 20
218.2591626324
 11
79.0303427874
 21
218.4024675309
  0
LINE
  5
25D
100
AcDbEntity
  8
0
100
AcDbLine
 62
7
  6
CONTINUOUS
 10
86.8318999462
 20
229.5394965998
 11
86.5840669626
 21
229.3694836394
  0
LINE
  5
25E
100
AcDbEntity
  8
0
100
AcDbLine
 62
7
  6
CONTINUOUS
 10
108.4271553945
 20
242.8891288246
 11
108.7138219928
 21
243.0721075262
  0
LINE
  5
25F
100
AcDbEntity
  8
0
100
AcDbLine
 62
7
  6
CONTINUOUS
 10
95.248841652
 20
235.4193144138
 11
95.537516759
 21
235.5859810645
  0
LINE
  5
260
100
AcDbEntity
  8
0
100
AcDbLine
 62
7
  6
CONTINUOUS
 10
86.8075232254
 20
229.0682236116
 11
87.1545259435
 21
229.2649432912
  0
LINE
  5
261
100
AcDbEntity
  8
0
100
AcDbLine
 62
7
  6
CONTINUOUS
 10
84.5240226663
 20
231.3447662708
 11
84.8462788713
 21
231.4831868732
  0
LINE
  5
262
100
AcDbEntity
  8
0
100
AcDbLine
 62
7
  6
CONTINUOUS
 10
86.3343850889
 20
231.2643402034
 11
86.0121288839
 21
231.1259196011
  0
LINE
  5
263
100
AcDbEntity
  8
0
100
AcDbLine
 62
7
  6
CONTINUOUS
 10
85.2690002462
 20
230.2029081627
 11
84.9467434748
 21
230.064486226
  0
LINE
  5
264
100
AcDbEntity
  8
0
100
AcDbLine
 62
7
  6
CONTINUOUS
 10
111.3654887962
 20
241.4252990196
 11
111.0788219928
 21
241.3338096689
  0
LINE
  5
265
100
AcDbEntity
  8
0
100
AcDbLine
 62
7
  6
CONTINUOUS
 10
114.8054883861
 20
241.4252990196
 11
114.5188219928
 21
241.3338096689
  0
LINE
  5
266
100
AcDbEntity
  8
0
100
AcDbLine
 62
7
  6
CONTINUOUS
 10
79.8984972948
 20
218.1715635194
 11
79.9978522371
 21
217.9917841351
  0
LINE
  5
267
100
AcDbEntity
  8
0
100
AcDbLine
 62
7
  6
CONTINUOUS
 10
92.1852321543
 20
238.8589751151
 11
92.1366942977
 21
238.1430451489
  0
LINE
  5
268
100
AcDbEntity
  8
0
100
AcDbLine
 62
7
  6
CONTINUOUS
 10
108.4988219928
 20
243.5295542802
 11
108.3554885911
 21
243.3465755786
  0
LINE
  5
269
100
AcDbEntity
  8
0
100
AcDbLine
 62
7
  6
CONTINUOUS
 10
111.5804887962
 20
241.6082777853
 11
111.3654887962
 21
241.4252990196
  0
LINE
  5
26A
100
AcDbEntity
  8
0
100
AcDbLine
 62
7
  6
CONTINUOUS
 10
111.4371551895
 20
240.8763628588
 11
111.7238219928
 21
241.0593415844
  0
LINE
  5
26B
100
AcDbEntity
  8
0
100
AcDbLine
 62
7
  6
CONTINUOUS
 10
114.8771555995
 20
240.8763628588
 11
115.1638219928
 21
241.0593415844
  0
LINE
  5
26C
100
AcDbEntity
  8
0
100
AcDbLine
 62
7
  6
CONTINUOUS
 10
80.3448551481
 20
218.1885043233
 11
80.1213989114
 21
218.48976434
  0
LINE
  5
26D
100
AcDbEntity
  8
0
100
AcDbLine
 62
7
  6
CONTINUOUS
 10
83.8302015761
 20
230.7448386149
 11
83.9297416043
 21
230.3585727852
  0
LINE
  5
26E
100
AcDbEntity
  8
0
100
AcDbLine
 62
7
  6
CONTINUOUS
 10
85.3932862016
 20
229.8749400841
 11
85.4182175686
 21
229.7267522238
  0
LINE
  5
26F
100
AcDbEntity
  8
0
100
AcDbLine
 62
7
  6
CONTINUOUS
 10
85.7654051405
 20
229.7169849659
 11
85.715542973
 21
230.0133620208
  0
LINE
  5
270
100
AcDbEntity
  8
0
100
AcDbLine
 62
7
  6
CONTINUOUS
 10
85.8882121089
 20
231.0409124537
 11
85.8632813083
 21
231.1891016484
  0
LINE
  5
271
100
AcDbEntity
  8
0
100
AcDbLine
 62
7
  6
CONTINUOUS
 10
87.0789928699
 20
230.535456009
 11
87.1288556038
 21
230.2390802884
  0
LINE
  5
272
100
AcDbEntity
  8
B-ACHSEN
100
AcDbLine
 62
7
  6
CONTINUOUS
 10
91.0188219928
 20
177.2248735
 11
91.0188219928
 21
179.9370332344
  0
LINE
  5
273
100
AcDbEntity
  8
0
100
AcDbLine
 62
7
  6
CONTINUOUS
 10
92.4771199083
 20
237.5534106952
 11
92.5256576457
 21
238.269340868
  0
LINE
  5
274
100
AcDbEntity
  8
0
100
AcDbLine
 62
7
  6
CONTINUOUS
 10
94.5645577634
 20
239.9378622724
 11
94.5038304565
 21
239.5097118473
  0
LINE
  5
275
100
AcDbEntity
  8
0
100
AcDbLine
 62
7
  6
CONTINUOUS
 10
96.4304731948
 20
239.6393355303
 11
95.8777220808
 21
236.8633949561
  0
LINE
  5
276
100
AcDbEntity
  8
0
100
AcDbLine
 62
7
  6
CONTINUOUS
 10
96.3396023512
 20
237.1300616546
 11
96.8468077785
 21
239.5848892907
  0
LINE
  5
277
100
AcDbEntity
  8
0
100
AcDbLine
 62
7
  6
CONTINUOUS
 10
108.7138219928
 20
243.0721075262
 11
108.9288219928
 21
243.4380649294
  0
LINE
  5
278
100
AcDbEntity
  8
0
100
AcDbLine
 62
7
  6
CONTINUOUS
 10
115.0204883861
 20
241.6082777853
 11
114.8054883861
 21
241.4252990196
  0
LINE
  5
279
100
AcDbEntity
  8
0
100
AcDbLine
 62
7
  6
CONTINUOUS
 10
79.0052267594
 20
218.7571428374
 11
78.6829702004
 21
218.6187214011
  0
LINE
  5
27A
100
AcDbEntity
  8
DEFAULT_2
100
AcDbLine
 62
8
  6
HIDDEN
 10
120.0188219928
 20
178.2248735
 11
121.5188219928
 21
176.7248735
  0
LINE
  5
27B
100
AcDbEntity
  8
0
100
AcDbLine
 62
7
  6
CONTINUOUS
 10
84.351352964
 20
230.3172145036
 11
84.2270670087
 21
230.6451825822
  0
LINE
  5
27C
100
AcDbEntity
  8
0
100
AcDbLine
 62
7
  6
CONTINUOUS
 10
85.4182175686
 20
229.7267522238
 11
85.5425035239
 21
229.3987841452
  0
LINE
  5
27D
100
AcDbEntity
  8
0
100
AcDbLine
 62
7
  6
CONTINUOUS
 10
85.4416693821
 20
231.2304585956
 11
85.5659559039
 21
230.9024918513
  0
LINE
  5
27E
100
AcDbEntity
  8
0
100
AcDbLine
 62
7
  6
CONTINUOUS
 10
87.5504670092
 20
230.1977219875
 11
87.4509269615
 21
230.5839878255
  0
LINE
  5
27F
100
AcDbEntity
  8
0
100
AcDbLine
 62
7
  6
CONTINUOUS
 10
94.9049832548
 20
239.3482280253
 11
94.8927938044
 21
239.6360075664
  0
LINE
  5
280
100
AcDbEntity
  8
0
100
AcDbLine
 62
7
  6
CONTINUOUS
 10
111.7238219928
 20
241.0593415844
 11
112.0104887962
 21
241.4252990196
  0
LINE
  5
281
100
AcDbEntity
  8
0
100
AcDbLine
 62
7
  6
CONTINUOUS
 10
115.1638219928
 20
241.0593415844
 11
115.4504883861
 21
241.4252990196
  0
LINE
  5
282
100
AcDbEntity
  8
0
100
AcDbLine
 62
7
  6
CONTINUOUS
 10
79.6999722126
 20
218.3246351754
 11
79.8984972948
 21
218.1715635194
  0
LINE
  5
283
100
AcDbEntity
  8
0
100
AcDbLine
 62
7
  6
CONTINUOUS
 10
80.1213989114
 20
218.48976434
 11
79.9228738292
 21
218.6428359961
  0
LINE
  5
284
100
AcDbEntity
  8
0
100
AcDbLine
 62
7
  6
CONTINUOUS
 10
83.1371199794
 20
229.3189631758
 11
83.5096086651
 21
228.748034166
  0
LINE
  5
285
100
AcDbEntity
  8
0
100
AcDbLine
 62
7
  6
CONTINUOUS
 10
84.1049991759
 20
228.4953058884
 11
83.7325102817
 21
229.0662349867
  0
LINE
  5
286
100
AcDbEntity
  8
0
100
AcDbLine
 62
7
  6
CONTINUOUS
 10
83.9297416043
 20
230.3585727852
 11
84.0787740532
 21
230.0889037921
  0
LINE
  5
287
100
AcDbEntity
  8
0
100
AcDbLine
 62
7
  6
CONTINUOUS
 10
96.8468077785
 20
239.5848892907
 11
96.834618163
 21
239.8726687365
  0
LINE
  5
288
100
AcDbEntity
  8
0
100
AcDbLine
 62
7
  6
CONTINUOUS
 10
108.5704885911
 20
243.8040223326
 11
108.4988219928
 21
243.5295542802
  0
LINE
  5
289
100
AcDbEntity
  8
0
100
AcDbLine
 62
7
  6
CONTINUOUS
 10
111.7238219928
 20
241.8827458377
 11
111.5804887962
 21
241.6082777853
  0
LINE
  5
28A
100
AcDbEntity
  8
0
100
AcDbLine
 62
7
  6
CONTINUOUS
 10
79.9943395053
 20
221.9150363605
 11
82.7489443852
 21
219.7137336018
  0
LINE
  5
28B
100
AcDbEntity
  8
0
100
AcDbLine
 62
7
  6
CONTINUOUS
 10
83.2200485011
 20
219.788972802
 11
80.8128162976
 21
221.7740220463
  0
LINE
  5
28C
100
AcDbEntity
  8
0
100
AcDbLine
 62
7
  6
CONTINUOUS
 10
85.9888614815
 20
229.4157249049
 11
85.7654051405
 21
229.7169849659
  0
LINE
  5
28D
100
AcDbEntity
  8
0
100
AcDbLine
 62
7
  6
CONTINUOUS
 10
85.8632813083
 20
231.1891016484
 11
85.7142488593
 21
231.4587706414
  0
LINE
  5
28E
100
AcDbEntity
  8
0
100
AcDbLine
 62
7
  6
CONTINUOUS
 10
87.4509269615
 20
230.5839878255
 11
87.3018944865
 21
230.8536568297
  0
LINE
  5
28F
100
AcDbEntity
  8
0
100
AcDbLine
 62
7
  6
CONTINUOUS
 10
96.3757303929
 20
240.000819257
 11
96.4304731948
 21
239.6393355303
  0
LINE
  5
290
100
AcDbEntity
  8
0
100
AcDbLine
 62
7
  6
CONTINUOUS
 10
95.1271667859
 20
236.4300616546
 11
95.248841652
 21
235.4193144138
  0
LINE
  5
291
100
AcDbEntity
  8
0
100
AcDbLine
 62
7
  6
CONTINUOUS
 10
95.537516759
 20
235.5859810645
 11
95.4158418104
 21
236.5967282577
  0
LINE
  5
292
100
AcDbEntity
  8
DEFAULT_2
100
AcDbLine
 62
8
  6
HIDDEN
 10
102.0188219928
 20
193.8643024005
 11
102.0188219928
 21
178.2248735
  0
LINE
  5
293
100
AcDbEntity
  8
0
100
AcDbLine
 62
7
  6
CONTINUOUS
 10
108.9288219928
 20
243.4380649294
 11
109.0004885911
 21
243.7125329818
  0
LINE
  5
294
100
AcDbEntity
  8
0
100
AcDbLine
 62
7
  6
CONTINUOUS
 10
112.0104887962
 20
241.4252990196
 11
112.1538219928
 21
241.7912564869
  0
LINE
  5
295
100
AcDbEntity
  8
0
100
AcDbLine
 62
7
  6
CONTINUOUS
 10
115.1638219928
 20
241.8827458377
 11
115.0204883861
 21
241.6082777853
  0
LINE
  5
296
100
AcDbEntity
  8
0
100
AcDbLine
 62
7
  6
CONTINUOUS
 10
77.8909035497
 20
216.9596517883
 11
81.3888219928
 21
215.4748735
  0
LINE
  5
297
100
AcDbEntity
  8
0
100
AcDbLine
 62
7
  6
CONTINUOUS
 10
81.5372998216
 20
215.8246653443
 11
79.9744000696
 21
216.4880769293
  0
LINE
  5
298
100
AcDbEntity
  8
0
100
AcDbLine
 62
7
  6
CONTINUOUS
 10
79.5278573428
 20
216.6776230712
 11
78.4115003175
 21
217.1514885144
  0
LINE
  5
299
100
AcDbEntity
  8
0
100
AcDbLine
 62
7
  6
CONTINUOUS
 10
79.4767006407
 20
218.4194083349
 11
79.6999722126
 21
218.3246351754
  0
LINE
  5
29A
100
AcDbEntity
  8
0
100
AcDbLine
 62
7
  6
CONTINUOUS
 10
79.9228738292
 20
218.6428359961
 11
79.6251784696
 21
218.7692001792
  0
LINE
  5
29B
100
AcDbEntity
  8
0
100
AcDbLine
 62
7
  6
CONTINUOUS
 10
84.5251321151
 20
230.1058445075
 11
84.351352964
 21
230.3172145036
  0
LINE
  5
29C
100
AcDbEntity
  8
0
100
AcDbLine
 62
7
  6
CONTINUOUS
 10
85.267891006
 20
231.4418298375
 11
85.4416693821
 21
231.2304585956
  0
LINE
  5
29D
100
AcDbEntity
  8
0
100
AcDbLine
 62
7
  6
CONTINUOUS
 10
86.855536581
 20
230.8367160479
 11
87.0789928699
 21
230.535456009
  0
LINE
  5
29E
100
AcDbEntity
  8
0
100
AcDbLine
 62
7
  6
CONTINUOUS
 10
94.5038304565
 20
239.5097118473
 11
94.6163080651
 21
239.1815613268
  0
LINE
  5
29F
100
AcDbEntity
  8
0
100
AcDbLine
 62
7
  6
CONTINUOUS
 10
106.3488219928
 20
245.0848735
 11
106.3488219928
 21
240.7848735
  0
LINE
  5
2A0
100
AcDbEntity
  8
0
100
AcDbLine
 62
7
  6
CONTINUOUS
 10
106.7788219928
 20
240.7848735
 11
106.7788219928
 21
242.706150123
  0
LINE
  5
2A1
100
AcDbEntity
  8
0
100
AcDbLine
 62
7
  6
CONTINUOUS
 10
106.7788219928
 20
243.2550862278
 11
106.7788219928
 21
244.627426746
  0
LINE
  5
2A2
100
AcDbEntity
  8
0
100
AcDbLine
 62
7
  6
CONTINUOUS
 10
112.1538219928
 20
241.7912564869
 11
112.2254887962
 21
242.2487032409
  0
LINE
  5
2A3
100
AcDbEntity
  8
0
100
AcDbLine
 62
7
  6
CONTINUOUS
 10
111.7954887962
 20
242.2487032409
 11
111.7238219928
 21
241.8827458377
  0
LINE
  5
2A4
100
AcDbEntity
  8
0
100
AcDbLine
 62
7
  6
CONTINUOUS
 10
115.4504883861
 20
241.4252990196
 11
115.5938219928
 21
241.7912564869
  0
LINE
  5
2A5
100
AcDbEntity
  8
0
100
AcDbLine
 62
7
  6
CONTINUOUS
 10
79.0292335471
 20
219.6413892057
 11
82.5271519902
 21
218.1566109175
  0
LINE
  5
2A6
100
AcDbEntity
  8
0
100
AcDbLine
 62
7
  6
CONTINUOUS
 10
82.6756298898
 20
218.5064029286
 11
79.9219493246
 21
219.6752709804
  0
LINE
  5
2A7
100
AcDbEntity
  8
0
100
AcDbLine
 62
7
  6
CONTINUOUS
 10
80.8128162976
 20
221.7740220463
 11
83.5664968628
 21
220.6051539944
  0
LINE
  5
2A8
100
AcDbEntity
  8
0
100
AcDbLine
 62
7
  6
CONTINUOUS
 10
83.7149746916
 20
220.9549458388
 11
80.2170562485
 21
222.439724127
  0
LINE
  5
2A9
100
AcDbEntity
  8
0
100
AcDbLine
 62
7
  6
CONTINUOUS
 10
82.5679551577
 20
227.9780948841
 11
85.3225600377
 21
225.7767921254
  0
LINE
  5
2AA
100
AcDbEntity
  8
0
100
AcDbLine
 62
7
  6
CONTINUOUS
 10
85.7936641536
 20
225.8520313255
 11
83.38643195
 21
227.8370805698
  0
LINE
  5
2AB
100
AcDbEntity
  8
0
100
AcDbLine
 62
7
  6
CONTINUOUS
 10
84.0787740532
 20
230.0889037921
 11
84.4014002135
 21
229.8143504144
  0
LINE
  5
2AC
100
AcDbEntity
  8
0
100
AcDbLine
 62
7
  6
CONTINUOUS
 10
85.5425035239
 20
229.3987841452
 11
85.8651301463
 21
229.1242321461
  0
LINE
  5
2AD
100
AcDbEntity
  8
0
100
AcDbLine
 62
7
  6
CONTINUOUS
 10
85.7142488593
 20
231.4587706414
 11
85.466046129
 21
231.7017315727
  0
LINE
  5
2AE
100
AcDbEntity
  8
0
100
AcDbLine
 62
7
  6
CONTINUOUS
 10
92.1366942977
 20
238.1430451489
 11
92.4771199083
 21
237.5534106952
  0
LINE
  5
2AF
100
AcDbEntity
  8
0
100
AcDbLine
 62
7
  6
CONTINUOUS
 10
92.5256576457
 20
238.269340868
 11
94.1852321543
 21
235.3948735
  0
LINE
  5
2B0
100
AcDbEntity
  8
0
100
AcDbLine
 62
7
  6
CONTINUOUS
 10
96.834618163
 20
239.8726687365
 11
96.7221405544
 21
240.200819257
  0
LINE
  5
2B1
100
AcDbEntity
  8
0
100
AcDbLine
 62
7
  6
CONTINUOUS
 10
108.5704885911
 20
244.0784906412
 11
108.5704885911
 21
243.8040223326
  0
LINE
  5
2B2
100
AcDbEntity
  8
0
100
AcDbLine
 62
7
  6
CONTINUOUS
 10
109.0004885911
 20
243.7125329818
 11
109.0004885911
 21
244.0784906412
  0
LINE
  5
2B3
100
AcDbEntity
  8
0
100
AcDbLine
 62
7
  6
CONTINUOUS
 10
109.6454885911
 20
245.0848735
 11
109.6454885911
 21
242.2487032409
  0
LINE
  5
2B4
100
AcDbEntity
  8
0
100
AcDbLine
 62
7
  6
CONTINUOUS
 10
110.0754887962
 20
242.2487032409
 11
110.0754887962
 21
245.0848735
  0
LINE
  5
2B5
100
AcDbEntity
  8
B-ACHSEN
100
AcDbLine
 62
2
  6
CENTER
 10
111.0188219928
 20
211.7248735
 11
111.0188219928
 21
174.399900681
  0
LINE
  5
2B6
100
AcDbEntity
  8
B-ACHSEN
100
AcDbLine
 62
2
  6
CENTER
 10
111.0188219928
 20
211.7248735
 11
111.0188219928
 21
234.7248735
  0
LINE
  5
2B7
100
AcDbEntity
  8
0
100
AcDbLine
 62
7
  6
CONTINUOUS
 10
115.5938219928
 20
241.7912564869
 11
115.6654883861
 21
242.2487032409
  0
LINE
  5
2B8
100
AcDbEntity
  8
0
100
AcDbLine
 62
7
  6
CONTINUOUS
 10
115.2354883861
 20
242.2487032409
 11
115.1638219928
 21
241.8827458377
  0
LINE
  5
2B9
100
AcDbEntity
  8
B-ACHSEN
100
AcDbLine
 62
2
  6
CENTER
 10
111.0188219928
 20
211.7248735
 11
88.0188219928
 21
211.7248735
  0
LINE
  5
2BA
100
AcDbEntity
  8
B-ACHSEN
100
AcDbLine
 62
2
  6
CENTER
 10
111.0188219928
 20
211.7248735
 11
134.0188219928
 21
211.7248735
  0
LINE
  5
2BB
100
AcDbEntity
  8
0
100
AcDbLine
 62
7
  6
CONTINUOUS
 10
81.6028492703
 20
225.7044478961
 11
85.1007677135
 21
224.2196696078
  0
LINE
  5
2BC
100
AcDbEntity
  8
0
100
AcDbLine
 62
7
  6
CONTINUOUS
 10
87.3018944865
 20
230.8536568297
 11
86.9792684826
 21
231.128210141
  0
LINE
  5
2BD
100
AcDbEntity
  8
0
100
AcDbLine
 62
7
  6
CONTINUOUS
 10
94.5316423158
 20
235.5948735
 11
92.5316423158
 21
239.0589751151
  0
LINE
  5
2BE
100
AcDbEntity
  8
0
100
AcDbLine
 62
7
  6
CONTINUOUS
 10
95.8777220808
 20
236.8633949561
 11
96.0904880427
 21
236.4948735
  0
LINE
  5
2BF
100
AcDbEntity
  8
0
100
AcDbLine
 62
7
  6
CONTINUOUS
 10
111.7954887962
 20
245.0848735
 11
111.7954887962
 21
242.2487032409
  0
LINE
  5
2C0
100
AcDbEntity
  8
0
100
AcDbLine
 62
7
  6
CONTINUOUS
 10
112.2254887962
 20
242.2487032409
 11
112.2254887962
 21
245.0848735
  0
LINE
  5
2C1
100
AcDbEntity
  8
0
100
AcDbLine
 62
7
  6
CONTINUOUS
 10
112.7988219928
 20
245.0848735
 11
112.7988219928
 21
240.7848735
  0
LINE
  5
2C2
100
AcDbEntity
  8
0
100
AcDbLine
 62
7
  6
CONTINUOUS
 10
113.2288219928
 20
241.3338096689
 11
113.2288219928
 21
244.5359373952
  0
LINE
  5
2C3
100
AcDbEntity
  8
0
100
AcDbLine
 62
7
  6
CONTINUOUS
 10
82.329181599
 20
217.6902219029
 11
80.3947175281
 21
217.8921277687
  0
LINE
  5
2C4
100
AcDbEntity
  8
0
100
AcDbLine
 62
7
  6
CONTINUOUS
 10
80.3950872394
 20
217.4791537938
 11
82.1559574182
 21
217.2821313067
  0
LINE
  5
2C5
100
AcDbEntity
  8
0
100
AcDbLine
 62
7
  6
CONTINUOUS
 10
79.9219493246
 20
219.6752709804
 11
83.0220781099
 21
219.3225837874
  0
LINE
  5
2C6
100
AcDbEntity
  8
0
100
AcDbLine
 62
7
  6
CONTINUOUS
 10
82.7489443852
 20
219.7137336018
 11
79.2519503611
 21
220.166077139
  0
LINE
  5
2C7
100
AcDbEntity
  8
0
100
AcDbLine
 62
7
  6
CONTINUOUS
 10
79.2286829962
 20
218.4558828207
 11
79.4767006407
 21
218.4194083349
  0
LINE
  5
2C8
100
AcDbEntity
  8
0
100
AcDbLine
 62
7
  6
CONTINUOUS
 10
79.6251784696
 20
218.7692001792
 11
79.377160825
 21
218.805674665
  0
LINE
  5
2C9
100
AcDbEntity
  8
0
100
AcDbLine
 62
7
  6
CONTINUOUS
 10
85.2492455423
 20
224.5694614521
 11
82.4955649771
 21
225.7383295039
  0
LINE
  5
2CA
100
AcDbEntity
  8
0
100
AcDbLine
 62
7
  6
CONTINUOUS
 10
83.38643195
 20
227.8370805698
 11
86.1401125153
 21
226.668212518
  0
LINE
  5
2CB
100
AcDbEntity
  8
0
100
AcDbLine
 62
7
  6
CONTINUOUS
 10
86.2885903441
 20
227.0180043623
 11
82.790671901
 21
228.5027826506
  0
LINE
  5
2CC
100
AcDbEntity
  8
0
100
AcDbLine
 62
7
  6
CONTINUOUS
 10
83.5096086651
 20
228.748034166
 11
84.1049991759
 21
228.4953058884
  0
LINE
  5
2CD
100
AcDbEntity
  8
0
100
AcDbLine
 62
7
  6
CONTINUOUS
 10
96.2906239008
 20
240.1482280253
 11
96.3757303929
 21
240.000819257
  0
LINE
  5
2CE
100
AcDbEntity
  8
0
100
AcDbLine
 62
7
  6
CONTINUOUS
 10
98.1689490117
 20
237.6948735
 11
97.9561830499
 21
238.0633949561
  0
LINE
  5
2CF
100
AcDbEntity
  8
0
100
AcDbLine
 62
7
  6
CONTINUOUS
 10
96.7221405544
 20
240.200819257
 11
96.6370340623
 21
240.3482280253
  0
LINE
  5
2D0
100
AcDbEntity
  8
0
100
AcDbLine
 62
7
  6
CONTINUOUS
 10
97.2691270324
 20
240.3200772983
 11
97.4393397781
 21
240.0252601747
  0
LINE
  5
2D1
100
AcDbEntity
  8
0
100
AcDbLine
 62
7
  6
CONTINUOUS
 10
97.3905818575
 20
241.1763785458
 11
97.731007468
 21
240.5867440921
  0
LINE
  5
2D2
100
AcDbEntity
  8
0
100
AcDbLine
 62
7
  6
CONTINUOUS
 10
97.9012202137
 20
240.2919269685
 11
98.7522840314
 21
238.8178411957
  0
LINE
  5
2D3
100
AcDbEntity
  8
0
100
AcDbLine
 62
7
  6
CONTINUOUS
 10
98.9558526533
 20
239.1319164122
 11
98.1898952382
 21
240.4585935716
  0
LINE
  5
2D4
100
AcDbEntity
  8
0
100
AcDbLine
 62
7
  6
CONTINUOUS
 10
98.0196824925
 20
240.7534106952
 11
97.679256882
 21
241.3430451489
  0
LINE
  5
2D5
100
AcDbEntity
  8
0
100
AcDbLine
 62
7
  6
CONTINUOUS
 10
99.9009998193
 20
238.6948735
 11
99.7307870587
 21
238.9896906494
  0
LINE
  5
2D6
100
AcDbEntity
  8
0
100
AcDbLine
 62
7
  6
CONTINUOUS
 10
98.8249807545
 20
240.8252603654
 11
98.6547680089
 21
241.120077489
  0
LINE
  5
2D7
100
AcDbEntity
  8
0
100
AcDbLine
 62
7
  6
CONTINUOUS
 10
109.6454885911
 20
242.2487032409
 11
109.7171553945
 21
241.7912564869
  0
LINE
  5
2D8
100
AcDbEntity
  8
0
100
AcDbLine
 62
7
  6
CONTINUOUS
 10
115.2354883861
 20
243.621043631
 11
115.2354883861
 21
242.2487032409
  0
LINE
  5
2D9
100
AcDbEntity
  8
0
100
AcDbLine
 62
7
  6
CONTINUOUS
 10
115.6654883861
 20
242.2487032409
 11
115.6654883861
 21
243.621043631
  0
LINE
  5
2DA
100
AcDbEntity
  8
0
100
AcDbLine
 62
7
  6
CONTINUOUS
 10
83.7325102817
 20
229.0662349867
 11
86.6350384225
 21
227.8341848876
  0
LINE
  5
2DB
100
AcDbEntity
  8
0
100
AcDbLine
 62
7
  6
CONTINUOUS
 10
86.7835162514
 20
228.1839767319
 11
83.2855978082
 21
229.6687550201
  0
LINE
  5
2DC
100
AcDbEntity
  8
0
100
AcDbLine
 62
7
  6
CONTINUOUS
 10
85.8651301463
 20
229.1242321461
 11
86.0884015097
 21
229.0294590752
  0
LINE
  5
2DD
100
AcDbEntity
  8
0
100
AcDbLine
 62
7
  6
CONTINUOUS
 10
84.4014002135
 20
229.8143504144
 11
84.6246715768
 21
229.7195773435
  0
LINE
  5
2DE
100
AcDbEntity
  8
0
100
AcDbLine
 62
7
  6
CONTINUOUS
 10
86.2121328449
 20
229.320951834
 11
85.9888614815
 21
229.4157249049
  0
LINE
  5
2DF
100
AcDbEntity
  8
0
100
AcDbLine
 62
7
  6
CONTINUOUS
 10
84.6739796907
 20
230.0426624603
 11
84.5251321151
 21
230.1058445075
  0
LINE
  5
2E0
100
AcDbEntity
  8
0
100
AcDbLine
 62
7
  6
CONTINUOUS
 10
85.1190434304
 20
231.5050118848
 11
85.267891006
 21
231.4418298375
  0
LINE
  5
2E1
100
AcDbEntity
  8
0
100
AcDbLine
 62
7
  6
CONTINUOUS
 10
86.6322652176
 20
230.9314891188
 11
86.855536581
 21
230.8367160479
  0
LINE
  5
2E2
100
AcDbEntity
  8
0
100
AcDbLine
 62
7
  6
CONTINUOUS
 10
85.466046129
 20
231.7017315727
 11
85.2427747656
 21
231.7965046436
  0
LINE
  5
2E3
100
AcDbEntity
  8
0
100
AcDbLine
 62
7
  6
CONTINUOUS
 10
86.9792684826
 20
231.128210141
 11
86.7559971193
 21
231.222983212
  0
LINE
  5
2E4
100
AcDbEntity
  8
0
100
AcDbLine
 62
7
  6
CONTINUOUS
 10
96.6370340623
 20
240.3482280253
 11
96.4090861796
 21
240.6097117519
  0
LINE
  5
2E5
100
AcDbEntity
  8
0
100
AcDbLine
 62
7
  6
CONTINUOUS
 10
109.0721553945
 20
240.7848735
 11
108.4271553945
 21
242.8891288246
  0
LINE
  5
2E6
100
AcDbEntity
  8
0
100
AcDbLine
 62
7
  6
CONTINUOUS
 10
107.997155292
 20
242.706150123
 11
108.5704885911
 21
240.7848735
  0
LINE
  5
2E7
100
AcDbEntity
  8
0
100
AcDbLine
 62
7
  6
CONTINUOUS
 10
108.4988219928
 20
244.3529586936
 11
108.5704885911
 21
244.0784906412
  0
LINE
  5
2E8
100
AcDbEntity
  8
0
100
AcDbLine
 62
7
  6
CONTINUOUS
 10
109.0004885911
 20
244.0784906412
 11
108.9288219928
 21
244.3529586936
  0
LINE
  5
2E9
100
AcDbEntity
  8
0
100
AcDbLine
 62
7
  6
CONTINUOUS
 10
110.1471551895
 20
241.8827458377
 11
110.0754887962
 21
242.2487032409
  0
LINE
  5
2EA
100
AcDbEntity
  8
DEFAULT_2
100
AcDbLine
 62
8
  6
HIDDEN
 10
120.0188219928
 20
193.8643024005
 11
120.0188219928
 21
178.2248735
  0
LINE
  5
2EB
100
AcDbEntity
  8
0
100
AcDbLine
 62
7
  6
CONTINUOUS
 10
79.377160825
 20
218.805674665
 11
79.0052267594
 21
218.7571428374
  0
LINE
  5
2EC
100
AcDbEntity
  8
0
100
AcDbLine
 62
7
  6
CONTINUOUS
 10
82.4955649771
 20
225.7383295039
 11
85.595693904
 21
225.3856426446
  0
LINE
  5
2ED
100
AcDbEntity
  8
0
100
AcDbLine
 62
7
  6
CONTINUOUS
 10
85.3225600377
 20
225.7767921254
 11
81.8255660136
 21
226.2291356625
  0
LINE
  5
2EE
100
AcDbEntity
  8
0
100
AcDbLine
 62
7
  6
CONTINUOUS
 10
99.141247049
 20
238.9441367241
 11
98.9558526533
 21
239.1319164122
  0
LINE
  5
2EF
100
AcDbEntity
  8
0
100
AcDbLine
 62
7
  6
CONTINUOUS
 10
109.7171553945
 20
241.7912564869
 11
109.8604887962
 21
241.4252990196
  0
LINE
  5
2F0
100
AcDbEntity
  8
0
100
AcDbLine
 62
7
  6
CONTINUOUS
 10
115.1638219928
 20
243.9870010342
 11
115.2354883861
 21
243.621043631
  0
LINE
  5
2F1
100
AcDbEntity
  8
0
100
AcDbLine
 62
7
  6
CONTINUOUS
 10
115.6654883861
 20
243.621043631
 11
115.5938219928
 21
244.0784906412
  0
LINE
  5
2F2
100
AcDbEntity
  8
0
100
AcDbLine
 62
7
  6
CONTINUOUS
 10
79.0303427874
 20
218.4024675309
 11
79.2286829962
 21
218.4558828207
  0
LINE
  5
2F3
100
AcDbEntity
  8
0
100
AcDbLine
 62
7
  6
CONTINUOUS
 10
86.0884015097
 20
229.0294590752
 11
86.5100129216
 21
228.9881007715
  0
LINE
  5
2F4
100
AcDbEntity
  8
0
100
AcDbLine
 62
7
  6
CONTINUOUS
 10
98.7522840314
 20
238.8178411957
 11
99.0379667357
 21
238.5896906494
  0
LINE
  5
2F5
100
AcDbEntity
  8
0
100
AcDbLine
 62
7
  6
CONTINUOUS
 10
108.9288219928
 20
244.3529586936
 11
108.7138219928
 21
244.7189160968
  0
LINE
  5
2F6
100
AcDbEntity
  8
0
100
AcDbLine
 62
7
  6
CONTINUOUS
 10
110.2904887962
 20
241.6082777853
 11
110.1471551895
 21
241.8827458377
  0
LINE
  5
2F7
100
AcDbEntity
  8
0
100
AcDbLine
 62
7
  6
CONTINUOUS
 10
84.6246715768
 20
229.7195773435
 11
84.9718597152
 21
229.7098114199
  0
LINE
  5
2F8
100
AcDbEntity
  8
0
100
AcDbLine
 62
7
  6
CONTINUOUS
 10
86.7559971193
 20
231.222983212
 11
86.3343850889
 21
231.2643402034
  0
LINE
  5
2F9
100
AcDbEntity
  8
0
100
AcDbLine
 62
7
  6
CONTINUOUS
 10
85.2427747656
 20
231.7965046436
 11
84.8211631974
 21
231.8378630137
  0
LINE
  5
2FA
100
AcDbEntity
  8
0
100
AcDbLine
 62
7
  6
CONTINUOUS
 10
96.0474943978
 20
240.3026742649
 11
96.2906239008
 21
240.1482280253
  0
LINE
  5
2FB
100
AcDbEntity
  8
0
100
AcDbLine
 62
7
  6
CONTINUOUS
 10
109.8604887962
 20
241.4252990196
 11
110.1471551895
 21
241.0593415844
  0
LINE
  5
2FC
100
AcDbEntity
  8
0
100
AcDbLine
 62
7
  6
CONTINUOUS
 10
108.3554885911
 20
244.5359373952
 11
108.4988219928
 21
244.3529586936
  0
LINE
  5
2FD
100
AcDbEntity
  8
0
100
AcDbLine
 62
7
  6
CONTINUOUS
 10
115.5938219928
 20
244.0784906412
 11
115.4504883861
 21
244.4444480444
  0
LINE
  5
2FE
100
AcDbEntity
  8
B-ACHSEN
100
AcDbLine
 62
7
  6
CONTINUOUS
 10
131.0188219928
 20
177.2248735
 11
131.0188219928
 21
179.9370332344
  0
LINE
  5
2FF
100
AcDbEntity
  8
DEFAULT_2
100
AcDbLine
 62
8
  6
HIDDEN
 10
102.0188219928
 20
178.2248735
 11
100.5188219928
 21
176.7248735
  0
LINE
  5
300
100
AcDbEntity
  8
0
100
AcDbLine
 62
7
  6
CONTINUOUS
 10
86.5840669626
 20
229.3694836394
 11
86.2121328449
 21
229.320951834
  0
LINE
  5
301
100
AcDbEntity
  8
0
100
AcDbLine
 62
7
  6
CONTINUOUS
 10
86.2603310478
 20
230.8829573355
 11
86.6322652176
 21
230.9314891188
  0
LINE
  5
302
100
AcDbEntity
  8
0
100
AcDbLine
 62
7
  6
CONTINUOUS
 10
84.9467434748
 20
230.064486226
 11
84.6739796907
 21
230.0426624603
  0
LINE
  5
303
100
AcDbEntity
  8
0
100
AcDbLine
 62
7
  6
CONTINUOUS
 10
84.8462788713
 20
231.4831868732
 11
85.1190434304
 21
231.5050118848
  0
LINE
  5
304
100
AcDbEntity
  8
0
100
AcDbLine
 62
7
  6
CONTINUOUS
 10
96.4090861796
 20
240.6097117519
 11
96.0079335465
 21
240.7711956694
  0
LINE
  5
305
100
AcDbEntity
  8
0
100
AcDbLine
 62
7
  6
CONTINUOUS
 10
110.5054887962
 20
241.4252990196
 11
110.2904887962
 21
241.6082777853
  0
LINE
  5
306
100
AcDbEntity
  8
0
100
AcDbLine
 62
7
  6
CONTINUOUS
 10
108.7138219928
 20
244.7189160968
 11
108.4271553945
 21
244.9933841492
  0
LINE
  5
307
100
AcDbEntity
  8
0
100
AcDbLine
 62
7
  6
CONTINUOUS
 10
115.0204883861
 20
244.2614693428
 11
115.1638219928
 21
243.9870010342
  0
LINE
  5
308
100
AcDbEntity
  8
0
100
AcDbLine
 62
7
  6
CONTINUOUS
 10
86.5100129216
 20
228.9881007715
 11
86.8075232254
 21
229.0682236116
  0
LINE
  5
309
100
AcDbEntity
  8
0
100
AcDbLine
 62
7
  6
CONTINUOUS
 10
84.9718597152
 20
229.7098114199
 11
85.269369993
 21
229.7899342711
  0
LINE
  5
30A
100
AcDbEntity
  8
0
100
AcDbLine
 62
7
  6
CONTINUOUS
 10
99.0379667357
 20
238.5896906494
 11
99.2962781968
 21
238.5422820747
  0
LINE
  5
30B
100
AcDbEntity
  8
0
100
AcDbLine
 62
7
  6
CONTINUOUS
 10
99.3995585026
 20
238.8967281623
 11
99.141247049
 21
238.9441367241
  0
LINE
  5
30C
100
AcDbEntity
  8
0
100
AcDbLine
 62
7
  6
CONTINUOUS
 10
95.7891829443
 20
240.3500828267
 11
96.0474943978
 21
240.3026742649
  0
LINE
  5
30D
100
AcDbEntity
  8
0
100
AcDbLine
 62
7
  6
CONTINUOUS
 10
110.1471551895
 20
241.0593415844
 11
110.4338219928
 21
240.8763628588
  0
LINE
  5
30E
100
AcDbEntity
  8
0
100
AcDbLine
 62
7
  6
CONTINUOUS
 10
115.4504883861
 20
244.4444480444
 11
115.1638219928
 21
244.8104054476
  0
LINE
  5
30F
100
AcDbEntity
  8
0
100
AcDbLine
 62
7
  6
CONTINUOUS
 10
99.7307870587
 20
238.9896906494
 11
99.3995585026
 21
238.8967281623
  0
LINE
  5
310
100
AcDbEntity
  8
0
100
AcDbLine
 62
7
  6
CONTINUOUS
 10
84.8211631974
 20
231.8378630137
 11
84.5236529196
 21
231.7577401624
  0
LINE
  5
311
100
AcDbEntity
  8
0
100
AcDbLine
 62
7
  6
CONTINUOUS
 10
114.5188219928
 20
240.7848735
 11
114.8771555995
 21
240.8763628588
  0
LINE
  5
312
100
AcDbEntity
  8
0
100
AcDbLine
 62
7
  6
CONTINUOUS
 10
111.0788219928
 20
240.7848735
 11
111.4371551895
 21
240.8763628588
  0
LINE
  5
313
100
AcDbEntity
  8
0
100
AcDbLine
 62
7
  6
CONTINUOUS
 10
99.2962781968
 20
238.5422820747
 11
99.5120364677
 21
238.5685777874
  0
LINE
  5
314
100
AcDbEntity
  8
0
100
AcDbLine
 62
7
  6
CONTINUOUS
 10
106.3488219928
 20
240.7848735
 11
106.7788219928
 21
240.7848735
  0
LINE
  5
315
100
AcDbEntity
  8
0
100
AcDbLine
 62
7
  6
CONTINUOUS
 10
108.5704885911
 20
240.7848735
 11
109.0721553945
 21
240.7848735
  0
LINE
  5
316
100
AcDbEntity
  8
0
100
AcDbLine
 62
7
  6
CONTINUOUS
 10
110.7921551895
 20
240.7848735
 11
111.0788219928
 21
240.7848735
  0
LINE
  5
317
100
AcDbEntity
  8
0
100
AcDbLine
 62
7
  6
CONTINUOUS
 10
112.7988219928
 20
240.7848735
 11
114.5188219928
 21
240.7848735
  0
LINE
  5
318
100
AcDbEntity
  8
0
100
AcDbLine
 62
7
  6
CONTINUOUS
 10
96.0079335465
 20
240.7711956694
 11
95.6918869559
 21
240.7852708342
  0
LINE
  5
319
100
AcDbEntity
  8
0
100
AcDbLine
 62
7
  6
CONTINUOUS
 10
110.4338219928
 20
240.8763628588
 11
110.7921551895
 21
240.7848735
  0
LINE
  5
31A
100
AcDbEntity
  8
0
100
AcDbLine
 62
7
  6
CONTINUOUS
 10
110.7921551895
 20
241.3338096689
 11
110.5054887962
 21
241.4252990196
  0
LINE
  5
31B
100
AcDbEntity
  8
0
100
AcDbLine
 62
7
  6
CONTINUOUS
 10
108.1404885911
 20
244.627426746
 11
108.3554885911
 21
244.5359373952
  0
LINE
  5
31C
100
AcDbEntity
  8
0
100
AcDbLine
 62
7
  6
CONTINUOUS
 10
114.8054883861
 20
244.4444480444
 11
115.0204883861
 21
244.2614693428
  0
LINE
  5
31D
100
AcDbEntity
  8
0
100
AcDbLine
 62
7
  6
CONTINUOUS
 10
95.457954403
 20
240.2571203137
 11
95.7891829443
 21
240.3500828267
  0
LINE
  5
31E
100
AcDbEntity
  8
0
100
AcDbLine
 62
7
  6
CONTINUOUS
 10
114.5188219928
 20
241.3338096689
 11
113.2288219928
 21
241.3338096689
  0
LINE
  5
31F
100
AcDbEntity
  8
0
100
AcDbLine
 62
7
  6
CONTINUOUS
 10
111.0788219928
 20
241.3338096689
 11
110.7921551895
 21
241.3338096689
  0
LINE
  5
320
100
AcDbEntity
  8
0
100
AcDbLine
 62
7
  6
CONTINUOUS
 10
106.7788219928
 20
242.706150123
 11
107.997155292
 21
242.706150123
  0
LINE
  5
321
100
AcDbEntity
  8
0
100
AcDbLine
 62
7
  6
CONTINUOUS
 10
108.1404885911
 20
243.2550862278
 11
106.7788219928
 21
243.2550862278
  0
LINE
  5
322
100
AcDbEntity
  8
0
100
AcDbLine
 62
7
  6
CONTINUOUS
 10
113.2288219928
 20
244.5359373952
 11
114.5188219928
 21
244.5359373952
  0
LINE
  5
323
100
AcDbEntity
  8
0
100
AcDbLine
 62
7
  6
CONTINUOUS
 10
106.7788219928
 20
244.627426746
 11
108.1404885911
 21
244.627426746
  0
LINE
  5
324
100
AcDbEntity
  8
0
100
AcDbLine
 62
7
  6
CONTINUOUS
 10
108.4271553945
 20
244.9933841492
 11
108.0688219928
 21
245.0848735
  0
LINE
  5
325
100
AcDbEntity
  8
0
100
AcDbLine
 62
7
  6
CONTINUOUS
 10
114.5188219928
 20
244.5359373952
 11
114.8054883861
 21
244.4444480444
  0
LINE
  5
326
100
AcDbEntity
  8
0
100
AcDbLine
 62
7
  6
CONTINUOUS
 10
115.1638219928
 20
244.8104054476
 11
114.8771555995
 21
244.9933841492
  0
LINE
  5
327
100
AcDbEntity
  8
0
100
AcDbLine
 62
7
  6
CONTINUOUS
 10
114.5188219928
 20
245.0848735
 11
112.7988219928
 21
245.0848735
  0
LINE
  5
328
100
AcDbEntity
  8
0
100
AcDbLine
 62
7
  6
CONTINUOUS
 10
112.2254887962
 20
245.0848735
 11
111.7954887962
 21
245.0848735
  0
LINE
  5
329
100
AcDbEntity
  8
0
100
AcDbLine
 62
7
  6
CONTINUOUS
 10
110.0754887962
 20
245.0848735
 11
109.6454885911
 21
245.0848735
  0
LINE
  5
32A
100
AcDbEntity
  8
0
100
AcDbLine
 62
7
  6
CONTINUOUS
 10
108.0688219928
 20
245.0848735
 11
106.3488219928
 21
245.0848735
  0
LINE
  5
32B
100
AcDbEntity
  8
0
100
AcDbLine
 62
7
  6
CONTINUOUS
 10
114.8771555995
 20
244.9933841492
 11
114.5188219928
 21
245.0848735
  0
LINE
  5
32C
100
AcDbEntity
  8
RUNDUNGEN
100
AcDbLine
 62
7
  6
CONTINUOUS
 10
112.5495557223
 20
248.9745498391
 11
136.2759285289
 21
239.1467644367
  0
LINE
  5
32D
100
AcDbEntity
  8
RUNDUNGEN
100
AcDbLine
 62
7
  6
CONTINUOUS
 10
138.4407129295
 20
236.9819800361
 11
148.2684983319
 21
213.2556072295
  0
LINE
  5
32E
100
AcDbEntity
  8
RUNDUNGEN
100
AcDbLine
 62
7
  6
CONTINUOUS
 10
148.2684983319
 20
210.1941397705
 11
138.1902136003
 21
185.8630080859
  0
LINE
  5
32F
100
AcDbEntity
  8
B-ACHSEN
100
AcDbLine
 62
7
  6
CONTINUOUS
 10
130.5188219928
 20
176.7248735
 11
131.0188219928
 21
177.2248735
  0
LINE
  5
330
100
AcDbEntity
  8
B-ACHSEN
100
AcDbLine
 62
7
  6
CONTINUOUS
 10
275.8771291021
 20
176.7248735
 11
275.3771291021
 21
177.2248735
  0
LINE
  5
331
100
AcDbEntity
  8
B-ACHSEN
100
AcDbLine
 62
7
  6
CONTINUOUS
 10
275.877469935
 20
176.7248735
 11
314.8767882692
 21
176.7248735
  0
LINE
  5
332
100
AcDbEntity
  8
B-ACHSEN
100
AcDbLine
 62
7
  6
CONTINUOUS
 10
275.3771291021
 20
177.2248735
 11
315.3771291021
 21
177.2248735
  0
LINE
  5
333
100
AcDbEntity
  8
DEFAULT_2
100
AcDbLine
 62
8
  6
HIDDEN
 10
304.3771291021
 20
178.2248735
 11
286.3771291021
 21
178.2248735
  0
LINE
  5
334
100
AcDbEntity
  8
RUNDUNGEN
100
AcDbLine
 62
7
  6
CONTINUOUS
 10
304.699765239
 20
184.9370332344
 11
286.0544929651
 21
184.9370332344
  0
LINE
  5
335
100
AcDbEntity
  8
B-ACHSEN
100
AcDbLine
 62
7
  6
CONTINUOUS
 10
275.3771291021
 20
177.2248735
 11
275.3771291021
 21
185.7618084782
  0
LINE
  5
336
100
AcDbEntity
  8
B-ACHSEN
100
AcDbLine
 62
7
  6
CONTINUOUS
 10
277.9078257069
 20
188.7248735
 11
284.1656601348
 21
189.7160171035
  0
LINE
  5
337
100
AcDbEntity
  8
B-ACHSEN
100
AcDbLine
 62
7
  6
CONTINUOUS
 10
312.8464324972
 20
188.7248735
 11
306.5895145492
 21
189.7158719474
  0
LINE
  5
338
100
AcDbEntity
  8
DEFAULT_2
100
AcDbLine
 62
8
  6
HIDDEN
 10
286.3771291021
 20
191.7304033784
 11
286.3771291021
 21
178.2248735
  0
LINE
  5
339
100
AcDbEntity
  8
RUNDUNGEN
100
AcDbLine
 62
7
  6
CONTINUOUS
 10
287.3771291021
 20
247.7790316967
 11
287.3771291021
 21
212.5621896088
  0
LINE
  5
33A
100
AcDbEntity
  8
RUNDUNGEN
100
AcDbLine
 62
7
  6
CONTINUOUS
 10
287.2839397107
 20
210.8927593231
 11
284.2527327381
 21
183.8262632587
  0
LINE
  5
33B
100
AcDbEntity
  8
B-ACHSEN
100
AcDbLine
 62
2
  6
CENTER
 10
295.3771291021
 20
252.1070516459
 11
295.3771291021
 21
173.7248735
  0
LINE
  5
33C
100
AcDbEntity
  8
RUNDUNGEN
100
AcDbLine
 62
7
  6
CONTINUOUS
 10
284.9854653389
 20
190.4262077178
 11
284.9375169438
 21
190.2961579717
  0
LWPOLYLINE
  5
33D
100
AcDbEntity
  8
RUNDUNGEN
100
AcDbPolyline
 62
7
  6
CONTINUOUS
 90
9
 70
0
 10
284.9375169438
 20
190.2961579717
 10
284.872045984
 20
190.1739864592
 10
284.7903099065
 20
190.0620406739
 10
284.6938785326
 20
189.96247153
 10
284.5846039942
 20
189.8771923112
 10
284.4645855619
 20
189.807842119
 10
284.3361290302
 20
189.7557539859
 10
284.2017023566
 20
189.7219292694
 10
284.1819211064
 20
189.718592503
  0
LINE
  5
33E
100
AcDbEntity
  8
0
100
AcDbLine
 62
7
  6
CONTINUOUS
 10
303.3771291021
 20
215.4748735
 11
303.6771291021
 21
215.4748735
  0
LINE
  5
33F
100
AcDbEntity
  8
0
100
AcDbLine
 62
7
  6
CONTINUOUS
 10
303.3771291021
 20
216.9596517883
 11
303.6771291021
 21
216.9596517883
  0
LINE
  5
340
100
AcDbEntity
  8
0
100
AcDbLine
 62
7
  6
CONTINUOUS
 10
303.3771291021
 20
218.3588191655
 11
303.6771291021
 21
218.3588191655
  0
LINE
  5
341
100
AcDbEntity
  8
0
100
AcDbLine
 62
7
  6
CONTINUOUS
 10
303.3771291021
 20
218.6187214011
 11
303.6771291021
 21
218.6187214011
  0
LINE
  5
342
100
AcDbEntity
  8
0
100
AcDbLine
 62
7
  6
CONTINUOUS
 10
303.3771291021
 20
218.7571428374
 11
303.6771291021
 21
218.7571428374
  0
LINE
  5
343
100
AcDbEntity
  8
0
100
AcDbLine
 62
7
  6
CONTINUOUS
 10
303.3771291021
 20
218.805674665
 11
303.6771291021
 21
218.805674665
  0
LINE
  5
344
100
AcDbEntity
  8
RUNDUNGEN
100
AcDbLine
 62
7
  6
CONTINUOUS
 10
303.3771291021
 20
212.5621896088
 11
303.3771291021
 21
247.7790316967
  0
LINE
  5
345
100
AcDbEntity
  8
0
100
AcDbLine
 62
7
  6
CONTINUOUS
 10
303.6771291021
 20
245.0848735
 11
303.6771291021
 21
235.3948735
  0
LINE
  5
346
100
AcDbEntity
  8
0
100
AcDbLine
 62
7
  6
CONTINUOUS
 10
303.6771291021
 20
231.8378630137
 11
303.6771291021
 21
224.2196696078
  0
LINE
  5
347
100
AcDbEntity
  8
0
100
AcDbLine
 62
7
  6
CONTINUOUS
 10
303.6771291021
 20
222.439724127
 11
303.6771291021
 21
215.4748735
  0
LINE
  5
348
100
AcDbEntity
  8
0
100
AcDbLine
 62
7
  6
CONTINUOUS
 10
303.3771291021
 20
219.6413892057
 11
303.6771291021
 21
219.6413892057
  0
LINE
  5
349
100
AcDbEntity
  8
0
100
AcDbLine
 62
7
  6
CONTINUOUS
 10
303.3771291021
 20
220.166077139
 11
303.6771291021
 21
220.166077139
  0
LINE
  5
34A
100
AcDbEntity
  8
RUNDUNGEN
100
AcDbLine
 62
7
  6
CONTINUOUS
 10
306.5015254333
 20
183.8262635507
 11
303.4703184934
 21
210.8927593231
  0
LINE
  5
34B
100
AcDbEntity
  8
DEFAULT_2
100
AcDbLine
 62
8
  6
HIDDEN
 10
304.3771291021
 20
191.7304043017
 11
304.3771291021
 21
178.2248735
  0
LINE
  5
34C
100
AcDbEntity
  8
0
100
AcDbLine
 62
7
  6
CONTINUOUS
 10
303.3771291021
 20
221.9150363605
 11
303.6771291021
 21
221.9150363605
  0
LINE
  5
34D
100
AcDbEntity
  8
0
100
AcDbLine
 62
7
  6
CONTINUOUS
 10
303.3771291021
 20
222.439724127
 11
303.6771291021
 21
222.439724127
  0
LINE
  5
34E
100
AcDbEntity
  8
0
100
AcDbLine
 62
7
  6
CONTINUOUS
 10
303.3771291021
 20
224.2196696078
 11
303.6771291021
 21
224.2196696078
  0
LINE
  5
34F
100
AcDbEntity
  8
0
100
AcDbLine
 62
7
  6
CONTINUOUS
 10
303.3771291021
 20
225.7044478961
 11
303.6771291021
 21
225.7044478961
  0
LINE
  5
350
100
AcDbEntity
  8
0
100
AcDbLine
 62
7
  6
CONTINUOUS
 10
303.3771291021
 20
226.2291356625
 11
303.6771291021
 21
226.2291356625
  0
LINE
  5
351
100
AcDbEntity
  8
0
100
AcDbLine
 62
7
  6
CONTINUOUS
 10
303.3771291021
 20
227.9780948841
 11
303.6771291021
 21
227.9780948841
  0
LINE
  5
352
100
AcDbEntity
  8
0
100
AcDbLine
 62
7
  6
CONTINUOUS
 10
303.3771291021
 20
228.5027826506
 11
303.6771291021
 21
228.5027826506
  0
LINE
  5
353
100
AcDbEntity
  8
0
100
AcDbLine
 62
7
  6
CONTINUOUS
 10
303.3771291021
 20
228.748034166
 11
303.6771291021
 21
228.748034166
  0
LINE
  5
354
100
AcDbEntity
  8
0
100
AcDbLine
 62
7
  6
CONTINUOUS
 10
303.3771291021
 20
229.3189631758
 11
303.6771291021
 21
229.3189631758
  0
LINE
  5
355
100
AcDbEntity
  8
0
100
AcDbLine
 62
7
  6
CONTINUOUS
 10
303.3771291021
 20
229.6687550201
 11
303.6771291021
 21
229.6687550201
  0
LINE
  5
356
100
AcDbEntity
  8
0
100
AcDbLine
 62
7
  6
CONTINUOUS
 10
303.3771291021
 20
229.7098114199
 11
303.6771291021
 21
229.7098114199
  0
LINE
  5
357
100
AcDbEntity
  8
0
100
AcDbLine
 62
7
  6
CONTINUOUS
 10
303.3771291021
 20
229.7195773435
 11
303.6771291021
 21
229.7195773435
  0
LINE
  5
358
100
AcDbEntity
  8
0
100
AcDbLine
 62
7
  6
CONTINUOUS
 10
303.3771291021
 20
229.8143504144
 11
303.6771291021
 21
229.8143504144
  0
LINE
  5
359
100
AcDbEntity
  8
DEFAULT_2
100
AcDbLine
 62
8
  6
HIDDEN
 10
286.3771291021
 20
178.2248735
 11
284.8771291021
 21
176.7248735
  0
LINE
  5
35A
100
AcDbEntity
  8
0
100
AcDbLine
 62
7
  6
CONTINUOUS
 10
303.3771291021
 20
230.0889037921
 11
303.6771291021
 21
230.0889037921
  0
LINE
  5
35B
100
AcDbEntity
  8
0
100
AcDbLine
 62
7
  6
CONTINUOUS
 10
303.3771291021
 20
230.3585727852
 11
303.6771291021
 21
230.3585727852
  0
LINE
  5
35C
100
AcDbEntity
  8
0
100
AcDbLine
 62
7
  6
CONTINUOUS
 10
303.3771291021
 20
230.7448386149
 11
303.6771291021
 21
230.7448386149
  0
LINE
  5
35D
100
AcDbEntity
  8
0
100
AcDbLine
 62
7
  6
CONTINUOUS
 10
303.3771291021
 20
231.0679223974
 11
303.6771291021
 21
231.0679223974
  0
LINE
  5
35E
100
AcDbEntity
  8
0
100
AcDbLine
 62
7
  6
CONTINUOUS
 10
303.3771291021
 20
231.301117405
 11
303.6771291021
 21
231.301117405
  0
LINE
  5
35F
100
AcDbEntity
  8
0
100
AcDbLine
 62
7
  6
CONTINUOUS
 10
303.3771291021
 20
231.5610191402
 11
303.6771291021
 21
231.5610191402
  0
LINE
  5
360
100
AcDbEntity
  8
0
100
AcDbLine
 62
7
  6
CONTINUOUS
 10
303.3771291021
 20
231.7577401624
 11
303.6771291021
 21
231.7577401624
  0
LINE
  5
361
100
AcDbEntity
  8
0
100
AcDbLine
 62
7
  6
CONTINUOUS
 10
303.3771291021
 20
231.8378630137
 11
303.6771291021
 21
231.8378630137
  0
LINE
  5
362
100
AcDbEntity
  8
B-ACHSEN
100
AcDbLine
 62
7
  6
CONTINUOUS
 10
315.3771291021
 20
177.2248735
 11
315.3771291021
 21
185.7618084782
  0
LINE
  5
363
100
AcDbEntity
  8
0
100
AcDbLine
 62
7
  6
CONTINUOUS
 10
303.3771291021
 20
235.3948735
 11
303.6771291021
 21
235.3948735
  0
LINE
  5
364
100
AcDbEntity
  8
0
100
AcDbLine
 62
7
  6
CONTINUOUS
 10
303.3771291021
 20
237.5534106952
 11
303.6771291021
 21
237.5534106952
  0
LINE
  5
365
100
AcDbEntity
  8
0
100
AcDbLine
 62
7
  6
CONTINUOUS
 10
303.3771291021
 20
238.1430451489
 11
303.6771291021
 21
238.1430451489
  0
LINE
  5
366
100
AcDbEntity
  8
0
100
AcDbLine
 62
7
  6
CONTINUOUS
 10
303.3771291021
 20
238.8589751151
 11
303.6771291021
 21
238.8589751151
  0
LINE
  5
367
100
AcDbEntity
  8
0
100
AcDbLine
 62
7
  6
CONTINUOUS
 10
303.3771291021
 20
239.0589751151
 11
303.6771291021
 21
239.0589751151
  0
LINE
  5
368
100
AcDbEntity
  8
0
100
AcDbLine
 62
7
  6
CONTINUOUS
 10
303.3771291021
 20
239.1815613268
 11
303.6771291021
 21
239.1815613268
  0
LINE
  5
369
100
AcDbEntity
  8
0
100
AcDbLine
 62
7
  6
CONTINUOUS
 10
303.3771291021
 20
239.5097118473
 11
303.6771291021
 21
239.5097118473
  0
LINE
  5
36A
100
AcDbEntity
  8
0
100
AcDbLine
 62
7
  6
CONTINUOUS
 10
303.3771291021
 20
239.9378622724
 11
303.6771291021
 21
239.9378622724
  0
LINE
  5
36B
100
AcDbEntity
  8
0
100
AcDbLine
 62
7
  6
CONTINUOUS
 10
303.3771291021
 20
240.2186042312
 11
303.6771291021
 21
240.2186042312
  0
LINE
  5
36C
100
AcDbEntity
  8
0
100
AcDbLine
 62
7
  6
CONTINUOUS
 10
303.3771291021
 20
240.5256417182
 11
303.6771291021
 21
240.5256417182
  0
LINE
  5
36D
100
AcDbEntity
  8
0
100
AcDbLine
 62
7
  6
CONTINUOUS
 10
303.3771291021
 20
240.6589751151
 11
303.6771291021
 21
240.6589751151
  0
LINE
  5
36E
100
AcDbEntity
  8
0
100
AcDbLine
 62
7
  6
CONTINUOUS
 10
303.3771291021
 20
240.7852708342
 11
303.6771291021
 21
240.7852708342
  0
LINE
  5
36F
100
AcDbEntity
  8
0
100
AcDbLine
 62
7
  6
CONTINUOUS
 10
303.3771291021
 20
241.1763785458
 11
303.6771291021
 21
241.1763785458
  0
LINE
  5
370
100
AcDbEntity
  8
0
100
AcDbLine
 62
7
  6
CONTINUOUS
 10
303.3771291021
 20
241.3430451489
 11
303.6771291021
 21
241.3430451489
  0
LINE
  5
371
100
AcDbEntity
  8
0
100
AcDbLine
 62
7
  6
CONTINUOUS
 10
303.3771291021
 20
245.0848735
 11
303.6771291021
 21
245.0848735
  0
LINE
  5
372
100
AcDbEntity
  8
B-ACHSEN
100
AcDbLine
 62
7
  6
CONTINUOUS
 10
314.8771291021
 20
176.7248735
 11
315.3771291021
 21
177.2248735
  0
LINE
  5
373
100
AcDbEntity
  8
RUNDUNGEN
100
AcDbLine
 62
7
  6
CONTINUOUS
 10
301.8771291021
 20
249.2790317091
 11
288.8771291021
 21
249.2790317091
  0
LWPOLYLINE
  5
374
100
AcDbEntity
  8
RUNDUNGEN
100
AcDbPolyline
 62
7
  6
CONTINUOUS
 90
19
 70
0
 10
73.4646643874
 20
106.0921947914
 10
73.4670929748
 20
106.0066872275
 10
73.4850941242
 20
105.844923418
 10
73.5197665592
 20
105.6884334792
 10
73.5697686098
 20
105.5392433719
 10
73.633719132
 20
105.3985880614
 10
73.7104948072
 20
105.2670242495
 10
73.7974583444
 20
105.1471072649
 10
73.8918430414
 20
105.0401653568
 10
73.9906787503
 20
104.9468773677
 10
74.0911420606
 20
104.8671505064
 10
74.1900071149
 20
104.8007107825
 10
74.2842763231
 20
104.7466631122
 10
74.3724632131
 20
104.7031371643
 10
74.4516607201
 20
104.6690409892
 10
74.5261237831
 20
104.6406659852
 10
74.5990876045
 20
104.6157651275
 10
74.6745537472
 20
104.5924819044
 10
74.7585718526
 20
104.5689222411
  0
LINE
  5
375
100
AcDbEntity
  8
RUNDUNGEN
100
AcDbLine
 62
7
  6
CONTINUOUS
 10
73.4646637838
 20
106.0914340427
 11
73.4646637838
 21
119.1354859333
  0
LINE
  5
376
100
AcDbEntity
  8
0
100
AcDbLine
 62
7
  6
CONTINUOUS
 10
77.8909035497
 20
104.6134599872
 11
77.8909035497
 21
104.3134599872
  0
LINE
  5
377
100
AcDbEntity
  8
0
100
AcDbLine
 62
7
  6
CONTINUOUS
 10
83.1371199794
 20
104.6134599872
 11
83.1371199794
 21
104.3134599872
  0
LINE
  5
378
100
AcDbEntity
  8
0
100
AcDbLine
 62
7
  6
CONTINUOUS
 10
83.2855978082
 20
104.6134599872
 11
83.2855978082
 21
104.3134599872
  0
LINE
  5
379
100
AcDbEntity
  8
0
100
AcDbLine
 62
7
  6
CONTINUOUS
 10
83.8302015761
 20
104.6134599872
 11
83.8302015761
 21
104.3134599872
  0
LINE
  5
37A
100
AcDbEntity
  8
0
100
AcDbLine
 62
7
  6
CONTINUOUS
 10
83.8795091235
 20
104.6134599872
 11
83.8795091235
 21
104.3134599872
  0
LINE
  5
37B
100
AcDbEntity
  8
0
100
AcDbLine
 62
7
  6
CONTINUOUS
 10
83.9784945316
 20
104.6134599872
 11
83.9784945316
 21
104.3134599872
  0
LINE
  5
37C
100
AcDbEntity
  8
0
100
AcDbLine
 62
7
  6
CONTINUOUS
 10
84.1766496546
 20
104.6134599872
 11
84.1766496546
 21
104.3134599872
  0
LINE
  5
37D
100
AcDbEntity
  8
0
100
AcDbLine
 62
7
  6
CONTINUOUS
 10
84.5236529196
 20
104.6134599872
 11
84.5236529196
 21
104.3134599872
  0
LINE
  5
37E
100
AcDbEntity
  8
0
100
AcDbLine
 62
7
  6
CONTINUOUS
 10
84.8211631974
 20
104.6134599872
 11
84.8211631974
 21
104.3134599872
  0
LINE
  5
37F
100
AcDbEntity
  8
0
100
AcDbLine
 62
7
  6
CONTINUOUS
 10
85.2427747656
 20
104.6134599872
 11
85.2427747656
 21
104.3134599872
  0
LINE
  5
380
100
AcDbEntity
  8
0
100
AcDbLine
 62
7
  6
CONTINUOUS
 10
85.466046129
 20
104.6134599872
 11
85.466046129
 21
104.3134599872
  0
LINE
  5
381
100
AcDbEntity
  8
0
100
AcDbLine
 62
7
  6
CONTINUOUS
 10
85.7142488593
 20
104.6134599872
 11
85.7142488593
 21
104.3134599872
  0
LINE
  5
382
100
AcDbEntity
  8
0
100
AcDbLine
 62
7
  6
CONTINUOUS
 10
85.8632813083
 20
104.6134599872
 11
85.8632813083
 21
104.3134599872
  0
LINE
  5
383
100
AcDbEntity
  8
0
100
AcDbLine
 62
7
  6
CONTINUOUS
 10
85.8882121089
 20
104.6134599872
 11
85.8882121089
 21
104.3134599872
  0
LINE
  5
384
100
AcDbEntity
  8
0
100
AcDbLine
 62
7
  6
CONTINUOUS
 10
86.0121288839
 20
104.6134599872
 11
86.0121288839
 21
104.3134599872
  0
LINE
  5
385
100
AcDbEntity
  8
0
100
AcDbLine
 62
7
  6
CONTINUOUS
 10
86.3343850889
 20
104.6134599872
 11
86.3343850889
 21
104.3134599872
  0
LINE
  5
386
100
AcDbEntity
  8
0
100
AcDbLine
 62
7
  6
CONTINUOUS
 10
86.7559971193
 20
104.6134599872
 11
86.7559971193
 21
104.3134599872
  0
LINE
  5
387
100
AcDbEntity
  8
0
100
AcDbLine
 62
7
  6
CONTINUOUS
 10
86.9792684826
 20
104.6134599872
 11
86.9792684826
 21
104.3134599872
  0
LINE
  5
388
100
AcDbEntity
  8
0
100
AcDbLine
 62
7
  6
CONTINUOUS
 10
87.3018944865
 20
104.6134599872
 11
87.3018944865
 21
104.3134599872
  0
LINE
  5
389
100
AcDbEntity
  8
0
100
AcDbLine
 62
7
  6
CONTINUOUS
 10
87.4509269615
 20
104.6134599872
 11
87.4509269615
 21
104.3134599872
  0
LINE
  5
38A
100
AcDbEntity
  8
0
100
AcDbLine
 62
7
  6
CONTINUOUS
 10
87.5504670092
 20
104.6134599872
 11
87.5504670092
 21
104.3134599872
  0
LINE
  5
38B
100
AcDbEntity
  8
0
100
AcDbLine
 62
7
  6
CONTINUOUS
 10
92.1366942977
 20
104.6134599872
 11
92.1366942977
 21
104.3134599872
  0
LINE
  5
38C
100
AcDbEntity
  8
0
100
AcDbLine
 62
7
  6
CONTINUOUS
 10
92.1852321543
 20
104.6134599872
 11
92.1852321543
 21
104.3134599872
  0
LWPOLYLINE
  5
38D
100
AcDbEntity
  8
RUNDUNGEN
100
AcDbPolyline
 62
7
  6
CONTINUOUS
 90
20
 70
0
 10
137.1958930369
 20
101.8428153074
 10
147.2855845465
 20
104.5706717291
 10
147.3694030371
 20
104.5943457019
 10
147.4447480066
 20
104.6177799361
 10
147.51766055
 20
104.6428852154
 10
147.5921151273
 20
104.6715285531
 10
147.6713186075
 20
104.7059672031
 10
147.7594707838
 20
104.7499147184
 10
147.85357894
 20
104.8044057807
 10
147.9520450509
 20
104.8712070117
 10
148.0519592846
 20
104.9512085791
 10
148.1501678323
 20
105.0446887149
 10
148.2438465233
 20
105.1516878158
 10
148.3300524092
 20
105.2714869831
 10
148.4060833784
 20
105.4027724324
 10
148.4693596254
 20
105.5430236654
 10
148.5187749212
 20
105.6916757332
 10
148.5529771293
 20
105.8475057254
 10
148.5706529317
 20
106.0084965053
 10
148.5729798448
 20
106.0921972176
  0
LINE
  5
38E
100
AcDbEntity
  8
RUNDUNGEN
100
AcDbLine
 62
7
  6
CONTINUOUS
 10
147.2656423439
 20
104.565349654
 11
147.2652807774
 21
104.5652542359
  0
LINE
  5
38F
100
AcDbEntity
  8
RUNDUNGEN
100
AcDbLine
 62
7
  6
CONTINUOUS
 10
84.8417509488
 20
101.8428153074
 11
74.7585718526
 21
104.5689222411
  0
LINE
  5
390
100
AcDbEntity
  8
0
100
AcDbLine
 62
7
  6
CONTINUOUS
 10
94.5038304565
 20
104.6134599872
 11
94.5038304565
 21
104.3134599872
  0
LINE
  5
391
100
AcDbEntity
  8
0
100
AcDbLine
 62
7
  6
CONTINUOUS
 10
94.5645577634
 20
104.6134599872
 11
94.5645577634
 21
104.3134599872
  0
LINE
  5
392
100
AcDbEntity
  8
0
100
AcDbLine
 62
7
  6
CONTINUOUS
 10
94.7103916084
 20
104.6134599872
 11
94.7103916084
 21
104.3134599872
  0
LINE
  5
393
100
AcDbEntity
  8
0
100
AcDbLine
 62
7
  6
CONTINUOUS
 10
95.0719833902
 20
104.6134599872
 11
95.0719833902
 21
104.3134599872
  0
LINE
  5
394
100
AcDbEntity
  8
0
100
AcDbLine
 62
7
  6
CONTINUOUS
 10
95.302923608
 20
104.6134599872
 11
95.302923608
 21
104.3134599872
  0
LINE
  5
395
100
AcDbEntity
  8
0
100
AcDbLine
 62
7
  6
CONTINUOUS
 10
95.6918869559
 20
104.6134599872
 11
95.6918869559
 21
104.3134599872
  0
LINE
  5
396
100
AcDbEntity
  8
0
100
AcDbLine
 62
7
  6
CONTINUOUS
 10
96.0079335465
 20
104.6134599872
 11
96.0079335465
 21
104.3134599872
  0
LINE
  5
397
100
AcDbEntity
  8
0
100
AcDbLine
 62
7
  6
CONTINUOUS
 10
96.4090861796
 20
104.6134599872
 11
96.4090861796
 21
104.3134599872
  0
LINE
  5
398
100
AcDbEntity
  8
0
100
AcDbLine
 62
7
  6
CONTINUOUS
 10
96.6370340623
 20
104.6134599872
 11
96.6370340623
 21
104.3134599872
  0
LINE
  5
399
100
AcDbEntity
  8
0
100
AcDbLine
 62
7
  6
CONTINUOUS
 10
96.7221405544
 20
104.6134599872
 11
96.7221405544
 21
104.3134599872
  0
LINE
  5
39A
100
AcDbEntity
  8
0
100
AcDbLine
 62
7
  6
CONTINUOUS
 10
96.834618163
 20
104.6134599872
 11
96.834618163
 21
104.3134599872
  0
LINE
  5
39B
100
AcDbEntity
  8
0
100
AcDbLine
 62
7
  6
CONTINUOUS
 10
96.8468077785
 20
104.6134599872
 11
96.8468077785
 21
104.3134599872
  0
LINE
  5
39C
100
AcDbEntity
  8
0
100
AcDbLine
 62
7
  6
CONTINUOUS
 10
97.2691270324
 20
104.6134599872
 11
97.2691270324
 21
104.3134599872
  0
LINE
  5
39D
100
AcDbEntity
  8
0
100
AcDbLine
 62
7
  6
CONTINUOUS
 10
97.3905818575
 20
104.6134599872
 11
97.3905818575
 21
104.3134599872
  0
LINE
  5
39E
100
AcDbEntity
  8
0
100
AcDbLine
 62
7
  6
CONTINUOUS
 10
97.679256882
 20
104.6134599872
 11
97.679256882
 21
104.3134599872
  0
LINE
  5
39F
100
AcDbEntity
  8
0
100
AcDbLine
 62
7
  6
CONTINUOUS
 10
98.0196824925
 20
104.6134599872
 11
98.0196824925
 21
104.3134599872
  0
LINE
  5
3A0
100
AcDbEntity
  8
0
100
AcDbLine
 62
7
  6
CONTINUOUS
 10
98.6547680089
 20
104.6134599872
 11
98.6547680089
 21
104.3134599872
  0
LINE
  5
3A1
100
AcDbEntity
  8
0
100
AcDbLine
 62
7
  6
CONTINUOUS
 10
98.8249807545
 20
104.6134599872
 11
98.8249807545
 21
104.3134599872
  0
LINE
  5
3A2
100
AcDbEntity
  8
0
100
AcDbLine
 62
7
  6
CONTINUOUS
 10
98.9558526533
 20
104.6134599872
 11
98.9558526533
 21
104.3134599872
  0
LINE
  5
3A3
100
AcDbEntity
  8
0
100
AcDbLine
 62
7
  6
CONTINUOUS
 10
99.141247049
 20
104.6134599872
 11
99.141247049
 21
104.3134599872
  0
LINE
  5
3A4
100
AcDbEntity
  8
0
100
AcDbLine
 62
7
  6
CONTINUOUS
 10
99.3995585026
 20
104.6134599872
 11
99.3995585026
 21
104.3134599872
  0
LINE
  5
3A5
100
AcDbEntity
  8
0
100
AcDbLine
 62
7
  6
CONTINUOUS
 10
99.7307870587
 20
104.6134599872
 11
99.7307870587
 21
104.3134599872
  0
LINE
  5
3A6
100
AcDbEntity
  8
0
100
AcDbLine
 62
7
  6
CONTINUOUS
 10
99.9009998193
 20
104.6134599872
 11
99.9009998193
 21
104.3134599872
  0
LINE
  5
3A7
100
AcDbEntity
  8
RUNDUNGEN
100
AcDbLine
 62
7
  6
CONTINUOUS
 10
127.9832102384
 20
101.4383148238
 11
128.0619231481
 21
101.4503607507
  0
LINE
  5
3A8
100
AcDbEntity
  8
RUNDUNGEN
100
AcDbLine
 62
7
  6
CONTINUOUS
 10
128.0619231481
 20
101.4503607507
 11
128.2062401385
 21
101.4711889059
  0
LINE
  5
3A9
100
AcDbEntity
  8
RUNDUNGEN
100
AcDbLine
 62
7
  6
CONTINUOUS
 10
128.2062401385
 20
101.4711889059
 11
128.3624760572
 21
101.4921616365
  0
LWPOLYLINE
  5
3AA
100
AcDbEntity
  8
RUNDUNGEN
100
AcDbPolyline
 62
7
  6
CONTINUOUS
 90
20
 70
0
 10
128.3624760572
 20
101.4921616365
 10
128.5311397502
 20
101.5132418947
 10
128.7128344343
 20
101.5343860801
 10
128.90813594
 20
101.5555251227
 10
129.1179571887
 20
101.5765997389
 10
129.3435101182
 20
101.5975751056
 10
129.5849668505
 20
101.6183200412
 10
129.843004793
 20
101.6387337427
 10
130.1171038258
 20
101.6586029779
 10
130.4068847723
 20
101.6777232418
 10
130.7118943585
 20
101.6959202127
 10
131.0315656268
 20
101.7130313337
 10
131.3651769528
 20
101.7288813611
 10
131.7119086182
 20
101.7432822568
 10
132.0707868867
 20
101.7560606754
 10
132.4406765114
 20
101.7670706896
 10
132.8204860261
 20
101.7761693313
 10
133.2089728218
 20
101.7832035145
 10
133.6046815548
 20
101.7880216448
 10
134.0056391543
 20
101.790496646
  0
LWPOLYLINE
  5
3AB
100
AcDbEntity
  8
RUNDUNGEN
100
AcDbPolyline
 62
7
  6
CONTINUOUS
 90
3
 70
0
 10
93.6792580517
 20
101.4916312422
 10
93.8350467438
 20
101.4706813699
 10
93.9789399787
 20
101.4498781984
  0
LINE
  5
3AC
100
AcDbEntity
  8
RUNDUNGEN
100
AcDbLine
 62
7
  6
CONTINUOUS
 10
93.9789399787
 20
101.4498781984
 11
94.054439912
 21
101.4383138872
  0
LINE
  5
3AD
100
AcDbEntity
  8
RUNDUNGEN
100
AcDbLine
 62
7
  6
CONTINUOUS
 10
136.8043943015
 20
101.7908238503
 11
134.0056391543
 21
101.790496646
  0
LINE
  5
3AE
100
AcDbEntity
  8
0
100
AcDbLine
 62
7
  6
CONTINUOUS
 10
115.6654883861
 20
104.3134599872
 11
112.7988219928
 21
104.3134599872
  0
LINE
  5
3AF
100
AcDbEntity
  8
0
100
AcDbLine
 62
7
  6
CONTINUOUS
 10
112.2254887962
 20
104.3134599872
 11
109.6454885911
 21
104.3134599872
  0
LINE
  5
3B0
100
AcDbEntity
  8
0
100
AcDbLine
 62
7
  6
CONTINUOUS
 10
109.0721553945
 20
104.3134599872
 11
106.3488219928
 21
104.3134599872
  0
LINE
  5
3B1
100
AcDbEntity
  8
0
100
AcDbLine
 62
7
  6
CONTINUOUS
 10
99.9009998193
 20
104.3134599872
 11
92.1366942977
 21
104.3134599872
  0
LINE
  5
3B2
100
AcDbEntity
  8
0
100
AcDbLine
 62
7
  6
CONTINUOUS
 10
87.5504670092
 20
104.3134599872
 11
77.8909035497
 21
104.3134599872
  0
LWPOLYLINE
  5
3B3
100
AcDbEntity
  8
RUNDUNGEN
100
AcDbPolyline
 62
7
  6
CONTINUOUS
 90
21
 70
0
 10
85.2332496841
 20
101.7908238503
 10
88.0473267167
 20
101.7904465068
 10
88.4474998345
 20
101.7878863083
 10
88.842471794
 20
101.7829927564
 10
89.230261644
 20
101.7758921732
 10
89.6094162584
 20
101.7667350343
 10
89.9786866503
 20
101.7556729228
 10
90.3369711606
 20
101.7428478601
 10
90.6831296994
 20
101.7284054194
 10
91.0161838969
 20
101.7125197431
 10
91.3353071456
 20
101.6953783953
 10
91.639771174
 20
101.6771563077
 10
91.9290050524
 20
101.6580159805
 10
92.202552112
 20
101.6381331091
 10
92.4600270776
 20
101.6177128634
 10
92.7008957657
 20
101.5969696473
 10
92.9258625054
 20
101.5760019314
 10
93.135114956
 20
101.5549394881
 10
93.3298732889
 20
101.5338169001
 10
93.5110662238
 20
101.5126909792
 10
93.6792580517
 20
101.4916312422
  0
LINE
  5
3B4
100
AcDbEntity
  8
RUNDUNGEN
100
AcDbLine
 62
7
  6
CONTINUOUS
 10
75.1090530914
 20
104.6134599872
 11
146.9285908943
 21
104.6134599872
  0
LINE
  5
3B5
100
AcDbEntity
  8
0
100
AcDbLine
 62
7
  6
CONTINUOUS
 10
106.3488219928
 20
104.6134599872
 11
106.3488219928
 21
104.3134599872
  0
LINE
  5
3B6
100
AcDbEntity
  8
0
100
AcDbLine
 62
7
  6
CONTINUOUS
 10
109.0721553945
 20
104.6134599872
 11
109.0721553945
 21
104.3134599872
  0
LINE
  5
3B7
100
AcDbEntity
  8
0
100
AcDbLine
 62
7
  6
CONTINUOUS
 10
109.6454885911
 20
104.6134599872
 11
109.6454885911
 21
104.3134599872
  0
LINE
  5
3B8
100
AcDbEntity
  8
B-ACHSEN
100
AcDbLine
 62
2
  6
CENTER
 10
111.0188219928
 20
112.6134599872
 11
111.0188219928
 21
89.6134599872
  0
LINE
  5
3B9
100
AcDbEntity
  8
B-ACHSEN
100
AcDbLine
 62
2
  6
CENTER
 10
111.0188219928
 20
112.6134599872
 11
111.0188219928
 21
135.6134599872
  0
LINE
  5
3BA
100
AcDbEntity
  8
B-ACHSEN
100
AcDbLine
 62
2
  6
CENTER
 10
111.0188219928
 20
112.6134599872
 11
88.0188219928
 21
112.6134599872
  0
LINE
  5
3BB
100
AcDbEntity
  8
B-ACHSEN
100
AcDbLine
 62
2
  6
CENTER
 10
111.0188219928
 20
112.6134599872
 11
134.0188219928
 21
112.6134599872
  0
LINE
  5
3BC
100
AcDbEntity
  8
0
100
AcDbLine
 62
7
  6
CONTINUOUS
 10
112.2254887962
 20
104.6134599872
 11
112.2254887962
 21
104.3134599872
  0
LINE
  5
3BD
100
AcDbEntity
  8
0
100
AcDbLine
 62
7
  6
CONTINUOUS
 10
112.7988219928
 20
104.6134599872
 11
112.7988219928
 21
104.3134599872
  0
LINE
  5
3BE
100
AcDbEntity
  8
0
100
AcDbLine
 62
7
  6
CONTINUOUS
 10
115.6654883861
 20
104.6134599872
 11
115.6654883861
 21
104.3134599872
  0
LINE
  5
3BF
100
AcDbEntity
  8
RUNDUNGEN
100
AcDbLine
 62
7
  6
CONTINUOUS
 10
146.9285908943
 20
120.6134599872
 11
75.1090530914
 21
120.6134599872
  0
LINE
  5
3C0
100
AcDbEntity
  8
RUNDUNGEN
100
AcDbLine
 62
7
  6
CONTINUOUS
 10
85.2332496841
 20
123.4360961242
 11
88.0320046384
 21
123.4364233279
  0
LWPOLYLINE
  5
3C1
100
AcDbEntity
  8
RUNDUNGEN
100
AcDbPolyline
 62
7
  6
CONTINUOUS
 90
21
 70
0
 10
136.8043943015
 20
123.4360961242
 10
133.9903172689
 20
123.4364734676
 10
133.5901441512
 20
123.4390336662
 10
133.1951721917
 20
123.4439272181
 10
132.8073823416
 20
123.4510278012
 10
132.4282277273
 20
123.4601849402
 10
132.0589573354
 20
123.4712470517
 10
131.700672825
 20
123.4840721144
 10
131.3545142862
 20
123.4985145551
 10
131.0214600887
 20
123.5144002314
 10
130.70233684
 20
123.5315415791
 10
130.3978728117
 20
123.5497636667
 10
130.1086389332
 20
123.5689039939
 10
129.8350918737
 20
123.5887868653
 10
129.5776169081
 20
123.609207111
 10
129.33674822
 20
123.6299503271
 10
129.1117814802
 20
123.650918043
 10
128.9025290297
 20
123.6719804864
 10
128.7077706967
 20
123.6931030743
 10
128.5265777618
 20
123.7142289952
 10
128.3583859339
 20
123.7352887322
  0
LINE
  5
3C2
100
AcDbEntity
  8
RUNDUNGEN
100
AcDbLine
 62
7
  6
CONTINUOUS
 10
94.0544337462
 20
123.7886051505
 11
93.9757193224
 21
123.7765589969
  0
LINE
  5
3C3
100
AcDbEntity
  8
RUNDUNGEN
100
AcDbLine
 62
7
  6
CONTINUOUS
 10
93.9757193224
 20
123.7765589969
 11
93.8314023223
 21
123.7557308563
  0
LINE
  5
3C4
100
AcDbEntity
  8
RUNDUNGEN
100
AcDbLine
 62
7
  6
CONTINUOUS
 10
93.8314023223
 20
123.7557308563
 11
93.6751664135
 21
123.7347581417
  0
LWPOLYLINE
  5
3C5
100
AcDbEntity
  8
RUNDUNGEN
100
AcDbPolyline
 62
7
  6
CONTINUOUS
 90
20
 70
0
 10
93.6751664135
 20
123.7347581417
 10
93.5065027517
 20
123.7136779008
 10
93.3248081207
 20
123.6925337338
 10
93.1295066949
 20
123.6713947108
 10
92.9196855414
 20
123.6503201141
 10
92.6941327141
 20
123.6293447657
 10
92.4526760782
 20
123.6085998461
 10
92.1946382048
 20
123.5881861569
 10
91.9205392236
 20
123.5683169318
 10
91.6307583135
 20
123.5491966762
 10
91.3257487529
 20
123.5309997123
 10
91.0060775042
 20
123.5138885976
 10
90.672466197
 20
123.4980385762
 10
90.3257345557
 20
123.4836376864
 10
89.9668563227
 20
123.4708592737
 10
89.5969667514
 20
123.4598492654
 10
89.2171573147
 20
123.4507506296
 10
88.8286706284
 20
123.4437164518
 10
88.432962043
 20
123.4388983261
 10
88.0320046384
 20
123.4364233279
  0
LWPOLYLINE
  5
3C6
100
AcDbEntity
  8
RUNDUNGEN
100
AcDbPolyline
 62
7
  6
CONTINUOUS
 90
3
 70
0
 10
128.3583859339
 20
123.7352887322
 10
128.2025972419
 20
123.7562386045
 10
128.058704007
 20
123.7770417761
  0
LINE
  5
3C7
100
AcDbEntity
  8
RUNDUNGEN
100
AcDbLine
 62
7
  6
CONTINUOUS
 10
128.058704007
 20
123.7770417761
 11
127.9832040736
 21
123.7886060873
  0
LWPOLYLINE
  5
3C8
100
AcDbEntity
  8
RUNDUNGEN
100
AcDbPolyline
 62
7
  6
CONTINUOUS
 90
20
 70
0
 10
84.8417509488
 20
123.384104667
 10
74.7520676659
 20
120.6562503136
 10
74.6682484089
 20
120.6325763959
 10
74.5929002601
 20
120.6091415223
 10
74.5199853601
 20
120.5840356691
 10
74.4455304373
 20
120.5553921877
 10
74.3663267592
 20
120.520953404
 10
74.2781768528
 20
120.4770071268
 10
74.1840711935
 20
120.4225179605
 10
74.0856057755
 20
120.3557180003
 10
73.9856913308
 20
120.2757173102
 10
73.8874817837
 20
120.1822374109
 10
73.7938017221
 20
120.0752379638
 10
73.7075944269
 20
119.9554379888
 10
73.6315622657
 20
119.8241514793
 10
73.5682852701
 20
119.6838993914
 10
73.5188695185
 20
119.535246554
 10
73.4846670906
 20
119.3794158522
 10
73.4669912714
 20
119.2184245597
 10
73.4646643889
 20
119.1347253734
  0
LINE
  5
3C9
100
AcDbEntity
  8
RUNDUNGEN
100
AcDbLine
 62
7
  6
CONTINUOUS
 10
74.7720016397
 20
120.6615703198
 11
74.7723672959
 21
120.6616668166
  0
LINE
  5
3CA
100
AcDbEntity
  8
RUNDUNGEN
100
AcDbLine
 62
7
  6
CONTINUOUS
 10
137.1958930369
 20
123.384104667
 11
147.2790859318
 21
120.6579941057
  0
LWPOLYLINE
  5
3CB
100
AcDbEntity
  8
RUNDUNGEN
100
AcDbPolyline
 62
7
  6
CONTINUOUS
 90
19
 70
0
 10
148.572980219
 20
119.1347124275
 10
148.5705513765
 20
119.2202293306
 10
148.5525499818
 20
119.3819919636
 10
148.5178779652
 20
119.5384798519
 10
148.4678769553
 20
119.6876680043
 10
148.4039283807
 20
119.8283209675
 10
148.3271562275
 20
119.959881431
 10
148.2401970267
 20
120.0797957516
 10
148.1458166207
 20
120.1867364525
 10
148.0469840658
 20
120.2800251168
 10
147.9465214592
 20
120.359754697
 10
147.8476540681
 20
120.4261985278
 10
147.7533764903
 20
120.4802524078
 10
147.6651814882
 20
120.5237826146
 10
147.5859824559
 20
120.557879084
 10
147.5115188939
 20
120.5862538957
 10
147.4385605018
 20
120.611153086
 10
147.3631017581
 20
120.6344345564
 10
147.2790859318
 20
120.6579941057
  0
LINE
  5
3CC
100
AcDbEntity
  8
RUNDUNGEN
100
AcDbLine
 62
7
  6
CONTINUOUS
 10
148.5729802019
 20
106.0914339085
 11
148.5729802019
 21
119.1354866277
  0
ARC
  5
3CD
100
AcDbEntity
  8
RUNDUNGEN
100
AcDbCircle
 62
7
  6
CONTINUOUS
 10
86.0188219928
 20
179.9370332344
 40
5.0
100
AcDbArc
 50
0.0
 51
90.0
  0
ARC
  5
3CE
100
AcDbEntity
  8
RUNDUNGEN
100
AcDbCircle
 62
7
  6
CONTINUOUS
 10
77.4646637838
 20
211.7248735
 40
4.0
100
AcDbArc
 50
157.5
 51
202.5
  0
ARC
  5
3CF
100
AcDbEntity
  8
RUNDUNGEN
100
AcDbCircle
 62
7
  6
CONTINUOUS
 10
85.2332496841
 20
186.4370332344
 40
1.5
100
AcDbArc
 50
202.5
 51
270.0
  0
ARC
  5
3D0
100
AcDbEntity
  8
RUNDUNGEN
100
AcDbCircle
 62
7
  6
CONTINUOUS
 10
87.2924491862
 20
235.4512463066
 40
4.0
100
AcDbArc
 50
112.5
 51
157.5
  0
ARC
  5
3D1
100
AcDbEntity
  8
0
100
AcDbCircle
 62
7
  6
CONTINUOUS
 10
111.0188219928
 20
211.7248735
 40
20.0
100
AcDbArc
 50
274.9098772207
 51
355.5049020654
  0
ARC
  5
3D2
100
AcDbEntity
  8
0
100
AcDbCircle
 62
7
  6
CONTINUOUS
 10
111.0188219928
 20
211.7248735
 40
20.0
100
AcDbArc
 50
184.4950823232
 51
265.0901400809
  0
ARC
  5
3D3
100
AcDbEntity
  8
RUNDUNGEN
100
AcDbCircle
 62
7
  6
CONTINUOUS
 10
111.0188219928
 20
211.7248735
 40
20.0
100
AcDbArc
 50
355.5049020654
 51
184.4950823231
  0
ARC
  5
3D4
100
AcDbEntity
  8
RUNDUNGEN
100
AcDbCircle
 62
7
  6
CONTINUOUS
 10
136.0188219928
 20
179.9370332344
 40
5.0
100
AcDbArc
 50
90.0
 51
180.0
  0
ARC
  5
3D5
100
AcDbEntity
  8
RUNDUNGEN
100
AcDbCircle
 62
7
  6
CONTINUOUS
 10
136.8043943015
 20
186.4370332344
 40
1.5
100
AcDbArc
 50
270.0
 51
337.5
  0
ARC
  5
3D6
100
AcDbEntity
  8
RUNDUNGEN
100
AcDbCircle
 62
7
  6
CONTINUOUS
 10
144.5729802019
 20
211.7248735
 40
4.0
100
AcDbArc
 50
337.5
 51
22.5
  0
ARC
  5
3D7
100
AcDbEntity
  8
RUNDUNGEN
100
AcDbCircle
 62
7
  6
CONTINUOUS
 10
134.7451947995
 20
235.4512463066
 40
4.0
100
AcDbArc
 50
22.5
 51
67.5
  0
ARC
  5
3D8
100
AcDbEntity
  8
RUNDUNGEN
100
AcDbCircle
 62
7
  6
CONTINUOUS
 10
111.0188219928
 20
245.2790317091
 40
4.0
100
AcDbArc
 50
67.5
 51
112.5
  0
ARC
  5
3D9
100
AcDbEntity
  8
RUNDUNGEN
100
AcDbCircle
 62
7
  6
CONTINUOUS
 10
318.3771291021
 20
212.5621896088
 40
15.0
100
AcDbArc
 50
180.0
 51
186.3899923371
  0
ARC
  5
3DA
100
AcDbEntity
  8
RUNDUNGEN
100
AcDbCircle
 62
7
  6
CONTINUOUS
 10
272.3771291021
 20
212.5621896088
 40
15.0
100
AcDbArc
 50
353.6100076629
 51
360.0
  0
ARC
  5
3DB
100
AcDbEntity
  8
RUNDUNGEN
100
AcDbCircle
 62
8
  6
HIDDEN
 10
295.3771291021
 20
239.7248735
 40
8.0
100
AcDbArc
 50
180.0
 51
360.0
  0
ARC
  5
3DC
100
AcDbEntity
  8
B-ACHSEN
100
AcDbCircle
 62
7
  6
CONTINUOUS
 10
278.3771291021
 20
185.7618084782
 40
3.0
100
AcDbArc
 50
99.0
 51
180.0
  0
ARC
  5
3DD
100
AcDbEntity
  8
B-ACHSEN
100
AcDbCircle
 62
7
  6
CONTINUOUS
 10
312.3771291021
 20
185.7618084782
 40
3.0
100
AcDbArc
 50
0.0
 51
81.0
  0
ARC
  5
3DE
100
AcDbEntity
  8
RUNDUNGEN
100
AcDbCircle
 62
7
  6
CONTINUOUS
 10
288.8771291021
 20
247.7790317091
 40
1.5
100
AcDbArc
 50
90.0
 51
180.0000004398
  0
ARC
  5
3DF
100
AcDbEntity
  8
RUNDUNGEN
100
AcDbCircle
 62
7
  6
CONTINUOUS
 10
301.8771291021
 20
247.7790317091
 40
1.5
100
AcDbArc
 50
359.9999995609
 51
90.0
  0
ARC
  5
3E0
100
AcDbEntity
  8
RUNDUNGEN
100
AcDbCircle
 62
7
  6
CONTINUOUS
 10
304.6997674637
 20
186.4370133697
 40
1.4999954158
100
AcDbArc
 50
269.9999150225
 51
6.3899923371
  0
ARC
  5
3E1
100
AcDbEntity
  8
RUNDUNGEN
100
AcDbCircle
 62
7
  6
CONTINUOUS
 10
286.0544907405
 20
186.4370133697
 40
1.4999954158
100
AcDbArc
 50
173.6092441413
 51
270.0000849775
  0
ARC
  5
3E2
100
AcDbEntity
  8
RUNDUNGEN
100
AcDbCircle
 62
7
  6
CONTINUOUS
 10
306.7287789511
 20
190.7062755808
 40
1.0000057429
100
AcDbArc
 50
195.9354525683
 51
260.9999792372
  0
ARC
  5
3E3
100
AcDbEntity
  8
RUNDUNGEN
100
AcDbCircle
 62
7
  6
CONTINUOUS
 10
85.2336386927
 20
103.2976293511
 40
1.5067087279
100
AcDbArc
 50
254.9199925762
 51
269.9853299389
  0
ARC
  5
3E4
100
AcDbEntity
  8
RUNDUNGEN
100
AcDbCircle
 62
7
  6
CONTINUOUS
 10
93.8998795979
 20
100.4503165166
 40
1.0000027026
100
AcDbArc
 50
35.3937396416
 51
81.1124174143
  0
ARC
  5
3E5
100
AcDbEntity
  8
RUNDUNGEN
100
AcDbCircle
 62
7
  6
CONTINUOUS
 10
85.2341858173
 20
121.9289449711
 40
1.5071514438
100
AcDbArc
 50
90.035587986
 51
105.0830986927
  0
ARC
  5
3E6
100
AcDbEntity
  8
RUNDUNGEN
100
AcDbCircle
 62
7
  6
CONTINUOUS
 10
93.8998793097
 20
124.7766030693
 40
1.0000026397
100
AcDbArc
 50
278.8877491157
 51
324.6062541661
  0
ARC
  5
3E7
100
AcDbEntity
  8
RUNDUNGEN
100
AcDbCircle
 62
7
  6
CONTINUOUS
 10
136.8034581683
 20
103.2979750033
 40
1.5071514437
100
AcDbArc
 50
270.0355879859
 51
285.0830986927
  0
ARC
  5
3E8
100
AcDbEntity
  8
RUNDUNGEN
100
AcDbCircle
 62
7
  6
CONTINUOUS
 10
128.137764676
 20
100.4503169052
 40
1.0000026397
100
AcDbArc
 50
98.8877491157
 51
144.6062541661
  0
ARC
  5
3E9
100
AcDbEntity
  8
B-ACHSEN
100
AcDbCircle
 62
7
  6
CONTINUOUS
 10
111.0188219928
 20
112.6134599872
 40
20.0
100
AcDbArc
 50
34.5640950996
 51
145.4359049004
  0
ARC
  5
3EA
100
AcDbEntity
  8
B-ACHSEN
100
AcDbCircle
 62
7
  6
CONTINUOUS
 10
111.0188219928
 20
112.6134599872
 40
20.0
100
AcDbArc
 50
214.5640950996
 51
325.4359049004
  0
ARC
  5
3EB
100
AcDbEntity
  8
RUNDUNGEN
100
AcDbCircle
 62
7
  6
CONTINUOUS
 10
111.0188219928
 20
112.6134599872
 40
20.0
100
AcDbArc
 50
214.5640950996
 51
325.4359049004
  0
ARC
  5
3EC
100
AcDbEntity
  8
RUNDUNGEN
100
AcDbCircle
 62
7
  6
CONTINUOUS
 10
111.0188219928
 20
112.6134599872
 40
20.0
100
AcDbArc
 50
34.5640950996
 51
145.4359049004
  0
ARC
  5
3ED
100
AcDbEntity
  8
DEFAULT_2
100
AcDbCircle
 62
8
  6
HIDDEN
 10
111.0188219928
 20
112.6134599872
 40
9.0
100
AcDbArc
 50
292.6177179159
 51
62.8150894174
  0
ARC
  5
3EE
100
AcDbEntity
  8
DEFAULT_2
100
AcDbCircle
 62
8
  6
HIDDEN
 10
111.0188219928
 20
112.6134599872
 40
9.0
100
AcDbArc
 50
117.1856686753
 51
247.38264565
  0
ARC
  5
3EF
100
AcDbEntity
  8
0
100
AcDbCircle
 62
7
  6
CONTINUOUS
 10
111.0188219928
 20
112.6134599872
 40
9.0
100
AcDbArc
 50
62.8150894174
 51
117.1856686753
  0
ARC
  5
3F0
100
AcDbEntity
  8
0
100
AcDbCircle
 62
7
  6
CONTINUOUS
 10
111.0188219928
 20
112.6134599872
 40
9.0
100
AcDbArc
 50
247.38264565
 51
292.6177179159
  0
ARC
  5
3F1
100
AcDbEntity
  8
RUNDUNGEN
100
AcDbCircle
 62
7
  6
CONTINUOUS
 10
136.8040052929
 20
121.9292906234
 40
1.5067087279
100
AcDbArc
 50
74.9199925762
 51
89.9853299389
  0
ARC
  5
3F2
100
AcDbEntity
  8
RUNDUNGEN
100
AcDbCircle
 62
7
  6
CONTINUOUS
 10
128.1377643878
 20
124.7766034578
 40
1.0000027026
100
AcDbArc
 50
215.3937396416
 51
261.1124174143
  0
SPLINE
  5
3F3
100
AcDbEntity
  8
0
100
AcDbSpline
 62
7
  6
CONTINUOUS
 70
0
 71
3
 72
9
 73
5
 74
0
 42
0.0000001
 43
0.0000001
 44
0.0000000001
 40
0.0
 40
0.0
 40
0.0
 40
0.0
 40
0.5000001889
 40
1.0
 40
1.0
 40
1.0
 40
1.0
 10
112.7306060181
 20
191.7982636346
 30
0.0
 10
112.1615344004
 20
191.7493781625
 30
0.0
 10
111.0188248059
 20
191.6936011975
 30
0.0
 10
109.8761151996
 20
191.7493778523
 30
0.0
 10
109.3070439973
 20
191.7982631157
 30
0.0
  0
SPLINE
  5
3F4
100
AcDbEntity
  8
RUNDUNGEN
100
AcDbSpline
 62
7
  6
CONTINUOUS
 70
0
 71
3
 72
13
 73
9
 74
0
 42
0.0000001
 43
0.0000001
 44
0.0000000001
 40
0.0
 40
0.0
 40
0.0
 40
0.0
 40
0.125128398
 40
0.2497947808
 40
0.3743438741
 40
0.4990148823
 40
0.7486550458
 40
1.0
 40
1.0
 40
1.0
 40
1.0
 10
94.2277165216
 20
179.9370332344
 30
0.0
 10
94.1904956712
 20
180.3018062905
 30
0.0
 10
94.0098853514
 20
181.0220063147
 30
0.0
 10
93.4903125574
 20
181.9971790956
 30
0.0
 10
92.7917531039
 20
182.8493144259
 30
0.0
 10
91.6831476601
 20
183.8104771625
 30
0.0
 10
90.0347092467
 20
184.6769516173
 30
0.0
 10
88.5586111594
 20
184.9369946498
 30
0.0
 10
87.8220882689
 20
184.9370332344
 30
0.0
  0
SPLINE
  5
3F5
100
AcDbEntity
  8
RUNDUNGEN
100
AcDbSpline
 62
7
  6
CONTINUOUS
 70
0
 71
3
 72
13
 73
9
 74
0
 42
0.0000001
 43
0.0000001
 44
0.0000000001
 40
0.0
 40
0.0
 40
0.0
 40
0.0
 40
0.2513480673
 40
0.5010011271
 40
0.6256762517
 40
0.7502245904
 40
0.8748878075
 40
1.0
 40
1.0
 40
1.0
 40
1.0
 10
134.2155557167
 20
184.9370332344
 30
0.0
 10
133.479024947
 20
184.9369947335
 30
0.0
 10
132.002883993
 20
184.6769348943
 30
0.0
 10
130.3543994116
 20
183.8104150404
 30
0.0
 10
129.2457909065
 20
182.8491890867
 30
0.0
 10
128.5472400145
 20
181.9970439724
 30
0.0
 10
128.0277700253
 20
181.0218895202
 30
0.0
 10
127.8471435415
 20
180.3017584334
 30
0.0
 10
127.8099275816
 20
179.9370332344
 30
0.0
  0
ENDSEC
  0
SECTION
  2
OBJECTS
  0
DICTIONARY
  5
C
100
AcDbDictionary
280
0
281
1
  3
ACAD_GROUP
350
D
  3
ACAD_MLINESTYLE
350
17
  3
ACAD_LAYOUT
350
1A
  3
ACAD_PLOTSETTINGS
350
19
  3
ACAD_PLOTSTYLENAME
350
E
  0
DICTIONARY
  5
D
102
{ACAD_REACTORS
330
C
102
}
100
AcDbDictionary
280
0
281
1
  0
ACDBDICTIONARYWDFLT
  5
E
102
{ACAD_REACTORS
330
C
102
}
100
AcDbDictionary
281
1
  3
Normal
350
F
100
AcDbDictionaryWithDefault
340
F
  0
DICTIONARY
  5
17
102
{ACAD_REACTORS
330
C
102
}
100
AcDbDictionary
280
0
281
1
  3
Standard
350
18
  0
DICTIONARY
  5
19
102
{ACAD_REACTORS
330
C
102
}
100
AcDbDictionary
281
1
  0
DICTIONARY
  5
1A
102
{ACAD_REACTORS
330
C
102
}
100
AcDbDictionary
281
1
  3
Model
350
3F6
  3
Layout1
350
3F7
  0
ACDBPLACEHOLDER
  5
F
102
{ACAD_REACTORS
330
E
102
}
  0
MLINESTYLE
  5
18
102
{ACAD_REACTORS
330
17
102
}
100
AcDbMlineStyle
  2
STANDARD
 70
0
  3

 62
256
 51
90.0
 52
90.0
 71
2
 49
0.5
 62
256
  6
BYLAYER
 49
-0.5
 62
256
  6
BYLAYER
  0
LAYOUT
  5
3F6
102
{ACAD_REACTORS
330
1A
102
}
100
AcDbPlotSettings
  1

  2
none_device
  4
ISO_A3_(420.00_x_297.00_MM)
  6

 40
0.0
 41
0.0
 42
0.0
 43
0.0
 44
420.0
 45
297.0
 46
0.0
 47
0.0
 48
0.0
 49
0.0
140
0.0
141
0.0
142
1.0
143
1.0
 70
1024
 72
1
 73
0
 74
0
  7

 75
0
147
1.0
148
0.0
149
0.0
100
AcDbLayout
  1
Model
 70
0
 71
0
 10
0.0
 20
0.0
 11
420.0
 21
297.0
 12
0.0
 22
0.0
 32
0.0
 14
0.0
 24
0.0
 34
0.0
 15
0.0
 25
0.0
 35
0.0
146
0.0
 13
0.0
 23
0.0
 33
0.0
 16
1.0
 26
0.0
 36
0.0
 17
0.0
 27
1.0
 37
0.0
 76
0
330
208
345
0
346
0
  0
LAYOUT
  5
3F7
102
{ACAD_REACTORS
330
1A
102
}
100
AcDbPlotSettings
  1

  2
none_device
  4
ISO_A3_(420.00_x_297.00_MM)
  6

 40
0.0
 41
0.0
 42
0.0
 43
0.0
 44
420.0
 45
297.0
 46
0.0
 47
0.0
 48
0.0
 49
0.0
140
0.0
141
0.0
142
1.0
143
1.0
 70
0
 72
1
 73
0
 74
0
  7

 75
0
147
1.0
148
0.0
149
0.0
100
AcDbLayout
  1
Layout1
 70
0
 71
1
 10
0.0
 20
0.0
 11
420.0
 21
297.0
 12
0.0
 22
0.0
 32
0.0
 14
0.0
 24
0.0
 34
0.0
 15
0.0
 25
0.0
 35
0.0
146
0.0
 13
0.0
 23
0.0
 33
0.0
 16
1.0
 26
0.0
 36
0.0
 17
0.0
 27
1.0
 37
0.0
 76
0
330
209
345
0
346
0
  0
ENDSEC
  0
EOF
