999
DXF file: C:\Aktuell-Internet\CAD-Daten\2rm-m48.dxf
999
Pro/ENGINEER 2001400 by Parametric Technology Corporation
0
SECTION
2
HEADER
9
$ACADVER
1
AC1014
9
$EXTMAX
10
420.0000000000
20
297.0000000000
9
$EXTMIN
10
0.0000000000
20
0.0000000000
9
$LIMMIN
10
0.0000000000
20
0.0000000000
9
$LIMMAX
10
420.0000000000
20
297.0000000000
9
$VIEWCTR
10
210.0000000000
20
148.5000000000
9
$VIEWSIZE
40
297.0000000000
9
$CLAYER
8
0
9
$LTSCALE
40
23.1000000000
9
$CELTYPE
6
BYLAYER
9
$DIMSCALE
40
1
9
$DIMASZ
40
3.5000000000
9
$DIMEXO
40
2.6250000000
9
$DIMDLI
40
15.9600000000
9
$DIMEXE
40
7.5600000000
9
$DIMCEN
40
3.7800000000
9
$DIMLFAC
40
1.0000000000
9
$DIMTXT
40
3.5000000000
9
$DIMTOL
70
1
9
$DIMTFAC
40
0.6000000000
9
$DIMTP
40
0.0050000000
9
$DIMTM
40
0.0050000000
9
$HANDSEED
5
4BA
0
ENDSEC
0
SECTION
2
CLASSES
0
ENDSEC
0
SECTION
2
TABLES
0
TABLE
2
VPORT
5
8
100
AcDbSymbolTable
70
2
0
VPORT
5
1F4
100
AcDbSymbolTableRecord
100
AcDbViewportTableRecord
2
*ACTIVE
70
0
10
0.0
20
0.0
11
1.0
21
1.0
12
210.0000000000
22
148.5000000000
13
0.0
23
0.0
14
1.0
24
1.0
15
0.0
25
0.0
16
0.0
26
0.0
36
1.0
17
0.0
27
0.0
37
0.0
40
297.0000000000
41
1.4141414141
42
50.0
43
0.0
44
0.0
50
0.0
51
0.0
71
0
72
100
73
1
74
1
75
0
76
0
77
0
78
0
0
ENDTAB
0
TABLE
2
LTYPE
5
5
100
AcDbSymbolTable
70
6
0
LTYPE
5
14
100
AcDbSymbolTableRecord
100
AcDbLinetypeTableRecord
2
BYBLOCK
70
0
3

72
65
73
0
40
0.0
0
LTYPE
5
15
100
AcDbSymbolTableRecord
100
AcDbLinetypeTableRecord
2
BYLAYER
70
0
3

72
65
73
0
40
0.0
0
LTYPE
5
16
100
AcDbSymbolTableRecord
100
AcDbLinetypeTableRecord
2
CONTINUOUS
70
64
3
Solid line
72
65
73
0
40
0
0
LTYPE
5
1F5
100
AcDbSymbolTableRecord
100
AcDbLinetypeTableRecord
2
CENTER
70
64
3
____ _ ____ _ ____ _ ____ _ ____ _ ____ _ ____
72
65
73
4
40
0.6
49
0.375
74
0
49
-0.075
74
0
49
0.075
74
0
49
-0.075
74
0
0
LTYPE
5
1F6
100
AcDbSymbolTableRecord
100
AcDbLinetypeTableRecord
2
HIDDEN
70
64
3
- - - - - - - - - - - - - - - - - - - -
72
65
73
2
40
0.2
49
0.1
74
0
49
-0.1
74
0
0
LTYPE
5
1F7
100
AcDbSymbolTableRecord
100
AcDbLinetypeTableRecord
2
PHANTOM
70
64
3
_____ _ _ _____ _ _ _____ _ _ _____
72
65
73
6
40
0.8
49
0.45
74
0
49
-0.05
74
0
49
0.1
74
0
49
-0.05
74
0
49
0.1
74
0
49
-0.05
74
0
0
LTYPE
5
1F8
100
AcDbSymbolTableRecord
100
AcDbLinetypeTableRecord
2
DOT
70
64
3
. . . . . . . . . . . . . . . . . . . .
72
65
73
2
40
0.2
49
0.1
74
0
49
-0.1
74
0
0
LTYPE
5
1F9
100
AcDbSymbolTableRecord
100
AcDbLinetypeTableRecord
2
DASHED
70
64
3
- - - - - - - - - - - - - - - - - - - -
72
65
73
2
40
0.2
49
0.1
74
0
49
-0.1
74
0
0
ENDTAB
0
TABLE
2
LAYER
5
2
100
AcDbSymbolTable
70
36
0
LAYER
5
10
100
AcDbSymbolTableRecord
100
AcDbLayerTableRecord
2
0
70
0
62
7
6
CONTINUOUS
0
LAYER
5
1FA
100
AcDbSymbolTableRecord
100
AcDbLayerTableRecord
2
DEFAULT_1
70
0
62
7
6
CENTER
0
LAYER
5
1FB
100
AcDbSymbolTableRecord
100
AcDbLayerTableRecord
2
DEFAULT_2
70
0
62
8
6
HIDDEN
0
LAYER
5
1FC
100
AcDbSymbolTableRecord
100
AcDbLayerTableRecord
2
DEFAULT_3
70
0
62
7
6
PHANTOM
0
ENDTAB
0
TABLE
2
STYLE
5
3
100
AcDbSymbolTable
70
1
0
STYLE
5
11
100
AcDbSymbolTableRecord
100
AcDbTextStyleTableRecord
2
STANDARD
70
0
40
0.0
41
1.0
50
0.0
71
0
42
0.0
3
txt
4

0
STYLE
5
1FD
100
AcDbSymbolTableRecord
100
AcDbTextStyleTableRecord
2
TEXTSTYLE_0
70
0
40
0.0
41
0.80
50
0.0
71
0
42
0.2
3
txt
4

0
ENDTAB
0
TABLE
2
VIEW
5
6
100
AcDbSymbolTable
70
0
0
ENDTAB
0
TABLE
2
UCS
5
7
100
AcDbSymbolTable
70
0
0
ENDTAB
0
TABLE
2
APPID
5
9
100
AcDbSymbolTable
70
1
0
APPID
5
1FE
100
AcDbSymbolTableRecord
100
AcDbRegAppTableRecord
2
ACAD
70
0
0
ENDTAB
0
TABLE
2
DIMSTYLE
5
A
100
AcDbSymbolTable
70
1
0
DIMSTYLE
105
1FF
100
AcDbSymbolTableRecord
100
AcDbDimStyleTableRecord
2
STANDARD
70
0
3

4

5

6

7

40
1.0
41
0.18
42
0.0625
43
0.38
44
0.18
45
0.0
46
0.0
47
0.0050000000
48
0.0050000000
140
3.5000000000
141
0.09
142
0.0
143
25.4
144
1.0000000000
145
0.0
146
0.6000000000
147
0.09
71
1
72
0
73
1
74
1
75
0
76
0
77
0
78
0
170
0
171
2
172
0
173
0
174
0
175
0
176
0
177
0
178
0
270
2
271
3
272
4
273
2
274
2
340
11
275
0
280
0
281
0
282
0
283
1
284
0
285
0
286
0
287
3
288
0
0
ENDTAB
0
TABLE
2
BLOCK_RECORD
5
1
100
AcDbSymbolTable
70
0
0
BLOCK_RECORD
5
1B
100
AcDbSymbolTableRecord
100
AcDbBlockTableRecord
2
*MODEL_SPACE
0
BLOCK_RECORD
5
1C
100
AcDbSymbolTableRecord
100
AcDbBlockTableRecord
2
*PAPER_SPACE
0
ENDTAB
0
ENDSEC
0
SECTION
2
BLOCKS
0
BLOCK
5
1E
100
AcDbEntity
8
0
100
AcDbBlockBegin
2
*MODEL_SPACE
70
0
10
0.0
20
0.0
30
0.0
3
*MODEL_SPACE
1

0
ENDBLK
5
1F
100
AcDbEntity
8
0
100
AcDbBlockEnd
0
BLOCK
5
20
100
AcDbEntity
8
0
100
AcDbBlockBegin
2
*PAPER_SPACE
70
0
10
0.0
20
0.0
30
0.0
3
*PAPER_SPACE
1

0
ENDBLK
5
21
100
AcDbEntity
8
0
100
AcDbBlockEnd
0
ENDSEC
0
SECTION
2
ENTITIES
0
TEXT
5
200
100
AcDbEntity
8
0
100
AcDbText
62
2
6
CONTINUOUS
10
43.8052531884
20
61.6799733945
7
TEXTSTYLE_0
40
8.0000000000
1
RUD
72
5
11
63.6147769979
21
61.6799733945
100
AcDbText
0
TEXT
5
201
100
AcDbEntity
8
0
100
AcDbText
62
2
6
CONTINUOUS
10
42.9821834501
20
41.9262996764
7
TEXTSTYLE_0
40
8.0000000000
1
RM M48
72
5
11
81.8393263073
21
41.9262996764
100
AcDbText
0
TEXT
5
202
100
AcDbEntity
8
0
100
AcDbText
62
2
6
CONTINUOUS
10
289.0800351874
20
168.2675044981
7
TEXTSTYLE_0
40
8.0000000000
1
RUD
50
90.0000000000
72
5
11
289.0800351874
21
188.0770283076
100
AcDbText
0
TEXT
5
203
100
AcDbEntity
8
0
100
AcDbText
62
2
6
CONTINUOUS
10
308.4221740363
20
166.6213650216
7
TEXTSTYLE_0
40
8.0000000000
1
RM M48
50
90.0000000000
72
5
11
308.4221740363
21
205.4785078787
100
AcDbText
0
LINE
5
204
100
AcDbEntity
8
0
100
AcDbLine
62
7
6
CONTINUOUS
10
0.0000000000
20
0.0000000000
11
0.0000000000
21
297.0000000000
0
LINE
5
205
100
AcDbEntity
8
0
100
AcDbLine
62
7
6
CONTINUOUS
10
0.0000000000
20
0.0000000000
11
420.0000000000
21
0.0000000000
0
LINE
5
206
100
AcDbEntity
8
0
100
AcDbLine
62
7
6
CONTINUOUS
10
0.0000000000
20
297.0000000000
11
420.0000000000
21
297.0000000000
0
LINE
5
207
100
AcDbEntity
8
0
100
AcDbLine
62
7
6
CONTINUOUS
10
420.0000000000
20
0.0000000000
11
420.0000000000
21
297.0000000000
0
LINE
5
208
100
AcDbEntity
8
0
100
AcDbLine
62
7
6
CONTINUOUS
10
62.0188218214
20
116.0244826562
11
61.0188218214
21
117.0244826562
0
LINE
5
209
100
AcDbEntity
8
0
100
AcDbLine
62
7
6
CONTINUOUS
10
23.8477880752
20
205.8513169799
11
46.6736122357
21
260.9577312404
0
LINE
5
20A
100
AcDbEntity
8
0
100
AcDbLine
62
7
6
CONTINUOUS
10
62.0188218214
20
116.0244826562
11
160.0188218214
21
116.0244826562
0
LINE
5
20B
100
AcDbEntity
8
0
100
AcDbLine
62
7
6
CONTINUOUS
10
61.0188218214
20
117.0244826562
11
161.0188218214
21
117.0244826562
0
LINE
5
20C
100
AcDbEntity
8
DEFAULT_2
100
AcDbLine
62
8
6
HIDDEN
10
87.0188218214
20
120.0244826562
11
135.0188218214
21
120.0244826562
0
LINE
5
20D
100
AcDbEntity
8
0
100
AcDbLine
62
7
6
CONTINUOUS
10
149.5508436307
20
121.0244826562
11
115.0188218214
21
121.0244826562
0
LINE
5
20E
100
AcDbEntity
8
0
100
AcDbLine
62
7
6
CONTINUOUS
10
107.0188218214
20
121.0244826562
11
72.4868000121
21
121.0244826562
0
LINE
5
20F
100
AcDbEntity
8
0
100
AcDbLine
62
7
6
CONTINUOUS
10
47.2859869124
20
141.6128308224
11
23.8477880752
21
198.1976483326
0
LINE
5
210
100
AcDbEntity
8
0
100
AcDbLine
62
7
6
CONTINUOUS
10
77.1955730985
20
269.4614033210
11
76.6182229670
21
269.1280700671
0
LINE
5
211
100
AcDbEntity
8
0
100
AcDbLine
62
7
6
CONTINUOUS
10
77.1501377972
20
268.2067665559
11
77.7274879287
21
268.5400998098
0
LINE
5
212
100
AcDbEntity
8
0
100
AcDbLine
62
7
6
CONTINUOUS
10
52.0855732372
20
266.3696922419
11
107.1919874978
21
289.1955164024
0
LINE
5
213
100
AcDbEntity
8
0
100
AcDbLine
62
7
6
CONTINUOUS
10
118.5579950458
20
125.0744826562
11
119.3174272130
21
125.0744826562
0
LINE
5
214
100
AcDbEntity
8
0
100
AcDbLine
62
7
6
CONTINUOUS
10
121.7660174604
20
125.0744826562
11
122.6289344222
21
125.0744826562
0
LINE
5
215
100
AcDbEntity
8
0
100
AcDbLine
62
7
6
CONTINUOUS
10
123.3182864185
20
125.0744826562
11
124.0777188818
21
125.0744826562
0
LINE
5
216
100
AcDbEntity
8
0
100
AcDbLine
62
7
6
CONTINUOUS
10
125.3879784613
20
125.0744826562
11
126.3543796255
21
125.0744826562
0
LINE
5
217
100
AcDbEntity
8
0
100
AcDbLine
62
7
6
CONTINUOUS
10
127.6646397971
20
125.0744826562
11
128.4240719643
21
125.0744826562
0
LINE
5
218
100
AcDbEntity
8
0
100
AcDbLine
62
7
6
CONTINUOUS
10
134.0806846264
20
125.0744826562
11
134.8401167936
21
125.0744826562
0
LINE
5
219
100
AcDbEntity
8
0
100
AcDbLine
62
7
6
CONTINUOUS
10
136.1503769653
20
125.0744826562
11
137.1167775373
21
125.0744826562
0
LINE
5
21A
100
AcDbEntity
8
0
100
AcDbLine
62
7
6
CONTINUOUS
10
138.4270377090
20
125.0744826562
11
139.1864698762
21
125.0744826562
0
LINE
5
21B
100
AcDbEntity
8
0
100
AcDbLine
62
7
6
CONTINUOUS
10
142.3594516132
20
125.0744826562
11
143.1188837804
21
125.0744826562
0
LINE
5
21C
100
AcDbEntity
8
0
100
AcDbLine
62
7
6
CONTINUOUS
10
146.5338754881
20
125.0744826562
11
147.1547830714
21
125.0744826562
0
LINE
5
21D
100
AcDbEntity
8
0
100
AcDbLine
62
7
6
CONTINUOUS
10
145.8779287077
20
125.2234188217
11
146.0164532916
21
125.2234188217
0
LINE
5
21E
100
AcDbEntity
8
0
100
AcDbLine
62
7
6
CONTINUOUS
10
145.3605065112
20
125.6702273182
11
145.4990310952
21
125.6702273182
0
LINE
5
21F
100
AcDbEntity
8
0
100
AcDbLine
62
7
6
CONTINUOUS
10
147.0513000532
20
125.8191635228
11
146.6373608749
21
125.8191635228
0
LINE
5
220
100
AcDbEntity
8
0
100
AcDbLine
62
7
6
CONTINUOUS
10
147.3267122790
20
125.9680996753
11
147.4652368630
21
125.9680996753
0
LINE
5
221
100
AcDbEntity
8
0
100
AcDbLine
62
7
6
CONTINUOUS
10
145.0500527196
20
126.1170358277
11
145.1885773035
21
126.1170358277
0
LINE
5
222
100
AcDbEntity
8
0
100
AcDbLine
62
7
6
CONTINUOUS
10
147.7406514574
20
126.2659719802
11
147.8791760413
21
126.2659719802
0
LINE
5
223
100
AcDbEntity
8
0
100
AcDbLine
62
7
6
CONTINUOUS
10
144.8430819461
20
126.8617166943
11
144.9816065301
21
126.8617166943
0
LINE
5
224
100
AcDbEntity
8
0
100
AcDbLine
62
7
6
CONTINUOUS
10
148.0511052490
20
126.8617166943
11
148.1896298329
21
126.8617166943
0
LINE
5
225
100
AcDbEntity
8
0
100
AcDbLine
62
7
6
CONTINUOUS
10
139.8758212803
20
127.1595889992
11
142.4979761972
21
127.1595889992
0
LINE
5
226
100
AcDbEntity
8
0
100
AcDbLine
62
7
6
CONTINUOUS
10
143.1188837804
20
127.1595889992
11
144.1537305420
21
127.1595889992
0
LINE
5
227
100
AcDbEntity
8
0
100
AcDbLine
62
7
6
CONTINUOUS
10
144.8430819461
20
127.3085251517
11
144.9816065301
21
127.3085251517
0
LINE
5
228
100
AcDbEntity
8
0
100
AcDbLine
62
7
6
CONTINUOUS
10
148.0511052490
20
127.3085251517
11
148.1896298329
21
127.3085251517
0
LINE
5
229
100
AcDbEntity
8
0
100
AcDbLine
62
7
6
CONTINUOUS
10
147.7406514574
20
127.9042699701
11
147.8791760413
21
127.9042699701
0
LINE
5
22A
100
AcDbEntity
8
0
100
AcDbLine
62
7
6
CONTINUOUS
10
144.1537305420
20
128.0532061226
11
143.1188837804
21
128.0532061226
0
LINE
5
22B
100
AcDbEntity
8
0
100
AcDbLine
62
7
6
CONTINUOUS
10
142.4979761972
20
128.0532061226
11
140.7387388342
21
128.0532061226
0
LINE
5
22C
100
AcDbEntity
8
0
100
AcDbLine
62
7
6
CONTINUOUS
10
139.8758212803
20
128.0532061226
11
140.0143458643
21
128.0532061226
0
LINE
5
22D
100
AcDbEntity
8
0
100
AcDbLine
62
7
6
CONTINUOUS
10
145.0500527196
20
128.0532061226
11
145.1885773035
21
128.0532061226
0
LINE
5
22E
100
AcDbEntity
8
0
100
AcDbLine
62
7
6
CONTINUOUS
10
119.3174272130
20
128.2021422751
11
121.0766653161
21
128.2021422751
0
LINE
5
22F
100
AcDbEntity
8
0
100
AcDbLine
62
7
6
CONTINUOUS
10
147.3267122790
20
128.2021422751
11
147.4652368630
21
128.2021422751
0
LINE
5
230
100
AcDbEntity
8
0
100
AcDbLine
62
7
6
CONTINUOUS
10
146.6373608749
20
128.3510784275
11
147.0513000532
21
128.3510784275
0
LINE
5
231
100
AcDbEntity
8
0
100
AcDbLine
62
7
6
CONTINUOUS
10
145.4639895293
20
128.5000145800
11
145.6025141133
21
128.5000145800
0
LINE
5
232
100
AcDbEntity
8
0
100
AcDbLine
62
7
6
CONTINUOUS
10
145.6709603028
20
128.6489507324
11
145.8094848868
21
128.6489507324
0
LINE
5
233
100
AcDbEntity
8
0
100
AcDbLine
62
7
6
CONTINUOUS
10
145.4639895293
20
128.7978868849
11
145.6025141133
21
128.7978868849
0
LINE
5
234
100
AcDbEntity
8
0
100
AcDbLine
62
7
6
CONTINUOUS
10
147.0513000532
20
128.9468230374
11
146.6373608749
21
128.9468230374
0
LINE
5
235
100
AcDbEntity
8
0
100
AcDbLine
62
7
6
CONTINUOUS
10
121.2836344612
20
129.0957591898
11
119.3174272130
21
129.0957591898
0
LINE
5
236
100
AcDbEntity
8
0
100
AcDbLine
62
7
6
CONTINUOUS
10
147.3267122790
20
129.0957591898
11
147.4652368630
21
129.0957591898
0
LINE
5
237
100
AcDbEntity
8
0
100
AcDbLine
62
7
6
CONTINUOUS
10
145.1535357377
20
129.2446953423
11
145.2920603217
21
129.2446953423
0
LINE
5
238
100
AcDbEntity
8
0
100
AcDbLine
62
7
6
CONTINUOUS
10
121.6625329619
20
129.5425676472
11
121.8010575459
21
129.5425676472
0
LINE
5
239
100
AcDbEntity
8
0
100
AcDbLine
62
7
6
CONTINUOUS
10
147.7406514574
20
129.5425676472
11
147.8791760413
21
129.5425676472
0
LINE
5
23A
100
AcDbEntity
8
0
100
AcDbLine
62
7
6
CONTINUOUS
10
144.9465673328
20
129.8404399521
11
145.0850919168
21
129.8404399521
0
LINE
5
23B
100
AcDbEntity
8
0
100
AcDbLine
62
7
6
CONTINUOUS
10
76.6791704252
20
267.6891724806
11
77.1501377972
21
268.2067665559
0
LINE
5
23C
100
AcDbEntity
8
0
100
AcDbLine
62
7
6
CONTINUOUS
10
79.9005830554
20
266.1095221330
11
79.4296156834
21
265.5919280577
0
LINE
5
23D
100
AcDbEntity
8
0
100
AcDbLine
62
7
6
CONTINUOUS
10
78.8068300441
20
264.0039579195
11
79.2777974161
21
264.5215519948
0
LINE
5
23E
100
AcDbEntity
8
0
100
AcDbLine
62
7
6
CONTINUOUS
10
76.6182229670
20
269.1280700671
11
76.0029180621
21
268.5271426783
0
LINE
5
23F
100
AcDbEntity
8
0
100
AcDbLine
62
7
6
CONTINUOUS
10
83.2807439197
20
271.2549117783
11
82.5590563585
21
270.8382452706
0
LINE
5
240
100
AcDbEntity
8
0
100
AcDbLine
62
7
6
CONTINUOUS
10
85.7195209110
20
270.6974921519
11
84.1318079460
21
269.7808256442
0
LINE
5
241
100
AcDbEntity
8
0
100
AcDbLine
62
7
6
CONTINUOUS
10
83.4101203848
20
269.3641591365
11
82.2554197088
21
268.6974923903
0
LINE
5
242
100
AcDbEntity
8
0
100
AcDbLine
62
7
6
CONTINUOUS
10
82.6809515730
20
267.9604495814
11
83.8356522490
21
268.6271163275
0
LINE
5
243
100
AcDbEntity
8
0
100
AcDbLine
62
7
6
CONTINUOUS
10
84.5573398102
20
269.0437828352
11
86.1450527751
21
269.9604493429
0
LINE
5
244
100
AcDbEntity
8
0
100
AcDbLine
62
7
6
CONTINUOUS
10
79.4296156834
20
265.5919280577
11
78.8522655519
21
265.2585948038
0
LINE
5
245
100
AcDbEntity
8
0
100
AcDbLine
62
7
6
CONTINUOUS
10
79.2777974161
20
264.5215519948
11
79.8551475476
21
264.8548852487
0
LINE
5
246
100
AcDbEntity
8
0
100
AcDbLine
62
7
6
CONTINUOUS
10
81.6636581938
20
261.7224529234
11
81.0863080623
21
261.3891196695
0
LINE
5
247
100
AcDbEntity
8
0
100
AcDbLine
62
7
6
CONTINUOUS
10
104.7654883291
20
274.5619293506
11
104.2654883291
21
274.3491634185
0
LINE
5
248
100
AcDbEntity
8
0
100
AcDbLine
62
7
6
CONTINUOUS
10
87.8626928839
20
264.3187433746
11
88.8351012630
21
264.6344826562
0
LINE
5
249
100
AcDbEntity
8
0
100
AcDbLine
62
7
6
CONTINUOUS
10
121.7660174604
20
129.9893761046
11
121.9045420444
21
129.9893761046
0
LINE
5
24A
100
AcDbEntity
8
0
100
AcDbLine
62
7
6
CONTINUOUS
10
147.9476198622
20
129.9893761046
11
148.0861444462
21
129.9893761046
0
LINE
5
24B
100
AcDbEntity
8
0
100
AcDbLine
62
7
6
CONTINUOUS
10
144.9465673328
20
130.2872484095
11
145.0850919168
21
130.2872484095
0
LINE
5
24C
100
AcDbEntity
8
0
100
AcDbLine
62
7
6
CONTINUOUS
10
147.9476198622
20
130.2872484095
11
148.0861444462
21
130.2872484095
0
LINE
5
24D
100
AcDbEntity
8
0
100
AcDbLine
62
7
6
CONTINUOUS
10
121.7660174604
20
130.4361849792
11
121.9045420444
21
130.4361849792
0
LINE
5
24E
100
AcDbEntity
8
0
100
AcDbLine
62
7
6
CONTINUOUS
10
147.7406514574
20
130.7340572841
11
147.8791760413
21
130.7340572841
0
LINE
5
24F
100
AcDbEntity
8
0
100
AcDbLine
62
7
6
CONTINUOUS
10
121.6625329619
20
130.8829934365
11
121.8010575459
21
130.8829934365
0
LINE
5
250
100
AcDbEntity
8
0
100
AcDbLine
62
7
6
CONTINUOUS
10
145.1535357377
20
131.0319295890
11
145.2920603217
21
131.0319295890
0
LINE
5
251
100
AcDbEntity
8
0
100
AcDbLine
62
7
6
CONTINUOUS
10
147.3267122790
20
131.1808657415
11
147.4652368630
21
131.1808657415
0
LINE
5
252
100
AcDbEntity
8
0
100
AcDbLine
62
7
6
CONTINUOUS
10
119.3174272130
20
131.3298018939
11
121.2836344612
21
131.3298018939
0
LINE
5
253
100
AcDbEntity
8
0
100
AcDbLine
62
7
6
CONTINUOUS
10
146.6373608749
20
131.3298018939
11
147.0513000532
21
131.3298018939
0
LINE
5
254
100
AcDbEntity
8
0
100
AcDbLine
62
7
6
CONTINUOUS
10
145.4639895293
20
131.4787380464
11
145.6025141133
21
131.4787380464
0
LINE
5
255
100
AcDbEntity
8
0
100
AcDbLine
62
7
6
CONTINUOUS
10
145.9814140944
20
131.9255465038
11
146.1199386784
21
131.9255465038
0
LINE
5
256
100
AcDbEntity
8
0
100
AcDbLine
62
7
6
CONTINUOUS
10
147.0513000532
20
132.0744826562
11
146.6373608749
21
132.0744826562
0
LINE
5
257
100
AcDbEntity
8
0
100
AcDbLine
62
7
6
CONTINUOUS
10
118.5579950458
20
132.0744826562
11
121.1801499627
21
132.0744826562
0
LINE
5
258
100
AcDbEntity
8
0
100
AcDbLine
62
7
6
CONTINUOUS
10
123.3182864185
20
132.0744826562
11
124.3881726734
21
132.0744826562
0
LINE
5
259
100
AcDbEntity
8
0
100
AcDbLine
62
7
6
CONTINUOUS
10
127.3541860055
20
132.0744826562
11
128.4240719643
21
132.0744826562
0
LINE
5
25A
100
AcDbEntity
8
0
100
AcDbLine
62
7
6
CONTINUOUS
10
134.0806846264
20
132.0744826562
11
135.1505705852
21
132.0744826562
0
LINE
5
25B
100
AcDbEntity
8
0
100
AcDbLine
62
7
6
CONTINUOUS
10
138.1165839174
20
132.0744826562
11
139.1864698762
21
132.0744826562
0
LINE
5
25C
100
AcDbEntity
8
0
100
AcDbLine
62
7
6
CONTINUOUS
10
142.3594516132
20
132.0744826562
11
143.1188837804
21
132.0744826562
0
LINE
5
25D
100
AcDbEntity
8
0
100
AcDbLine
62
7
6
CONTINUOUS
10
72.4868000121
20
136.0244826562
11
107.0188218214
21
136.0244826562
0
LINE
5
25E
100
AcDbEntity
8
0
100
AcDbLine
62
7
6
CONTINUOUS
10
115.0188218214
20
136.0244826562
11
149.5508436307
21
136.0244826562
0
LINE
5
25F
100
AcDbEntity
8
0
100
AcDbLine
62
7
6
CONTINUOUS
10
121.6975730474
20
131.9255465038
11
121.1801499627
21
132.0744826562
0
LINE
5
260
100
AcDbEntity
8
0
100
AcDbLine
62
7
6
CONTINUOUS
10
145.8779287077
20
125.2234188217
11
146.3953509042
21
125.0744826562
0
LINE
5
261
100
AcDbEntity
8
0
100
AcDbLine
62
7
6
CONTINUOUS
10
146.0164532916
20
125.2234188217
11
146.5338754881
21
125.0744826562
0
LINE
5
262
100
AcDbEntity
8
0
100
AcDbLine
62
7
6
CONTINUOUS
10
76.0029180621
20
268.5271426783
11
75.6003790894
21
267.5576938851
0
LINE
5
263
100
AcDbEntity
8
0
100
AcDbLine
62
7
6
CONTINUOUS
10
77.9103309112
20
264.2234067128
11
77.7280387082
21
263.8724793240
0
LINE
5
264
100
AcDbEntity
8
0
100
AcDbLine
62
7
6
CONTINUOUS
10
78.4422457414
20
263.3021032016
11
78.8068300441
21
264.0039579195
0
LINE
5
265
100
AcDbEntity
8
0
100
AcDbLine
62
7
6
CONTINUOUS
10
82.1346255658
20
262.2400469987
11
81.6636581938
21
261.7224529234
0
LINE
5
266
100
AcDbEntity
8
0
100
AcDbLine
62
7
6
CONTINUOUS
10
82.3399107347
20
260.8844826562
11
82.9552157334
21
261.4854101207
0
LINE
5
267
100
AcDbEntity
8
0
100
AcDbLine
62
7
6
CONTINUOUS
10
104.9321553137
20
273.4980996902
11
105.5988218214
21
273.9236315543
0
LINE
5
268
100
AcDbEntity
8
0
100
AcDbLine
62
7
6
CONTINUOUS
10
81.6348132157
20
260.4773944138
11
82.3399107347
21
260.8844826562
0
LINE
5
269
100
AcDbEntity
8
0
100
AcDbLine
62
7
6
CONTINUOUS
10
111.7654888060
20
270.0938443298
11
111.0988218214
21
269.8810783977
0
LINE
5
26A
100
AcDbEntity
8
0
100
AcDbLine
62
7
6
CONTINUOUS
10
119.7654878523
20
270.0938443298
11
119.0988218214
21
269.8810783977
0
LINE
5
26B
100
AcDbEntity
8
0
100
AcDbLine
62
7
6
CONTINUOUS
10
171.1061901776
20
139.2643997483
11
169.7499809593
21
139.2643997483
0
LINE
5
26C
100
AcDbEntity
8
0
100
AcDbLine
62
7
6
CONTINUOUS
10
52.2876626835
20
139.2643997483
11
50.9314534652
21
139.2643997483
0
LINE
5
26D
100
AcDbEntity
8
0
100
AcDbLine
62
7
6
CONTINUOUS
10
147.5687222497
20
131.9255465038
11
147.0513000532
21
132.0744826562
0
LINE
5
26E
100
AcDbEntity
8
0
100
AcDbLine
62
7
6
CONTINUOUS
10
146.6373608749
20
125.8191635228
11
146.2234216965
21
125.9680996753
0
LINE
5
26F
100
AcDbEntity
8
0
100
AcDbLine
62
7
6
CONTINUOUS
10
146.9127754692
20
128.3510784275
11
147.3267122790
21
128.2021422751
0
LINE
5
270
100
AcDbEntity
8
0
100
AcDbLine
62
7
6
CONTINUOUS
10
147.0513000532
20
128.3510784275
11
147.4652368630
21
128.2021422751
0
LINE
5
271
100
AcDbEntity
8
0
100
AcDbLine
62
7
6
CONTINUOUS
10
146.6373608749
20
128.9468230374
11
146.2234216965
21
129.0957591898
0
LINE
5
272
100
AcDbEntity
8
0
100
AcDbLine
62
7
6
CONTINUOUS
10
121.1451098772
20
131.3298018939
11
121.4555636688
21
131.1808657415
0
LINE
5
273
100
AcDbEntity
8
0
100
AcDbLine
62
7
6
CONTINUOUS
10
121.2836344612
20
131.3298018939
11
121.5940882528
21
131.1808657415
0
LINE
5
274
100
AcDbEntity
8
0
100
AcDbLine
62
7
6
CONTINUOUS
10
61.0188218214
20
117.0244826562
11
61.0188218214
21
127.2643997483
0
LINE
5
275
100
AcDbEntity
8
0
100
AcDbLine
62
7
6
CONTINUOUS
10
76.4209690886
20
266.8030570604
11
76.6791704252
21
267.6891724806
0
LINE
5
276
100
AcDbEntity
8
0
100
AcDbLine
62
7
6
CONTINUOUS
10
77.7280387082
20
263.8724793240
11
77.4698373458
21
262.9863638889
0
LINE
5
277
100
AcDbEntity
8
0
100
AcDbLine
62
7
6
CONTINUOUS
10
80.7970820851
20
265.8900732801
11
80.9793743913
21
266.2410007285
0
LINE
5
278
100
AcDbEntity
8
0
100
AcDbLine
62
7
6
CONTINUOUS
10
82.4992097652
20
262.9419016571
11
82.1346255658
21
262.2400469987
0
LINE
5
279
100
AcDbEntity
8
0
100
AcDbLine
62
7
6
CONTINUOUS
10
105.0988218214
20
274.9874612147
11
104.7654883291
21
274.5619293506
0
LINE
5
27A
100
AcDbEntity
8
0
100
AcDbLine
62
7
6
CONTINUOUS
10
112.2654888060
20
270.5193763430
11
111.7654888060
21
270.0938443298
0
LINE
5
27B
100
AcDbEntity
8
0
100
AcDbLine
62
7
6
CONTINUOUS
10
111.9321548368
20
268.8172486069
11
112.5988218214
21
269.2427805270
0
LINE
5
27C
100
AcDbEntity
8
0
100
AcDbLine
62
7
6
CONTINUOUS
10
119.9321557905
20
268.8172486069
11
120.5988218214
21
269.2427805270
0
LINE
5
27D
100
AcDbEntity
8
0
100
AcDbLine
62
7
6
CONTINUOUS
10
146.9127754692
20
131.3298018939
11
147.3267122790
21
131.1808657415
0
LINE
5
27E
100
AcDbEntity
8
0
100
AcDbLine
62
7
6
CONTINUOUS
10
147.0513000532
20
131.3298018939
11
147.4652368630
21
131.1808657415
0
LINE
5
27F
100
AcDbEntity
8
0
100
AcDbLine
62
7
6
CONTINUOUS
10
75.6003790894
20
267.5576938851
11
75.4865152856
21
266.7549117783
0
LINE
5
280
100
AcDbEntity
8
0
100
AcDbLine
62
7
6
CONTINUOUS
10
80.1587842888
20
266.9956374936
11
79.9005830554
21
266.1095221330
0
LINE
5
281
100
AcDbEntity
8
0
100
AcDbLine
62
7
6
CONTINUOUS
10
82.9552157334
20
261.4854101207
11
83.3577543686
21
262.4548587836
0
LINE
5
282
100
AcDbEntity
8
0
100
AcDbLine
62
7
6
CONTINUOUS
10
105.5988218214
20
273.9236315543
11
106.0988218214
21
274.7746952827
0
LINE
5
283
100
AcDbEntity
8
0
100
AcDbLine
62
7
6
CONTINUOUS
10
120.2654878523
20
270.5193763430
11
119.7654878523
21
270.0938443298
0
LINE
5
284
100
AcDbEntity
8
0
100
AcDbLine
62
7
6
CONTINUOUS
10
146.2234216965
20
125.9680996753
11
145.8094848868
21
126.2659719802
0
LINE
5
285
100
AcDbEntity
8
DEFAULT_2
100
AcDbLine
62
8
6
HIDDEN
10
135.0188218214
20
120.0244826562
11
139.0188218214
21
116.0244826562
0
LINE
5
286
100
AcDbEntity
8
0
100
AcDbLine
62
7
6
CONTINUOUS
10
122.1115113375
20
131.4787380464
11
121.6975730474
21
131.9255465038
0
LINE
5
287
100
AcDbEntity
8
0
100
AcDbLine
62
7
6
CONTINUOUS
10
72.4868000561
20
121.0244826562
11
72.4868000561
21
136.0244826562
0
LINE
5
288
100
AcDbEntity
8
0
100
AcDbLine
62
7
6
CONTINUOUS
10
78.4347650011
20
262.3150601047
11
78.4422457414
21
263.3021032016
0
LINE
5
289
100
AcDbEntity
8
0
100
AcDbLine
62
7
6
CONTINUOUS
10
80.9793743913
20
266.2410007285
11
81.0932381950
21
267.0437828352
0
LINE
5
28A
100
AcDbEntity
8
0
100
AcDbLine
62
7
6
CONTINUOUS
10
83.3577543686
20
262.4548587836
11
83.4716181351
21
263.2576409548
0
LINE
5
28B
100
AcDbEntity
8
0
100
AcDbLine
62
7
6
CONTINUOUS
10
112.5988218214
20
269.2427805270
11
113.2654888060
21
270.0938443298
0
LINE
5
28C
100
AcDbEntity
8
0
100
AcDbLine
62
7
6
CONTINUOUS
10
120.5988218214
20
269.2427805270
11
121.2654878523
21
270.0938443298
0
LINE
5
28D
100
AcDbEntity
8
0
100
AcDbLine
62
7
6
CONTINUOUS
10
145.4639895293
20
128.7978868849
11
145.6709603028
21
128.6489507324
0
LINE
5
28E
100
AcDbEntity
8
0
100
AcDbLine
62
7
6
CONTINUOUS
10
145.6025141133
20
128.7978868849
11
145.8094848868
21
128.6489507324
0
LINE
5
28F
100
AcDbEntity
8
0
100
AcDbLine
62
7
6
CONTINUOUS
10
147.3267122790
20
128.2021422751
11
147.7406514574
21
127.9042699701
0
LINE
5
290
100
AcDbEntity
8
0
100
AcDbLine
62
7
6
CONTINUOUS
10
147.4652368630
20
128.2021422751
11
147.8791760413
21
127.9042699701
0
LINE
5
291
100
AcDbEntity
8
0
100
AcDbLine
62
7
6
CONTINUOUS
10
148.0861444462
20
128.5000145800
11
147.8791760413
21
128.6489507324
0
LINE
5
292
100
AcDbEntity
8
0
100
AcDbLine
62
7
6
CONTINUOUS
10
145.3605065112
20
125.6702273182
11
145.8779287077
21
125.2234188217
0
LINE
5
293
100
AcDbEntity
8
0
100
AcDbLine
62
7
6
CONTINUOUS
10
145.4990310952
20
125.6702273182
11
146.0164532916
21
125.2234188217
0
LINE
5
294
100
AcDbEntity
8
0
100
AcDbLine
62
7
6
CONTINUOUS
10
121.4555636688
20
131.1808657415
11
121.6625329619
21
130.8829934365
0
LINE
5
295
100
AcDbEntity
8
0
100
AcDbLine
62
7
6
CONTINUOUS
10
121.5940882528
20
131.1808657415
11
121.8010575459
21
130.8829934365
0
LINE
5
296
100
AcDbEntity
8
0
100
AcDbLine
62
7
6
CONTINUOUS
10
76.4514431157
20
266.0836077509
11
76.4209690886
21
266.8030570604
0
LINE
5
297
100
AcDbEntity
8
0
100
AcDbLine
62
7
6
CONTINUOUS
10
80.1283106629
20
267.7150863464
11
80.1587842888
21
266.9956374936
0
LINE
5
298
100
AcDbEntity
8
DEFAULT_2
100
AcDbLine
62
8
6
HIDDEN
10
87.0188218214
20
163.9587500349
11
87.0188218214
21
120.0244826562
0
LINE
5
299
100
AcDbEntity
8
0
100
AcDbLine
62
7
6
CONTINUOUS
10
82.5066905285
20
263.9289445951
11
82.4992097652
21
262.9419016571
0
LINE
5
29A
100
AcDbEntity
8
0
100
AcDbLine
62
7
6
CONTINUOUS
10
105.2654883291
20
275.6257590110
11
105.0988218214
21
274.9874612147
0
LINE
5
29B
100
AcDbEntity
8
0
100
AcDbLine
62
7
6
CONTINUOUS
10
112.5988218214
20
271.1576741392
11
112.2654888060
21
270.5193763430
0
LINE
5
29C
100
AcDbEntity
8
0
100
AcDbLine
62
7
6
CONTINUOUS
10
148.0861444462
20
131.4787380464
11
147.5687222497
21
131.9255465038
0
LINE
5
29D
100
AcDbEntity
8
0
100
AcDbLine
62
7
6
CONTINUOUS
10
146.2234216965
20
129.0957591898
11
145.8094848868
21
129.5425676472
0
LINE
5
29E
100
AcDbEntity
8
0
100
AcDbLine
62
7
6
CONTINUOUS
10
106.0988218214
20
274.7746952827
11
106.2654883291
21
275.4129930789
0
LINE
5
29F
100
AcDbEntity
8
0
100
AcDbLine
62
7
6
CONTINUOUS
10
113.2654888060
20
270.0938443298
11
113.5988218214
21
270.9449082071
0
LINE
5
2A0
100
AcDbEntity
8
0
100
AcDbLine
62
7
6
CONTINUOUS
10
120.5988218214
20
271.1576741392
11
120.2654878523
21
270.5193763430
0
LINE
5
2A1
100
AcDbEntity
8
0
100
AcDbLine
62
7
6
CONTINUOUS
10
148.5000836245
20
128.0532061226
11
148.0861444462
21
128.5000145800
0
LINE
5
2A2
100
AcDbEntity
8
0
100
AcDbLine
62
7
6
CONTINUOUS
10
147.3267122790
20
131.1808657415
11
147.7406514574
21
130.7340572841
0
LINE
5
2A3
100
AcDbEntity
8
0
100
AcDbLine
62
7
6
CONTINUOUS
10
147.4652368630
20
131.1808657415
11
147.8791760413
21
130.7340572841
0
LINE
5
2A4
100
AcDbEntity
8
0
100
AcDbLine
62
7
6
CONTINUOUS
10
145.0500527196
20
126.1170358277
11
145.3605065112
21
125.6702273182
0
LINE
5
2A5
100
AcDbEntity
8
0
100
AcDbLine
62
7
6
CONTINUOUS
10
145.1885773035
20
126.1170358277
11
145.4990310952
21
125.6702273182
0
LINE
5
2A6
100
AcDbEntity
8
0
100
AcDbLine
62
7
6
CONTINUOUS
10
122.4219651291
20
130.8829934365
11
122.1115113375
21
131.4787380464
0
LINE
5
2A7
100
AcDbEntity
8
0
100
AcDbLine
62
7
6
CONTINUOUS
10
75.4865152856
20
266.7549117783
11
75.7297552835
21
265.6669410868
0
LINE
5
2A8
100
AcDbEntity
8
0
100
AcDbLine
62
7
6
CONTINUOUS
10
77.4698373458
20
262.9863638889
11
77.7130771818
21
261.8983934480
0
LINE
5
2A9
100
AcDbEntity
8
0
100
AcDbLine
62
7
6
CONTINUOUS
10
81.0932381950
20
267.0437828352
11
80.9563816031
21
267.9474923903
0
LINE
5
2AA
100
AcDbEntity
8
0
100
AcDbLine
62
7
6
CONTINUOUS
10
100.0988218214
20
278.6044826562
11
100.0988218214
21
268.6044826562
0
LINE
5
2AB
100
AcDbEntity
8
0
100
AcDbLine
62
7
6
CONTINUOUS
10
101.0988218214
20
268.6044826562
11
101.0988218214
21
273.0725678260
0
LINE
5
2AC
100
AcDbEntity
8
0
100
AcDbLine
62
7
6
CONTINUOUS
10
101.0988218214
20
274.3491634185
11
101.0988218214
21
277.5406529958
0
LINE
5
2AD
100
AcDbEntity
8
0
100
AcDbLine
62
7
6
CONTINUOUS
10
113.5988218214
20
270.9449082071
11
113.7654888060
21
272.0087378676
0
LINE
5
2AE
100
AcDbEntity
8
0
100
AcDbLine
62
7
6
CONTINUOUS
10
112.7654888060
20
272.0087378676
11
112.5988218214
21
271.1576741392
0
LINE
5
2AF
100
AcDbEntity
8
0
100
AcDbLine
62
7
6
CONTINUOUS
10
121.2654878523
20
270.0938443298
11
121.5988218214
21
270.9449082071
0
LINE
5
2B0
100
AcDbEntity
8
0
100
AcDbLine
62
7
6
CONTINUOUS
10
145.1535357377
20
129.2446953423
11
145.4639895293
21
128.7978868849
0
LINE
5
2B1
100
AcDbEntity
8
0
100
AcDbLine
62
7
6
CONTINUOUS
10
145.2920603217
20
129.2446953423
11
145.6025141133
21
128.7978868849
0
LINE
5
2B2
100
AcDbEntity
8
0
100
AcDbLine
62
7
6
CONTINUOUS
10
148.3965982378
20
131.0319295890
11
148.0861444462
21
131.4787380464
0
LINE
5
2B3
100
AcDbEntity
8
0
100
AcDbLine
62
7
6
CONTINUOUS
10
122.6289344222
20
125.0744826562
11
121.6975730474
21
128.5000145800
0
LINE
5
2B4
100
AcDbEntity
8
0
100
AcDbLine
62
7
6
CONTINUOUS
10
120.9472107815
20
128.1678762712
11
121.7660174604
21
125.0744826562
0
LINE
5
2B5
100
AcDbEntity
8
0
100
AcDbLine
62
7
6
CONTINUOUS
10
121.0766653161
20
128.2021422751
11
121.9045420444
21
125.0744826562
0
LINE
5
2B6
100
AcDbEntity
8
0
100
AcDbLine
62
7
6
CONTINUOUS
10
83.4716181351
20
263.2576409548
11
83.2283785026
21
264.3456113412
0
LINE
5
2B7
100
AcDbEntity
8
0
100
AcDbLine
62
7
6
CONTINUOUS
10
105.2654883291
20
276.2640574033
11
105.2654883291
21
275.6257590110
0
LINE
5
2B8
100
AcDbEntity
8
0
100
AcDbLine
62
7
6
CONTINUOUS
10
106.2654883291
20
275.4129930789
11
106.2654883291
21
276.2640574033
0
LINE
5
2B9
100
AcDbEntity
8
0
100
AcDbLine
62
7
6
CONTINUOUS
10
107.0188218214
20
121.0244826562
11
107.0188218214
21
136.0244826562
0
LINE
5
2BA
100
AcDbEntity
8
0
100
AcDbLine
62
7
6
CONTINUOUS
10
107.7654883291
20
278.6044826562
11
107.7654883291
21
272.0087378676
0
LINE
5
2BB
100
AcDbEntity
8
0
100
AcDbLine
62
7
6
CONTINUOUS
10
108.7654888060
20
272.0087378676
11
108.7654888060
21
278.6044826562
0
LINE
5
2BC
100
AcDbEntity
8
DEFAULT_1
100
AcDbLine
62
2
6
CENTER
10
111.0188218214
20
202.0244826562
11
111.0188218214
21
114.3317962543
0
LINE
5
2BD
100
AcDbEntity
8
DEFAULT_1
100
AcDbLine
62
2
6
CENTER
10
111.0188218214
20
202.0244826562
11
111.0188218214
21
250.0244826562
0
LINE
5
2BE
100
AcDbEntity
8
0
100
AcDbLine
62
7
6
CONTINUOUS
10
121.5988218214
20
270.9449082071
11
121.7654878523
21
272.0087378676
0
LINE
5
2BF
100
AcDbEntity
8
0
100
AcDbLine
62
7
6
CONTINUOUS
10
120.7654878523
20
272.0087378676
11
120.5988218214
21
271.1576741392
0
LINE
5
2C0
100
AcDbEntity
8
DEFAULT_1
100
AcDbLine
62
2
6
CENTER
10
111.0188218214
20
202.0244826562
11
63.0188218214
21
202.0244826562
0
LINE
5
2C1
100
AcDbEntity
8
DEFAULT_1
100
AcDbLine
62
2
6
CENTER
10
111.0188218214
20
202.0244826562
11
159.0188218214
21
202.0244826562
0
LINE
5
2C2
100
AcDbEntity
8
0
100
AcDbLine
62
7
6
CONTINUOUS
10
77.7130771818
20
261.8983934480
11
78.0322260799
21
261.3456113412
0
LINE
5
2C3
100
AcDbEntity
8
0
100
AcDbLine
62
7
6
CONTINUOUS
10
75.7297552835
20
265.6669410868
11
76.0489041817
21
265.1141589800
0
LINE
5
2C4
100
AcDbEntity
8
0
100
AcDbLine
62
7
6
CONTINUOUS
10
145.8094848868
20
126.2659719802
11
145.4990310952
21
126.8617166943
0
LINE
5
2C5
100
AcDbEntity
8
0
100
AcDbLine
62
7
6
CONTINUOUS
10
147.7406514574
20
127.9042699701
11
148.0511052490
21
127.3085251517
0
LINE
5
2C6
100
AcDbEntity
8
0
100
AcDbLine
62
7
6
CONTINUOUS
10
147.8791760413
20
127.9042699701
11
148.1896298329
21
127.3085251517
0
LINE
5
2C7
100
AcDbEntity
8
0
100
AcDbLine
62
7
6
CONTINUOUS
10
145.8094848868
20
129.5425676472
11
145.6025141133
21
129.9893761046
0
LINE
5
2C8
100
AcDbEntity
8
0
100
AcDbLine
62
7
6
CONTINUOUS
10
124.0777188818
20
130.0582249096
11
125.3879784613
21
125.0744826562
0
LINE
5
2C9
100
AcDbEntity
8
0
100
AcDbLine
62
7
6
CONTINUOUS
10
124.0777188818
20
130.5851211316
11
125.5265030452
21
125.0744826562
0
LINE
5
2CA
100
AcDbEntity
8
0
100
AcDbLine
62
7
6
CONTINUOUS
10
125.9404416314
20
125.8191635228
11
124.3881726734
21
132.0744826562
0
LINE
5
2CB
100
AcDbEntity
8
0
100
AcDbLine
62
7
6
CONTINUOUS
10
121.6625329619
20
130.8829934365
11
121.7660174604
21
130.4361849792
0
LINE
5
2CC
100
AcDbEntity
8
0
100
AcDbLine
62
7
6
CONTINUOUS
10
121.8010575459
20
130.8829934365
11
121.9045420444
21
130.4361849792
0
LINE
5
2CD
100
AcDbEntity
8
0
100
AcDbLine
62
7
6
CONTINUOUS
10
122.5254496276
20
130.4361849792
11
122.4219651291
21
130.8829934365
0
LINE
5
2CE
100
AcDbEntity
8
0
100
AcDbLine
62
7
6
CONTINUOUS
10
112.7654888060
20
278.6044826562
11
112.7654888060
21
272.0087378676
0
LINE
5
2CF
100
AcDbEntity
8
0
100
AcDbLine
62
7
6
CONTINUOUS
10
113.7654888060
20
272.0087378676
11
113.7654888060
21
278.6044826562
0
LINE
5
2D0
100
AcDbEntity
8
0
100
AcDbLine
62
7
6
CONTINUOUS
10
115.0188218214
20
121.0244826562
11
115.0188218214
21
136.0244826562
0
LINE
5
2D1
100
AcDbEntity
8
0
100
AcDbLine
62
7
6
CONTINUOUS
10
115.0988218214
20
278.6044826562
11
115.0988218214
21
268.6044826562
0
LINE
5
2D2
100
AcDbEntity
8
0
100
AcDbLine
62
7
6
CONTINUOUS
10
116.0988218214
20
269.8810783977
11
116.0988218214
21
277.3278870637
0
LINE
5
2D3
100
AcDbEntity
8
0
100
AcDbLine
62
7
6
CONTINUOUS
10
118.5579950458
20
132.0744826562
11
118.5579950458
21
125.0744826562
0
LINE
5
2D4
100
AcDbEntity
8
0
100
AcDbLine
62
7
6
CONTINUOUS
10
118.6965196298
20
132.0744826562
11
118.6965196298
21
125.0744826562
0
LINE
5
2D5
100
AcDbEntity
8
0
100
AcDbLine
62
7
6
CONTINUOUS
10
119.3174272130
20
125.0744826562
11
119.3174272130
21
128.2021422751
0
LINE
5
2D6
100
AcDbEntity
8
0
100
AcDbLine
62
7
6
CONTINUOUS
10
119.3174272130
20
129.0957591898
11
119.3174272130
21
131.3298018939
0
LINE
5
2D7
100
AcDbEntity
8
0
100
AcDbLine
62
7
6
CONTINUOUS
10
78.7539138992
20
261.7622779980
11
78.4347650011
21
262.3150601047
0
LINE
5
2D8
100
AcDbEntity
8
0
100
AcDbLine
62
7
6
CONTINUOUS
10
76.6642090478
20
265.7150863464
11
76.4514431157
21
266.0836077509
0
LINE
5
2D9
100
AcDbEntity
8
0
100
AcDbLine
62
7
6
CONTINUOUS
10
79.9155447309
20
268.0836077509
11
80.1283106629
21
267.7150863464
0
LINE
5
2DA
100
AcDbEntity
8
0
100
AcDbLine
62
7
6
CONTINUOUS
10
82.1875416303
20
264.4817267018
11
82.5066905285
21
263.9289445951
0
LINE
5
2DB
100
AcDbEntity
8
0
100
AcDbLine
62
7
6
CONTINUOUS
10
80.9563816031
20
267.9474923903
11
80.6372327050
21
268.5002744971
0
LINE
5
2DC
100
AcDbEntity
8
0
100
AcDbLine
62
7
6
CONTINUOUS
10
83.2283785026
20
264.3456113412
11
82.9092296045
21
264.8983934480
0
LINE
5
2DD
100
AcDbEntity
8
0
100
AcDbLine
62
7
6
CONTINUOUS
10
82.2554197088
20
268.6974923903
11
82.6809515730
21
267.9604495814
0
LINE
5
2DE
100
AcDbEntity
8
0
100
AcDbLine
62
7
6
CONTINUOUS
10
82.5590563585
20
270.8382452706
11
83.4101203848
21
269.3641591365
0
LINE
5
2DF
100
AcDbEntity
8
0
100
AcDbLine
62
7
6
CONTINUOUS
10
83.8356522490
20
268.6271163275
11
85.9633117933
21
264.9419018955
0
LINE
5
2E0
100
AcDbEntity
8
0
100
AcDbLine
62
7
6
CONTINUOUS
10
147.7406514574
20
130.7340572841
11
147.9476198622
21
130.2872484095
0
LINE
5
2E1
100
AcDbEntity
8
0
100
AcDbLine
62
7
6
CONTINUOUS
10
147.8791760413
20
130.7340572841
11
148.0861444462
21
130.2872484095
0
LINE
5
2E2
100
AcDbEntity
8
0
100
AcDbLine
62
7
6
CONTINUOUS
10
144.9465673328
20
129.8404399521
11
145.1535357377
21
129.2446953423
0
LINE
5
2E3
100
AcDbEntity
8
0
100
AcDbLine
62
7
6
CONTINUOUS
10
145.0850919168
20
129.8404399521
11
145.2920603217
21
129.2446953423
0
LINE
5
2E4
100
AcDbEntity
8
0
100
AcDbLine
62
7
6
CONTINUOUS
10
134.8401167936
20
130.0582251250
11
136.1503769653
21
125.0744826562
0
LINE
5
2E5
100
AcDbEntity
8
0
100
AcDbLine
62
7
6
CONTINUOUS
10
134.8401167936
20
130.5851211316
11
136.2889015492
21
125.0744826562
0
LINE
5
2E6
100
AcDbEntity
8
0
100
AcDbLine
62
7
6
CONTINUOUS
10
136.7028395433
20
125.8191635228
11
135.1505705852
21
132.0744826562
0
LINE
5
2E7
100
AcDbEntity
8
0
100
AcDbLine
62
7
6
CONTINUOUS
10
107.7654883291
20
272.0087378676
11
107.9321553137
21
270.9449082071
0
LINE
5
2E8
100
AcDbEntity
8
0
100
AcDbLine
62
7
6
CONTINUOUS
10
120.7654878523
20
275.2002271468
11
120.7654878523
21
272.0087378676
0
LINE
5
2E9
100
AcDbEntity
8
0
100
AcDbLine
62
7
6
CONTINUOUS
10
121.7654878523
20
272.0087378676
11
121.7654878523
21
275.2002271468
0
LINE
5
2EA
100
AcDbEntity
8
0
100
AcDbLine
62
7
6
CONTINUOUS
10
121.7660174604
20
130.4361849792
11
121.7660174604
21
129.9893761046
0
LINE
5
2EB
100
AcDbEntity
8
0
100
AcDbLine
62
7
6
CONTINUOUS
10
121.9045420444
20
130.4361849792
11
121.9045420444
21
129.9893761046
0
LINE
5
2EC
100
AcDbEntity
8
0
100
AcDbLine
62
7
6
CONTINUOUS
10
122.5254496276
20
129.8404399521
11
122.5254496276
21
130.4361849792
0
LINE
5
2ED
100
AcDbEntity
8
0
100
AcDbLine
62
7
6
CONTINUOUS
10
123.3182864185
20
132.0744826562
11
123.3182864185
21
125.0744826562
0
LINE
5
2EE
100
AcDbEntity
8
0
100
AcDbLine
62
7
6
CONTINUOUS
10
123.4568110025
20
132.0744826562
11
123.4568110025
21
125.0744826562
0
LINE
5
2EF
100
AcDbEntity
8
0
100
AcDbLine
62
7
6
CONTINUOUS
10
124.0777188818
20
125.0744826562
11
124.0777188818
21
130.5851211316
0
LINE
5
2F0
100
AcDbEntity
8
0
100
AcDbLine
62
7
6
CONTINUOUS
10
127.6646397971
20
130.0582251250
11
127.6646397971
21
125.0744826562
0
LINE
5
2F1
100
AcDbEntity
8
0
100
AcDbLine
62
7
6
CONTINUOUS
10
127.8031643811
20
130.5851211316
11
127.8031643811
21
125.0744826562
0
LINE
5
2F2
100
AcDbEntity
8
0
100
AcDbLine
62
7
6
CONTINUOUS
10
128.4240719643
20
125.0744826562
11
128.4240719643
21
132.0744826562
0
LINE
5
2F3
100
AcDbEntity
8
0
100
AcDbLine
62
7
6
CONTINUOUS
10
86.4722333479
20
265.7270899367
11
84.5573398102
21
269.0437828352
0
LINE
5
2F4
100
AcDbEntity
8
0
100
AcDbLine
62
7
6
CONTINUOUS
10
84.1318079460
20
269.7808256442
11
83.2807439197
21
271.2549117783
0
LINE
5
2F5
100
AcDbEntity
8
0
100
AcDbLine
62
7
6
CONTINUOUS
10
88.8351012630
20
264.6344826562
11
88.4095693616
21
265.3715255297
0
LINE
5
2F6
100
AcDbEntity
8
0
100
AcDbLine
62
7
6
CONTINUOUS
10
86.1450527751
20
269.9604493429
11
85.7195209110
21
270.6974921519
0
LINE
5
2F7
100
AcDbEntity
8
0
100
AcDbLine
62
7
6
CONTINUOUS
10
106.4321553137
20
268.6044826562
11
104.9321553137
21
273.4980996902
0
LINE
5
2F8
100
AcDbEntity
8
0
100
AcDbLine
62
7
6
CONTINUOUS
10
103.9321550753
20
273.0725678260
11
105.2654883291
21
268.6044826562
0
LINE
5
2F9
100
AcDbEntity
8
0
100
AcDbLine
62
7
6
CONTINUOUS
10
144.8430819461
20
126.8617166943
11
145.0500527196
21
126.1170358277
0
LINE
5
2FA
100
AcDbEntity
8
0
100
AcDbLine
62
7
6
CONTINUOUS
10
144.9816065301
20
126.8617166943
11
145.1885773035
21
126.1170358277
0
LINE
5
2FB
100
AcDbEntity
8
0
100
AcDbLine
62
7
6
CONTINUOUS
10
148.7070520294
20
127.3085251517
11
148.5000836245
21
128.0532061226
0
LINE
5
2FC
100
AcDbEntity
8
0
100
AcDbLine
62
7
6
CONTINUOUS
10
148.6035690113
20
130.2872484095
11
148.3965982378
21
131.0319295890
0
LINE
5
2FD
100
AcDbEntity
8
0
100
AcDbLine
62
7
6
CONTINUOUS
10
105.0988218214
20
276.9023551995
11
105.2654883291
21
276.2640574033
0
LINE
5
2FE
100
AcDbEntity
8
0
100
AcDbLine
62
7
6
CONTINUOUS
10
106.2654883291
20
276.2640574033
11
106.0988218214
21
276.9023551995
0
LINE
5
2FF
100
AcDbEntity
8
0
100
AcDbLine
62
7
6
CONTINUOUS
10
108.9321548368
20
271.1576741392
11
108.7654888060
21
272.0087378676
0
LINE
5
300
100
AcDbEntity
8
0
100
AcDbLine
62
7
6
CONTINUOUS
10
134.0806846264
20
132.0744826562
11
134.0806846264
21
125.0744826562
0
LINE
5
301
100
AcDbEntity
8
0
100
AcDbLine
62
7
6
CONTINUOUS
10
134.2192092104
20
132.0744826562
11
134.2192092104
21
125.0744826562
0
LINE
5
302
100
AcDbEntity
8
0
100
AcDbLine
62
7
6
CONTINUOUS
10
134.8401167936
20
125.0744826562
11
134.8401167936
21
130.5851211316
0
LINE
5
303
100
AcDbEntity
8
DEFAULT_2
100
AcDbLine
62
8
6
HIDDEN
10
135.0188218214
20
163.9587500349
11
135.0188218214
21
120.0244826562
0
LINE
5
304
100
AcDbEntity
8
0
100
AcDbLine
62
7
6
CONTINUOUS
10
78.0322260799
20
261.3456113412
11
78.8528161278
21
260.5909743726
0
LINE
5
305
100
AcDbEntity
8
0
100
AcDbLine
62
7
6
CONTINUOUS
10
107.9321553137
20
270.9449082071
11
108.2654888060
21
270.0938443298
0
LINE
5
306
100
AcDbEntity
8
0
100
AcDbLine
62
7
6
CONTINUOUS
10
120.5988218214
20
276.0512908752
11
120.7654878523
21
275.2002271468
0
LINE
5
307
100
AcDbEntity
8
0
100
AcDbLine
62
7
6
CONTINUOUS
10
121.7654878523
20
275.2002271468
11
121.5988218214
21
276.2640574033
0
LINE
5
308
100
AcDbEntity
8
0
100
AcDbLine
62
7
6
CONTINUOUS
10
138.4270377090
20
130.0582251250
11
138.4270377090
21
125.0744826562
0
LINE
5
309
100
AcDbEntity
8
0
100
AcDbLine
62
7
6
CONTINUOUS
10
138.5655622930
20
130.5851211316
11
138.5655622930
21
125.0744826562
0
LINE
5
30A
100
AcDbEntity
8
0
100
AcDbLine
62
7
6
CONTINUOUS
10
139.1864698762
20
125.0744826562
11
139.1864698762
21
132.0744826562
0
LINE
5
30B
100
AcDbEntity
8
0
100
AcDbLine
62
7
6
CONTINUOUS
10
139.8758212803
20
128.0532061226
11
139.8758212803
21
127.1595889992
0
LINE
5
30C
100
AcDbEntity
8
0
100
AcDbLine
62
7
6
CONTINUOUS
10
140.0143458643
20
128.0532061226
11
140.0143458643
21
127.1595889992
0
LINE
5
30D
100
AcDbEntity
8
0
100
AcDbLine
62
7
6
CONTINUOUS
10
142.3594516132
20
130.6601723900
11
142.3594516132
21
128.0532061226
0
LINE
5
30E
100
AcDbEntity
8
0
100
AcDbLine
62
7
6
CONTINUOUS
10
142.3594516132
20
127.1595889992
11
142.3594516132
21
125.0744826562
0
LINE
5
30F
100
AcDbEntity
8
0
100
AcDbLine
62
7
6
CONTINUOUS
10
142.4979761972
20
130.8829934365
11
142.4979761972
21
128.0532061226
0
LINE
5
310
100
AcDbEntity
8
0
100
AcDbLine
62
7
6
CONTINUOUS
10
142.4979761972
20
127.1595889992
11
142.4979761972
21
125.0744826562
0
LINE
5
311
100
AcDbEntity
8
0
100
AcDbLine
62
7
6
CONTINUOUS
10
143.1188837804
20
125.0744826562
11
143.1188837804
21
127.1595889992
0
LINE
5
312
100
AcDbEntity
8
0
100
AcDbLine
62
7
6
CONTINUOUS
10
143.1188837804
20
128.0532061226
11
143.1188837804
21
132.0744826562
0
LINE
5
313
100
AcDbEntity
8
0
100
AcDbLine
62
7
6
CONTINUOUS
10
144.1537305420
20
127.1595889992
11
144.1537305420
21
128.0532061226
0
LINE
5
314
100
AcDbEntity
8
0
100
AcDbLine
62
7
6
CONTINUOUS
10
144.8430819461
20
127.3085251517
11
144.8430819461
21
126.8617166943
0
LINE
5
315
100
AcDbEntity
8
0
100
AcDbLine
62
7
6
CONTINUOUS
10
144.9465673328
20
130.2872484095
11
144.9465673328
21
129.8404399521
0
LINE
5
316
100
AcDbEntity
8
0
100
AcDbLine
62
7
6
CONTINUOUS
10
144.9816065301
20
127.3085251517
11
144.9816065301
21
126.8617166943
0
LINE
5
317
100
AcDbEntity
8
0
100
AcDbLine
62
7
6
CONTINUOUS
10
145.0850919168
20
130.2872484095
11
145.0850919168
21
129.8404399521
0
LINE
5
318
100
AcDbEntity
8
0
100
AcDbLine
62
7
6
CONTINUOUS
10
121.7660174604
20
129.9893761046
11
121.6625329619
21
129.5425676472
0
LINE
5
319
100
AcDbEntity
8
0
100
AcDbLine
62
7
6
CONTINUOUS
10
121.9045420444
20
129.9893761046
11
121.8010575459
21
129.5425676472
0
LINE
5
31A
100
AcDbEntity
8
0
100
AcDbLine
62
7
6
CONTINUOUS
10
122.4219651291
20
129.3936314947
11
122.5254496276
21
129.8404399521
0
LINE
5
31B
100
AcDbEntity
8
0
100
AcDbLine
62
7
6
CONTINUOUS
10
127.3541860055
20
132.0744826562
11
125.8711793394
21
126.0982760684
0
LINE
5
31C
100
AcDbEntity
8
0
100
AcDbLine
62
7
6
CONTINUOUS
10
127.4927105895
20
132.0744826562
11
125.9404416314
21
125.8191635228
0
LINE
5
31D
100
AcDbEntity
8
0
100
AcDbLine
62
7
6
CONTINUOUS
10
76.0489041817
20
265.1141589800
11
76.7631111761
21
264.5437828352
0
LINE
5
31E
100
AcDbEntity
8
0
100
AcDbLine
62
7
6
CONTINUOUS
10
85.9633117933
20
264.9419018955
11
86.6775185540
21
264.3715255297
0
LINE
5
31F
100
AcDbEntity
8
0
100
AcDbLine
62
7
6
CONTINUOUS
10
82.9092296045
20
264.8983934480
11
82.0886393530
21
265.6530304711
0
LINE
5
320
100
AcDbEntity
8
0
100
AcDbLine
62
7
6
CONTINUOUS
10
80.6372327050
20
268.5002744971
11
79.8166423045
21
269.2549117783
0
LINE
5
321
100
AcDbEntity
8
0
100
AcDbLine
62
7
6
CONTINUOUS
10
86.9357201632
20
265.2576411932
11
86.4722333479
21
265.7270899367
0
LINE
5
322
100
AcDbEntity
8
0
100
AcDbLine
62
7
6
CONTINUOUS
10
106.0988218214
20
276.9023551995
11
105.5988218214
21
277.7534189279
0
LINE
5
323
100
AcDbEntity
8
0
100
AcDbLine
62
7
6
CONTINUOUS
10
109.2654888060
20
270.5193763430
11
108.9321548368
21
271.1576741392
0
LINE
5
324
100
AcDbEntity
8
0
100
AcDbLine
62
7
6
CONTINUOUS
10
145.4990310952
20
126.8617166943
11
145.4990310952
21
127.3085251517
0
LINE
5
325
100
AcDbEntity
8
0
100
AcDbLine
62
7
6
CONTINUOUS
10
145.6025141133
20
129.9893761046
11
145.6025141133
21
130.2872484095
0
LINE
5
326
100
AcDbEntity
8
0
100
AcDbLine
62
7
6
CONTINUOUS
10
147.9476198622
20
130.2872484095
11
147.9476198622
21
129.9893761046
0
LINE
5
327
100
AcDbEntity
8
0
100
AcDbLine
62
7
6
CONTINUOUS
10
148.0511052490
20
127.3085251517
11
148.0511052490
21
126.8617166943
0
LINE
5
328
100
AcDbEntity
8
0
100
AcDbLine
62
7
6
CONTINUOUS
10
148.0861444462
20
130.2872484095
11
148.0861444462
21
129.9893761046
0
LINE
5
329
100
AcDbEntity
8
0
100
AcDbLine
62
7
6
CONTINUOUS
10
148.1896298329
20
127.3085251517
11
148.1896298329
21
126.8617166943
0
LINE
5
32A
100
AcDbEntity
8
0
100
AcDbLine
62
7
6
CONTINUOUS
10
148.6035690113
20
129.8404399521
11
148.6035690113
21
130.2872484095
0
LINE
5
32B
100
AcDbEntity
8
0
100
AcDbLine
62
7
6
CONTINUOUS
10
148.7070520294
20
126.8617166943
11
148.7070520294
21
127.3085251517
0
LINE
5
32C
100
AcDbEntity
8
0
100
AcDbLine
62
7
6
CONTINUOUS
10
149.5508435867
20
121.0244826562
11
149.5508435867
21
136.0244826562
0
LINE
5
32D
100
AcDbEntity
8
0
100
AcDbLine
62
7
6
CONTINUOUS
10
126.3543796255
20
125.0744826562
11
127.8031643811
21
130.5851211316
0
LINE
5
32E
100
AcDbEntity
8
DEFAULT_2
100
AcDbLine
62
8
6
HIDDEN
10
87.0188218214
20
120.0244826562
11
83.0188218214
21
116.0244826562
0
LINE
5
32F
100
AcDbEntity
8
0
100
AcDbLine
62
7
6
CONTINUOUS
10
78.8528161278
20
260.5909743726
11
79.1349677494
21
260.4773944138
0
LINE
5
330
100
AcDbEntity
8
0
100
AcDbLine
62
7
6
CONTINUOUS
10
79.6124585914
20
261.2752350897
11
78.7539138992
21
261.7622779980
0
LINE
5
331
100
AcDbEntity
8
0
100
AcDbLine
62
7
6
CONTINUOUS
10
81.3289969153
20
264.9687697689
11
82.1875416303
21
264.4817267018
0
LINE
5
332
100
AcDbEntity
8
0
100
AcDbLine
62
7
6
CONTINUOUS
10
77.2720331149
20
265.3289709263
11
76.6642090478
21
265.7150863464
0
LINE
5
333
100
AcDbEntity
8
0
100
AcDbLine
62
7
6
CONTINUOUS
10
79.3077202625
20
268.4697236277
11
79.9155447309
21
268.0836077509
0
LINE
5
334
100
AcDbEntity
8
0
100
AcDbLine
62
7
6
CONTINUOUS
10
108.2654888060
20
270.0938443298
11
108.9321548368
21
269.2427805270
0
LINE
5
335
100
AcDbEntity
8
0
100
AcDbLine
62
7
6
CONTINUOUS
10
104.7654883291
20
277.3278870637
11
105.0988218214
21
276.9023551995
0
LINE
5
336
100
AcDbEntity
8
0
100
AcDbLine
62
7
6
CONTINUOUS
10
120.2654878523
20
276.6895892675
11
120.5988218214
21
276.0512908752
0
LINE
5
337
100
AcDbEntity
8
0
100
AcDbLine
62
7
6
CONTINUOUS
10
121.5988218214
20
276.2640574033
11
121.2654878523
21
277.1151211316
0
LINE
5
338
100
AcDbEntity
8
0
100
AcDbLine
62
7
6
CONTINUOUS
10
161.0188218214
20
117.0244826562
11
161.0188218214
21
127.2643997483
0
LINE
5
339
100
AcDbEntity
8
0
100
AcDbLine
62
7
6
CONTINUOUS
10
138.1165839174
20
132.0744826562
11
136.6335772513
21
126.0982760684
0
LINE
5
33A
100
AcDbEntity
8
0
100
AcDbLine
62
7
6
CONTINUOUS
10
138.2551085013
20
132.0744826562
11
136.7028395433
21
125.8191635228
0
LINE
5
33B
100
AcDbEntity
8
0
100
AcDbLine
62
7
6
CONTINUOUS
10
137.1167775373
20
125.0744826562
11
138.5655622930
21
130.5851211316
0
LINE
5
33C
100
AcDbEntity
8
0
100
AcDbLine
62
7
6
CONTINUOUS
10
122.1115113375
20
128.7978868849
11
122.4219651291
21
129.3936314947
0
LINE
5
33D
100
AcDbEntity
8
0
100
AcDbLine
62
7
6
CONTINUOUS
10
76.7631111761
20
264.5437828352
11
77.5152727761
21
264.2410007285
0
LINE
5
33E
100
AcDbEntity
8
0
100
AcDbLine
62
7
6
CONTINUOUS
10
79.8166423045
20
269.2549117783
11
79.0644807045
21
269.5576938851
0
LINE
5
33F
100
AcDbEntity
8
0
100
AcDbLine
62
7
6
CONTINUOUS
10
109.7654888060
20
270.0938443298
11
109.2654888060
21
270.5193763430
0
LINE
5
340
100
AcDbEntity
8
0
100
AcDbLine
62
7
6
CONTINUOUS
10
105.5988218214
20
277.7534189279
11
104.9321553137
21
278.3917167241
0
LINE
5
341
100
AcDbEntity
8
0
100
AcDbLine
62
7
6
CONTINUOUS
10
145.1535357377
20
131.0319295890
11
144.9465673328
21
130.2872484095
0
LINE
5
342
100
AcDbEntity
8
0
100
AcDbLine
62
7
6
CONTINUOUS
10
145.2920603217
20
131.0319295890
11
145.0850919168
21
130.2872484095
0
LINE
5
343
100
AcDbEntity
8
0
100
AcDbLine
62
7
6
CONTINUOUS
10
145.0500527196
20
128.0532061226
11
144.8430819461
21
127.3085251517
0
LINE
5
344
100
AcDbEntity
8
0
100
AcDbLine
62
7
6
CONTINUOUS
10
145.1885773035
20
128.0532061226
11
144.9816065301
21
127.3085251517
0
LINE
5
345
100
AcDbEntity
8
0
100
AcDbLine
62
7
6
CONTINUOUS
10
148.5000836245
20
126.1170358277
11
148.7070520294
21
126.8617166943
0
LINE
5
346
100
AcDbEntity
8
0
100
AcDbLine
62
7
6
CONTINUOUS
10
121.6625329619
20
129.5425676472
11
121.4555636688
21
129.2446953423
0
LINE
5
347
100
AcDbEntity
8
0
100
AcDbLine
62
7
6
CONTINUOUS
10
121.8010575459
20
129.5425676472
11
121.5940882528
21
129.2446953423
0
LINE
5
348
100
AcDbEntity
8
0
100
AcDbLine
62
7
6
CONTINUOUS
10
79.1349677494
20
260.4773944138
11
81.6348132157
21
260.4773944138
0
LINE
5
349
100
AcDbEntity
8
0
100
AcDbLine
62
7
6
CONTINUOUS
10
80.4025747582
20
261.2400469987
11
79.6124585914
21
261.2752350897
0
LINE
5
34A
100
AcDbEntity
8
0
100
AcDbLine
62
7
6
CONTINUOUS
10
86.6775185540
20
264.3715255297
11
87.3232972067
21
264.2530040930
0
LINE
5
34B
100
AcDbEntity
8
0
100
AcDbLine
62
7
6
CONTINUOUS
10
87.5814987971
20
265.1391197888
11
86.9357201632
21
265.2576411932
0
LINE
5
34C
100
AcDbEntity
8
0
100
AcDbLine
62
7
6
CONTINUOUS
10
78.1685322478
20
265.1095221330
11
77.2720331149
21
265.3289709263
0
LINE
5
34D
100
AcDbEntity
8
0
100
AcDbLine
62
7
6
CONTINUOUS
10
82.0886393530
20
265.6530304711
11
81.1921403234
21
265.8724793240
0
LINE
5
34E
100
AcDbEntity
8
0
100
AcDbLine
62
7
6
CONTINUOUS
10
78.4112212328
20
268.6891724806
11
79.3077202625
21
268.4697236277
0
LINE
5
34F
100
AcDbEntity
8
0
100
AcDbLine
62
7
6
CONTINUOUS
10
108.9321548368
20
269.2427805270
11
109.5988218214
21
268.8172486069
0
LINE
5
350
100
AcDbEntity
8
0
100
AcDbLine
62
7
6
CONTINUOUS
10
121.2654878523
20
277.1151211316
11
120.5988218214
21
277.9661848600
0
LINE
5
351
100
AcDbEntity
8
0
100
AcDbLine
62
7
6
CONTINUOUS
10
148.3965982378
20
129.2446953423
11
148.6035690113
21
129.8404399521
0
LINE
5
352
100
AcDbEntity
8
0
100
AcDbLine
62
7
6
CONTINUOUS
10
145.6025141133
20
130.2872484095
11
145.8094848868
21
130.7340572841
0
LINE
5
353
100
AcDbEntity
8
0
100
AcDbLine
62
7
6
CONTINUOUS
10
147.9476198622
20
129.9893761046
11
147.7406514574
21
129.5425676472
0
LINE
5
354
100
AcDbEntity
8
0
100
AcDbLine
62
7
6
CONTINUOUS
10
148.0861444462
20
129.9893761046
11
147.8791760413
21
129.5425676472
0
LINE
5
355
100
AcDbEntity
8
0
100
AcDbLine
62
7
6
CONTINUOUS
10
145.4990310952
20
127.3085251517
11
145.8094848868
21
127.9042699701
0
LINE
5
356
100
AcDbEntity
8
0
100
AcDbLine
62
7
6
CONTINUOUS
10
142.3594516132
20
132.0744826562
11
139.8758212803
21
128.0532061226
0
LINE
5
357
100
AcDbEntity
8
0
100
AcDbLine
62
7
6
CONTINUOUS
10
142.4979761972
20
132.0744826562
11
140.0143458643
21
128.0532061226
0
LINE
5
358
100
AcDbEntity
8
0
100
AcDbLine
62
7
6
CONTINUOUS
10
140.7387388342
20
128.0532061226
11
142.4979761972
21
130.8829934365
0
LINE
5
359
100
AcDbEntity
8
0
100
AcDbLine
62
7
6
CONTINUOUS
10
121.6975730474
20
128.5000145800
11
122.1115113375
21
128.7978868849
0
LINE
5
35A
100
AcDbEntity
8
0
100
AcDbLine
62
7
6
CONTINUOUS
10
88.4095693616
20
265.3715255297
11
87.5814987971
21
265.1391197888
0
LINE
5
35B
100
AcDbEntity
8
0
100
AcDbLine
62
7
6
CONTINUOUS
10
119.0988218214
20
268.6044826562
11
119.9321557905
21
268.8172486069
0
LINE
5
35C
100
AcDbEntity
8
0
100
AcDbLine
62
7
6
CONTINUOUS
10
111.0988218214
20
268.6044826562
11
111.9321548368
21
268.8172486069
0
LINE
5
35D
100
AcDbEntity
8
0
100
AcDbLine
62
7
6
CONTINUOUS
10
81.0863080623
20
261.3891196695
11
80.4025747582
21
261.2400469987
0
LINE
5
35E
100
AcDbEntity
8
0
100
AcDbLine
62
7
6
CONTINUOUS
10
87.3232972067
20
264.2530040930
11
87.8626928839
21
264.3187433746
0
LINE
5
35F
100
AcDbEntity
8
0
100
AcDbLine
62
7
6
CONTINUOUS
10
100.0988218214
20
268.6044826562
11
101.0988218214
21
268.6044826562
0
LINE
5
360
100
AcDbEntity
8
0
100
AcDbLine
62
7
6
CONTINUOUS
10
105.2654883291
20
268.6044826562
11
106.4321553137
21
268.6044826562
0
LINE
5
361
100
AcDbEntity
8
0
100
AcDbLine
62
7
6
CONTINUOUS
10
110.4321548368
20
268.6044826562
11
111.0988218214
21
268.6044826562
0
LINE
5
362
100
AcDbEntity
8
0
100
AcDbLine
62
7
6
CONTINUOUS
10
115.0988218214
20
268.6044826562
11
119.0988218214
21
268.6044826562
0
LINE
5
363
100
AcDbEntity
8
0
100
AcDbLine
62
7
6
CONTINUOUS
10
119.0988218214
20
269.8810783977
11
116.0988218214
21
269.8810783977
0
LINE
5
364
100
AcDbEntity
8
0
100
AcDbLine
62
7
6
CONTINUOUS
10
111.0988218214
20
269.8810783977
11
110.4321548368
21
269.8810783977
0
LINE
5
365
100
AcDbEntity
8
0
100
AcDbLine
62
7
6
CONTINUOUS
10
77.5152727761
20
264.2410007285
11
77.9103309112
21
264.2234067128
0
LINE
5
366
100
AcDbEntity
8
0
100
AcDbLine
62
7
6
CONTINUOUS
10
80.5388808516
20
265.0039579195
11
81.3289969153
21
264.9687697689
0
LINE
5
367
100
AcDbEntity
8
0
100
AcDbLine
62
7
6
CONTINUOUS
10
81.1921403234
20
265.8724793240
11
80.7970820851
21
265.8900732801
0
LINE
5
368
100
AcDbEntity
8
0
100
AcDbLine
62
7
6
CONTINUOUS
10
79.0644807045
20
269.5576938851
11
78.0236438322
21
269.6938092457
0
LINE
5
369
100
AcDbEntity
8
0
100
AcDbLine
62
7
6
CONTINUOUS
10
109.5988218214
20
268.8172486069
11
110.4321548368
21
268.6044826562
0
LINE
5
36A
100
AcDbEntity
8
0
100
AcDbLine
62
7
6
CONTINUOUS
10
110.4321548368
20
269.8810783977
11
109.7654888060
21
270.0938443298
0
LINE
5
36B
100
AcDbEntity
8
0
100
AcDbLine
62
7
6
CONTINUOUS
10
104.2654883291
20
277.5406529958
11
104.7654883291
21
277.3278870637
0
LINE
5
36C
100
AcDbEntity
8
0
100
AcDbLine
62
7
6
CONTINUOUS
10
119.7654878523
20
277.1151211316
11
120.2654878523
21
276.6895892675
0
LINE
5
36D
100
AcDbEntity
8
0
100
AcDbLine
62
7
6
CONTINUOUS
10
148.0511052490
20
126.8617166943
11
147.7406514574
21
126.2659719802
0
LINE
5
36E
100
AcDbEntity
8
0
100
AcDbLine
62
7
6
CONTINUOUS
10
148.1896298329
20
126.8617166943
11
147.8791760413
21
126.2659719802
0
LINE
5
36F
100
AcDbEntity
8
0
100
AcDbLine
62
7
6
CONTINUOUS
10
145.4639895293
20
131.4787380464
11
145.1535357377
21
131.0319295890
0
LINE
5
370
100
AcDbEntity
8
0
100
AcDbLine
62
7
6
CONTINUOUS
10
145.6025141133
20
131.4787380464
11
145.2920603217
21
131.0319295890
0
LINE
5
371
100
AcDbEntity
8
0
100
AcDbLine
62
7
6
CONTINUOUS
10
148.0861444462
20
128.7978868849
11
148.3965982378
21
129.2446953423
0
LINE
5
372
100
AcDbEntity
8
0
100
AcDbLine
62
7
6
CONTINUOUS
10
148.1896298329
20
125.6702273182
11
148.5000836245
21
126.1170358277
0
LINE
5
373
100
AcDbEntity
8
0
100
AcDbLine
62
7
6
CONTINUOUS
10
145.8094848868
20
130.7340572841
11
146.2234216965
21
131.1808657415
0
LINE
5
374
100
AcDbEntity
8
0
100
AcDbLine
62
7
6
CONTINUOUS
10
121.4555636688
20
129.2446953423
11
121.2577179833
21
129.1497814582
0
LINE
5
375
100
AcDbEntity
8
0
100
AcDbLine
62
7
6
CONTINUOUS
10
121.5940882528
20
129.2446953423
11
121.2836344612
21
129.0957591898
0
LINE
5
376
100
AcDbEntity
8
0
100
AcDbLine
62
7
6
CONTINUOUS
10
78.0236438322
20
269.6938092457
11
77.1955730985
21
269.4614033210
0
LINE
5
377
100
AcDbEntity
8
0
100
AcDbLine
62
7
6
CONTINUOUS
10
79.8551475476
20
264.8548852487
11
80.5388808516
21
265.0039579195
0
LINE
5
378
100
AcDbEntity
8
0
100
AcDbLine
62
7
6
CONTINUOUS
10
78.8522655519
20
265.2585948038
11
78.1685322478
21
265.1095221330
0
LINE
5
379
100
AcDbEntity
8
0
100
AcDbLine
62
7
6
CONTINUOUS
10
77.7274879287
20
268.5400998098
11
78.4112212328
21
268.6891724806
0
LINE
5
37A
100
AcDbEntity
8
0
100
AcDbLine
62
7
6
CONTINUOUS
10
101.0988218214
20
273.0725678260
11
103.9321550753
21
273.0725678260
0
LINE
5
37B
100
AcDbEntity
8
0
100
AcDbLine
62
7
6
CONTINUOUS
10
104.2654883291
20
274.3491634185
11
101.0988218214
21
274.3491634185
0
LINE
5
37C
100
AcDbEntity
8
0
100
AcDbLine
62
7
6
CONTINUOUS
10
116.0988218214
20
277.3278870637
11
119.0988218214
21
277.3278870637
0
LINE
5
37D
100
AcDbEntity
8
0
100
AcDbLine
62
7
6
CONTINUOUS
10
101.0988218214
20
277.5406529958
11
104.2654883291
21
277.5406529958
0
LINE
5
37E
100
AcDbEntity
8
0
100
AcDbLine
62
7
6
CONTINUOUS
10
104.9321553137
20
278.3917167241
11
104.0988218214
21
278.6044826562
0
LINE
5
37F
100
AcDbEntity
8
0
100
AcDbLine
62
7
6
CONTINUOUS
10
119.9321557905
20
278.3917167241
11
119.0988218214
21
278.6044826562
0
LINE
5
380
100
AcDbEntity
8
0
100
AcDbLine
62
7
6
CONTINUOUS
10
119.0988218214
20
277.3278870637
11
119.7654878523
21
277.1151211316
0
LINE
5
381
100
AcDbEntity
8
0
100
AcDbLine
62
7
6
CONTINUOUS
10
120.5988218214
20
277.9661848600
11
119.9321557905
21
278.3917167241
0
LINE
5
382
100
AcDbEntity
8
0
100
AcDbLine
62
7
6
CONTINUOUS
10
174.7516567304
20
141.6128308224
11
198.1898555676
21
198.1976483326
0
LINE
5
383
100
AcDbEntity
8
0
100
AcDbLine
62
7
6
CONTINUOUS
10
145.4639895293
20
128.5000145800
11
145.0500527196
21
128.0532061226
0
LINE
5
384
100
AcDbEntity
8
0
100
AcDbLine
62
7
6
CONTINUOUS
10
145.6025141133
20
128.5000145800
11
145.1885773035
21
128.0532061226
0
LINE
5
385
100
AcDbEntity
8
0
100
AcDbLine
62
7
6
CONTINUOUS
10
147.7406514574
20
129.5425676472
11
147.3267122790
21
129.0957591898
0
LINE
5
386
100
AcDbEntity
8
0
100
AcDbLine
62
7
6
CONTINUOUS
10
147.8791760413
20
129.5425676472
11
147.4652368630
21
129.0957591898
0
LINE
5
387
100
AcDbEntity
8
0
100
AcDbLine
62
7
6
CONTINUOUS
10
145.9814140944
20
131.9255465038
11
145.4639895293
21
131.4787380464
0
LINE
5
388
100
AcDbEntity
8
0
100
AcDbLine
62
7
6
CONTINUOUS
10
146.1199386784
20
131.9255465038
11
145.6025141133
21
131.4787380464
0
LINE
5
389
100
AcDbEntity
8
0
100
AcDbLine
62
7
6
CONTINUOUS
10
147.6722076364
20
125.2234188217
11
148.1896298329
21
125.6702273182
0
LINE
5
38A
100
AcDbEntity
8
0
100
AcDbLine
62
7
6
CONTINUOUS
10
145.6709603028
20
128.6489507324
11
145.4639895293
21
128.5000145800
0
LINE
5
38B
100
AcDbEntity
8
0
100
AcDbLine
62
7
6
CONTINUOUS
10
145.8094848868
20
128.6489507324
11
145.6025141133
21
128.5000145800
0
LINE
5
38C
100
AcDbEntity
8
0
100
AcDbLine
62
7
6
CONTINUOUS
10
145.8094848868
20
127.9042699701
11
146.2234216965
21
128.2021422751
0
LINE
5
38D
100
AcDbEntity
8
0
100
AcDbLine
62
7
6
CONTINUOUS
10
147.8791760413
20
128.6489507324
11
148.0861444462
21
128.7978868849
0
LINE
5
38E
100
AcDbEntity
8
0
100
AcDbLine
62
7
6
CONTINUOUS
10
146.2234216965
20
131.1808657415
11
146.6373608749
21
131.3298018939
0
LINE
5
38F
100
AcDbEntity
8
0
100
AcDbLine
62
7
6
CONTINUOUS
10
147.3267122790
20
129.0957591898
11
147.0354223179
21
128.9909518737
0
LINE
5
390
100
AcDbEntity
8
0
100
AcDbLine
62
7
6
CONTINUOUS
10
147.4652368630
20
129.0957591898
11
147.0513000532
21
128.9468230374
0
LINE
5
391
100
AcDbEntity
8
0
100
AcDbLine
62
7
6
CONTINUOUS
10
146.2234216965
20
128.2021422751
11
146.6373608749
21
128.3510784275
0
LINE
5
392
100
AcDbEntity
8
0
100
AcDbLine
62
7
6
CONTINUOUS
10
146.4988362909
20
132.0744826562
11
145.9814140944
21
131.9255465038
0
LINE
5
393
100
AcDbEntity
8
0
100
AcDbLine
62
7
6
CONTINUOUS
10
146.6373608749
20
132.0744826562
11
146.1199386784
21
131.9255465038
0
LINE
5
394
100
AcDbEntity
8
0
100
AcDbLine
62
7
6
CONTINUOUS
10
119.0988218214
20
278.6044826562
11
115.0988218214
21
278.6044826562
0
LINE
5
395
100
AcDbEntity
8
0
100
AcDbLine
62
7
6
CONTINUOUS
10
113.7654888060
20
278.6044826562
11
112.7654888060
21
278.6044826562
0
LINE
5
396
100
AcDbEntity
8
0
100
AcDbLine
62
7
6
CONTINUOUS
10
108.7654888060
20
278.6044826562
11
107.7654883291
21
278.6044826562
0
LINE
5
397
100
AcDbEntity
8
0
100
AcDbLine
62
7
6
CONTINUOUS
10
104.0988218214
20
278.6044826562
11
100.0988218214
21
278.6044826562
0
LINE
5
398
100
AcDbEntity
8
0
100
AcDbLine
62
7
6
CONTINUOUS
10
114.8456561451
20
289.1955164024
11
169.9520704056
21
266.3696922419
0
LINE
5
399
100
AcDbEntity
8
0
100
AcDbLine
62
7
6
CONTINUOUS
10
175.3640314071
20
260.9577312404
11
198.1898555676
21
205.8513169799
0
LINE
5
39A
100
AcDbEntity
8
0
100
AcDbLine
62
7
6
CONTINUOUS
10
147.7406514574
20
126.2659719802
11
147.3267122790
21
125.9680996753
0
LINE
5
39B
100
AcDbEntity
8
0
100
AcDbLine
62
7
6
CONTINUOUS
10
147.8791760413
20
126.2659719802
11
147.4652368630
21
125.9680996753
0
LINE
5
39C
100
AcDbEntity
8
0
100
AcDbLine
62
7
6
CONTINUOUS
10
147.3267122790
20
125.9680996753
11
147.0354223179
21
125.8632923592
0
LINE
5
39D
100
AcDbEntity
8
0
100
AcDbLine
62
7
6
CONTINUOUS
10
147.4652368630
20
125.9680996753
11
147.0513000532
21
125.8191635228
0
LINE
5
39E
100
AcDbEntity
8
0
100
AcDbLine
62
7
6
CONTINUOUS
10
147.1547830714
20
125.0744826562
11
147.6722076364
21
125.2234188217
0
LINE
5
39F
100
AcDbEntity
8
0
100
AcDbLine
62
7
6
CONTINUOUS
10
160.0188218214
20
116.0244826562
11
161.0188218214
21
117.0244826562
0
LINE
5
3A0
100
AcDbEntity
8
0
100
AcDbLine
62
7
6
CONTINUOUS
10
246.3771295736
20
116.0244826562
11
245.3771295736
21
117.0244826562
0
LINE
5
3A1
100
AcDbEntity
8
0
100
AcDbLine
62
7
6
CONTINUOUS
10
246.3779860255
20
116.0244826562
11
344.3762731217
21
116.0244826562
0
LINE
5
3A2
100
AcDbEntity
8
0
100
AcDbLine
62
7
6
CONTINUOUS
10
245.3771295736
20
117.0244826562
11
345.3771295736
21
117.0244826562
0
LINE
5
3A3
100
AcDbEntity
8
DEFAULT_2
100
AcDbLine
62
8
6
HIDDEN
10
319.3771295736
20
120.0244826562
11
271.3771295736
21
120.0244826562
0
LINE
5
3A4
100
AcDbEntity
8
0
100
AcDbLine
62
7
6
CONTINUOUS
10
315.2429531488
20
139.2643997483
11
310.6581034963
21
139.2643997483
0
LINE
5
3A5
100
AcDbEntity
8
0
100
AcDbLine
62
7
6
CONTINUOUS
10
280.0961556509
20
139.2643997483
11
275.5113059984
21
139.2643997483
0
LINE
5
3A6
100
AcDbEntity
8
0
100
AcDbLine
62
7
6
CONTINUOUS
10
245.3771295736
20
117.0244826562
11
245.3771295736
21
139.1475992503
0
LINE
5
3A7
100
AcDbEntity
8
0
100
AcDbLine
62
7
6
CONTINUOUS
10
253.8127849232
20
149.0244826562
11
269.4518576984
21
151.5014684449
0
LINE
5
3A8
100
AcDbEntity
8
0
100
AcDbLine
62
7
6
CONTINUOUS
10
336.9414742240
20
149.0244826562
11
321.3024001096
21
151.5014686570
0
LINE
5
3A9
100
AcDbEntity
8
DEFAULT_2
100
AcDbLine
62
8
6
HIDDEN
10
319.3771295736
20
120.0244826562
11
323.3771295736
21
116.0244826562
0
LINE
5
3AA
100
AcDbEntity
8
DEFAULT_2
100
AcDbLine
62
8
6
HIDDEN
10
271.3771295736
20
152.6569318227
11
271.3771295736
21
120.0244826562
0
LINE
5
3AB
100
AcDbEntity
8
0
100
AcDbLine
62
7
6
CONTINUOUS
10
276.2222948611
20
286.0886482858
11
271.3268710595
21
137.7414034984
0
LINE
5
3AC
100
AcDbEntity
8
DEFAULT_1
100
AcDbLine
62
2
6
CENTER
10
295.3771295736
20
293.1059165721
11
295.3771295736
21
113.0244826562
0
LINE
5
3AD
100
AcDbEntity
8
0
100
AcDbLine
62
7
6
CONTINUOUS
10
315.3771295736
20
278.6044826562
11
315.3771295736
21
260.5909743726
0
LINE
5
3AE
100
AcDbEntity
8
0
100
AcDbLine
62
7
6
CONTINUOUS
10
319.4273880256
20
137.7414053808
11
314.5319642861
21
286.0886482859
0
LINE
5
3AF
100
AcDbEntity
8
DEFAULT_2
100
AcDbLine
62
8
6
HIDDEN
10
319.3771295736
20
152.6569318310
11
319.3771295736
21
120.0244826562
0
LINE
5
3B0
100
AcDbEntity
8
DEFAULT_2
100
AcDbLine
62
8
6
HIDDEN
10
271.3771295736
20
120.0244826562
11
267.3771295736
21
116.0244826562
0
LINE
5
3B1
100
AcDbEntity
8
0
100
AcDbLine
62
7
6
CONTINUOUS
10
345.3771295736
20
117.0244826562
11
345.3771295736
21
139.1475992503
0
LINE
5
3B2
100
AcDbEntity
8
0
100
AcDbLine
62
7
6
CONTINUOUS
10
315.3771295736
20
261.3456113412
11
315.3484786215
21
261.3456113412
0
LINE
5
3B3
100
AcDbEntity
8
0
100
AcDbLine
62
7
6
CONTINUOUS
10
315.3771295736
20
261.8983934480
11
315.3302369434
21
261.8983934480
0
LINE
5
3B4
100
AcDbEntity
8
0
100
AcDbLine
62
7
6
CONTINUOUS
10
315.3771295736
20
262.9863638889
11
315.2943341775
21
262.9863638889
0
LINE
5
3B5
100
AcDbEntity
8
0
100
AcDbLine
62
7
6
CONTINUOUS
10
315.3771295736
20
263.8724793240
11
315.2650925789
21
263.8724793240
0
LINE
5
3B6
100
AcDbEntity
8
0
100
AcDbLine
62
7
6
CONTINUOUS
10
315.3771295736
20
264.2234067128
11
315.2535120585
21
264.2234067128
0
LINE
5
3B7
100
AcDbEntity
8
0
100
AcDbLine
62
7
6
CONTINUOUS
10
315.3771295736
20
264.2410007285
11
315.2529314602
21
264.2410007285
0
LINE
5
3B8
100
AcDbEntity
8
0
100
AcDbLine
62
7
6
CONTINUOUS
10
315.3771295736
20
264.5437828352
11
315.2429397227
21
264.5437828352
0
LINE
5
3B9
100
AcDbEntity
8
0
100
AcDbLine
62
7
6
CONTINUOUS
10
315.3771295736
20
265.1141589800
11
315.2241174455
21
265.1141589800
0
LINE
5
3BA
100
AcDbEntity
8
0
100
AcDbLine
62
7
6
CONTINUOUS
10
315.3771295736
20
265.6669410868
11
315.2058757674
21
265.6669410868
0
LINE
5
3BB
100
AcDbEntity
8
0
100
AcDbLine
62
7
6
CONTINUOUS
10
315.3771295736
20
266.7549117783
11
315.1699729933
21
266.7549117783
0
LINE
5
3BC
100
AcDbEntity
8
0
100
AcDbLine
62
7
6
CONTINUOUS
10
315.3771295736
20
267.5576938851
11
315.1434813747
21
267.5576938851
0
LINE
5
3BD
100
AcDbEntity
8
0
100
AcDbLine
62
7
6
CONTINUOUS
10
315.3771295736
20
268.5271426783
11
315.1114897951
21
268.5271426783
0
LINE
5
3BE
100
AcDbEntity
8
0
100
AcDbLine
62
7
6
CONTINUOUS
10
315.3771295736
20
269.1280700671
11
315.0916593341
21
269.1280700671
0
LINE
5
3BF
100
AcDbEntity
8
0
100
AcDbLine
62
7
6
CONTINUOUS
10
315.3771295736
20
269.4614033210
11
315.0806594160
21
269.4614033210
0
LINE
5
3C0
100
AcDbEntity
8
0
100
AcDbLine
62
7
6
CONTINUOUS
10
315.3771295736
20
269.6938092457
11
315.0729900758
21
269.6938092457
0
LINE
5
3C1
100
AcDbEntity
8
0
100
AcDbLine
62
7
6
CONTINUOUS
10
315.3771295736
20
270.8382452706
11
315.0352239591
21
270.8382452706
0
LINE
5
3C2
100
AcDbEntity
8
0
100
AcDbLine
62
7
6
CONTINUOUS
10
315.3771295736
20
271.2549117783
11
315.0214740634
21
271.2549117783
0
LINE
5
3C3
100
AcDbEntity
8
0
100
AcDbLine
62
7
6
CONTINUOUS
10
315.3771295736
20
278.6044826562
11
314.7789399722
21
278.6044826562
0
LINE
5
3C4
100
AcDbEntity
8
0
100
AcDbLine
62
7
6
CONTINUOUS
10
310.5341404850
20
289.9567210773
11
280.2201186622
21
289.9567210773
0
LINE
5
3C5
100
AcDbEntity
8
0
100
AcDbLine
62
7
6
CONTINUOUS
10
344.3771295736
20
116.0244826562
11
345.3771295736
21
117.0244826562
0
LINE
5
3C6
100
AcDbEntity
8
0
100
AcDbLine
62
7
6
CONTINUOUS
10
23.0865834004
20
37.7671301369
11
23.0865834004
21
73.6206402819
0
LINE
5
3C7
100
AcDbEntity
8
0
100
AcDbLine
62
7
6
CONTINUOUS
10
75.4865152856
20
35.6938852093
11
75.4865152856
21
35.9010417896
0
LINE
5
3C8
100
AcDbEntity
8
0
100
AcDbLine
62
7
6
CONTINUOUS
10
75.6003790894
20
35.6938852093
11
75.6003790894
21
35.9275334082
0
LINE
5
3C9
100
AcDbEntity
8
0
100
AcDbLine
62
7
6
CONTINUOUS
10
76.0029180621
20
35.6938852093
11
76.0029180621
21
35.9595249879
0
LINE
5
3CA
100
AcDbEntity
8
0
100
AcDbLine
62
7
6
CONTINUOUS
10
76.6182229670
20
35.6938852093
11
76.6182229670
21
35.9793554488
0
LINE
5
3CB
100
AcDbEntity
8
0
100
AcDbLine
62
7
6
CONTINUOUS
10
77.1955730985
20
35.6938852093
11
77.1955730985
21
35.9903553669
0
LINE
5
3CC
100
AcDbEntity
8
0
100
AcDbLine
62
7
6
CONTINUOUS
10
78.0236438322
20
35.6938852093
11
78.0236438322
21
35.9980247071
0
LINE
5
3CD
100
AcDbEntity
8
0
100
AcDbLine
62
7
6
CONTINUOUS
10
79.0644807045
20
35.6938852093
11
79.0644807045
21
35.9935329326
0
LINE
5
3CE
100
AcDbEntity
8
0
100
AcDbLine
62
7
6
CONTINUOUS
10
79.8166423045
20
35.6938852093
11
79.8166423045
21
35.9835411951
0
LINE
5
3CF
100
AcDbEntity
8
0
100
AcDbLine
62
7
6
CONTINUOUS
10
80.6372327050
20
35.6938852093
11
80.6372327050
21
35.9586383443
0
LINE
5
3D0
100
AcDbEntity
8
0
100
AcDbLine
62
7
6
CONTINUOUS
10
80.9563816031
20
35.6938852093
11
80.9563816031
21
35.9403966662
0
LINE
5
3D1
100
AcDbEntity
8
0
100
AcDbLine
62
7
6
CONTINUOUS
10
81.0932381950
20
35.6938852093
11
81.0932381950
21
35.9105744658
0
LINE
5
3D2
100
AcDbEntity
8
0
100
AcDbLine
62
7
6
CONTINUOUS
10
81.1921403234
20
35.6938852093
11
81.1921403234
21
35.8719217284
0
LINE
5
3D3
100
AcDbEntity
8
0
100
AcDbLine
62
7
6
CONTINUOUS
10
82.0886393530
20
35.6938852093
11
82.0886393530
21
35.8646799685
0
LINE
5
3D4
100
AcDbEntity
8
0
100
AcDbLine
62
7
6
CONTINUOUS
10
82.2554197088
20
35.6938852093
11
82.2554197088
21
35.9651464878
0
LINE
5
3D5
100
AcDbEntity
8
0
100
AcDbLine
62
7
6
CONTINUOUS
10
82.5590563585
20
35.6938852093
11
82.5590563585
21
36.0357908238
0
LINE
5
3D6
100
AcDbEntity
8
0
100
AcDbLine
62
7
6
CONTINUOUS
10
83.2807439197
20
35.6938852093
11
83.2807439197
21
36.0495407195
0
LINE
5
3D7
100
AcDbEntity
8
0
100
AcDbLine
62
7
6
CONTINUOUS
10
84.1318079460
20
35.6938852093
11
84.1318079460
21
36.0008962276
0
LINE
5
3D8
100
AcDbEntity
8
0
100
AcDbLine
62
7
6
CONTINUOUS
10
194.8120047981
20
33.7039936449
11
171.4238575383
21
31.8406956554
0
LINE
5
3D9
100
AcDbEntity
8
0
100
AcDbLine
62
7
6
CONTINUOUS
10
171.1061901776
20
31.8280616341
11
171.4303947125
21
31.8412227870
0
LINE
5
3DA
100
AcDbEntity
8
0
100
AcDbLine
62
7
6
CONTINUOUS
10
50.6228609726
20
31.8399848587
11
50.9314534652
21
31.8280625716
0
LINE
5
3DB
100
AcDbEntity
8
0
100
AcDbLine
62
7
6
CONTINUOUS
10
50.6137861045
20
31.8406956554
11
27.2256388457
21
33.7039936448
0
LINE
5
3DC
100
AcDbEntity
8
0
100
AcDbLine
62
7
6
CONTINUOUS
10
85.7195209110
20
35.6938852093
11
85.7195209110
21
36.0311460044
0
LINE
5
3DD
100
AcDbEntity
8
0
100
AcDbLine
62
7
6
CONTINUOUS
10
86.1450527751
20
35.6938852093
11
86.1450527751
21
36.0068237669
0
LINE
5
3DE
100
AcDbEntity
8
0
100
AcDbLine
62
7
6
CONTINUOUS
10
86.4722333479
20
35.6938852093
11
86.4722333479
21
35.8671239132
0
LINE
5
3DF
100
AcDbEntity
8
0
100
AcDbLine
62
7
6
CONTINUOUS
10
86.9357201632
20
35.6938852093
11
86.9357201632
21
35.8516322163
0
LINE
5
3E0
100
AcDbEntity
8
0
100
AcDbLine
62
7
6
CONTINUOUS
10
87.5814987971
20
35.6938852093
11
87.5814987971
21
35.8477210382
0
LINE
5
3E1
100
AcDbEntity
8
0
100
AcDbLine
62
7
6
CONTINUOUS
10
88.4095693616
20
35.6938852093
11
88.4095693616
21
35.8553903723
0
LINE
5
3E2
100
AcDbEntity
8
0
100
AcDbLine
62
7
6
CONTINUOUS
10
88.8351012630
20
35.6938852093
11
88.8351012630
21
35.8310681328
0
LINE
5
3E3
100
AcDbEntity
8
0
100
AcDbLine
62
7
6
CONTINUOUS
10
112.7654888060
20
36.0744168012
11
112.5988218214
21
36.0463319005
0
LINE
5
3E4
100
AcDbEntity
8
0
100
AcDbLine
62
7
6
CONTINUOUS
10
112.5988218214
20
36.0463319005
11
112.2654888060
21
36.0252682250
0
LINE
5
3E5
100
AcDbEntity
8
0
100
AcDbLine
62
7
6
CONTINUOUS
10
156.4817356320
20
31.6347631072
11
156.4822905340
21
31.6347836234
0
LINE
5
3E6
100
AcDbEntity
8
0
100
AcDbLine
62
7
6
CONTINUOUS
10
112.2654888060
20
36.0252682250
11
111.7654888060
21
36.0112257698
0
LINE
5
3E7
100
AcDbEntity
8
0
100
AcDbLine
62
7
6
CONTINUOUS
10
111.7654888060
20
36.0112257698
11
111.0988218214
21
36.0042045446
0
LINE
5
3E8
100
AcDbEntity
8
0
100
AcDbLine
62
7
6
CONTINUOUS
10
88.4095693616
20
35.8553903723
11
87.5814987971
21
35.8477210382
0
LINE
5
3E9
100
AcDbEntity
8
0
100
AcDbLine
62
7
6
CONTINUOUS
10
78.0236438322
20
35.9980247071
11
77.1955730985
21
35.9903553669
0
LINE
5
3EA
100
AcDbEntity
8
0
100
AcDbLine
62
7
6
CONTINUOUS
10
171.1061901776
20
31.8280616341
11
169.7499809593
21
31.8280616341
0
LINE
5
3EB
100
AcDbEntity
8
0
100
AcDbLine
62
7
6
CONTINUOUS
10
52.2876626835
20
31.8280616341
11
50.9314534652
21
31.8280616341
0
LINE
5
3EC
100
AcDbEntity
8
0
100
AcDbLine
62
7
6
CONTINUOUS
10
121.7654878523
20
35.6938852093
11
115.0988218214
21
35.6938852093
0
LINE
5
3ED
100
AcDbEntity
8
0
100
AcDbLine
62
7
6
CONTINUOUS
10
113.7654888060
20
35.6938852093
11
107.7654883291
21
35.6938852093
0
LINE
5
3EE
100
AcDbEntity
8
0
100
AcDbLine
62
7
6
CONTINUOUS
10
106.4321553137
20
35.6938852093
11
100.0988218214
21
35.6938852093
0
LINE
5
3EF
100
AcDbEntity
8
0
100
AcDbLine
62
7
6
CONTINUOUS
10
88.8351012630
20
35.6938852093
11
75.4865152856
21
35.6938852093
0
LINE
5
3F0
100
AcDbEntity
8
0
100
AcDbLine
62
7
6
CONTINUOUS
10
111.0988218214
20
36.0042045446
11
110.4321548368
21
36.0042045446
0
LINE
5
3F1
100
AcDbEntity
8
0
100
AcDbLine
62
7
6
CONTINUOUS
10
119.0988218214
20
36.2920748108
11
115.0988218214
21
36.2920748108
0
LINE
5
3F2
100
AcDbEntity
8
0
100
AcDbLine
62
7
6
CONTINUOUS
10
113.7654888060
20
36.2920748108
11
112.7654888060
21
36.2920748108
0
LINE
5
3F3
100
AcDbEntity
8
0
100
AcDbLine
62
7
6
CONTINUOUS
10
108.7654888060
20
36.2920748108
11
107.7654883291
21
36.2920748108
0
LINE
5
3F4
100
AcDbEntity
8
0
100
AcDbLine
62
7
6
CONTINUOUS
10
104.0988218214
20
36.2920748108
11
100.0988218214
21
36.2920748108
0
LINE
5
3F5
100
AcDbEntity
8
0
100
AcDbLine
62
7
6
CONTINUOUS
10
81.1921403234
20
35.8719217284
11
81.0935000590
21
35.8720666948
0
LINE
5
3F6
100
AcDbEntity
8
0
100
AcDbLine
62
7
6
CONTINUOUS
10
79.0644807045
20
35.9935329326
11
78.0236438322
21
35.9980247071
0
LINE
5
3F7
100
AcDbEntity
8
0
100
AcDbLine
62
7
6
CONTINUOUS
10
87.5814987971
20
35.8477210382
11
86.9357201632
21
35.8516322163
0
LINE
5
3F8
100
AcDbEntity
8
0
100
AcDbLine
62
7
6
CONTINUOUS
10
82.0886393530
20
35.8646799685
11
81.1921403234
21
35.8719217284
0
LINE
5
3F9
100
AcDbEntity
8
0
100
AcDbLine
62
7
6
CONTINUOUS
10
104.9321553137
20
36.2850535856
11
104.0988218214
21
36.2920748108
0
LINE
5
3FA
100
AcDbEntity
8
0
100
AcDbLine
62
7
6
CONTINUOUS
10
119.9321557905
20
36.2850535856
11
119.0988218214
21
36.2920748108
0
LINE
5
3FB
100
AcDbEntity
8
0
100
AcDbLine
62
7
6
CONTINUOUS
10
110.4321548368
20
36.0042045446
11
109.7654888060
21
36.0112257698
0
LINE
5
3FC
100
AcDbEntity
8
0
100
AcDbLine
62
7
6
CONTINUOUS
10
79.8166423045
20
35.9835411951
11
79.0644807045
21
35.9935329326
0
LINE
5
3FD
100
AcDbEntity
8
0
100
AcDbLine
62
7
6
CONTINUOUS
10
109.7654888060
20
36.0112257698
11
109.2654888060
21
36.0252682250
0
LINE
5
3FE
100
AcDbEntity
8
0
100
AcDbLine
62
7
6
CONTINUOUS
10
82.2604446711
20
35.8594661108
11
82.0886393530
21
35.8646799685
0
LINE
5
3FF
100
AcDbEntity
8
0
100
AcDbLine
62
7
6
CONTINUOUS
10
80.6372327050
20
35.9586383443
11
79.8166423045
21
35.9835411951
0
LINE
5
400
100
AcDbEntity
8
0
100
AcDbLine
62
7
6
CONTINUOUS
10
105.5988218214
20
36.2639899101
11
104.9321553137
21
36.2850535856
0
LINE
5
401
100
AcDbEntity
8
0
100
AcDbLine
62
7
6
CONTINUOUS
10
86.9357201632
20
35.8516322163
11
86.4722333479
21
35.8671239132
0
LINE
5
402
100
AcDbEntity
8
0
100
AcDbLine
62
7
6
CONTINUOUS
10
65.5553435658
20
31.6347849060
11
65.5559128383
21
31.6347638542
0
LINE
5
403
100
AcDbEntity
8
0
100
AcDbLine
62
7
6
CONTINUOUS
10
106.0988218214
20
36.2359050095
11
105.5988218214
21
36.2639899101
0
LINE
5
404
100
AcDbEntity
8
0
100
AcDbLine
62
7
6
CONTINUOUS
10
80.9563816031
20
35.9403966662
11
80.6372327050
21
35.9586383443
0
LINE
5
405
100
AcDbEntity
8
0
100
AcDbLine
62
7
6
CONTINUOUS
10
86.4722333479
20
35.8671239132
11
86.1559877850
21
35.8851996446
0
LINE
5
406
100
AcDbEntity
8
0
100
AcDbLine
62
7
6
CONTINUOUS
10
84.1318079460
20
36.0008962276
11
83.2807439197
21
36.0495407195
0
LINE
5
407
100
AcDbEntity
8
0
100
AcDbLine
62
7
6
CONTINUOUS
10
88.8351012630
20
35.8310681328
11
88.4095693616
21
35.8553903723
0
LINE
5
408
100
AcDbEntity
8
0
100
AcDbLine
62
7
6
CONTINUOUS
10
86.1450527751
20
36.0068237669
11
85.7195209110
21
36.0311460044
0
LINE
5
409
100
AcDbEntity
8
0
100
AcDbLine
62
7
6
CONTINUOUS
10
109.2654888060
20
36.0252682250
11
108.9321548368
21
36.0463319005
0
LINE
5
40A
100
AcDbEntity
8
0
100
AcDbLine
62
7
6
CONTINUOUS
10
106.4321553137
20
35.9620771887
11
106.2654883291
21
35.9800203561
0
LINE
5
40B
100
AcDbEntity
8
0
100
AcDbLine
62
7
6
CONTINUOUS
10
106.2654883291
20
36.2148413340
11
106.0988218214
21
36.2359050095
0
LINE
5
40C
100
AcDbEntity
8
0
100
AcDbLine
62
7
6
CONTINUOUS
10
108.9321548368
20
36.0463319005
11
108.7654888060
21
36.0744168012
0
LINE
5
40D
100
AcDbEntity
8
0
100
AcDbLine
62
7
6
CONTINUOUS
10
81.0932381950
20
35.9105744658
11
80.9563816031
21
35.9403966662
0
LINE
5
40E
100
AcDbEntity
8
0
100
AcDbLine
62
7
6
CONTINUOUS
10
76.0029180621
20
35.9595249879
11
75.6003790894
21
35.9275334082
0
LINE
5
40F
100
AcDbEntity
8
0
100
AcDbLine
62
7
6
CONTINUOUS
10
76.6182229670
20
35.9793554488
11
76.0029180621
21
35.9595249879
0
LINE
5
410
100
AcDbEntity
8
0
100
AcDbLine
62
7
6
CONTINUOUS
10
85.7195209110
20
36.0311460044
11
84.1318079460
21
36.0008962276
0
LINE
5
411
100
AcDbEntity
8
0
100
AcDbLine
62
7
6
CONTINUOUS
10
82.5602916372
20
35.9709550364
11
82.2554197088
21
35.9651464878
0
LINE
5
412
100
AcDbEntity
8
0
100
AcDbLine
62
7
6
CONTINUOUS
10
83.2807439197
20
36.0495407195
11
82.5590563585
21
36.0357908238
0
LINE
5
413
100
AcDbEntity
8
0
100
AcDbLine
62
7
6
CONTINUOUS
10
77.1955730985
20
35.9903553669
11
76.6182229670
21
35.9793554488
0
LINE
5
414
100
AcDbEntity
8
0
100
AcDbLine
62
7
6
CONTINUOUS
10
120.5988218214
20
36.2710111353
11
119.9321557905
21
36.2850535856
0
LINE
5
415
100
AcDbEntity
8
0
100
AcDbLine
62
7
6
CONTINUOUS
10
121.2654878523
20
36.2429262346
11
120.5988218214
21
36.2710111353
0
LINE
5
416
100
AcDbEntity
8
0
100
AcDbLine
62
7
6
CONTINUOUS
10
121.5988218214
20
36.2148413340
11
121.2654878523
21
36.2429262346
0
LINE
5
417
100
AcDbEntity
8
0
100
AcDbLine
62
7
6
CONTINUOUS
10
121.7654878523
20
36.1797351885
11
121.5988218214
21
36.2148413340
0
LINE
5
418
100
AcDbEntity
8
0
100
AcDbLine
62
7
6
CONTINUOUS
10
100.0988218214
20
35.6938852093
11
100.0988218214
21
36.2920748108
0
LINE
5
419
100
AcDbEntity
8
0
100
AcDbLine
62
7
6
CONTINUOUS
10
104.0988218214
20
35.6938852093
11
104.0988218214
21
36.2920748108
0
LINE
5
41A
100
AcDbEntity
8
0
100
AcDbLine
62
7
6
CONTINUOUS
10
104.9321553137
20
35.6938852093
11
104.9321553137
21
36.2850535856
0
LINE
5
41B
100
AcDbEntity
8
0
100
AcDbLine
62
7
6
CONTINUOUS
10
75.6003790894
20
35.9275334082
11
75.4865152856
21
35.9010417896
0
LINE
5
41C
100
AcDbEntity
8
0
100
AcDbLine
62
7
6
CONTINUOUS
10
105.5988218214
20
35.6938852093
11
105.5988218214
21
36.2639899101
0
LINE
5
41D
100
AcDbEntity
8
0
100
AcDbLine
62
7
6
CONTINUOUS
10
106.0988218214
20
35.6938852093
11
106.0988218214
21
36.2359050095
0
LINE
5
41E
100
AcDbEntity
8
0
100
AcDbLine
62
7
6
CONTINUOUS
10
106.2654883291
20
35.6938852093
11
106.2654883291
21
36.2148413340
0
LINE
5
41F
100
AcDbEntity
8
0
100
AcDbLine
62
7
6
CONTINUOUS
10
106.4321553137
20
35.6938852093
11
106.4321553137
21
35.9620771887
0
LINE
5
420
100
AcDbEntity
8
0
100
AcDbLine
62
7
6
CONTINUOUS
10
107.7654883291
20
35.6938852093
11
107.7654883291
21
36.2920748108
0
LINE
5
421
100
AcDbEntity
8
0
100
AcDbLine
62
7
6
CONTINUOUS
10
108.7654888060
20
35.6938852093
11
108.7654888060
21
36.2920748108
0
LINE
5
422
100
AcDbEntity
8
0
100
AcDbLine
62
7
6
CONTINUOUS
10
108.9321548368
20
35.6938852093
11
108.9321548368
21
36.0463319005
0
LINE
5
423
100
AcDbEntity
8
0
100
AcDbLine
62
7
6
CONTINUOUS
10
109.2654888060
20
35.6938852093
11
109.2654888060
21
36.0252682250
0
LINE
5
424
100
AcDbEntity
8
0
100
AcDbLine
62
7
6
CONTINUOUS
10
109.7654888060
20
35.6938852093
11
109.7654888060
21
36.0112257698
0
LINE
5
425
100
AcDbEntity
8
0
100
AcDbLine
62
7
6
CONTINUOUS
10
110.4321548368
20
35.6938852093
11
110.4321548368
21
36.0042045446
0
LINE
5
426
100
AcDbEntity
8
DEFAULT_1
100
AcDbLine
62
2
6
CENTER
10
111.0188218214
20
55.6938852093
11
111.0188218214
21
2.6938852093
0
LINE
5
427
100
AcDbEntity
8
DEFAULT_1
100
AcDbLine
62
2
6
CENTER
10
111.0188218214
20
55.6938852093
11
111.0188218214
21
108.6938852093
0
LINE
5
428
100
AcDbEntity
8
0
100
AcDbLine
62
7
6
CONTINUOUS
10
111.0988218214
20
35.6938852093
11
111.0988218214
21
36.0042045446
0
LINE
5
429
100
AcDbEntity
8
0
100
AcDbLine
62
7
6
CONTINUOUS
10
111.7654888060
20
35.6938852093
11
111.7654888060
21
36.0112257698
0
LINE
5
42A
100
AcDbEntity
8
DEFAULT_1
100
AcDbLine
62
2
6
CENTER
10
111.0188218214
20
55.6938852093
11
58.0188218214
21
55.6938852093
0
LINE
5
42B
100
AcDbEntity
8
DEFAULT_1
100
AcDbLine
62
2
6
CENTER
10
111.0188218214
20
55.6938852093
11
164.0188218214
21
55.6938852093
0
LINE
5
42C
100
AcDbEntity
8
0
100
AcDbLine
62
7
6
CONTINUOUS
10
112.2654888060
20
35.6938852093
11
112.2654888060
21
36.0252682250
0
LINE
5
42D
100
AcDbEntity
8
0
100
AcDbLine
62
7
6
CONTINUOUS
10
112.5988218214
20
35.6938852093
11
112.5988218214
21
36.0463319005
0
LINE
5
42E
100
AcDbEntity
8
0
100
AcDbLine
62
7
6
CONTINUOUS
10
112.7654888060
20
35.6938852093
11
112.7654888060
21
36.2920748108
0
LINE
5
42F
100
AcDbEntity
8
0
100
AcDbLine
62
7
6
CONTINUOUS
10
113.7654888060
20
35.6938852093
11
113.7654888060
21
36.2920748108
0
LINE
5
430
100
AcDbEntity
8
0
100
AcDbLine
62
7
6
CONTINUOUS
10
115.0988218214
20
35.6938852093
11
115.0988218214
21
36.2920748108
0
LINE
5
431
100
AcDbEntity
8
0
100
AcDbLine
62
7
6
CONTINUOUS
10
119.0988218214
20
35.6938852093
11
119.0988218214
21
36.2920748108
0
LINE
5
432
100
AcDbEntity
8
0
100
AcDbLine
62
7
6
CONTINUOUS
10
119.9321557905
20
35.6938852093
11
119.9321557905
21
36.2850535856
0
LINE
5
433
100
AcDbEntity
8
0
100
AcDbLine
62
7
6
CONTINUOUS
10
120.5988218214
20
35.6938852093
11
120.5988218214
21
36.2710111353
0
LINE
5
434
100
AcDbEntity
8
0
100
AcDbLine
62
7
6
CONTINUOUS
10
121.2654878523
20
35.6938852093
11
121.2654878523
21
36.2429262346
0
LINE
5
435
100
AcDbEntity
8
0
100
AcDbLine
62
7
6
CONTINUOUS
10
121.5988218214
20
35.6938852093
11
121.5988218214
21
36.2148413340
0
LINE
5
436
100
AcDbEntity
8
0
100
AcDbLine
62
7
6
CONTINUOUS
10
121.7654878523
20
35.6938852093
11
121.7654878523
21
36.1797351885
0
LINE
5
437
100
AcDbEntity
8
0
100
AcDbLine
62
7
6
CONTINUOUS
10
50.9314534652
20
79.5597087845
11
50.6072489304
21
79.5465476316
0
LINE
5
438
100
AcDbEntity
8
0
100
AcDbLine
62
7
6
CONTINUOUS
10
65.5559080108
20
79.7530073114
11
65.5553531088
21
79.7529867952
0
LINE
5
439
100
AcDbEntity
8
0
100
AcDbLine
62
7
6
CONTINUOUS
10
50.9314534652
20
79.5597087845
11
52.2876626836
21
79.5597087845
0
LINE
5
43A
100
AcDbEntity
8
0
100
AcDbLine
62
7
6
CONTINUOUS
10
169.7499809593
20
79.5597087845
11
171.1061901776
21
79.5597087845
0
LINE
5
43B
100
AcDbEntity
8
0
100
AcDbLine
62
7
6
CONTINUOUS
10
156.4823000771
20
79.7529855127
11
156.4817308045
21
79.7530065645
0
LINE
5
43C
100
AcDbEntity
8
0
100
AcDbLine
62
7
6
CONTINUOUS
10
171.4147826702
20
79.5477855600
11
171.1061901776
21
79.5597078470
0
LINE
5
43D
100
AcDbEntity
8
0
100
AcDbLine
62
7
6
CONTINUOUS
10
27.2256388447
20
77.6837767738
11
50.6137861045
21
79.5470747632
0
LINE
5
43E
100
AcDbEntity
8
0
100
AcDbLine
62
7
6
CONTINUOUS
10
171.4238575383
20
79.5470747632
11
194.8120047980
21
77.6837767738
0
LINE
5
43F
100
AcDbEntity
8
0
100
AcDbLine
62
7
6
CONTINUOUS
10
154.0171185380
20
81.2114571838
11
154.0158995941
21
81.2135110492
0
LINE
5
440
100
AcDbEntity
8
0
100
AcDbLine
62
7
6
CONTINUOUS
10
198.9510602425
20
37.7671306575
11
198.9510602425
21
73.6206397610
0
ARC
5
441
100
AcDbEntity
8
0
100
AcDbCircle
62
7
6
CONTINUOUS
10
50.9815050456
20
143.1435645441
40
4.0000000000
100
AcDbArc
50
202.5000000000
51
262.9539116534
0
ARC
5
442
100
AcDbEntity
8
0
100
AcDbCircle
62
7
6
CONTINUOUS
10
171.0561385972
20
143.1435645441
40
4.0000000000
100
AcDbArc
50
277.0460883466
51
337.5000000000
0
ARC
5
443
100
AcDbEntity
8
0
100
AcDbCircle
62
7
6
CONTINUOUS
10
49.0188218214
20
127.2643997483
40
12.0000000000
100
AcDbArc
50
0.0000000000
51
82.9544863088
0
ARC
5
444
100
AcDbEntity
8
0
100
AcDbCircle
62
7
6
CONTINUOUS
10
173.0188218214
20
127.2643997483
40
12.0000000000
100
AcDbArc
50
97.0455136912
51
180.0000000000
0
ARC
5
445
100
AcDbEntity
8
0
100
AcDbCircle
62
7
6
CONTINUOUS
10
111.0188218214
20
202.0244826562
40
45.0000000000
100
AcDbArc
50
291.4486714843
51
248.5513339900
0
ARC
5
446
100
AcDbEntity
8
0
100
AcDbCircle
62
7
6
CONTINUOUS
10
33.0865834004
20
202.0244826562
40
10.0000000000
100
AcDbArc
50
157.5000000000
51
202.5000000000
0
ARC
5
447
100
AcDbEntity
8
0
100
AcDbCircle
62
7
6
CONTINUOUS
10
55.9124075608
20
257.1308969168
40
10.0000000000
100
AcDbArc
50
112.5000000000
51
157.5000000000
0
ARC
5
448
100
AcDbEntity
8
0
100
AcDbCircle
62
7
6
CONTINUOUS
10
111.0188218214
20
279.9567210773
40
10.0000000000
100
AcDbArc
50
67.5000000000
51
112.5000000000
0
ARC
5
449
100
AcDbEntity
8
0
100
AcDbCircle
62
7
6
CONTINUOUS
10
166.1252360820
20
257.1308969168
40
10.0000000000
100
AcDbArc
50
22.5000000000
51
67.5000000000
0
ARC
5
44A
100
AcDbEntity
8
0
100
AcDbCircle
62
7
6
CONTINUOUS
10
188.9510602425
20
202.0244826562
40
10.0000000000
100
AcDbArc
50
337.5000000000
51
22.5000000000
0
ARC
5
44B
100
AcDbEntity
8
0
100
AcDbCircle
62
7
6
CONTINUOUS
10
171.1061901776
20
143.2643997483
40
4.0000000000
100
AcDbArc
50
270.0000000000
51
337.5000000000
0
ARC
5
44C
100
AcDbEntity
8
0
100
AcDbCircle
62
7
6
CONTINUOUS
10
50.9314534652
20
143.2643997483
40
4.0000000000
100
AcDbArc
50
202.5000000000
51
270.0000000000
0
ARC
5
44D
100
AcDbEntity
8
0
100
AcDbCircle
62
7
6
CONTINUOUS
10
268.9831178720
20
154.4645836764
40
2.9999980143
100
AcDbArc
50
279.0000000221
51
322.9400702487
0
ARC
5
44E
100
AcDbEntity
8
0
100
AcDbCircle
62
7
6
CONTINUOUS
10
321.7711412762
20
154.4645836763
40
2.9999980143
100
AcDbArc
50
217.0599297146
51
260.9999999773
0
ARC
5
44F
100
AcDbEntity
8
0
100
AcDbCircle
62
7
6
CONTINUOUS
10
280.2201186697
20
285.9567210512
40
4.0000000000
100
AcDbArc
50
90.0000000180
51
178.1099387840
0
ARC
5
450
100
AcDbEntity
8
0
100
AcDbCircle
62
7
6
CONTINUOUS
10
310.5341404775
20
285.9567210512
40
4.0000000000
100
AcDbArc
50
1.8900612160
51
89.9999999820
0
ARC
5
451
100
AcDbEntity
8
0
100
AcDbCircle
62
7
6
CONTINUOUS
10
255.3771295736
20
139.1475992503
40
10.0000000000
100
AcDbArc
50
99.0000000000
51
180.0000000000
0
ARC
5
452
100
AcDbEntity
8
0
100
AcDbCircle
62
7
6
CONTINUOUS
10
335.3771295736
20
139.1475992503
40
10.0000000000
100
AcDbArc
50
0.0000000000
51
81.0000000000
0
ARC
5
453
100
AcDbEntity
8
0
100
AcDbCircle
62
7
6
CONTINUOUS
10
275.5113059949
20
143.2643996428
40
3.9999999736
100
AcDbArc
50
178.1099372710
51
270.0000000499
0
ARC
5
454
100
AcDbEntity
8
0
100
AcDbCircle
62
7
6
CONTINUOUS
10
315.2429531488
20
143.2643997483
40
4.0000000000
100
AcDbArc
50
270.0000000000
51
1.8900612160
0
ARC
5
455
100
AcDbEntity
8
DEFAULT_2
100
AcDbCircle
62
8
6
HIDDEN
10
111.0188218214
20
55.6938852093
40
24.0000000000
100
AcDbArc
50
133.2849396365
51
226.7150606309
0
ARC
5
456
100
AcDbEntity
8
DEFAULT_2
100
AcDbCircle
62
8
6
HIDDEN
10
111.0188218214
20
55.6938852093
40
24.0000000000
100
AcDbArc
50
313.2849522821
51
46.7150470612
0
ARC
5
457
100
AcDbEntity
8
0
100
AcDbCircle
62
7
6
CONTINUOUS
10
111.0188218214
20
55.6938852093
40
50.0000000000
100
AcDbArc
50
210.6330276603
51
329.3669723397
0
ARC
5
458
100
AcDbEntity
8
0
100
AcDbCircle
62
7
6
CONTINUOUS
10
111.0188218214
20
55.6938852093
40
50.0000000000
100
AcDbArc
50
30.6330276603
51
149.3669723397
0
ARC
5
459
100
AcDbEntity
8
0
100
AcDbCircle
62
7
6
CONTINUOUS
10
111.0188218214
20
55.6938852093
40
24.0000000000
100
AcDbArc
50
235.9766812383
51
304.0235156961
0
ARC
5
45A
100
AcDbEntity
8
0
100
AcDbCircle
62
7
6
CONTINUOUS
10
111.0188218214
20
55.6938852093
40
24.0000000000
100
AcDbArc
50
55.9766722385
51
124.0235142521
0
SPLINE
5
45B
100
AcDbEntity
8
0
100
AcDbSpline
62
7
6
CONTINUOUS
70
0
71
3
72
22
73
18
74
16
42
0.0000001000
43
0.0000001000
44
0.0000000001
40
0.0000000000
40
0.0000000000
40
0.0000000000
40
0.0000000000
40
0.1012332398
40
0.1967829175
40
0.2863144236
40
0.3703998433
40
0.4499036688
40
0.5248437643
40
0.5948949170
40
0.6599608857
40
0.7202365869
40
0.7760479210
40
0.8279026041
40
0.8761592491
40
0.9207937486
40
0.9618743086
40
1.0000000000
40
1.0000000000
40
1.0000000000
40
1.0000000000
10
127.4738744462
20
160.1409388234
30
0.0000000000
10
127.0617746035
20
159.9790346895
30
0.0000000000
10
126.2698774914
20
159.6410020615
30
0.0000000000
10
125.1338974436
20
159.1139157015
30
0.0000000000
10
124.0750247985
20
158.5993029136
30
0.0000000000
10
123.0848611718
20
158.1041118387
30
0.0000000000
10
122.1556450025
20
157.6298144340
30
0.0000000000
10
121.2842770344
20
157.1772583687
30
0.0000000000
10
120.4720361814
20
156.7479112136
30
0.0000000000
10
119.7199331764
20
156.3420986633
30
0.0000000000
10
119.0267839621
20
155.9582638456
30
0.0000000000
10
118.3894400507
20
155.5930680251
30
0.0000000000
10
117.8046181004
20
155.2421458645
30
0.0000000000
10
117.2712429448
20
154.9009527598
30
0.0000000000
10
116.7910365054
20
154.5646007413
30
0.0000000000
10
116.3682487154
20
154.2255794972
30
0.0000000000
10
116.1207712350
20
153.9808803247
30
0.0000000000
10
116.0146556174
20
153.8522526865
30
0.0000000000
11
127.4738744462
21
160.1409388234
31
0.0000000000
11
126.2499543166
21
159.6248258736
31
0.0000000000
11
125.1116822895
21
159.0993373270
31
0.0000000000
11
124.0546194441
21
158.5868375616
31
0.0000000000
11
123.0676397249
21
158.0937621431
31
0.0000000000
11
122.1384455551
21
157.6196159442
31
0.0000000000
11
121.2658700766
21
157.1663156083
31
0.0000000000
11
120.4533979808
21
156.7365249564
31
0.0000000000
11
119.7022668560
21
156.3307332458
31
0.0000000000
11
119.0106811126
21
155.9470614483
31
0.0000000000
11
118.3757064450
21
155.5822631137
31
0.0000000000
11
117.7928904611
21
155.2311856486
31
0.0000000000
11
117.2604156630
21
154.8885682695
31
0.0000000000
11
116.7822588949
21
154.5504035226
31
0.0000000000
11
116.3643290297
21
154.2099939997
31
0.0000000000
11
116.0146556174
21
153.8522526865
31
0.0000000000
0
SPLINE
5
45C
100
AcDbEntity
8
0
100
AcDbSpline
62
7
6
CONTINUOUS
70
0
71
3
72
22
73
18
74
16
42
0.0000001000
43
0.0000001000
44
0.0000000001
40
0.0000000000
40
0.0000000000
40
0.0000000000
40
0.0000000000
40
0.0383427500
40
0.0799911884
40
0.1247985646
40
0.1733244545
40
0.2254831731
40
0.2814863479
40
0.3418493335
40
0.4070001184
40
0.4771551895
40
0.5521314434
40
0.6315064175
40
0.7152618512
40
0.8043205723
40
0.8993222533
40
1.0000000000
40
1.0000000000
40
1.0000000000
40
1.0000000000
10
106.0230025545
20
153.8522404950
30
0.0000000000
10
105.9162835903
20
153.9816012122
30
0.0000000000
10
105.6662140475
20
154.2286015611
30
0.0000000000
10
105.2397682403
20
154.5697693814
30
0.0000000000
10
104.7556067996
20
154.9081696560
30
0.0000000000
10
104.2192116956
20
155.2506985096
30
0.0000000000
10
103.6312962024
20
155.6029682745
30
0.0000000000
10
102.9915583816
20
155.9691162366
30
0.0000000000
10
102.2968768629
20
156.3534697495
30
0.0000000000
10
101.5436016058
20
156.7596525600
30
0.0000000000
10
100.7303990947
20
157.1892860484
30
0.0000000000
10
99.8589025084
20
157.6417020275
30
0.0000000000
10
98.9312455023
20
158.1149888852
30
0.0000000000
10
97.9446281183
20
158.6081627101
30
0.0000000000
10
96.8909576508
20
159.1199645882
30
0.0000000000
10
95.7611166672
20
159.6439039286
30
0.0000000000
10
94.9736119112
20
159.9799215063
30
0.0000000000
10
94.5637731341
20
160.1409372766
30
0.0000000000
11
106.0230025545
21
153.8522404950
31
0.0000000000
11
105.6712026001
21
154.2118861324
31
0.0000000000
11
105.2471559240
21
154.5565844901
31
0.0000000000
11
104.7667956502
21
154.8955619518
31
0.0000000000
11
104.2310760393
21
155.2396655102
31
0.0000000000
11
103.6446155458
21
155.5924244654
31
0.0000000000
11
103.0072735251
21
155.9581557422
31
0.0000000000
11
102.3145424744
21
156.3421246233
31
0.0000000000
11
101.5623193482
21
156.7482372593
31
0.0000000000
11
100.7485471546
21
157.1784872349
31
0.0000000000
11
99.8754627620
21
157.6318381831
31
0.0000000000
11
98.9476844463
21
158.1050405730
31
0.0000000000
11
97.9644787048
21
158.5959833704
31
0.0000000000
11
96.9128873308
21
159.1055502240
31
0.0000000000
11
95.7810350222
21
159.6277914792
31
0.0000000000
11
94.5637731341
21
160.1409372766
31
0.0000000000
0
SPLINE
5
45D
100
AcDbEntity
8
0
100
AcDbSpline
62
7
6
CONTINUOUS
70
0
71
3
72
25
73
21
74
19
42
0.0000001000
43
0.0000001000
44
0.0000000001
40
0.0000000000
40
0.0000000000
40
0.0000000000
40
0.0000000000
40
0.0373592659
40
0.0771211206
40
0.1211247251
40
0.1707906882
40
0.2267089231
40
0.2887935003
40
0.3566360400
40
0.4284516855
40
0.5014132636
40
0.5732852619
40
0.6427849679
40
0.7087629659
40
0.7701995704
40
0.8263993644
40
0.8774522279
40
0.9234853017
40
0.9639051573
40
1.0000000000
40
1.0000000000
40
1.0000000000
40
1.0000000000
10
116.0146556174
20
153.8522526865
30
0.0000000000
10
115.9314468028
20
153.7513849085
30
0.0000000000
10
115.7259312809
20
153.5710508954
30
0.0000000000
10
115.3590636779
20
153.3562787663
30
0.0000000000
10
114.9276318810
20
153.1746246947
30
0.0000000000
10
114.4269296960
20
153.0195528316
30
0.0000000000
10
113.8541236680
20
152.8897255280
30
0.0000000000
10
113.2115788562
20
152.7862524287
30
0.0000000000
10
112.5091841529
20
152.7111614999
30
0.0000000000
10
111.7661330383
20
152.6661359052
30
0.0000000000
10
111.0077845167
20
152.6516324187
30
0.0000000000
10
110.2575666154
20
152.6669288502
30
0.0000000000
10
109.5329645417
20
152.7111270761
30
0.0000000000
10
108.8473241031
20
152.7837142153
30
0.0000000000
10
108.2122532912
20
152.8843480326
30
0.0000000000
10
107.6355033267
20
153.0128674013
30
0.0000000000
10
107.1218117120
20
153.1698251800
30
0.0000000000
10
106.6768502518
20
153.3563657517
30
0.0000000000
10
106.3062459481
20
153.5749746845
30
0.0000000000
10
106.1033944946
20
153.7547860273
30
0.0000000000
10
106.0230025545
20
153.8522404950
30
0.0000000000
11
116.0146556174
21
153.8522526865
31
0.0000000000
11
115.7257462251
21
153.5868972604
31
0.0000000000
11
115.3680511503
21
153.3715713629
31
0.0000000000
11
114.9435867821
21
153.1890464669
31
0.0000000000
11
114.4462434406
21
153.0321635329
31
0.0000000000
11
113.8741000733
21
152.9002645257
31
0.0000000000
11
113.2307680490
21
152.7949335148
31
0.0000000000
11
112.5225851233
21
152.7179280156
31
0.0000000000
11
111.7699379132
21
152.6715376296
31
0.0000000000
11
111.0039747227
21
152.6566431694
31
0.0000000000
11
110.2494694855
21
152.6722790373
31
0.0000000000
11
109.5211092201
21
152.7174205785
31
0.0000000000
11
108.8323040383
21
152.7915191026
31
0.0000000000
11
108.1954148193
21
152.8940780876
31
0.0000000000
11
107.6199026793
21
153.0245066767
31
0.0000000000
11
107.1080835720
21
153.1838955240
31
0.0000000000
11
106.6638772307
21
153.3744533377
31
0.0000000000
11
106.3011312069
21
153.5947786756
31
0.0000000000
11
106.0230025545
21
153.8522404950
31
0.0000000000
0
SPLINE
5
45E
100
AcDbEntity
8
0
100
AcDbSpline
62
7
6
CONTINUOUS
70
0
71
3
72
8
73
4
74
2
42
0.0000001000
43
0.0000001000
44
0.0000000001
40
0.0000000000
40
0.0000000000
40
0.0000000000
40
0.0000000000
40
1.0000000000
40
1.0000000000
40
1.0000000000
40
1.0000000000
10
271.3771332347
20
152.6566420128
30
0.0000000000
10
271.3771331088
20
152.6566428094
30
0.0000000000
10
271.3824132938
20
152.6633169112
30
0.0000000000
10
271.3875842845
20
152.6698883792
30
0.0000000000
11
271.3771332347
21
152.6566420128
31
0.0000000000
11
271.3875842845
21
152.6698883792
31
0.0000000000
0
SPLINE
5
45F
100
AcDbEntity
8
0
100
AcDbSpline
62
7
6
CONTINUOUS
70
0
71
3
72
14
73
10
74
8
42
0.0000001000
43
0.0000001000
44
0.0000000001
40
0.0000000000
40
0.0000000000
40
0.0000000000
40
0.0000000000
40
0.1502278516
40
0.3881119071
40
0.5949665353
40
0.7658095239
40
0.8945835898
40
0.9739972835
40
1.0000000000
40
1.0000000000
40
1.0000000000
40
1.0000000000
10
271.7434636077
20
153.2906029855
30
0.0000000000
10
271.7297382850
20
153.2564441214
30
0.0000000000
10
271.6924818082
20
153.1689431514
30
0.0000000000
10
271.6284113481
20
153.0382972107
30
0.0000000000
10
271.5527069060
20
152.9064149091
30
0.0000000000
10
271.4873039708
20
152.8049045282
30
0.0000000000
10
271.4282687362
20
152.7229480327
30
0.0000000000
10
271.4026881460
20
152.6889306950
30
0.0000000000
10
271.3771333498
20
152.6566411221
30
0.0000000000
10
271.3771332347
20
152.6566420128
30
0.0000000000
11
271.7434636077
21
153.2906029855
31
0.0000000000
11
271.7002163332
21
153.1890466954
31
0.0000000000
11
271.6231239967
21
153.0321637322
31
0.0000000000
11
271.5475809932
21
152.9002646905
31
0.0000000000
11
271.4792783501
21
152.7949336402
31
0.0000000000
11
271.4242864191
21
152.7179280986
31
0.0000000000
11
271.3888861166
21
152.6715376706
31
0.0000000000
11
271.3771332347
21
152.6566420128
31
0.0000000000
0
SPLINE
5
460
100
AcDbEntity
8
0
100
AcDbSpline
62
7
6
CONTINUOUS
70
0
71
3
72
9
73
5
74
3
42
0.0000001000
43
0.0000001000
44
0.0000000001
40
0.0000000000
40
0.0000000000
40
0.0000000000
40
0.0000000000
40
0.6938489776
40
1.0000000000
40
1.0000000000
40
1.0000000000
40
1.0000000000
10
271.8589686575
20
153.8647962360
30
0.0000000000
10
271.8545366194
20
153.7288661777
30
0.0000000000
10
271.8271223755
20
153.5326467755
30
0.0000000000
10
271.7658165214
20
153.3463585097
30
0.0000000000
10
271.7437227068
20
153.2906863167
30
0.0000000000
11
271.8589686575
21
153.8647962360
31
0.0000000000
11
271.8001776132
21
153.4613540257
31
0.0000000000
11
271.7437227068
21
153.2906863167
31
0.0000000000
0
SPLINE
5
461
100
AcDbEntity
8
0
100
AcDbSpline
62
7
6
CONTINUOUS
70
0
71
3
72
14
73
10
74
8
42
0.0000001000
43
0.0000001000
44
0.0000000001
40
0.0000000000
40
0.0000000000
40
0.0000000000
40
0.0000000000
40
0.1494392660
40
0.3875441275
40
0.5945907489
40
0.7655922930
40
0.8944858549
40
0.9739732197
40
1.0000000000
40
1.0000000000
40
1.0000000000
40
1.0000000000
10
319.0110497250
20
153.2899703136
30
0.0000000000
10
319.0246988750
20
153.2560258290
30
0.0000000000
10
319.0618771726
20
153.1687393339
30
0.0000000000
10
319.1258477993
20
153.0382970115
30
0.0000000000
10
319.2015522499
20
152.9064147463
30
0.0000000000
10
319.2669551908
20
152.8049043970
30
0.0000000000
10
319.3259904196
20
152.7229479609
30
0.0000000000
10
319.3515710110
20
152.6889306285
30
0.0000000000
10
319.3771257739
20
152.6566411429
30
0.0000000000
10
319.3771259125
20
152.6566420145
30
0.0000000000
11
319.0110497250
21
153.2899703136
31
0.0000000000
11
319.0540428015
21
153.1890464669
31
0.0000000000
11
319.1311351525
21
153.0321635329
31
0.0000000000
11
319.2066781657
21
152.9002645257
31
0.0000000000
11
319.2749808135
21
152.7949335148
31
0.0000000000
11
319.3299727437
21
152.7179280156
31
0.0000000000
11
319.3653730403
21
152.6715376296
31
0.0000000000
11
319.3771259125
21
152.6566420145
31
0.0000000000
0
SPLINE
5
462
100
AcDbEntity
8
0
100
AcDbSpline
62
7
6
CONTINUOUS
70
0
71
3
72
8
73
4
74
2
42
0.0000001000
43
0.0000001000
44
0.0000000001
40
0.0000000000
40
0.0000000000
40
0.0000000000
40
0.0000000000
40
1.0000000000
40
1.0000000000
40
1.0000000000
40
1.0000000000
10
319.3771259125
20
152.6566420145
30
0.0000000000
10
319.3771260199
20
152.6566428437
30
0.0000000000
10
319.3718540168
20
152.6633066137
30
0.0000000000
10
319.3666868702
20
152.6698731485
30
0.0000000000
11
319.3771259125
21
152.6566420145
31
0.0000000000
11
319.3666868702
21
152.6698731485
31
0.0000000000
0
SPLINE
5
463
100
AcDbEntity
8
0
100
AcDbSpline
62
7
6
CONTINUOUS
70
0
71
3
72
9
73
5
74
3
42
0.0000001000
43
0.0000001000
44
0.0000000001
40
0.0000000000
40
0.0000000000
40
0.0000000000
40
0.0000000000
40
0.3047989854
40
1.0000000000
40
1.0000000000
40
1.0000000000
40
1.0000000000
10
319.0108567419
20
153.2898785717
30
0.0000000000
10
318.9887908262
20
153.3453740423
30
0.0000000000
10
318.9272551803
20
153.5318936406
30
0.0000000000
10
318.8997438216
20
153.7284092358
30
0.0000000000
10
318.8952943090
20
153.8647932090
30
0.0000000000
11
319.0108567419
21
153.2898785717
31
0.0000000000
11
318.9544397600
21
153.4600046633
31
0.0000000000
11
318.8952943090
21
153.8647932090
31
0.0000000000
0
SPLINE
5
464
100
AcDbEntity
8
0
100
AcDbSpline
62
7
6
CONTINUOUS
70
0
71
3
72
8
73
4
74
2
42
0.0000001000
43
0.0000001000
44
0.0000000001
40
0.0000000000
40
0.0000000000
40
0.0000000000
40
0.0000000000
40
1.0000000000
40
1.0000000000
40
1.0000000000
40
1.0000000000
10
156.4815702712
20
79.7531336763
30
0.0000000000
10
156.3683891114
20
79.7572824115
30
0.0000000000
10
156.2553858477
20
79.7678006122
30
0.0000000000
10
156.1434150125
20
79.7847079173
30
0.0000000000
11
156.4815702712
21
79.7531336763
31
0.0000000000
11
156.1434150125
21
79.7847079173
31
0.0000000000
0
SPLINE
5
465
100
AcDbEntity
8
0
100
AcDbSpline
62
7
6
CONTINUOUS
70
0
71
3
72
10
73
6
74
4
42
0.0000001000
43
0.0000001000
44
0.0000000001
40
0.0000000000
40
0.0000000000
40
0.0000000000
40
0.0000000000
40
0.3403510164
40
0.6806851539
40
1.0000000000
40
1.0000000000
40
1.0000000000
40
1.0000000000
10
156.1434150125
20
79.7847079173
30
0.0000000000
10
155.8516816011
20
79.8287589042
30
0.0000000000
10
155.2822458148
20
80.0035991530
30
0.0000000000
10
154.5559703550
20
80.4917955795
30
0.0000000000
10
154.1868785132
20
80.9368653783
30
0.0000000000
10
154.0416227316
20
81.1712616329
30
0.0000000000
11
156.1434150125
21
79.7847079173
31
0.0000000000
11
155.3010003411
21
80.0429723936
31
0.0000000000
11
154.5699836973
21
80.5348063928
31
0.0000000000
11
154.0416227316
21
81.1712616329
31
0.0000000000
0
SPLINE
5
466
100
AcDbEntity
8
0
100
AcDbSpline
62
7
6
CONTINUOUS
70
0
71
3
72
8
73
4
74
2
42
0.0000001000
43
0.0000001000
44
0.0000000001
40
0.0000000000
40
0.0000000000
40
0.0000000000
40
0.0000000000
40
1.0000000000
40
1.0000000000
40
1.0000000000
40
1.0000000000
10
68.0242114994
20
81.2176952376
30
0.0000000000
10
68.0149603443
20
81.2021373280
30
0.0000000000
10
68.0055628613
20
81.1866583979
30
0.0000000000
10
67.9960212147
20
81.1712612467
30
0.0000000000
11
68.0242114994
21
81.2176952376
31
0.0000000000
11
67.9960212147
21
81.1712612467
31
0.0000000000
0
SPLINE
5
467
100
AcDbEntity
8
0
100
AcDbSpline
62
7
6
CONTINUOUS
70
0
71
3
72
10
73
6
74
4
42
0.0000001000
43
0.0000001000
44
0.0000000001
40
0.0000000000
40
0.0000000000
40
0.0000000000
40
0.0000000000
40
0.3193354969
40
0.6596594923
40
1.0000000000
40
1.0000000000
40
1.0000000000
40
1.0000000000
10
67.9960212147
20
81.1712612467
30
0.0000000000
10
67.8507549368
20
80.9368481578
30
0.0000000000
10
67.4816489280
20
80.4917709359
30
0.0000000000
10
66.7553593891
20
80.0035833670
30
0.0000000000
10
66.1859345987
20
79.8287532951
30
0.0000000000
10
65.8942074993
20
79.7847055053
30
0.0000000000
11
67.9960212147
21
81.1712612467
31
0.0000000000
11
67.4676154624
21
80.5347657007
31
0.0000000000
11
66.7366059717
21
80.0429549875
31
0.0000000000
11
65.8942074993
21
79.7847055053
31
0.0000000000
0
SPLINE
5
468
100
AcDbEntity
8
0
100
AcDbSpline
62
7
6
CONTINUOUS
70
0
71
3
72
8
73
4
74
2
42
0.0000001000
43
0.0000001000
44
0.0000000001
40
0.0000000000
40
0.0000000000
40
0.0000000000
40
0.0000000000
40
1.0000000000
40
1.0000000000
40
1.0000000000
40
1.0000000000
10
65.8942074993
20
79.7847055053
30
0.0000000000
10
65.7822429370
20
79.7678000087
30
0.0000000000
10
65.6692461145
20
79.7572828915
30
0.0000000000
10
65.5560714176
20
79.7531345149
30
0.0000000000
11
65.8942074993
21
79.7847055053
31
0.0000000000
11
65.5560714176
21
79.7531345149
31
0.0000000000
0
SPLINE
5
469
100
AcDbEntity
8
0
100
AcDbSpline
62
7
6
CONTINUOUS
70
0
71
3
72
8
73
4
74
2
42
0.0000001000
43
0.0000001000
44
0.0000000001
40
0.0000000000
40
0.0000000000
40
0.0000000000
40
0.0000000000
40
1.0000000000
40
1.0000000000
40
1.0000000000
40
1.0000000000
10
65.5560733717
20
31.6346367423
30
0.0000000000
10
65.6692545314
20
31.6304880071
30
0.0000000000
10
65.7822577951
20
31.6199698065
30
0.0000000000
10
65.8942286303
20
31.6030625014
30
0.0000000000
11
65.5560733717
21
31.6346367423
31
0.0000000000
11
65.8942286303
21
31.6030625014
31
0.0000000000
0
SPLINE
5
46A
100
AcDbEntity
8
0
100
AcDbSpline
62
7
6
CONTINUOUS
70
0
71
3
72
10
73
6
74
4
42
0.0000001000
43
0.0000001000
44
0.0000000001
40
0.0000000000
40
0.0000000000
40
0.0000000000
40
0.0000000000
40
0.3403510164
40
0.6806851539
40
1.0000000000
40
1.0000000000
40
1.0000000000
40
1.0000000000
10
65.8942286303
20
31.6030625014
30
0.0000000000
10
66.1859620417
20
31.5590115145
30
0.0000000000
10
66.7553978280
20
31.3841712656
30
0.0000000000
10
67.4816732878
20
30.8959748392
30
0.0000000000
10
67.8507651296
20
30.4509050403
30
0.0000000000
10
67.9960209112
20
30.2165087858
30
0.0000000000
11
65.8942286303
21
31.6030625014
31
0.0000000000
11
66.7366433017
21
31.3447980250
31
0.0000000000
11
67.4676599455
21
30.8529640258
31
0.0000000000
11
67.9960209112
21
30.2165087858
31
0.0000000000
0
SPLINE
5
46B
100
AcDbEntity
8
0
100
AcDbSpline
62
7
6
CONTINUOUS
70
0
71
3
72
8
73
4
74
2
42
0.0000001000
43
0.0000001000
44
0.0000000001
40
0.0000000000
40
0.0000000000
40
0.0000000000
40
0.0000000000
40
1.0000000000
40
1.0000000000
40
1.0000000000
40
1.0000000000
10
154.0134321434
20
30.1700751810
30
0.0000000000
10
154.0226832985
20
30.1856330906
30
0.0000000000
10
154.0320807815
20
30.2011120208
30
0.0000000000
10
154.0416224281
20
30.2165091720
30
0.0000000000
11
154.0134321434
21
30.1700751810
31
0.0000000000
11
154.0416224281
21
30.2165091720
31
0.0000000000
0
SPLINE
5
46C
100
AcDbEntity
8
0
100
AcDbSpline
62
7
6
CONTINUOUS
70
0
71
3
72
10
73
6
74
4
42
0.0000001000
43
0.0000001000
44
0.0000000001
40
0.0000000000
40
0.0000000000
40
0.0000000000
40
0.0000000000
40
0.3193354969
40
0.6596594923
40
1.0000000000
40
1.0000000000
40
1.0000000000
40
1.0000000000
10
154.0416224281
20
30.2165091720
30
0.0000000000
10
154.1868887060
20
30.4509222609
30
0.0000000000
10
154.5559947148
20
30.8959994827
30
0.0000000000
10
155.2822842537
20
31.3841870516
30
0.0000000000
10
155.8517090441
20
31.5590171235
30
0.0000000000
10
156.1434361435
20
31.6030649133
30
0.0000000000
11
154.0416224281
21
30.2165091720
31
0.0000000000
11
154.5700281804
21
30.8530047179
31
0.0000000000
11
155.3010376711
21
31.3448154312
31
0.0000000000
11
156.1434361435
21
31.6030649133
31
0.0000000000
0
SPLINE
5
46D
100
AcDbEntity
8
0
100
AcDbSpline
62
7
6
CONTINUOUS
70
0
71
3
72
8
73
4
74
2
42
0.0000001000
43
0.0000001000
44
0.0000000001
40
0.0000000000
40
0.0000000000
40
0.0000000000
40
0.0000000000
40
1.0000000000
40
1.0000000000
40
1.0000000000
40
1.0000000000
10
156.1434361435
20
31.6030649133
30
0.0000000000
10
156.2554007058
20
31.6199704100
30
0.0000000000
10
156.3683975283
20
31.6304875272
30
0.0000000000
10
156.4815722252
20
31.6346359037
30
0.0000000000
11
156.1434361435
21
31.6030649133
31
0.0000000000
11
156.4815722252
21
31.6346359037
31
0.0000000000
0
SPLINE
5
46E
100
AcDbEntity
8
0
100
AcDbSpline
62
7
6
CONTINUOUS
70
0
71
3
72
17
73
13
74
11
42
0.0000001000
43
0.0000001000
44
0.0000000001
40
0.0000000000
40
0.0000000000
40
0.0000000000
40
0.0000000000
40
0.1080566546
40
0.2442396280
40
0.3726020140
40
0.4927203884
40
0.6043934400
40
0.7075887191
40
0.8023846703
40
0.8885475730
40
0.9653410941
40
1.0000000000
40
1.0000000000
40
1.0000000000
40
1.0000000000
10
52.2876626835
20
31.8280620141
30
0.0000000000
10
52.7395834766
20
31.8280624423
30
0.0000000000
10
53.7610570135
20
31.8267717010
30
0.0000000000
10
55.3193635335
20
31.8203646840
30
0.0000000000
10
56.9280859770
20
31.8086517283
30
0.0000000000
10
58.4342622084
20
31.7929494021
30
0.0000000000
10
59.8351353245
20
31.7738902230
30
0.0000000000
10
61.1300485086
20
31.7520259000
30
0.0000000000
10
62.3182114412
20
31.7278794377
30
0.0000000000
10
63.3958895404
20
31.7020301113
30
0.0000000000
10
64.2220500565
20
31.6789357506
30
0.0000000000
10
64.6879418795
20
31.6643756341
30
0.0000000000
10
64.8328179329
20
31.6596790522
30
0.0000000000
11
52.2876626835
21
31.8280620141
31
0.0000000000
11
53.6434239264
21
31.8263509369
31
0.0000000000
11
55.3520657382
21
31.8193010057
31
0.0000000000
11
56.9625559626
21
31.8075287758
31
0.0000000000
11
58.4695709362
21
31.7917535290
31
0.0000000000
11
59.8705762022
21
31.7726120844
31
0.0000000000
11
61.1651574584
21
31.7506599345
31
0.0000000000
11
62.3542926557
21
31.7263855078
31
0.0000000000
11
63.4350448118
21
31.7003352213
31
0.0000000000
11
64.3981755598
21
31.6732828329
31
0.0000000000
11
64.8328179329
21
31.6596790522
31
0.0000000000
0
SPLINE
5
46F
100
AcDbEntity
8
0
100
AcDbSpline
62
7
6
CONTINUOUS
70
0
71
3
72
9
73
5
74
3
42
0.0000001000
43
0.0000001000
44
0.0000000001
40
0.0000000000
40
0.0000000000
40
0.0000000000
40
0.0000000000
40
0.6982742921
40
1.0000000000
40
1.0000000000
40
1.0000000000
40
1.0000000000
10
64.8328179329
20
31.6596790522
30
0.0000000000
10
64.9679543566
20
31.6552982089
30
0.0000000000
10
65.1614777609
20
31.6488141267
30
0.0000000000
10
65.3549936188
20
31.6419951494
30
0.0000000000
10
65.4133810953
20
31.6399053268
30
0.0000000000
11
64.8328179329
21
31.6596790522
31
0.0000000000
11
65.2382155134
21
31.6460795826
31
0.0000000000
11
65.4133810953
21
31.6399053268
31
0.0000000000
0
SPLINE
5
470
100
AcDbEntity
8
0
100
AcDbSpline
62
7
6
CONTINUOUS
70
0
71
3
72
8
73
4
74
2
42
0.0000001000
43
0.0000001000
44
0.0000000001
40
0.0000000000
40
0.0000000000
40
0.0000000000
40
0.0000000000
40
1.0000000000
40
1.0000000000
40
1.0000000000
40
1.0000000000
10
65.4133810953
20
31.6399053268
30
0.0000000000
10
65.4224080209
20
31.6395822323
30
0.0000000000
10
65.4314349170
20
31.6392583643
30
0.0000000000
10
65.4404617817
20
31.6389337159
30
0.0000000000
11
65.4133810953
21
31.6399053268
31
0.0000000000
11
65.4404617817
21
31.6389337159
31
0.0000000000
0
SPLINE
5
471
100
AcDbEntity
8
0
100
AcDbSpline
62
7
6
CONTINUOUS
70
0
71
3
72
8
73
4
74
2
42
0.0000001000
43
0.0000001000
44
0.0000000001
40
0.0000000000
40
0.0000000000
40
0.0000000000
40
0.0000000000
40
1.0000000000
40
1.0000000000
40
1.0000000000
40
1.0000000000
10
65.4404617817
20
31.6389337159
30
0.0000000000
10
65.4786957568
20
31.6375586425
30
0.0000000000
10
65.5169291672
20
31.6361695679
30
0.0000000000
10
65.5551618595
20
31.6347659659
30
0.0000000000
11
65.4404617817
21
31.6389337159
31
0.0000000000
11
65.5551618595
21
31.6347659659
31
0.0000000000
0
SPLINE
5
472
100
AcDbEntity
8
0
100
AcDbSpline
62
7
6
CONTINUOUS
70
0
71
3
72
8
73
4
74
2
42
0.0000001000
43
0.0000001000
44
0.0000000001
40
0.0000000000
40
0.0000000000
40
0.0000000000
40
0.0000000000
40
1.0000000000
40
1.0000000000
40
1.0000000000
40
1.0000000000
10
65.5551773698
20
79.7530033747
30
0.0000000000
10
65.5169413216
20
79.7516006131
30
0.0000000000
10
65.4787045571
20
79.7502122948
30
0.0000000000
10
65.4404665886
20
79.7488376787
30
0.0000000000
11
65.5551773698
21
79.7530033747
31
0.0000000000
11
65.4404665886
21
79.7488376787
31
0.0000000000
0
SPLINE
5
473
100
AcDbEntity
8
0
100
AcDbSpline
62
7
6
CONTINUOUS
70
0
71
3
72
8
73
4
74
2
42
0.0000001000
43
0.0000001000
44
0.0000000001
40
0.0000000000
40
0.0000000000
40
0.0000000000
40
0.0000000000
40
1.0000000000
40
1.0000000000
40
1.0000000000
40
1.0000000000
10
65.4404665886
20
79.7488376787
30
0.0000000000
10
65.4314533428
20
79.7485136617
30
0.0000000000
10
65.4224400315
20
79.7481904068
30
0.0000000000
10
65.4134266563
20
79.7478679089
30
0.0000000000
11
65.4404665886
21
79.7488376787
31
0.0000000000
11
65.4134266563
21
79.7478679089
31
0.0000000000
0
SPLINE
5
474
100
AcDbEntity
8
0
100
AcDbSpline
62
7
6
CONTINUOUS
70
0
71
3
72
8
73
4
74
2
42
0.0000001000
43
0.0000001000
44
0.0000000001
40
0.0000000000
40
0.0000000000
40
0.0000000000
40
0.0000000000
40
1.0000000000
40
1.0000000000
40
1.0000000000
40
1.0000000000
10
65.4134266563
20
79.7478679089
30
0.0000000000
10
65.2855268366
20
79.7432916635
30
0.0000000000
10
65.1576141738
20
79.7388678633
30
0.0000000000
10
65.0296937860
20
79.7345822526
30
0.0000000000
11
65.4134266563
21
79.7478679089
31
0.0000000000
11
65.0296937860
21
79.7345822526
31
0.0000000000
0
SPLINE
5
475
100
AcDbEntity
8
0
100
AcDbSpline
62
7
6
CONTINUOUS
70
0
71
3
72
17
73
13
74
11
42
0.0000001000
43
0.0000001000
44
0.0000000001
40
0.0000000000
40
0.0000000000
40
0.0000000000
40
0.0000000000
40
0.0348592735
40
0.1117651291
40
0.1986840883
40
0.2954096919
40
0.4014664602
40
0.5161316115
40
0.6384298860
40
0.7671441624
40
0.9008259001
40
1.0000000000
40
1.0000000000
40
1.0000000000
40
1.0000000000
10
65.0296937860
20
79.7345822526
30
0.0000000000
10
64.8816956830
20
79.7296239949
30
0.0000000000
10
64.4071538726
20
79.7143199806
30
0.0000000000
10
63.5635201065
20
79.6900908954
30
0.0000000000
10
62.4570497500
20
79.6629364104
30
0.0000000000
10
61.2266857751
20
79.6374845275
30
0.0000000000
10
59.8783894846
20
79.6144728908
30
0.0000000000
10
58.4214024682
20
79.5946079165
30
0.0000000000
10
56.8681157206
20
79.5785520119
30
0.0000000000
10
55.2340065769
20
79.5669170258
30
0.0000000000
10
53.6980977160
20
79.5608735278
30
0.0000000000
10
52.7089457474
20
79.5597080869
30
0.0000000000
10
52.2876626836
20
79.5597084239
30
0.0000000000
11
65.0296937860
21
79.7345822526
31
0.0000000000
11
64.5856763831
21
79.7202403207
31
0.0000000000
11
63.6060166377
21
79.6919520025
31
0.0000000000
11
62.4986811609
21
79.6646316543
31
0.0000000000
11
61.2663016470
21
79.6390132700
31
0.0000000000
11
59.9149406463
21
79.6158397871
31
0.0000000000
11
58.4538150388
21
79.5958270278
31
0.0000000000
11
56.8953618402
21
79.5796478164
31
0.0000000000
11
55.2551027282
21
79.5679215436
31
0.0000000000
11
53.5515109524
21
79.5611954147
31
0.0000000000
11
52.2876626836
21
79.5597084239
31
0.0000000000
0
SPLINE
5
476
100
AcDbEntity
8
0
100
AcDbSpline
62
7
6
CONTINUOUS
70
0
71
3
72
17
73
13
74
11
42
0.0000001000
43
0.0000001000
44
0.0000000001
40
0.0000000000
40
0.0000000000
40
0.0000000000
40
0.0000000000
40
0.1080566546
40
0.2442396280
40
0.3726020140
40
0.4927203884
40
0.6043934400
40
0.7075887191
40
0.8023846703
40
0.8885475730
40
0.9653410941
40
1.0000000000
40
1.0000000000
40
1.0000000000
40
1.0000000000
10
169.7499809593
20
79.5597084045
30
0.0000000000
10
169.2980601662
20
79.5597079763
30
0.0000000000
10
168.2765866293
20
79.5609987176
30
0.0000000000
10
166.7182801093
20
79.5674057346
30
0.0000000000
10
165.1095576659
20
79.5791186903
30
0.0000000000
10
163.6033814344
20
79.5948210165
30
0.0000000000
10
162.2025083183
20
79.6138801956
30
0.0000000000
10
160.9075951342
20
79.6357445187
30
0.0000000000
10
159.7194322017
20
79.6598909810
30
0.0000000000
10
158.6417541024
20
79.6857403074
30
0.0000000000
10
157.8155935864
20
79.7088346681
30
0.0000000000
10
157.3497017633
20
79.7233947845
30
0.0000000000
10
157.2048257099
20
79.7280913665
30
0.0000000000
11
169.7499809593
21
79.5597084045
31
0.0000000000
11
168.3942197164
21
79.5614194817
31
0.0000000000
11
166.6855779046
21
79.5684694129
31
0.0000000000
11
165.0750876803
21
79.5802416429
31
0.0000000000
11
163.5680727066
21
79.5960168897
31
0.0000000000
11
162.1670674406
21
79.6151583343
31
0.0000000000
11
160.8724861844
21
79.6371104841
31
0.0000000000
11
159.6833509871
21
79.6613849108
31
0.0000000000
11
158.6025988311
21
79.6874351973
31
0.0000000000
11
157.6394680830
21
79.7144875858
31
0.0000000000
11
157.2048257099
21
79.7280913665
31
0.0000000000
0
SPLINE
5
477
100
AcDbEntity
8
0
100
AcDbSpline
62
7
6
CONTINUOUS
70
0
71
3
72
9
73
5
74
3
42
0.0000001000
43
0.0000001000
44
0.0000000001
40
0.0000000000
40
0.0000000000
40
0.0000000000
40
0.0000000000
40
0.6982742921
40
1.0000000000
40
1.0000000000
40
1.0000000000
40
1.0000000000
10
157.2048257099
20
79.7280913665
30
0.0000000000
10
157.0696892862
20
79.7324722097
30
0.0000000000
10
156.8761658819
20
79.7389562919
30
0.0000000000
10
156.6826500240
20
79.7457752693
30
0.0000000000
10
156.6242625475
20
79.7478650918
30
0.0000000000
11
157.2048257099
21
79.7280913665
31
0.0000000000
11
156.7994281294
21
79.7416908360
31
0.0000000000
11
156.6242625475
21
79.7478650918
31
0.0000000000
0
SPLINE
5
478
100
AcDbEntity
8
0
100
AcDbSpline
62
7
6
CONTINUOUS
70
0
71
3
72
8
73
4
74
2
42
0.0000001000
43
0.0000001000
44
0.0000000001
40
0.0000000000
40
0.0000000000
40
0.0000000000
40
0.0000000000
40
1.0000000000
40
1.0000000000
40
1.0000000000
40
1.0000000000
10
156.6242625475
20
79.7478650918
30
0.0000000000
10
156.6152356219
20
79.7481881863
30
0.0000000000
10
156.6062087258
20
79.7485120543
30
0.0000000000
10
156.5971818611
20
79.7488367028
30
0.0000000000
11
156.6242625475
21
79.7478650918
31
0.0000000000
11
156.5971818611
21
79.7488367028
31
0.0000000000
0
SPLINE
5
479
100
AcDbEntity
8
0
100
AcDbSpline
62
7
6
CONTINUOUS
70
0
71
3
72
8
73
4
74
2
42
0.0000001000
43
0.0000001000
44
0.0000000001
40
0.0000000000
40
0.0000000000
40
0.0000000000
40
0.0000000000
40
1.0000000000
40
1.0000000000
40
1.0000000000
40
1.0000000000
10
156.5971818611
20
79.7488367028
30
0.0000000000
10
156.5589478860
20
79.7502117761
30
0.0000000000
10
156.5207144756
20
79.7516008508
30
0.0000000000
10
156.4824817833
20
79.7530044527
30
0.0000000000
11
156.5971818611
21
79.7488367028
31
0.0000000000
11
156.4824817833
21
79.7530044527
31
0.0000000000
0
SPLINE
5
47A
100
AcDbEntity
8
0
100
AcDbSpline
62
7
6
CONTINUOUS
70
0
71
3
72
8
73
4
74
2
42
0.0000001000
43
0.0000001000
44
0.0000000001
40
0.0000000000
40
0.0000000000
40
0.0000000000
40
0.0000000000
40
1.0000000000
40
1.0000000000
40
1.0000000000
40
1.0000000000
10
156.4824662731
20
31.6347670440
30
0.0000000000
10
156.5207023212
20
31.6361698055
30
0.0000000000
10
156.5589390857
20
31.6375581239
30
0.0000000000
10
156.5971770543
20
31.6389327399
30
0.0000000000
11
156.4824662731
21
31.6347670440
31
0.0000000000
11
156.5971770543
21
31.6389327399
31
0.0000000000
0
SPLINE
5
47B
100
AcDbEntity
8
0
100
AcDbSpline
62
7
6
CONTINUOUS
70
0
71
3
72
8
73
4
74
2
42
0.0000001000
43
0.0000001000
44
0.0000000001
40
0.0000000000
40
0.0000000000
40
0.0000000000
40
0.0000000000
40
1.0000000000
40
1.0000000000
40
1.0000000000
40
1.0000000000
10
156.5971770543
20
31.6389327399
30
0.0000000000
10
156.6061903000
20
31.6392567570
30
0.0000000000
10
156.6152036114
20
31.6395800119
30
0.0000000000
10
156.6242169865
20
31.6399025097
30
0.0000000000
11
156.5971770543
21
31.6389327399
31
0.0000000000
11
156.6242169865
21
31.6399025097
31
0.0000000000
0
SPLINE
5
47C
100
AcDbEntity
8
0
100
AcDbSpline
62
7
6
CONTINUOUS
70
0
71
3
72
8
73
4
74
2
42
0.0000001000
43
0.0000001000
44
0.0000000001
40
0.0000000000
40
0.0000000000
40
0.0000000000
40
0.0000000000
40
1.0000000000
40
1.0000000000
40
1.0000000000
40
1.0000000000
10
156.6242169865
20
31.6399025097
30
0.0000000000
10
156.7521168062
20
31.6444787551
30
0.0000000000
10
156.8800294691
20
31.6489025553
30
0.0000000000
10
157.0079498569
20
31.6531881660
30
0.0000000000
11
156.6242169865
21
31.6399025097
31
0.0000000000
11
157.0079498569
21
31.6531881660
31
0.0000000000
0
SPLINE
5
47D
100
AcDbEntity
8
0
100
AcDbSpline
62
7
6
CONTINUOUS
70
0
71
3
72
17
73
13
74
11
42
0.0000001000
43
0.0000001000
44
0.0000000001
40
0.0000000000
40
0.0000000000
40
0.0000000000
40
0.0000000000
40
0.0348592735
40
0.1117651291
40
0.1986840883
40
0.2954096919
40
0.4014664602
40
0.5161316115
40
0.6384298860
40
0.7671441624
40
0.9008259001
40
1.0000000000
40
1.0000000000
40
1.0000000000
40
1.0000000000
10
157.0079498569
20
31.6531881660
30
0.0000000000
10
157.1559479598
20
31.6581464238
30
0.0000000000
10
157.6304897702
20
31.6734504380
30
0.0000000000
10
158.4741235364
20
31.6976795232
30
0.0000000000
10
159.5805938928
20
31.7248340082
30
0.0000000000
10
160.8109578677
20
31.7502858912
30
0.0000000000
10
162.1592541582
20
31.7732975278
30
0.0000000000
10
163.6162411746
20
31.7931625021
30
0.0000000000
10
165.1695279223
20
31.8092184067
30
0.0000000000
10
166.8036370659
20
31.8208533929
30
0.0000000000
10
168.3395459268
20
31.8268968909
30
0.0000000000
10
169.3286978954
20
31.8280623317
30
0.0000000000
10
169.7499809593
20
31.8280619947
30
0.0000000000
11
157.0079498569
21
31.6531881660
31
0.0000000000
11
157.4519672597
21
31.6675300979
31
0.0000000000
11
158.4316270051
21
31.6958184161
31
0.0000000000
11
159.5389624819
21
31.7231387644
31
0.0000000000
11
160.7713419958
21
31.7487571487
31
0.0000000000
11
162.1227029965
21
31.7719306316
31
0.0000000000
11
163.5838286040
21
31.7919433908
31
0.0000000000
11
165.1422818026
21
31.8081226023
31
0.0000000000
11
166.7825409146
21
31.8198488751
31
0.0000000000
11
168.4861326904
21
31.8265750040
31
0.0000000000
11
169.7499809593
21
31.8280619947
31
0.0000000000
0
SPLINE
5
47E
100
AcDbEntity
8
0
100
AcDbSpline
62
7
6
CONTINUOUS
70
0
71
3
72
18
73
14
74
12
42
0.0000001000
43
0.0000001000
44
0.0000000001
40
0.0000000000
40
0.0000000000
40
0.0000000000
40
0.0000000000
40
0.0746597759
40
0.2085352275
40
0.3333159201
40
0.4527348838
40
0.5658683984
40
0.6716320425
40
0.7687498160
40
0.8516248176
40
0.9140286893
40
0.9672658636
40
1.0000000000
40
1.0000000000
40
1.0000000000
40
1.0000000000
10
198.9509718967
20
73.6206280583
30
0.0000000000
10
198.9509649693
20
73.7810601303
30
0.0000000000
10
198.9241717372
20
74.2294751142
30
0.0000000000
10
198.7615961949
20
74.9301725928
30
0.0000000000
10
198.4175412297
20
75.6696116444
30
0.0000000000
10
197.9627220117
20
76.2912966183
30
0.0000000000
10
197.4308248050
20
76.7895942746
30
0.0000000000
10
196.8609815661
20
77.1611833060
30
0.0000000000
10
196.2989764598
20
77.4100891402
30
0.0000000000
10
195.7981644910
20
77.5526447885
30
0.0000000000
10
195.3788741950
20
77.6265124544
30
0.0000000000
10
195.0629166651
20
77.6624622193
30
0.0000000000
10
194.8794001210
20
77.6784279766
30
0.0000000000
10
194.8094838345
20
77.6839850692
30
0.0000000000
11
198.9509718967
21
73.6206280583
31
0.0000000000
11
198.9221767929
21
74.1008573147
31
0.0000000000
11
198.7279008626
21
74.9391471595
31
0.0000000000
11
198.3895298828
21
75.6663253614
31
0.0000000000
11
197.9363631642
21
76.2858638753
31
0.0000000000
11
197.4057295743
21
76.7830822342
31
0.0000000000
11
196.8363759111
21
77.1545434171
31
0.0000000000
11
196.2657583790
21
77.4076691264
31
0.0000000000
11
195.7536928761
21
77.5544718739
31
0.0000000000
11
195.3589295098
21
77.6255520020
31
0.0000000000
11
195.0190858544
21
77.6655646548
31
0.0000000000
11
194.8094838345
21
77.6839850692
31
0.0000000000
0
SPLINE
5
47F
100
AcDbEntity
8
0
100
AcDbSpline
62
7
6
CONTINUOUS
70
0
71
3
72
18
73
14
74
12
42
0.0000001000
43
0.0000001000
44
0.0000000001
40
0.0000000000
40
0.0000000000
40
0.0000000000
40
0.0000000000
40
0.0386389419
40
0.0948740865
40
0.1622535545
40
0.2478995423
40
0.3455854250
40
0.4510018794
40
0.5638985733
40
0.6834907581
40
0.8088993158
40
0.9396440681
40
1.0000000000
40
1.0000000000
40
1.0000000000
40
1.0000000000
10
27.2284232205
20
77.6840089397
30
0.0000000000
10
27.1458846255
20
77.6774545689
30
0.0000000000
10
26.9433593365
20
77.6595771128
30
0.0000000000
10
26.5980204696
20
77.6182043018
30
0.0000000000
10
26.1570406337
20
77.5338431880
30
0.0000000000
10
25.6424182210
20
77.3743420221
30
0.0000000000
10
25.0813490078
20
77.1077107211
30
0.0000000000
10
24.5217980924
20
76.7207487645
30
0.0000000000
10
24.0040482978
20
76.2089272965
30
0.0000000000
10
23.5653429041
20
75.5741630076
30
0.0000000000
10
23.2437126481
20
74.8300086291
30
0.0000000000
10
23.1064717169
20
74.1609650715
30
0.0000000000
10
23.0866361445
20
73.7502859764
30
0.0000000000
10
23.0866388121
20
73.6206347713
30
0.0000000000
11
27.2284232205
21
77.6840089397
31
0.0000000000
11
26.9810203927
21
77.6618454949
31
0.0000000000
11
26.6222788721
21
77.6172558952
31
0.0000000000
11
26.1971562037
21
77.5342927950
31
0.0000000000
11
25.6715147133
21
77.3705102920
31
0.0000000000
11
25.1044690433
21
77.1006993552
31
0.0000000000
11
24.5471839556
21
76.7151409566
31
0.0000000000
11
24.0311076546
21
76.2048750828
31
0.0000000000
11
23.5940605287
21
75.5724018450
31
0.0000000000
11
23.2742130643
21
74.8323896793
31
0.0000000000
11
23.1054526080
21
74.0090271373
31
0.0000000000
11
23.0866388121
21
73.6206347713
31
0.0000000000
0
SPLINE
5
480
100
AcDbEntity
8
0
100
AcDbSpline
62
7
6
CONTINUOUS
70
0
71
3
72
18
73
14
74
12
42
0.0000001000
43
0.0000001000
44
0.0000000001
40
0.0000000000
40
0.0000000000
40
0.0000000000
40
0.0000000000
40
0.0746384197
40
0.2084981340
40
0.3332680725
40
0.4526819458
40
0.5658136236
40
0.6715755277
40
0.7686930135
40
0.8515748431
40
0.9139902698
40
0.9672471186
40
1.0000000000
40
1.0000000000
40
1.0000000000
40
1.0000000000
10
23.0866716995
20
37.7671373045
30
0.0000000000
10
23.0866786814
20
37.6067510149
30
0.0000000000
10
23.1134597160
20
37.1584157262
30
0.0000000000
10
23.2759794053
20
36.4578115339
30
0.0000000000
10
23.6199560970
20
35.7184110638
30
0.0000000000
10
24.0747039018
20
35.0967202719
30
0.0000000000
10
24.6065461656
20
34.5983900002
30
0.0000000000
10
25.1763511076
20
34.2267559988
30
0.0000000000
10
25.7383449148
20
33.9777969942
30
0.0000000000
10
26.2391842831
20
33.8351919438
30
0.0000000000
10
26.6585515652
20
33.7612856665
30
0.0000000000
10
26.9746154596
20
33.7253181622
30
0.0000000000
10
27.1582142354
20
33.7093449929
30
0.0000000000
10
27.2281706554
20
33.7037847799
30
0.0000000000
11
23.0866716995
21
37.7671373045
31
0.0000000000
11
23.1154506091
21
37.2870445436
31
0.0000000000
11
23.3096652196
21
36.4488431661
31
0.0000000000
11
23.6479587287
21
35.7217039984
31
0.0000000000
11
24.1010576345
21
35.1021551764
31
0.0000000000
11
24.6316414704
21
34.6048995964
31
0.0000000000
11
25.2009545446
21
34.2333950427
31
0.0000000000
11
25.7715493920
21
33.9802207439
31
0.0000000000
11
26.2836465109
21
33.8333664941
31
0.0000000000
11
26.6784795665
21
33.7622513203
31
0.0000000000
11
27.0184483885
21
33.7222164135
31
0.0000000000
11
27.2281706554
21
33.7037847799
31
0.0000000000
0
SPLINE
5
481
100
AcDbEntity
8
0
100
AcDbSpline
62
7
6
CONTINUOUS
70
0
71
3
72
18
73
14
74
12
42
0.0000001000
43
0.0000001000
44
0.0000000001
40
0.0000000000
40
0.0000000000
40
0.0000000000
40
0.0000000000
40
0.0386189615
40
0.0948310532
40
0.1622011426
40
0.2478444389
40
0.3455360118
40
0.4509591550
40
0.5638621326
40
0.6834609473
40
0.8088771915
40
0.9396314556
40
1.0000000000
40
1.0000000000
40
1.0000000000
40
1.0000000000
10
194.8092316049
20
33.7037620960
30
0.0000000000
10
194.8917274030
20
33.7103131777
30
0.0000000000
10
195.0941605792
20
33.7281823240
30
0.0000000000
10
195.4393881732
20
33.7695335978
30
0.0000000000
10
195.8802984750
20
33.8538520665
30
0.0000000000
10
196.3949194739
20
34.0133084765
30
0.0000000000
10
196.9560282684
20
34.2799037029
30
0.0000000000
10
197.5156392657
20
34.6668485442
30
0.0000000000
10
198.0334500907
20
35.1786675846
30
0.0000000000
10
198.4722131369
20
35.8134454021
30
0.0000000000
10
198.7938937583
20
36.5576335868
30
0.0000000000
10
198.9311657467
20
37.2267362059
30
0.0000000000
10
198.9510075323
20
37.6374625608
30
0.0000000000
10
198.9510048087
20
37.7671407365
30
0.0000000000
11
194.8092316049
21
33.7037620960
31
0.0000000000
11
195.0565062543
21
33.7259131909
31
0.0000000000
11
195.4151014512
21
33.7704747740
31
0.0000000000
11
195.8401694924
21
33.8534000955
31
0.0000000000
11
196.3658065744
21
34.0171361767
31
0.0000000000
11
196.9329059289
21
34.2869175210
31
0.0000000000
11
197.4902529748
21
34.6724603906
31
0.0000000000
11
198.0063885869
21
35.1827223890
31
0.0000000000
11
198.4434919295
21
35.8152073713
31
0.0000000000
11
198.7633885361
21
36.5552509857
31
0.0000000000
11
198.9321833750
21
37.3786677841
31
0.0000000000
11
198.9510048087
21
37.7671407365
31
0.0000000000
0
SPLINE
5
482
100
AcDbEntity
8
0
100
AcDbSpline
62
7
6
CONTINUOUS
70
0
71
3
72
60
73
56
74
54
42
0.0000001000
43
0.0000001000
44
0.0000000001
40
0.0000000000
40
0.0000000000
40
0.0000000000
40
0.0000000000
40
0.0004418261
40
0.0031560639
40
0.0076446127
40
0.0137366342
40
0.0213317002
40
0.0303674825
40
0.0408016204
40
0.0526020570
40
0.0657545730
40
0.0802570408
40
0.0961108547
40
0.1133184885
40
0.1318817054
40
0.1518001388
40
0.1730701041
40
0.1956835374
40
0.2196270209
40
0.2448795616
40
0.2713818973
40
0.2990325675
40
0.3277144620
40
0.3572970565
40
0.3876379106
40
0.4185843952
40
0.4499756588
40
0.4816447401
40
0.5134206460
40
0.5451286385
40
0.5765941000
40
0.6076459410
40
0.6381188467
40
0.6678555162
40
0.6967087672
40
0.7245434074
40
0.7512378465
40
0.7766858122
40
0.8008212600
40
0.8236260817
40
0.8450910755
40
0.8652117673
40
0.8839873426
40
0.9014195344
40
0.9175113726
40
0.9322657228
40
0.9456834679
40
0.9577610766
40
0.9684825068
40
0.9778089213
40
0.9856907252
40
0.9920598918
40
0.9968096991
40
0.9997589903
40
1.0000000000
40
1.0000000000
40
1.0000000000
40
1.0000000000
10
169.8586168349
20
76.9645933308
30
0.0000000000
10
169.8433655184
20
76.9624985567
30
0.0000000000
10
169.6875043348
20
76.9401616443
30
0.0000000000
10
169.4319959808
20
76.9118410601
30
0.0000000000
10
168.8880217535
20
76.8539074022
30
0.0000000000
10
168.1886004635
20
76.7917626101
30
0.0000000000
10
167.2959578247
20
76.7206459380
30
0.0000000000
10
166.2382157192
20
76.6464809144
30
0.0000000000
10
165.0134306623
20
76.5696836987
30
0.0000000000
10
163.6275495428
20
76.4918535956
30
0.0000000000
10
162.0816635694
20
76.4137107134
30
0.0000000000
10
160.3766282846
20
76.3359588717
30
0.0000000000
10
158.5123057537
20
76.2591341348
30
0.0000000000
10
156.4885116109
20
76.1837340058
30
0.0000000000
10
154.3050975274
20
76.1102189215
30
0.0000000000
10
151.9621661381
20
76.0390354506
30
0.0000000000
10
149.4602021040
20
75.9706242811
30
0.0000000000
10
146.8002025844
20
75.9054274603
30
0.0000000000
10
143.9838432238
20
75.8438935785
30
0.0000000000
10
141.0148079220
20
75.7865032600
30
0.0000000000
10
137.9002343895
20
75.7337764541
30
0.0000000000
10
134.6510314888
20
75.6862448117
30
0.0000000000
10
131.2809045466
20
75.6444110651
30
0.0000000000
10
127.8051674779
20
75.6087220728
30
0.0000000000
10
124.2405284271
20
75.5795622763
30
0.0000000000
10
120.6048859721
20
75.5572482116
30
0.0000000000
10
116.9171011898
20
75.5420242359
30
0.0000000000
10
113.1967559917
20
75.5340591844
30
0.0000000000
10
109.4639772961
20
75.5334435830
30
0.0000000000
10
105.7391924953
20
75.5401873460
30
0.0000000000
10
102.0428326905
20
75.5542185395
30
0.0000000000
10
98.3949591053
20
75.5753836993
30
0.0000000000
10
94.8149532382
20
75.6034502330
30
0.0000000000
10
91.3212581717
20
75.6381100102
30
0.0000000000
10
87.9311345800
20
75.6789836056
30
0.0000000000
10
84.6604413622
20
75.7256256229
30
0.0000000000
10
81.5234315354
20
75.7775312163
30
0.0000000000
10
78.5316445058
20
75.8341609212
30
0.0000000000
10
75.6925595590
20
75.8949870021
30
0.0000000000
10
73.0098479865
20
75.9595259666
30
0.0000000000
10
70.4847660389
20
76.0273384964
30
0.0000000000
10
68.1178922027
20
76.0979975574
30
0.0000000000
10
65.9093754402
20
76.1710814361
30
0.0000000000
10
63.8590745542
20
76.2461660654
30
0.0000000000
10
61.9666928968
20
76.3228172963
30
0.0000000000
10
60.2320068962
20
76.4005662457
30
0.0000000000
10
58.6549233386
20
76.4789128872
30
0.0000000000
10
57.2364998686
20
76.5571827790
30
0.0000000000
10
55.9780500134
20
76.6347229016
30
0.0000000000
10
54.8866915635
20
76.7098712270
30
0.0000000000
10
53.9595919094
20
76.7825325249
30
0.0000000000
10
53.2304899650
20
76.8459730665
30
0.0000000000
10
52.6494314222
20
76.9072750108
30
0.0000000000
10
52.3934105599
20
76.9344745966
30
0.0000000000
10
52.2330988974
20
76.9571449685
30
0.0000000000
10
52.2215587175
20
76.9587775472
30
0.0000000000
11
169.8586168349
21
76.9645933308
31
0.0000000000
11
169.8007138887
21
76.9564531609
31
0.0000000000
11
169.4836354626
21
76.9177463906
31
0.0000000000
11
168.9582665966
21
76.8626817500
31
0.0000000000
11
168.2442631578
21
76.7976863837
31
0.0000000000
11
167.3532565129
21
76.7265059478
31
0.0000000000
11
166.2925048538
21
76.6515051485
31
0.0000000000
11
165.0669655863
21
76.5742952453
31
0.0000000000
11
163.6804061972
21
76.4960486809
31
0.0000000000
11
162.1345071945
21
76.4175947238
31
0.0000000000
11
160.4295307273
21
76.3395644136
31
0.0000000000
11
158.5653252436
21
76.2624964686
31
0.0000000000
11
156.5416119015
21
76.1868765138
31
0.0000000000
11
154.3581948634
21
76.1131610444
31
0.0000000000
11
152.0151282596
21
76.0417925745
31
0.0000000000
11
149.5128560826
21
75.9732093638
31
0.0000000000
11
146.8523372981
21
75.9078517445
31
0.0000000000
11
144.0351606678
21
75.8461661869
31
0.0000000000
11
141.0638063018
21
75.7886105420
31
0.0000000000
11
137.9452578090
21
75.7357089756
31
0.0000000000
11
134.6914653948
21
75.6880158672
31
0.0000000000
11
131.3162221547
21
75.6460375321
31
0.0000000000
11
127.8349008490
21
75.6102234218
31
0.0000000000
11
124.2642774574
21
75.5809601806
31
0.0000000000
11
120.6223277753
21
75.5585662428
31
0.0000000000
11
116.9279958663
21
75.5432874367
31
0.0000000000
11
113.2009452138
21
75.5352935486
31
0.0000000000
11
109.4613141216
21
75.5346756887
31
0.0000000000
11
105.7296816716
21
75.5414441210
31
0.0000000000
11
102.0266127644
21
75.5555264142
31
0.0000000000
11
98.3722568234
21
75.5767681901
31
0.0000000000
11
94.7860832973
21
75.6049354765
31
0.0000000000
11
91.2866179088
21
75.6397182323
31
0.0000000000
11
87.8911948262
21
75.6807347296
31
0.0000000000
11
84.6157362643
21
75.7275369277
31
0.0000000000
11
81.4745626108
21
75.7796167166
31
0.0000000000
11
78.4801903724
21
75.8364135121
31
0.0000000000
11
75.6404011279
21
75.8973858337
31
0.0000000000
11
72.9573354422
21
75.9620783607
31
0.0000000000
11
70.4320859038
21
76.0300556092
31
0.0000000000
11
68.0651890824
21
76.1008925085
31
0.0000000000
11
65.8567514345
21
76.1741699902
31
0.0000000000
11
63.8065803497
21
76.2494684439
31
0.0000000000
11
61.9143315180
21
76.3263577948
31
0.0000000000
11
60.1796808544
21
76.4043823642
31
0.0000000000
11
58.6025382961
21
76.4830371309
31
0.0000000000
11
57.1833330968
21
76.5617292892
31
0.0000000000
11
55.9239633782
21
76.6396780357
31
0.0000000000
11
54.8289980589
21
76.7157354916
31
0.0000000000
11
53.9042510427
21
76.7883145940
31
0.0000000000
11
53.1576597175
21
76.8550961771
31
0.0000000000
11
52.6016100486
21
76.9123900368
31
0.0000000000
11
52.2569924019
21
76.9537867335
31
0.0000000000
11
52.2215587175
21
76.9587775472
31
0.0000000000
0
SPLINE
5
483
100
AcDbEntity
8
0
100
AcDbSpline
62
7
6
CONTINUOUS
70
0
71
3
72
24
73
20
74
18
42
0.0000001000
43
0.0000001000
44
0.0000000001
40
0.0000000000
40
0.0000000000
40
0.0000000000
40
0.0000000000
40
0.0022345656
40
0.0159291736
40
0.0385721246
40
0.0693021030
40
0.1076126904
40
0.1531895752
40
0.2058191052
40
0.2653395883
40
0.3316793747
40
0.4048277847
40
0.4847919069
40
0.5715842781
40
0.6652138541
40
0.7656788585
40
0.8729607635
40
0.9870189607
40
1.0000000000
40
1.0000000000
40
1.0000000000
40
1.0000000000
10
52.1789725332
20
34.4231686144
30
0.0000000000
10
52.1942518955
20
34.4252670176
30
0.0000000000
10
52.3503046308
20
34.4476330503
30
0.0000000000
10
52.6058633693
20
34.4759512483
30
0.0000000000
10
53.1500246444
20
34.5339031812
30
0.0000000000
10
53.8495720271
20
34.5960521228
30
0.0000000000
10
54.7423740534
20
34.6671761267
30
0.0000000000
10
55.8002743927
20
34.7413456936
30
0.0000000000
10
57.0252288188
20
34.8181471008
30
0.0000000000
10
58.4112864846
20
34.8959804402
30
0.0000000000
10
59.9573582422
20
34.9741259667
30
0.0000000000
10
61.6625894302
20
35.0518798809
30
0.0000000000
10
63.5271194236
20
35.1287061983
30
0.0000000000
10
65.5511339516
20
35.2041074369
30
0.0000000000
10
67.7347828868
20
35.2776231681
30
0.0000000000
10
70.0779650678
20
35.3488068008
30
0.0000000000
10
72.5801972921
20
35.4172176294
30
0.0000000000
10
74.4023213511
20
35.4618726144
30
0.0000000000
10
75.3902345684
20
35.4846611182
30
0.0000000000
10
75.4911811999
20
35.4869750012
30
0.0000000000
11
52.1789725332
21
34.4231686144
31
0.0000000000
11
52.2370404001
21
34.4313320894
31
0.0000000000
11
52.5542568583
21
34.4700522495
31
0.0000000000
11
53.0797639210
21
34.5251264834
31
0.0000000000
11
53.7939118452
21
34.5901293462
31
0.0000000000
11
54.6850707867
21
34.6613158398
31
0.0000000000
11
55.7459831586
21
34.7363216097
31
0.0000000000
11
56.9716911734
21
34.8135355674
31
0.0000000000
11
58.3584268845
21
34.8917853828
31
0.0000000000
11
59.9045111983
21
34.9702419489
31
0.0000000000
11
61.6096831548
21
35.0482743157
31
0.0000000000
11
63.4740956217
21
35.1253438211
31
0.0000000000
11
65.4980288597
21
35.2009648686
31
0.0000000000
11
67.6816801832
21
35.2746809669
31
0.0000000000
11
70.0249971609
21
35.3460495909
31
0.0000000000
11
72.5275370559
21
35.4146324490
31
0.0000000000
11
75.1883423202
21
35.4799891557
31
0.0000000000
11
75.4911811999
21
35.4869750012
31
0.0000000000
0
SPLINE
5
484
100
AcDbEntity
8
0
100
AcDbSpline
62
7
6
CONTINUOUS
70
0
71
3
72
8
73
4
74
2
42
0.0000001000
43
0.0000001000
44
0.0000000001
40
0.0000000000
40
0.0000000000
40
0.0000000000
40
0.0000000000
40
1.0000000000
40
1.0000000000
40
1.0000000000
40
1.0000000000
10
75.4911811999
20
35.4869750012
30
0.0000000000
10
75.5291161944
20
35.4878445413
30
0.0000000000
10
75.5670512362
20
35.4887120087
30
0.0000000000
10
75.6049863251
20
35.4895774123
30
0.0000000000
11
75.4911811999
21
35.4869750012
31
0.0000000000
11
75.6049863251
21
35.4895774123
31
0.0000000000
0
SPLINE
5
485
100
AcDbEntity
8
0
100
AcDbSpline
62
7
6
CONTINUOUS
70
0
71
3
72
8
73
4
74
2
42
0.0000001000
43
0.0000001000
44
0.0000000001
40
0.0000000000
40
0.0000000000
40
0.0000000000
40
0.0000000000
40
1.0000000000
40
1.0000000000
40
1.0000000000
40
1.0000000000
10
75.6049863251
20
35.4895774123
30
0.0000000000
10
75.7390970130
20
35.4926368455
30
0.0000000000
10
75.8732082885
20
35.4956704846
30
0.0000000000
10
76.0073201339
20
35.4986787188
30
0.0000000000
11
75.6049863251
21
35.4895774123
31
0.0000000000
11
76.0073201339
21
35.4986787188
31
0.0000000000
0
SPLINE
5
486
100
AcDbEntity
8
0
100
AcDbSpline
62
7
6
CONTINUOUS
70
0
71
3
72
8
73
4
74
2
42
0.0000001000
43
0.0000001000
44
0.0000000001
40
0.0000000000
40
0.0000000000
40
0.0000000000
40
0.0000000000
40
1.0000000000
40
1.0000000000
40
1.0000000000
40
1.0000000000
10
76.0073201339
20
35.4986787188
30
0.0000000000
10
76.1466000369
20
35.5018028766
30
0.0000000000
10
76.2858805546
20
35.5048996339
30
0.0000000000
10
76.4251616672
20
35.5079694268
30
0.0000000000
11
76.0073201339
21
35.4986787188
31
0.0000000000
11
76.4251616672
21
35.5079694268
31
0.0000000000
0
SPLINE
5
487
100
AcDbEntity
8
0
100
AcDbSpline
62
7
6
CONTINUOUS
70
0
71
3
72
8
73
4
74
2
42
0.0000001000
43
0.0000001000
44
0.0000000001
40
0.0000000000
40
0.0000000000
40
0.0000000000
40
0.0000000000
40
1.0000000000
40
1.0000000000
40
1.0000000000
40
1.0000000000
10
76.4251616672
20
35.5079694268
30
0.0000000000
10
76.4353146281
20
35.5081932007
30
0.0000000000
10
76.4454675921
20
35.5084168314
30
0.0000000000
10
76.4556205592
20
35.5086403190
30
0.0000000000
11
76.4251616672
21
35.5079694268
31
0.0000000000
11
76.4556205592
21
35.5086403190
31
0.0000000000
0
SPLINE
5
488
100
AcDbEntity
8
0
100
AcDbSpline
62
7
6
CONTINUOUS
70
0
71
3
72
8
73
4
74
2
42
0.0000001000
43
0.0000001000
44
0.0000000001
40
0.0000000000
40
0.0000000000
40
0.0000000000
40
0.0000000000
40
1.0000000000
40
1.0000000000
40
1.0000000000
40
1.0000000000
10
76.4556205592
20
35.5086403190
30
0.0000000000
10
76.4962912907
20
35.5095355650
30
0.0000000000
10
76.5369620729
20
35.5104285145
30
0.0000000000
10
76.5776329051
20
35.5113191784
30
0.0000000000
11
76.4556205592
21
35.5086403190
31
0.0000000000
11
76.5776329051
21
35.5113191784
31
0.0000000000
0
SPLINE
5
489
100
AcDbEntity
8
0
100
AcDbSpline
62
7
6
CONTINUOUS
70
0
71
3
72
8
73
4
74
2
42
0.0000001000
43
0.0000001000
44
0.0000000001
40
0.0000000000
40
0.0000000000
40
0.0000000000
40
0.0000000000
40
1.0000000000
40
1.0000000000
40
1.0000000000
40
1.0000000000
10
76.5776329051
20
35.5113191784
30
0.0000000000
10
76.5924494307
20
35.5116436503
30
0.0000000000
10
76.6072659630
20
35.5119678189
30
0.0000000000
10
76.6220825019
20
35.5122916847
30
0.0000000000
11
76.5776329051
21
35.5113191784
31
0.0000000000
11
76.6220825019
21
35.5122916847
31
0.0000000000
0
SPLINE
5
48A
100
AcDbEntity
8
0
100
AcDbSpline
62
7
6
CONTINUOUS
70
0
71
3
72
8
73
4
74
2
42
0.0000001000
43
0.0000001000
44
0.0000000001
40
0.0000000000
40
0.0000000000
40
0.0000000000
40
0.0000000000
40
1.0000000000
40
1.0000000000
40
1.0000000000
40
1.0000000000
10
76.6220825019
20
35.5122916847
30
0.0000000000
10
76.6374040727
20
35.5126265897
30
0.0000000000
10
76.6527256505
20
35.5129611709
30
0.0000000000
10
76.6680472355
20
35.5132954289
30
0.0000000000
11
76.6220825019
21
35.5122916847
31
0.0000000000
11
76.6680472355
21
35.5132954289
31
0.0000000000
0
SPLINE
5
48B
100
AcDbEntity
8
0
100
AcDbSpline
62
7
6
CONTINUOUS
70
0
71
3
72
8
73
4
74
2
42
0.0000001000
43
0.0000001000
44
0.0000000001
40
0.0000000000
40
0.0000000000
40
0.0000000000
40
0.0000000000
40
1.0000000000
40
1.0000000000
40
1.0000000000
40
1.0000000000
10
76.6680472355
20
35.5132954289
30
0.0000000000
10
76.8450864831
20
35.5171577433
30
0.0000000000
10
77.0221266733
20
35.5209769017
30
0.0000000000
10
77.1991677654
20
35.5247537998
30
0.0000000000
11
76.6680472355
21
35.5132954289
31
0.0000000000
11
77.1991677654
21
35.5247537998
31
0.0000000000
0
SPLINE
5
48C
100
AcDbEntity
8
0
100
AcDbSpline
62
7
6
CONTINUOUS
70
0
71
3
72
8
73
4
74
2
42
0.0000001000
43
0.0000001000
44
0.0000000001
40
0.0000000000
40
0.0000000000
40
0.0000000000
40
0.0000000000
40
1.0000000000
40
1.0000000000
40
1.0000000000
40
1.0000000000
10
77.1991677654
20
35.5247537998
30
0.0000000000
10
77.2246428917
20
35.5252972723
30
0.0000000000
10
77.2501180368
20
35.5258398697
30
0.0000000000
10
77.2755932003
20
35.5263815948
30
0.0000000000
11
77.1991677654
21
35.5247537998
31
0.0000000000
11
77.2755932003
21
35.5263815948
31
0.0000000000
0
SPLINE
5
48D
100
AcDbEntity
8
0
100
AcDbSpline
62
7
6
CONTINUOUS
70
0
71
3
72
8
73
4
74
2
42
0.0000001000
43
0.0000001000
44
0.0000000001
40
0.0000000000
40
0.0000000000
40
0.0000000000
40
0.0000000000
40
1.0000000000
40
1.0000000000
40
1.0000000000
40
1.0000000000
10
77.2755932003
20
35.5263815948
30
0.0000000000
10
77.3414981705
20
35.5277830529
30
0.0000000000
10
77.4074032649
20
35.5291786727
30
0.0000000000
10
77.4733084813
20
35.5305685002
30
0.0000000000
11
77.2755932003
21
35.5263815948
31
0.0000000000
11
77.4733084813
21
35.5305685002
31
0.0000000000
0
SPLINE
5
48E
100
AcDbEntity
8
0
100
AcDbSpline
62
7
6
CONTINUOUS
70
0
71
3
72
8
73
4
74
2
42
0.0000001000
43
0.0000001000
44
0.0000000001
40
0.0000000000
40
0.0000000000
40
0.0000000000
40
0.0000000000
40
1.0000000000
40
1.0000000000
40
1.0000000000
40
1.0000000000
10
77.4733084813
20
35.5305685002
30
0.0000000000
10
77.5593370530
20
35.5323826947
30
0.0000000000
10
77.6453658326
20
35.5341870197
30
0.0000000000
10
77.7313948156
20
35.5359815782
30
0.0000000000
11
77.4733084813
21
35.5305685002
31
0.0000000000
11
77.7313948156
21
35.5359815782
31
0.0000000000
0
SPLINE
5
48F
100
AcDbEntity
8
0
100
AcDbSpline
62
7
6
CONTINUOUS
70
0
71
3
72
8
73
4
74
2
42
0.0000001000
43
0.0000001000
44
0.0000000001
40
0.0000000000
40
0.0000000000
40
0.0000000000
40
0.0000000000
40
1.0000000000
40
1.0000000000
40
1.0000000000
40
1.0000000000
10
77.7313948156
20
35.5359815782
30
0.0000000000
10
77.7921319493
20
35.5372485505
30
0.0000000000
10
77.8528691843
20
35.5385106546
30
0.0000000000
10
77.9136065190
20
35.5397679267
30
0.0000000000
11
77.7313948156
21
35.5359815782
31
0.0000000000
11
77.9136065190
21
35.5397679267
31
0.0000000000
0
SPLINE
5
490
100
AcDbEntity
8
0
100
AcDbSpline
62
7
6
CONTINUOUS
70
0
71
3
72
8
73
4
74
2
42
0.0000001000
43
0.0000001000
44
0.0000000001
40
0.0000000000
40
0.0000000000
40
0.0000000000
40
0.0000000000
40
1.0000000000
40
1.0000000000
40
1.0000000000
40
1.0000000000
10
77.9136065190
20
35.5397679267
30
0.0000000000
10
77.9443463177
20
35.5404042453
30
0.0000000000
10
77.9750861420
20
35.5410393261
30
0.0000000000
10
78.0058259915
20
35.5416731739
30
0.0000000000
11
77.9136065190
21
35.5397679267
31
0.0000000000
11
78.0058259915
21
35.5416731739
31
0.0000000000
0
SPLINE
5
491
100
AcDbEntity
8
0
100
AcDbSpline
62
7
6
CONTINUOUS
70
0
71
3
72
8
73
4
74
2
42
0.0000001000
43
0.0000001000
44
0.0000000001
40
0.0000000000
40
0.0000000000
40
0.0000000000
40
0.0000000000
40
1.0000000000
40
1.0000000000
40
1.0000000000
40
1.0000000000
10
78.0058259915
20
35.5416731739
30
0.0000000000
10
78.0610529170
20
35.5428119390
30
0.0000000000
10
78.1162799243
20
35.5439467242
30
0.0000000000
10
78.1715070124
20
35.5450775504
30
0.0000000000
11
78.0058259915
21
35.5416731739
31
0.0000000000
11
78.1715070124
21
35.5450775504
31
0.0000000000
0
SPLINE
5
492
100
AcDbEntity
8
0
100
AcDbSpline
62
7
6
CONTINUOUS
70
0
71
3
72
8
73
4
74
2
42
0.0000001000
43
0.0000001000
44
0.0000000001
40
0.0000000000
40
0.0000000000
40
0.0000000000
40
0.0000000000
40
1.0000000000
40
1.0000000000
40
1.0000000000
40
1.0000000000
10
78.1715070124
20
35.5450775504
30
0.0000000000
10
78.2602149473
20
35.5468939283
30
0.0000000000
10
78.3489230908
20
35.5487000919
30
0.0000000000
10
78.4376314390
20
35.5504961279
30
0.0000000000
11
78.1715070124
21
35.5450775504
31
0.0000000000
11
78.4376314390
21
35.5504961279
31
0.0000000000
0
SPLINE
5
493
100
AcDbEntity
8
0
100
AcDbSpline
62
7
6
CONTINUOUS
70
0
71
3
72
8
73
4
74
2
42
0.0000001000
43
0.0000001000
44
0.0000000001
40
0.0000000000
40
0.0000000000
40
0.0000000000
40
0.0000000000
40
1.0000000000
40
1.0000000000
40
1.0000000000
40
1.0000000000
10
78.4376314390
20
35.5504961279
30
0.0000000000
10
78.5439713796
20
35.5526491423
30
0.0000000000
10
78.6503116145
20
35.5547876030
30
0.0000000000
10
78.7566521370
20
35.5569116588
30
0.0000000000
11
78.4376314390
21
35.5504961279
31
0.0000000000
11
78.7566521370
21
35.5569116588
31
0.0000000000
0
SPLINE
5
494
100
AcDbEntity
8
0
100
AcDbSpline
62
7
6
CONTINUOUS
70
0
71
3
72
8
73
4
74
2
42
0.0000001000
43
0.0000001000
44
0.0000000001
40
0.0000000000
40
0.0000000000
40
0.0000000000
40
0.0000000000
40
1.0000000000
40
1.0000000000
40
1.0000000000
40
1.0000000000
10
78.7566521370
20
35.5569116588
30
0.0000000000
10
78.7894229421
20
35.5575662260
30
0.0000000000
10
78.8221937744
20
35.5582194253
30
0.0000000000
10
78.8549646339
20
35.5588712608
30
0.0000000000
11
78.7566521370
21
35.5569116588
31
0.0000000000
11
78.8549646339
21
35.5588712608
31
0.0000000000
0
SPLINE
5
495
100
AcDbEntity
8
0
100
AcDbSpline
62
7
6
CONTINUOUS
70
0
71
3
72
8
73
4
74
2
42
0.0000001000
43
0.0000001000
44
0.0000000001
40
0.0000000000
40
0.0000000000
40
0.0000000000
40
0.0000000000
40
1.0000000000
40
1.0000000000
40
1.0000000000
40
1.0000000000
10
78.8549646339
20
35.5588712608
30
0.0000000000
10
78.9256749118
20
35.5602777383
30
0.0000000000
10
78.9963853160
20
35.5616778671
30
0.0000000000
10
79.0670958445
20
35.5630716909
30
0.0000000000
11
78.8549646339
21
35.5588712608
31
0.0000000000
11
79.0670958445
21
35.5630716909
31
0.0000000000
0
SPLINE
5
496
100
AcDbEntity
8
0
100
AcDbSpline
62
7
6
CONTINUOUS
70
0
71
3
72
8
73
4
74
2
42
0.0000001000
43
0.0000001000
44
0.0000000001
40
0.0000000000
40
0.0000000000
40
0.0000000000
40
0.0000000000
40
1.0000000000
40
1.0000000000
40
1.0000000000
40
1.0000000000
10
79.0670958445
20
35.5630716909
30
0.0000000000
10
79.1887595565
20
35.5654698878
30
0.0000000000
10
79.3104236367
20
35.5678494195
30
0.0000000000
10
79.4320880751
20
35.5702105090
30
0.0000000000
11
79.0670958445
21
35.5630716909
31
0.0000000000
11
79.4320880751
21
35.5702105090
31
0.0000000000
0
SPLINE
5
497
100
AcDbEntity
8
0
100
AcDbSpline
62
7
6
CONTINUOUS
70
0
71
3
72
8
73
4
74
2
42
0.0000001000
43
0.0000001000
44
0.0000000001
40
0.0000000000
40
0.0000000000
40
0.0000000000
40
0.0000000000
40
1.0000000000
40
1.0000000000
40
1.0000000000
40
1.0000000000
10
79.4320880751
20
35.5702105090
30
0.0000000000
10
79.4456573424
20
35.5704738419
30
0.0000000000
10
79.4592266142
20
35.5707369455
30
0.0000000000
10
79.4727958904
20
35.5709998199
30
0.0000000000
11
79.4320880751
21
35.5702105090
31
0.0000000000
11
79.4727958904
21
35.5709998199
31
0.0000000000
0
SPLINE
5
498
100
AcDbEntity
8
0
100
AcDbSpline
62
7
6
CONTINUOUS
70
0
71
3
72
8
73
4
74
2
42
0.0000001000
43
0.0000001000
44
0.0000000001
40
0.0000000000
40
0.0000000000
40
0.0000000000
40
0.0000000000
40
1.0000000000
40
1.0000000000
40
1.0000000000
40
1.0000000000
10
79.4727958904
20
35.5709998199
30
0.0000000000
10
79.5202659029
20
35.5719194455
30
0.0000000000
10
79.5677359698
20
35.5728362673
30
0.0000000000
10
79.6152060904
20
35.5737502986
30
0.0000000000
11
79.4727958904
21
35.5709998199
31
0.0000000000
11
79.6152060904
21
35.5737502986
31
0.0000000000
0
SPLINE
5
499
100
AcDbEntity
8
0
100
AcDbSpline
62
7
6
CONTINUOUS
70
0
71
3
72
8
73
4
74
2
42
0.0000001000
43
0.0000001000
44
0.0000000001
40
0.0000000000
40
0.0000000000
40
0.0000000000
40
0.0000000000
40
1.0000000000
40
1.0000000000
40
1.0000000000
40
1.0000000000
10
79.6152060904
20
35.5737502986
30
0.0000000000
10
79.6830781707
20
35.5750571671
30
0.0000000000
10
79.7509503610
20
35.5763583311
30
0.0000000000
10
79.8188226595
20
35.5776538293
30
0.0000000000
11
79.6152060904
21
35.5737502986
31
0.0000000000
11
79.8188226595
21
35.5776538293
31
0.0000000000
0
SPLINE
5
49A
100
AcDbEntity
8
0
100
AcDbSpline
62
7
6
CONTINUOUS
70
0
71
3
72
8
73
4
74
2
42
0.0000001000
43
0.0000001000
44
0.0000000001
40
0.0000000000
40
0.0000000000
40
0.0000000000
40
0.0000000000
40
1.0000000000
40
1.0000000000
40
1.0000000000
40
1.0000000000
10
79.8188226595
20
35.5776538293
30
0.0000000000
10
79.8467928960
20
35.5781877052
30
0.0000000000
10
79.8747631509
20
35.5787206190
30
0.0000000000
10
79.9027334240
20
35.5792525733
30
0.0000000000
11
79.8188226595
21
35.5776538293
31
0.0000000000
11
79.9027334240
21
35.5792525733
31
0.0000000000
0
SPLINE
5
49B
100
AcDbEntity
8
0
100
AcDbSpline
62
7
6
CONTINUOUS
70
0
71
3
72
8
73
4
74
2
42
0.0000001000
43
0.0000001000
44
0.0000000001
40
0.0000000000
40
0.0000000000
40
0.0000000000
40
0.0000000000
40
1.0000000000
40
1.0000000000
40
1.0000000000
40
1.0000000000
10
79.9027334240
20
35.5792525733
30
0.0000000000
10
79.9887698171
20
35.5808888614
30
0.0000000000
10
80.0748063829
20
35.5825160710
30
0.0000000000
10
80.1608431180
20
35.5841342809
30
0.0000000000
11
79.9027334240
21
35.5792525733
31
0.0000000000
11
80.1608431180
21
35.5841342809
31
0.0000000000
0
SPLINE
5
49C
100
AcDbEntity
8
0
100
AcDbSpline
62
7
6
CONTINUOUS
70
0
71
3
72
8
73
4
74
2
42
0.0000001000
43
0.0000001000
44
0.0000000001
40
0.0000000000
40
0.0000000000
40
0.0000000000
40
0.0000000000
40
1.0000000000
40
1.0000000000
40
1.0000000000
40
1.0000000000
10
80.1608431180
20
35.5841342809
30
0.0000000000
10
80.2422352779
20
35.5856651340
30
0.0000000000
10
80.3236275894
20
35.5871879328
30
0.0000000000
10
80.4050200494
20
35.5887027443
30
0.0000000000
11
80.1608431180
21
35.5841342809
31
0.0000000000
11
80.4050200494
21
35.5887027443
31
0.0000000000
0
SPLINE
5
49D
100
AcDbEntity
8
0
100
AcDbSpline
62
7
6
CONTINUOUS
70
0
71
3
72
8
73
4
74
2
42
0.0000001000
43
0.0000001000
44
0.0000000001
40
0.0000000000
40
0.0000000000
40
0.0000000000
40
0.0000000000
40
1.0000000000
40
1.0000000000
40
1.0000000000
40
1.0000000000
10
80.4050200494
20
35.5887027443
30
0.0000000000
10
80.4830547562
20
35.5901550639
30
0.0000000000
10
80.5610895996
20
35.5916000415
30
0.0000000000
10
80.6391245770
20
35.5930377359
30
0.0000000000
11
80.4050200494
21
35.5887027443
31
0.0000000000
11
80.6391245770
21
35.5930377359
31
0.0000000000
0
SPLINE
5
49E
100
AcDbEntity
8
0
100
AcDbSpline
62
7
6
CONTINUOUS
70
0
71
3
72
8
73
4
74
2
42
0.0000001000
43
0.0000001000
44
0.0000000001
40
0.0000000000
40
0.0000000000
40
0.0000000000
40
0.0000000000
40
1.0000000000
40
1.0000000000
40
1.0000000000
40
1.0000000000
10
80.6391245770
20
35.5930377359
30
0.0000000000
10
80.6923892929
20
35.5940190701
30
0.0000000000
10
80.7456540713
20
35.5949970109
30
0.0000000000
10
80.7989189112
20
35.5959715772
30
0.0000000000
11
80.6391245770
21
35.5930377359
31
0.0000000000
11
80.7989189112
21
35.5959715772
31
0.0000000000
0
SPLINE
5
49F
100
AcDbEntity
8
0
100
AcDbSpline
62
7
6
CONTINUOUS
70
0
71
3
72
8
73
4
74
2
42
0.0000001000
43
0.0000001000
44
0.0000000001
40
0.0000000000
40
0.0000000000
40
0.0000000000
40
0.0000000000
40
1.0000000000
40
1.0000000000
40
1.0000000000
40
1.0000000000
10
80.7989189112
20
35.5959715772
30
0.0000000000
10
80.8584486134
20
35.5970607693
30
0.0000000000
10
80.9179783926
20
35.5981457463
30
0.0000000000
10
80.9775082475
20
35.5992265345
30
0.0000000000
11
80.7989189112
21
35.5959715772
31
0.0000000000
11
80.9775082475
21
35.5992265345
31
0.0000000000
0
SPLINE
5
4A0
100
AcDbEntity
8
0
100
AcDbSpline
62
7
6
CONTINUOUS
70
0
71
3
72
8
73
4
74
2
42
0.0000001000
43
0.0000001000
44
0.0000000001
40
0.0000000000
40
0.0000000000
40
0.0000000000
40
0.0000000000
40
1.0000000000
40
1.0000000000
40
1.0000000000
40
1.0000000000
10
80.9775082475
20
35.5992265345
30
0.0000000000
10
81.0166263549
20
35.5999367392
30
0.0000000000
10
81.0557444951
20
35.6006451351
30
0.0000000000
10
81.0948626677
20
35.6013517280
30
0.0000000000
11
80.9775082475
21
35.5992265345
31
0.0000000000
11
81.0948626677
21
35.6013517280
31
0.0000000000
0
SPLINE
5
4A1
100
AcDbEntity
8
0
100
AcDbSpline
62
7
6
CONTINUOUS
70
0
71
3
72
8
73
4
74
2
42
0.0000001000
43
0.0000001000
44
0.0000000001
40
0.0000000000
40
0.0000000000
40
0.0000000000
40
0.0000000000
40
1.0000000000
40
1.0000000000
40
1.0000000000
40
1.0000000000
10
81.0948626677
20
35.6013517280
30
0.0000000000
10
81.1278195872
20
35.6019470300
30
0.0000000000
10
81.1607765298
20
35.6025410521
30
0.0000000000
10
81.1937334953
20
35.6031337978
30
0.0000000000
11
81.0948626677
21
35.6013517280
31
0.0000000000
11
81.1937334953
21
35.6031337978
31
0.0000000000
0
SPLINE
5
4A2
100
AcDbEntity
8
0
100
AcDbSpline
62
7
6
CONTINUOUS
70
0
71
3
72
8
73
4
74
2
42
0.0000001000
43
0.0000001000
44
0.0000000001
40
0.0000000000
40
0.0000000000
40
0.0000000000
40
0.0000000000
40
1.0000000000
40
1.0000000000
40
1.0000000000
40
1.0000000000
10
81.1937334953
20
35.6031337978
30
0.0000000000
10
81.3508565105
20
35.6059597254
30
0.0000000000
10
81.5079800461
20
35.6087566414
30
0.0000000000
10
81.6651040860
20
35.6115249166
30
0.0000000000
11
81.1937334953
21
35.6031337978
31
0.0000000000
11
81.6651040860
21
35.6115249166
31
0.0000000000
0
SPLINE
5
4A3
100
AcDbEntity
8
0
100
AcDbSpline
62
7
6
CONTINUOUS
70
0
71
3
72
8
73
4
74
2
42
0.0000001000
43
0.0000001000
44
0.0000000001
40
0.0000000000
40
0.0000000000
40
0.0000000000
40
0.0000000000
40
1.0000000000
40
1.0000000000
40
1.0000000000
40
1.0000000000
10
81.6651040860
20
35.6115249166
30
0.0000000000
10
81.8067206916
20
35.6140199755
30
0.0000000000
10
81.9483377068
20
35.6164917681
30
0.0000000000
10
82.0899551199
20
35.6189405658
30
0.0000000000
11
81.6651040860
21
35.6115249166
31
0.0000000000
11
82.0899551199
21
35.6189405658
31
0.0000000000
0
SPLINE
5
4A4
100
AcDbEntity
8
0
100
AcDbSpline
62
7
6
CONTINUOUS
70
0
71
3
72
8
73
4
74
2
42
0.0000001000
43
0.0000001000
44
0.0000000001
40
0.0000000000
40
0.0000000000
40
0.0000000000
40
0.0000000000
40
1.0000000000
40
1.0000000000
40
1.0000000000
40
1.0000000000
10
82.0899551199
20
35.6189405658
30
0.0000000000
10
82.1052792065
20
35.6192055444
30
0.0000000000
10
82.1206032977
20
35.6194702538
30
0.0000000000
10
82.1359273936
20
35.6197346943
30
0.0000000000
11
82.0899551199
21
35.6189405658
31
0.0000000000
11
82.1359273936
21
35.6197346943
31
0.0000000000
0
SPLINE
5
4A5
100
AcDbEntity
8
0
100
AcDbSpline
62
7
6
CONTINUOUS
70
0
71
3
72
8
73
4
74
2
42
0.0000001000
43
0.0000001000
44
0.0000000001
40
0.0000000000
40
0.0000000000
40
0.0000000000
40
0.0000000000
40
1.0000000000
40
1.0000000000
40
1.0000000000
40
1.0000000000
10
82.1359273936
20
35.6197346943
30
0.0000000000
10
82.1761799137
20
35.6204293125
30
0.0000000000
10
82.2164324659
20
35.6211220754
30
0.0000000000
10
82.2566850498
20
35.6218129891
30
0.0000000000
11
82.1359273936
21
35.6197346943
31
0.0000000000
11
82.2566850498
21
35.6218129891
31
0.0000000000
0
SPLINE
5
4A6
100
AcDbEntity
8
0
100
AcDbSpline
62
7
6
CONTINUOUS
70
0
71
3
72
8
73
4
74
2
42
0.0000001000
43
0.0000001000
44
0.0000000001
40
0.0000000000
40
0.0000000000
40
0.0000000000
40
0.0000000000
40
1.0000000000
40
1.0000000000
40
1.0000000000
40
1.0000000000
10
82.2566850498
20
35.6218129891
30
0.0000000000
10
82.3442087922
20
35.6233152865
30
0.0000000000
10
82.4317326848
20
35.6248088415
30
0.0000000000
10
82.5192567248
20
35.6262937182
30
0.0000000000
11
82.2566850498
21
35.6218129891
31
0.0000000000
11
82.5192567248
21
35.6262937182
31
0.0000000000
0
SPLINE
5
4A7
100
AcDbEntity
8
0
100
AcDbSpline
62
7
6
CONTINUOUS
70
0
71
3
72
8
73
4
74
2
42
0.0000001000
43
0.0000001000
44
0.0000000001
40
0.0000000000
40
0.0000000000
40
0.0000000000
40
0.0000000000
40
1.0000000000
40
1.0000000000
40
1.0000000000
40
1.0000000000
10
82.5192567248
20
35.6262937182
30
0.0000000000
10
82.5328884979
20
35.6265249862
30
0.0000000000
10
82.5465202745
20
35.6267560436
30
0.0000000000
10
82.5601520548
20
35.6269868907
30
0.0000000000
11
82.5192567248
21
35.6262937182
31
0.0000000000
11
82.5601520548
21
35.6269868907
31
0.0000000000
0
SPLINE
5
4A8
100
AcDbEntity
8
0
100
AcDbSpline
62
7
6
CONTINUOUS
70
0
71
3
72
8
73
4
74
2
42
0.0000001000
43
0.0000001000
44
0.0000000001
40
0.0000000000
40
0.0000000000
40
0.0000000000
40
0.0000000000
40
1.0000000000
40
1.0000000000
40
1.0000000000
40
1.0000000000
10
82.5601520548
20
35.6269868907
30
0.0000000000
10
82.6768440839
20
35.6289630097
30
0.0000000000
10
82.7935363743
20
35.6309237200
30
0.0000000000
10
82.9102289192
20
35.6328691737
30
0.0000000000
11
82.5601520548
21
35.6269868907
31
0.0000000000
11
82.9102289192
21
35.6328691737
31
0.0000000000
0
SPLINE
5
4A9
100
AcDbEntity
8
0
100
AcDbSpline
62
7
6
CONTINUOUS
70
0
71
3
72
8
73
4
74
2
42
0.0000001000
43
0.0000001000
44
0.0000000001
40
0.0000000000
40
0.0000000000
40
0.0000000000
40
0.0000000000
40
1.0000000000
40
1.0000000000
40
1.0000000000
40
1.0000000000
10
82.9102289192
20
35.6328691737
30
0.0000000000
10
83.0165828540
20
35.6346422659
30
0.0000000000
10
83.1229370003
20
35.6364026851
30
0.0000000000
10
83.2292913530
20
35.6381505462
30
0.0000000000
11
82.9102289192
21
35.6328691737
31
0.0000000000
11
83.2292913530
21
35.6381505462
31
0.0000000000
0
SPLINE
5
4AA
100
AcDbEntity
8
0
100
AcDbSpline
62
7
6
CONTINUOUS
70
0
71
3
72
8
73
4
74
2
42
0.0000001000
43
0.0000001000
44
0.0000000001
40
0.0000000000
40
0.0000000000
40
0.0000000000
40
0.0000000000
40
1.0000000000
40
1.0000000000
40
1.0000000000
40
1.0000000000
10
83.2292913530
20
35.6381505462
30
0.0000000000
10
83.2467417977
20
35.6384373323
30
0.0000000000
10
83.2641922480
20
35.6387237804
30
0.0000000000
10
83.2816427038
20
35.6390098909
30
0.0000000000
11
83.2292913530
21
35.6381505462
31
0.0000000000
11
83.2816427038
21
35.6390098909
31
0.0000000000
0
SPLINE
5
4AB
100
AcDbEntity
8
0
100
AcDbSpline
62
7
6
CONTINUOUS
70
0
71
3
72
8
73
4
74
2
42
0.0000001000
43
0.0000001000
44
0.0000000001
40
0.0000000000
40
0.0000000000
40
0.0000000000
40
0.0000000000
40
1.0000000000
40
1.0000000000
40
1.0000000000
40
1.0000000000
10
83.2816427038
20
35.6390098909
30
0.0000000000
10
83.3247566217
20
35.6397167689
30
0.0000000000
10
83.3678705733
20
35.6404215862
30
0.0000000000
10
83.4109845584
20
35.6411243507
30
0.0000000000
11
83.2816427038
21
35.6390098909
31
0.0000000000
11
83.4109845584
21
35.6411243507
31
0.0000000000
0
SPLINE
5
4AC
100
AcDbEntity
8
0
100
AcDbSpline
62
7
6
CONTINUOUS
70
0
71
3
72
8
73
4
74
2
42
0.0000001000
43
0.0000001000
44
0.0000000001
40
0.0000000000
40
0.0000000000
40
0.0000000000
40
0.0000000000
40
1.0000000000
40
1.0000000000
40
1.0000000000
40
1.0000000000
10
83.4109845584
20
35.6411243507
30
0.0000000000
10
83.4314783404
20
35.6414584024
30
0.0000000000
10
83.4519721299
20
35.6417919903
30
0.0000000000
10
83.4724659269
20
35.6421251151
30
0.0000000000
11
83.4109845584
21
35.6411243507
31
0.0000000000
11
83.4724659269
21
35.6421251151
31
0.0000000000
0
SPLINE
5
4AD
100
AcDbEntity
8
0
100
AcDbSpline
62
7
6
CONTINUOUS
70
0
71
3
72
8
73
4
74
2
42
0.0000001000
43
0.0000001000
44
0.0000000001
40
0.0000000000
40
0.0000000000
40
0.0000000000
40
0.0000000000
40
1.0000000000
40
1.0000000000
40
1.0000000000
40
1.0000000000
10
83.4724659269
20
35.6421251151
30
0.0000000000
10
83.6804417141
20
35.6455057428
30
0.0000000000
10
83.8884182762
20
35.6488386841
30
0.0000000000
10
84.0963955755
20
35.6521247986
30
0.0000000000
11
83.4724659269
21
35.6421251151
31
0.0000000000
11
84.0963955755
21
35.6521247986
31
0.0000000000
0
SPLINE
5
4AE
100
AcDbEntity
8
0
100
AcDbSpline
62
7
6
CONTINUOUS
70
0
71
3
72
8
73
4
74
2
42
0.0000001000
43
0.0000001000
44
0.0000000001
40
0.0000000000
40
0.0000000000
40
0.0000000000
40
0.0000000000
40
1.0000000000
40
1.0000000000
40
1.0000000000
40
1.0000000000
10
84.0963955755
20
35.6521247986
30
0.0000000000
10
84.1084087497
20
35.6523146110
30
0.0000000000
10
84.1204219264
20
35.6525042671
30
0.0000000000
10
84.1324351055
20
35.6526937671
30
0.0000000000
11
84.0963955755
21
35.6521247986
31
0.0000000000
11
84.1324351055
21
35.6526937671
31
0.0000000000
0
SPLINE
5
4AF
100
AcDbEntity
8
0
100
AcDbSpline
62
7
6
CONTINUOUS
70
0
71
3
72
8
73
4
74
2
42
0.0000001000
43
0.0000001000
44
0.0000000001
40
0.0000000000
40
0.0000000000
40
0.0000000000
40
0.0000000000
40
1.0000000000
40
1.0000000000
40
1.0000000000
40
1.0000000000
10
84.1324351055
20
35.6526937671
30
0.0000000000
10
84.2742449805
20
35.6549307251
30
0.0000000000
10
84.4160551975
20
35.6571459301
30
0.0000000000
10
84.5578657473
20
35.6593395928
30
0.0000000000
11
84.1324351055
21
35.6526937671
31
0.0000000000
11
84.5578657473
21
35.6593395928
31
0.0000000000
0
SPLINE
5
4B0
100
AcDbEntity
8
0
100
AcDbSpline
62
7
6
CONTINUOUS
70
0
71
3
72
8
73
4
74
2
42
0.0000001000
43
0.0000001000
44
0.0000000001
40
0.0000000000
40
0.0000000000
40
0.0000000000
40
0.0000000000
40
1.0000000000
40
1.0000000000
40
1.0000000000
40
1.0000000000
10
88.8347728801
20
35.7191782146
30
0.0000000000
10
88.8978674488
20
35.7199706923
30
0.0000000000
10
88.9609620663
20
35.7207592916
30
0.0000000000
10
89.0240567319
20
35.7215440268
30
0.0000000000
11
88.8347728801
21
35.7191782146
31
0.0000000000
11
89.0240567319
21
35.7215440268
31
0.0000000000
0
SPLINE
5
4B1
100
AcDbEntity
8
0
100
AcDbSpline
62
7
6
CONTINUOUS
70
0
71
3
72
11
73
7
74
5
42
0.0000001000
43
0.0000001000
44
0.0000000001
40
0.0000000000
40
0.0000000000
40
0.0000000000
40
0.0000000000
40
0.1537005536
40
0.4680988159
40
0.7905518181
40
1.0000000000
40
1.0000000000
40
1.0000000000
40
1.0000000000
10
89.0240567319
20
35.7215440268
30
0.0000000000
10
89.5913993599
20
35.7286003090
30
0.0000000000
10
91.3192671316
20
35.7491388797
30
0.0000000000
10
94.2374417237
20
35.7790942334
30
0.0000000000
10
97.3614583145
20
35.8046403641
30
0.0000000000
10
99.3249334528
20
35.8174209855
30
0.0000000000
10
100.0980993394
20
35.8219564269
30
0.0000000000
11
89.0240567319
21
35.7215440268
31
0.0000000000
11
90.7260958131
21
35.7417859729
31
0.0000000000
11
94.2077201623
21
35.7775929681
31
0.0000000000
11
97.7786111451
21
35.8068478254
31
0.0000000000
11
100.0980993394
21
35.8219564269
31
0.0000000000
0
SPLINE
5
4B2
100
AcDbEntity
8
0
100
AcDbSpline
62
7
6
CONTINUOUS
70
0
71
3
72
8
73
4
74
2
42
0.0000001000
43
0.0000001000
44
0.0000000001
40
0.0000000000
40
0.0000000000
40
0.0000000000
40
0.0000000000
40
1.0000000000
40
1.0000000000
40
1.0000000000
40
1.0000000000
10
106.4317482788
20
35.8481655818
30
0.0000000000
10
106.8762417440
20
35.8492467528
30
0.0000000000
10
107.3207355937
20
35.8501698663
30
0.0000000000
10
107.7652297148
20
35.8509355850
30
0.0000000000
11
106.4317482788
21
35.8481655818
31
0.0000000000
11
107.7652297148
21
35.8509355850
31
0.0000000000
0
SPLINE
5
4B3
100
AcDbEntity
8
0
100
AcDbSpline
62
7
6
CONTINUOUS
70
0
71
3
72
8
73
4
74
2
42
0.0000001000
43
0.0000001000
44
0.0000000001
40
0.0000000000
40
0.0000000000
40
0.0000000000
40
0.0000000000
40
1.0000000000
40
1.0000000000
40
1.0000000000
40
1.0000000000
10
113.7656974798
20
35.8517404511
30
0.0000000000
10
114.2101923693
20
35.8510942451
30
0.0000000000
10
114.6546870300
20
35.8502908205
30
0.0000000000
10
115.0991813495
20
35.8493296168
30
0.0000000000
11
113.7656974798
21
35.8517404511
31
0.0000000000
11
115.0991813495
21
35.8493296168
31
0.0000000000
0
SPLINE
5
4B4
100
AcDbEntity
8
0
100
AcDbSpline
62
7
6
CONTINUOUS
70
0
71
3
72
8
73
4
74
2
42
0.0000001000
43
0.0000001000
44
0.0000000001
40
0.0000000000
40
0.0000000000
40
0.0000000000
40
0.0000000000
40
1.0000000000
40
1.0000000000
40
1.0000000000
40
1.0000000000
10
121.7661734968
20
35.8229651553
30
0.0000000000
10
121.7944257952
20
35.8228021353
30
0.0000000000
10
121.8226780898
20
35.8226384524
30
0.0000000000
10
121.8509303805
20
35.8224741060
30
0.0000000000
11
121.7661734968
21
35.8229651553
31
0.0000000000
11
121.8509303805
21
35.8224741060
31
0.0000000000
0
SPLINE
5
4B5
100
AcDbEntity
8
0
100
AcDbSpline
62
7
6
CONTINUOUS
70
0
71
3
72
31
73
27
74
25
42
0.0000001000
43
0.0000001000
44
0.0000000001
40
0.0000000000
40
0.0000000000
40
0.0000000000
40
0.0000000000
40
0.0379200300
40
0.1126446527
40
0.1855629707
40
0.2563143119
40
0.3245673906
40
0.3900242533
40
0.4524245239
40
0.5116064835
40
0.5675257372
40
0.6201596831
40
0.6694973119
40
0.7155366066
40
0.7582817761
40
0.7977402096
40
0.8339189015
40
0.8668199893
40
0.8964347864
40
0.9227239137
40
0.9455921348
40
0.9649178400
40
0.9805341931
40
0.9921794245
40
0.9994091851
40
1.0000000000
40
1.0000000000
40
1.0000000000
40
1.0000000000
10
121.8509303805
20
35.8224741060
30
0.0000000000
10
122.4575122131
20
35.8189455587
30
0.0000000000
10
124.2594095021
20
35.8075551979
30
0.0000000000
10
127.2276990829
20
35.7842756241
30
0.0000000000
10
130.7210981675
20
35.7496084994
30
0.0000000000
10
134.1109000688
20
35.7087289233
30
0.0000000000
10
137.3812578842
20
35.6620822345
30
0.0000000000
10
140.5179301268
20
35.6101731515
30
0.0000000000
10
143.5093887979
20
35.5535409990
30
0.0000000000
10
146.3481625832
20
35.4927133292
30
0.0000000000
10
149.0305837333
20
35.4281734252
30
0.0000000000
10
151.5553950327
20
35.3603605079
30
0.0000000000
10
153.9220165107
20
35.2897015385
30
0.0000000000
10
156.1302976382
20
35.2166181992
30
0.0000000000
10
158.1803779912
20
35.1415345570
30
0.0000000000
10
160.0725523606
20
35.0648847635
30
0.0000000000
10
161.8070427290
20
34.9871377233
30
0.0000000000
10
163.3839407846
20
34.9087935339
30
0.0000000000
10
164.8021878227
20
34.8305266673
30
0.0000000000
10
166.0604680624
20
34.7529904797
30
0.0000000000
10
167.1516675090
20
34.6778464935
30
0.0000000000
10
168.0786066610
20
34.6051921132
30
0.0000000000
10
168.8075810978
20
34.5417557411
30
0.0000000000
10
169.3884489962
20
34.4804711997
30
0.0000000000
10
169.6444605829
20
34.4532654840
30
0.0000000000
10
169.8046604069
20
34.4306102221
30
0.0000000000
10
169.8161916485
20
34.4289788816
30
0.0000000000
11
121.8509303805
21
35.8224741060
31
0.0000000000
11
123.6706702009
21
35.8109661363
31
0.0000000000
11
127.2565818081
21
35.7827902863
31
0.0000000000
11
130.7557469006
21
35.7480002144
31
0.0000000000
11
134.1508442570
21
35.7069777568
31
0.0000000000
11
137.4259637732
21
35.6601709165
31
0.0000000000
11
140.5667959941
21
35.6080876964
31
0.0000000000
11
143.5608359611
21
35.5512885275
31
0.0000000000
11
146.4003138361
21
35.4903146184
31
0.0000000000
11
149.0830896775
21
35.4256211391
31
0.0000000000
11
151.6080691615
21
35.3576434874
31
0.0000000000
11
153.9747139353
21
35.2868066745
31
0.0000000000
11
156.1829166084
21
35.2135297163
31
0.0000000000
11
158.2328678111
21
35.1382322262
31
0.0000000000
11
160.1249098914
21
35.0613442901
31
0.0000000000
11
161.8593653425
21
34.9833216126
31
0.0000000000
11
163.4363228961
21
34.9046692622
31
0.0000000000
11
164.8553520280
21
34.8259801286
31
0.0000000000
11
166.1145528023
21
34.7480351902
31
0.0000000000
11
167.2093565581
21
34.6719824519
31
0.0000000000
11
168.1339501105
21
34.5994091246
31
0.0000000000
11
168.8803955651
21
34.5326347102
31
0.0000000000
11
169.4363046015
21
34.4753501479
31
0.0000000000
11
169.7807827033
21
34.4339663432
31
0.0000000000
11
169.8161916485
21
34.4289788816
31
0.0000000000
0
ENDSEC
0
SECTION
2
OBJECTS
0
DICTIONARY
5
4B6
100
AcDbDictionary
3
ACAD_GROUP
350
4B7
3
ACAD_MLINESTYLE
350
4B8
0
DICTIONARY
5
4B7
102
{ACAD_REACTORS
330
4B6
102
}
100
AcDbDictionary
0
DICTIONARY
5
4B8
102
{ACAD_REACTORS
330
4B6
102
}
100
AcDbDictionary
3
STANDARD
350
4B9
0
MLINESTYLE
5
4B9
102
{ACAD_REACTORS
330
4B8
102
}
100
AcDbMlineStyle
2
STANDARD
70
0
3

62
256
51
90.0
52
90.0
71
2
49
0.5
62
256
6
BYLAYER
49
-0.5
62
256
6
BYLAYER
0
ENDSEC
0
EOF
