999
DXF file: C:\Aktuell-Internet\CAD-Daten\2rm-m36.dxf
999
Pro/ENGINEER 2001400 by Parametric Technology Corporation
0
SECTION
2
HEADER
9
$ACADVER
1
AC1014
9
$EXTMAX
10
420.0000000000
20
297.0000000000
9
$EXTMIN
10
0.0000000000
20
0.0000000000
9
$LIMMIN
10
0.0000000000
20
0.0000000000
9
$LIMMAX
10
420.0000000000
20
297.0000000000
9
$VIEWCTR
10
210.0000000000
20
148.5000000000
9
$VIEWSIZE
40
297.0000000000
9
$CLAYER
8
0
9
$LTSCALE
40
23.1000000000
9
$CELTYPE
6
BYLAYER
9
$DIMSCALE
40
1
9
$DIMASZ
40
3.5000000000
9
$DIMEXO
40
2.6250000000
9
$DIMDLI
40
15.9600000000
9
$DIMEXE
40
7.5600000000
9
$DIMCEN
40
3.7800000000
9
$DIMLFAC
40
1.0000000000
9
$DIMTXT
40
3.5000000000
9
$DIMTOL
70
1
9
$DIMTFAC
40
0.6000000000
9
$DIMTP
40
0.0050000000
9
$DIMTM
40
0.0050000000
9
$HANDSEED
5
48A
0
ENDSEC
0
SECTION
2
CLASSES
0
ENDSEC
0
SECTION
2
TABLES
0
TABLE
2
VPORT
5
8
100
AcDbSymbolTable
70
2
0
VPORT
5
1F4
100
AcDbSymbolTableRecord
100
AcDbViewportTableRecord
2
*ACTIVE
70
0
10
0.0
20
0.0
11
1.0
21
1.0
12
210.0000000000
22
148.5000000000
13
0.0
23
0.0
14
1.0
24
1.0
15
0.0
25
0.0
16
0.0
26
0.0
36
1.0
17
0.0
27
0.0
37
0.0
40
297.0000000000
41
1.4141414141
42
50.0
43
0.0
44
0.0
50
0.0
51
0.0
71
0
72
100
73
1
74
1
75
0
76
0
77
0
78
0
0
ENDTAB
0
TABLE
2
LTYPE
5
5
100
AcDbSymbolTable
70
6
0
LTYPE
5
14
100
AcDbSymbolTableRecord
100
AcDbLinetypeTableRecord
2
BYBLOCK
70
0
3

72
65
73
0
40
0.0
0
LTYPE
5
15
100
AcDbSymbolTableRecord
100
AcDbLinetypeTableRecord
2
BYLAYER
70
0
3

72
65
73
0
40
0.0
0
LTYPE
5
16
100
AcDbSymbolTableRecord
100
AcDbLinetypeTableRecord
2
CONTINUOUS
70
64
3
Solid line
72
65
73
0
40
0
0
LTYPE
5
1F5
100
AcDbSymbolTableRecord
100
AcDbLinetypeTableRecord
2
CENTER
70
64
3
____ _ ____ _ ____ _ ____ _ ____ _ ____ _ ____
72
65
73
4
40
0.6
49
0.375
74
0
49
-0.075
74
0
49
0.075
74
0
49
-0.075
74
0
0
LTYPE
5
1F6
100
AcDbSymbolTableRecord
100
AcDbLinetypeTableRecord
2
HIDDEN
70
64
3
- - - - - - - - - - - - - - - - - - - -
72
65
73
2
40
0.2
49
0.1
74
0
49
-0.1
74
0
0
LTYPE
5
1F7
100
AcDbSymbolTableRecord
100
AcDbLinetypeTableRecord
2
PHANTOM
70
64
3
_____ _ _ _____ _ _ _____ _ _ _____
72
65
73
6
40
0.8
49
0.45
74
0
49
-0.05
74
0
49
0.1
74
0
49
-0.05
74
0
49
0.1
74
0
49
-0.05
74
0
0
LTYPE
5
1F8
100
AcDbSymbolTableRecord
100
AcDbLinetypeTableRecord
2
DOT
70
64
3
. . . . . . . . . . . . . . . . . . . .
72
65
73
2
40
0.2
49
0.1
74
0
49
-0.1
74
0
0
LTYPE
5
1F9
100
AcDbSymbolTableRecord
100
AcDbLinetypeTableRecord
2
DASHED
70
64
3
- - - - - - - - - - - - - - - - - - - -
72
65
73
2
40
0.2
49
0.1
74
0
49
-0.1
74
0
0
ENDTAB
0
TABLE
2
LAYER
5
2
100
AcDbSymbolTable
70
36
0
LAYER
5
10
100
AcDbSymbolTableRecord
100
AcDbLayerTableRecord
2
0
70
0
62
7
6
CONTINUOUS
0
LAYER
5
1FA
100
AcDbSymbolTableRecord
100
AcDbLayerTableRecord
2
DEFAULT_1
70
0
62
7
6
CENTER
0
LAYER
5
1FB
100
AcDbSymbolTableRecord
100
AcDbLayerTableRecord
2
DEFAULT_2
70
0
62
8
6
HIDDEN
0
LAYER
5
1FC
100
AcDbSymbolTableRecord
100
AcDbLayerTableRecord
2
DEFAULT_3
70
0
62
7
6
PHANTOM
0
ENDTAB
0
TABLE
2
STYLE
5
3
100
AcDbSymbolTable
70
1
0
STYLE
5
11
100
AcDbSymbolTableRecord
100
AcDbTextStyleTableRecord
2
STANDARD
70
0
40
0.0
41
1.0
50
0.0
71
0
42
0.0
3
txt
4

0
STYLE
5
1FD
100
AcDbSymbolTableRecord
100
AcDbTextStyleTableRecord
2
TEXTSTYLE_0
70
0
40
0.0
41
0.80
50
0.0
71
0
42
0.2
3
txt
4

0
ENDTAB
0
TABLE
2
VIEW
5
6
100
AcDbSymbolTable
70
0
0
ENDTAB
0
TABLE
2
UCS
5
7
100
AcDbSymbolTable
70
0
0
ENDTAB
0
TABLE
2
APPID
5
9
100
AcDbSymbolTable
70
1
0
APPID
5
1FE
100
AcDbSymbolTableRecord
100
AcDbRegAppTableRecord
2
ACAD
70
0
0
ENDTAB
0
TABLE
2
DIMSTYLE
5
A
100
AcDbSymbolTable
70
1
0
DIMSTYLE
105
1FF
100
AcDbSymbolTableRecord
100
AcDbDimStyleTableRecord
2
STANDARD
70
0
3

4

5

6

7

40
1.0
41
0.18
42
0.0625
43
0.38
44
0.18
45
0.0
46
0.0
47
0.0050000000
48
0.0050000000
140
3.5000000000
141
0.09
142
0.0
143
25.4
144
1.0000000000
145
0.0
146
0.6000000000
147
0.09
71
1
72
0
73
1
74
1
75
0
76
0
77
0
78
0
170
0
171
2
172
0
173
0
174
0
175
0
176
0
177
0
178
0
270
2
271
3
272
4
273
2
274
2
340
11
275
0
280
0
281
0
282
0
283
1
284
0
285
0
286
0
287
3
288
0
0
ENDTAB
0
TABLE
2
BLOCK_RECORD
5
1
100
AcDbSymbolTable
70
0
0
BLOCK_RECORD
5
1B
100
AcDbSymbolTableRecord
100
AcDbBlockTableRecord
2
*MODEL_SPACE
0
BLOCK_RECORD
5
1C
100
AcDbSymbolTableRecord
100
AcDbBlockTableRecord
2
*PAPER_SPACE
0
ENDTAB
0
ENDSEC
0
SECTION
2
BLOCKS
0
BLOCK
5
1E
100
AcDbEntity
8
0
100
AcDbBlockBegin
2
*MODEL_SPACE
70
0
10
0.0
20
0.0
30
0.0
3
*MODEL_SPACE
1

0
ENDBLK
5
1F
100
AcDbEntity
8
0
100
AcDbBlockEnd
0
BLOCK
5
20
100
AcDbEntity
8
0
100
AcDbBlockBegin
2
*PAPER_SPACE
70
0
10
0.0
20
0.0
30
0.0
3
*PAPER_SPACE
1

0
ENDBLK
5
21
100
AcDbEntity
8
0
100
AcDbBlockEnd
0
ENDSEC
0
SECTION
2
ENTITIES
0
TEXT
5
200
100
AcDbEntity
8
0
100
AcDbText
62
2
6
CONTINUOUS
10
43.8052531884
20
61.6799733945
7
TEXTSTYLE_0
40
8.0000000000
1
RUD
72
5
11
63.6147769979
21
61.6799733945
100
AcDbText
0
TEXT
5
201
100
AcDbEntity
8
0
100
AcDbText
62
2
6
CONTINUOUS
10
42.9821834501
20
41.9262996764
7
TEXTSTYLE_0
40
8.0000000000
1
RM M36
72
5
11
81.2678977358
21
41.9262996764
100
AcDbText
0
TEXT
5
202
100
AcDbEntity
8
0
100
AcDbText
62
2
6
CONTINUOUS
10
289.0800351874
20
168.2675044981
7
TEXTSTYLE_0
40
8.0000000000
1
RUD
50
90.0000000000
72
5
11
289.0800351874
21
188.0770283076
100
AcDbText
0
TEXT
5
203
100
AcDbEntity
8
0
100
AcDbText
62
2
6
CONTINUOUS
10
308.4221740363
20
166.6213650216
7
TEXTSTYLE_0
40
8.0000000000
1
RM M36
50
90.0000000000
72
5
11
308.4221740363
21
204.9070793073
100
AcDbText
0
LINE
5
204
100
AcDbEntity
8
0
100
AcDbLine
62
7
6
CONTINUOUS
10
0.0000000000
20
0.0000000000
11
0.0000000000
21
297.0000000000
0
LINE
5
205
100
AcDbEntity
8
0
100
AcDbLine
62
7
6
CONTINUOUS
10
0.0000000000
20
0.0000000000
11
420.0000000000
21
0.0000000000
0
LINE
5
206
100
AcDbEntity
8
0
100
AcDbLine
62
7
6
CONTINUOUS
10
0.0000000000
20
297.0000000000
11
420.0000000000
21
297.0000000000
0
LINE
5
207
100
AcDbEntity
8
0
100
AcDbLine
62
7
6
CONTINUOUS
10
420.0000000000
20
0.0000000000
11
420.0000000000
21
297.0000000000
0
LINE
5
208
100
AcDbEntity
8
0
100
AcDbLine
62
7
6
CONTINUOUS
10
62.0188218214
20
116.0244826562
11
61.0188218214
21
117.0244826562
0
LINE
5
209
100
AcDbEntity
8
0
100
AcDbLine
62
7
6
CONTINUOUS
10
23.8477880752
20
205.8513169799
11
46.6736122357
21
260.9577312404
0
LINE
5
20A
100
AcDbEntity
8
0
100
AcDbLine
62
7
6
CONTINUOUS
10
62.0188218214
20
116.0244826562
11
160.0188218214
21
116.0244826562
0
LINE
5
20B
100
AcDbEntity
8
0
100
AcDbLine
62
7
6
CONTINUOUS
10
61.0188218214
20
117.0244826562
11
161.0188218214
21
117.0244826562
0
LINE
5
20C
100
AcDbEntity
8
DEFAULT_2
100
AcDbLine
62
8
6
HIDDEN
10
93.0188218214
20
120.0244826562
11
129.0188218214
21
120.0244826562
0
LINE
5
20D
100
AcDbEntity
8
0
100
AcDbLine
62
7
6
CONTINUOUS
10
149.5508436307
20
121.0244826562
11
115.0188218214
21
121.0244826562
0
LINE
5
20E
100
AcDbEntity
8
0
100
AcDbLine
62
7
6
CONTINUOUS
10
107.0188218214
20
121.0244826562
11
72.4868000121
21
121.0244826562
0
LINE
5
20F
100
AcDbEntity
8
0
100
AcDbLine
62
7
6
CONTINUOUS
10
47.2859869124
20
141.6128308224
11
23.8477880752
21
198.1976483326
0
LINE
5
210
100
AcDbEntity
8
0
100
AcDbLine
62
7
6
CONTINUOUS
10
78.6389504530
20
270.2947386987
11
77.7729226210
21
269.7947386987
0
LINE
5
211
100
AcDbEntity
8
0
100
AcDbLine
62
7
6
CONTINUOUS
10
52.0855732372
20
266.3696922419
11
107.1919874978
21
289.1955164024
0
LINE
5
212
100
AcDbEntity
8
0
100
AcDbLine
62
7
6
CONTINUOUS
10
141.7735849679
20
132.0744818933
11
141.0491928439
21
131.9255465753
0
LINE
5
213
100
AcDbEntity
8
0
100
AcDbLine
62
7
6
CONTINUOUS
10
141.6350603840
20
132.0744818933
11
140.9106682599
21
131.9255465753
0
LINE
5
214
100
AcDbEntity
8
0
100
AcDbLine
62
7
6
CONTINUOUS
10
118.5579954330
20
125.0744828469
11
119.3174274310
21
125.0744828469
0
LINE
5
215
100
AcDbEntity
8
0
100
AcDbLine
62
7
6
CONTINUOUS
10
121.7660172132
20
125.0744828469
11
122.6289339212
21
125.0744828469
0
LINE
5
216
100
AcDbEntity
8
0
100
AcDbLine
62
7
6
CONTINUOUS
10
123.3182861713
20
125.0744828469
11
124.0777190152
21
125.0744828469
0
LINE
5
217
100
AcDbEntity
8
0
100
AcDbLine
62
7
6
CONTINUOUS
10
125.3879782564
20
125.0744828469
11
126.3543796744
21
125.0744828469
0
LINE
5
218
100
AcDbEntity
8
0
100
AcDbLine
62
7
6
CONTINUOUS
10
127.6646397614
20
125.0744828469
11
128.4240717594
21
125.0744828469
0
LINE
5
219
100
AcDbEntity
8
0
100
AcDbLine
62
7
6
CONTINUOUS
10
134.0806845907
20
125.0744828469
11
134.8401168002
21
125.0744828469
0
LINE
5
21A
100
AcDbEntity
8
0
100
AcDbLine
62
7
6
CONTINUOUS
10
136.1503766758
20
125.0744828469
11
137.1167780938
21
125.0744828469
0
LINE
5
21B
100
AcDbEntity
8
0
100
AcDbLine
62
7
6
CONTINUOUS
10
138.4270377579
20
125.0744828469
11
139.1864697559
21
125.0744828469
0
LINE
5
21C
100
AcDbEntity
8
0
100
AcDbLine
62
7
6
CONTINUOUS
10
141.4631308380
20
125.0744828469
11
142.2910076720
21
125.0744828469
0
LINE
5
21D
100
AcDbEntity
8
0
100
AcDbLine
62
7
6
CONTINUOUS
10
146.2234224221
20
125.0744828469
11
146.7408451262
21
125.0744828469
0
LINE
5
21E
100
AcDbEntity
8
0
100
AcDbLine
62
7
6
CONTINUOUS
10
140.9106682599
20
125.2234191186
11
141.0491928439
21
125.2234191186
0
LINE
5
21F
100
AcDbEntity
8
0
100
AcDbLine
62
7
6
CONTINUOUS
10
145.5674751341
20
125.2234191186
11
145.7059997181
21
125.2234191186
0
LINE
5
220
100
AcDbEntity
8
0
100
AcDbLine
62
7
6
CONTINUOUS
10
140.4967294200
20
125.5212907083
11
140.6352540039
21
125.5212907083
0
LINE
5
221
100
AcDbEntity
8
0
100
AcDbLine
62
7
6
CONTINUOUS
10
145.0500515842
20
125.6702269799
11
145.1885761681
21
125.6702269799
0
LINE
5
222
100
AcDbEntity
8
0
100
AcDbLine
62
7
6
CONTINUOUS
10
146.8443298362
20
125.8191632516
11
146.1199377122
21
125.8191632516
0
LINE
5
223
100
AcDbEntity
8
0
100
AcDbLine
62
7
6
CONTINUOUS
10
142.1875229620
20
125.8191632516
11
141.5666155480
21
125.8191632516
0
LINE
5
224
100
AcDbEntity
8
0
100
AcDbLine
62
7
6
CONTINUOUS
10
140.1862761359
20
125.8191632516
11
140.3248007199
21
125.8191632516
0
LINE
5
225
100
AcDbEntity
8
0
100
AcDbLine
62
7
6
CONTINUOUS
10
142.5664219280
20
125.9680995233
11
142.7049465120
21
125.9680995233
0
LINE
5
226
100
AcDbEntity
8
0
100
AcDbLine
62
7
6
CONTINUOUS
10
142.7733905021
20
126.1170357949
11
142.9119150860
21
126.1170357949
0
LINE
5
227
100
AcDbEntity
8
0
100
AcDbLine
62
7
6
CONTINUOUS
10
139.9793067159
20
126.2659720666
11
140.1178312999
21
126.2659720666
0
LINE
5
228
100
AcDbEntity
8
0
100
AcDbLine
62
7
6
CONTINUOUS
10
144.7395983001
20
126.2659720666
11
144.8781228841
21
126.2659720666
0
LINE
5
229
100
AcDbEntity
8
0
100
AcDbLine
62
7
6
CONTINUOUS
10
147.3267135122
20
126.2659720666
11
147.4652380961
21
126.2659720666
0
LINE
5
22A
100
AcDbEntity
8
0
100
AcDbLine
62
7
6
CONTINUOUS
10
142.9803599221
20
126.4149083383
11
143.1188845060
21
126.4149083383
0
LINE
5
22B
100
AcDbEntity
8
0
100
AcDbLine
62
7
6
CONTINUOUS
10
139.8758220059
20
126.7127808816
11
140.5317692939
21
126.7127808816
0
LINE
5
22C
100
AcDbEntity
8
0
100
AcDbLine
62
7
6
CONTINUOUS
10
143.0838446320
20
126.7127808816
11
143.2223692160
21
126.7127808816
0
LINE
5
22D
100
AcDbEntity
8
0
100
AcDbLine
62
7
6
CONTINUOUS
10
147.5336829322
20
126.7127808816
11
147.6722075161
21
126.7127808816
0
LINE
5
22E
100
AcDbEntity
8
0
100
AcDbLine
62
7
6
CONTINUOUS
10
144.5326288801
20
127.0106524713
11
144.6711534641
21
127.0106524713
0
LINE
5
22F
100
AcDbEntity
8
0
100
AcDbLine
62
7
6
CONTINUOUS
10
147.6371676422
20
127.1595887429
11
147.7756922261
21
127.1595887429
0
LINE
5
230
100
AcDbEntity
8
0
100
AcDbLine
62
7
6
CONTINUOUS
10
143.0838446320
20
127.3085250146
11
143.2223692160
21
127.3085250146
0
LINE
5
231
100
AcDbEntity
8
0
100
AcDbLine
62
7
6
CONTINUOUS
10
147.6371676422
20
127.6063975579
11
147.7756922261
21
127.6063975579
0
LINE
5
232
100
AcDbEntity
8
0
100
AcDbLine
62
7
6
CONTINUOUS
10
142.8768752121
20
127.9042701013
11
143.0153997960
21
127.9042701013
0
LINE
5
233
100
AcDbEntity
8
0
100
AcDbLine
62
7
6
CONTINUOUS
10
144.4291441701
20
128.0532063729
11
144.5676687541
21
128.0532063729
0
LINE
5
234
100
AcDbEntity
8
0
100
AcDbLine
62
7
6
CONTINUOUS
10
147.5336829322
20
128.0532063729
11
147.6722075161
21
128.0532063729
0
LINE
5
235
100
AcDbEntity
8
0
100
AcDbLine
62
7
6
CONTINUOUS
10
119.3174274310
20
128.2021426446
11
121.0766649632
21
128.2021426446
0
LINE
5
236
100
AcDbEntity
8
0
100
AcDbLine
62
7
6
CONTINUOUS
10
142.5664219280
20
128.2021426446
11
142.7049465120
21
128.2021426446
0
LINE
5
237
100
AcDbEntity
8
0
100
AcDbLine
62
7
6
CONTINUOUS
10
141.5315756740
20
128.3510779626
11
142.0840382520
21
128.3510779626
0
LINE
5
238
100
AcDbEntity
8
0
100
AcDbLine
62
7
6
CONTINUOUS
10
147.3267135122
20
128.3510779626
11
147.4652380961
21
128.3510779626
0
LINE
5
239
100
AcDbEntity
8
0
100
AcDbLine
62
7
6
CONTINUOUS
10
146.1199377122
20
128.7978867776
11
146.8443298362
21
128.7978867776
0
LINE
5
23A
100
AcDbEntity
8
0
100
AcDbLine
62
7
6
CONTINUOUS
10
141.5315756740
20
128.9468230493
11
142.0840382520
21
128.9468230493
0
LINE
5
23B
100
AcDbEntity
8
0
100
AcDbLine
62
7
6
CONTINUOUS
10
121.2836343832
20
129.0957593209
11
119.3174274310
21
129.0957593209
0
LINE
5
23C
100
AcDbEntity
8
0
100
AcDbLine
62
7
6
CONTINUOUS
10
144.4291441701
20
129.0957593209
11
144.5676687541
21
129.0957593209
0
LINE
5
23D
100
AcDbEntity
8
0
100
AcDbLine
62
7
6
CONTINUOUS
10
142.5664219280
20
129.2446955926
11
142.7049465120
21
129.2446955926
0
LINE
5
23E
100
AcDbEntity
8
0
100
AcDbLine
62
7
6
CONTINUOUS
10
145.5674751341
20
129.3936318643
11
145.7059997181
21
129.3936318643
0
LINE
5
23F
100
AcDbEntity
8
0
100
AcDbLine
62
7
6
CONTINUOUS
10
146.7408451262
20
129.5425681359
11
146.2234224221
21
129.5425681359
0
LINE
5
240
100
AcDbEntity
8
0
100
AcDbLine
62
7
6
CONTINUOUS
10
121.6625333492
20
129.5425681359
11
121.8010579331
21
129.5425681359
0
LINE
5
241
100
AcDbEntity
8
0
100
AcDbLine
62
7
6
CONTINUOUS
10
142.7733905021
20
129.5425681359
11
142.9119150860
21
129.5425681359
0
LINE
5
242
100
AcDbEntity
8
0
100
AcDbLine
62
7
6
CONTINUOUS
10
83.8580933668
20
271.5882415063
11
83.1364060499
21
271.1715773828
0
LINE
5
243
100
AcDbEntity
8
0
100
AcDbLine
62
7
6
CONTINUOUS
10
86.2968712904
20
271.0308226831
11
84.7091580488
21
270.1141585595
0
LINE
5
244
100
AcDbEntity
8
0
100
AcDbLine
62
7
6
CONTINUOUS
10
83.9874707319
20
269.6974944360
11
82.8327694990
21
269.0308226831
0
LINE
5
245
100
AcDbEntity
8
0
100
AcDbLine
62
7
6
CONTINUOUS
10
83.2583008863
20
268.2937850244
11
84.4130021193
21
268.9604491479
0
LINE
5
246
100
AcDbEntity
8
0
100
AcDbLine
62
7
6
CONTINUOUS
10
85.1346894362
20
269.3771132714
11
86.7224026777
21
270.2937850244
0
LINE
5
247
100
AcDbEntity
8
0
100
AcDbLine
62
7
6
CONTINUOUS
10
82.9546643354
20
266.1530303247
11
81.5112897017
21
265.3196982629
0
LINE
5
248
100
AcDbEntity
8
0
100
AcDbLine
62
7
6
CONTINUOUS
10
80.6452637770
20
264.8196982629
11
78.1915246107
21
263.4030303247
0
LINE
5
249
100
AcDbEntity
8
0
100
AcDbLine
62
7
6
CONTINUOUS
10
77.8194619276
20
261.7141341455
11
81.2835618116
21
263.7141341455
0
LINE
5
24A
100
AcDbEntity
8
0
100
AcDbLine
62
7
6
CONTINUOUS
10
82.1495877363
20
264.2141341455
11
83.5929623701
21
265.0474662072
0
LINE
5
24B
100
AcDbEntity
8
0
100
AcDbLine
62
7
6
CONTINUOUS
10
104.7654882528
20
274.5619277246
11
104.2654882528
21
274.3491667993
0
LINE
5
24C
100
AcDbEntity
8
0
100
AcDbLine
62
7
6
CONTINUOUS
10
88.4400426008
20
264.6520766503
11
89.4124508955
21
264.9678153283
0
LINE
5
24D
100
AcDbEntity
8
0
100
AcDbLine
62
7
6
CONTINUOUS
10
121.7660172132
20
129.9893759973
11
121.9045417972
21
129.9893759973
0
LINE
5
24E
100
AcDbEntity
8
0
100
AcDbLine
62
7
6
CONTINUOUS
10
142.9803599221
20
130.1383122689
11
143.1188845060
21
130.1383122689
0
LINE
5
24F
100
AcDbEntity
8
0
100
AcDbLine
62
7
6
CONTINUOUS
10
144.5326288801
20
130.1383122689
11
144.6711534641
21
130.1383122689
0
LINE
5
250
100
AcDbEntity
8
0
100
AcDbLine
62
7
6
CONTINUOUS
10
121.7660172132
20
130.4361848123
11
121.9045417972
21
130.4361848123
0
LINE
5
251
100
AcDbEntity
8
0
100
AcDbLine
62
7
6
CONTINUOUS
10
139.9793067159
20
130.4361848123
11
140.6352540039
21
130.4361848123
0
LINE
5
252
100
AcDbEntity
8
0
100
AcDbLine
62
7
6
CONTINUOUS
10
142.9803599221
20
130.4361848123
11
143.1188845060
21
130.4361848123
0
LINE
5
253
100
AcDbEntity
8
0
100
AcDbLine
62
7
6
CONTINUOUS
10
147.4301982222
20
130.4361848123
11
148.0861446643
21
130.4361848123
0
LINE
5
254
100
AcDbEntity
8
0
100
AcDbLine
62
7
6
CONTINUOUS
10
121.6625333492
20
130.8829936273
11
121.8010579331
21
130.8829936273
0
LINE
5
255
100
AcDbEntity
8
0
100
AcDbLine
62
7
6
CONTINUOUS
10
142.7733905021
20
130.8829936273
11
142.9119150860
21
130.8829936273
0
LINE
5
256
100
AcDbEntity
8
0
100
AcDbLine
62
7
6
CONTINUOUS
10
144.7395983001
20
130.8829936273
11
144.8781228841
21
130.8829936273
0
LINE
5
257
100
AcDbEntity
8
0
100
AcDbLine
62
7
6
CONTINUOUS
10
147.2232288022
20
130.8829936273
11
147.3617533862
21
130.8829936273
0
LINE
5
258
100
AcDbEntity
8
0
100
AcDbLine
62
7
6
CONTINUOUS
10
140.0827914259
20
131.0319298989
11
140.2213160099
21
131.0319298989
0
LINE
5
259
100
AcDbEntity
8
0
100
AcDbLine
62
7
6
CONTINUOUS
10
142.4629372180
20
131.1808652169
11
142.6014618020
21
131.1808652169
0
LINE
5
25A
100
AcDbEntity
8
0
100
AcDbLine
62
7
6
CONTINUOUS
10
119.3174274310
20
131.3298014886
11
121.2836343832
21
131.3298014886
0
LINE
5
25B
100
AcDbEntity
8
0
100
AcDbLine
62
7
6
CONTINUOUS
10
141.6701002580
20
131.3298014886
11
142.0840382520
21
131.3298014886
0
LINE
5
25C
100
AcDbEntity
8
0
100
AcDbLine
62
7
6
CONTINUOUS
10
146.1199377122
20
131.3298014886
11
146.7408451262
21
131.3298014886
0
LINE
5
25D
100
AcDbEntity
8
0
100
AcDbLine
62
7
6
CONTINUOUS
10
145.0500515842
20
131.4787377603
11
145.1885761681
21
131.4787377603
0
LINE
5
25E
100
AcDbEntity
8
0
100
AcDbLine
62
7
6
CONTINUOUS
10
140.4967294200
20
131.6276740319
11
140.6352540039
21
131.6276740319
0
LINE
5
25F
100
AcDbEntity
8
0
100
AcDbLine
62
7
6
CONTINUOUS
10
140.9106682599
20
131.9255465753
11
141.0491928439
21
131.9255465753
0
LINE
5
260
100
AcDbEntity
8
0
100
AcDbLine
62
7
6
CONTINUOUS
10
145.5674751341
20
131.9255465753
11
145.7059997181
21
131.9255465753
0
LINE
5
261
100
AcDbEntity
8
0
100
AcDbLine
62
7
6
CONTINUOUS
10
146.6373604162
20
132.0744818933
11
146.2234224221
21
132.0744818933
0
LINE
5
262
100
AcDbEntity
8
0
100
AcDbLine
62
7
6
CONTINUOUS
10
141.9805543879
20
132.0744818933
11
141.7735849679
21
132.0744818933
0
LINE
5
263
100
AcDbEntity
8
0
100
AcDbLine
62
7
6
CONTINUOUS
10
118.5579954330
20
132.0744818933
11
121.1801496732
21
132.0744818933
0
LINE
5
264
100
AcDbEntity
8
0
100
AcDbLine
62
7
6
CONTINUOUS
10
123.3182861713
20
132.0744818933
11
124.3881722993
21
132.0744818933
0
LINE
5
265
100
AcDbEntity
8
0
100
AcDbLine
62
7
6
CONTINUOUS
10
127.3541856314
20
132.0744818933
11
128.4240717594
21
132.0744818933
0
LINE
5
266
100
AcDbEntity
8
0
100
AcDbLine
62
7
6
CONTINUOUS
10
134.0806845907
20
132.0744818933
11
135.1505705072
21
132.0744818933
0
LINE
5
267
100
AcDbEntity
8
0
100
AcDbLine
62
7
6
CONTINUOUS
10
138.1165840508
20
132.0744818933
11
139.1864697559
21
132.0744818933
0
LINE
5
268
100
AcDbEntity
8
0
100
AcDbLine
62
7
6
CONTINUOUS
10
72.4868000121
20
136.0244826562
11
107.0188218214
21
136.0244826562
0
LINE
5
269
100
AcDbEntity
8
0
100
AcDbLine
62
7
6
CONTINUOUS
10
115.0188218214
20
136.0244826562
11
149.5508436307
21
136.0244826562
0
LINE
5
26A
100
AcDbEntity
8
0
100
AcDbLine
62
7
6
CONTINUOUS
10
142.0765017093
20
128.3196582718
11
142.5664219280
21
128.2021426446
0
LINE
5
26B
100
AcDbEntity
8
0
100
AcDbLine
62
7
6
CONTINUOUS
10
142.0840382520
20
128.3510779626
11
142.7049465120
21
128.2021426446
0
LINE
5
26C
100
AcDbEntity
8
0
100
AcDbLine
62
7
6
CONTINUOUS
10
141.5666155480
20
125.8191632516
11
141.0491928439
21
125.9680995233
0
LINE
5
26D
100
AcDbEntity
8
0
100
AcDbLine
62
7
6
CONTINUOUS
10
121.6975732231
20
131.9255465753
11
121.1801496732
21
132.0744818933
0
LINE
5
26E
100
AcDbEntity
8
0
100
AcDbLine
62
7
6
CONTINUOUS
10
145.5674751341
20
125.2234191186
11
146.0848978382
21
125.0744828469
0
LINE
5
26F
100
AcDbEntity
8
0
100
AcDbLine
62
7
6
CONTINUOUS
10
145.7059997181
20
125.2234191186
11
146.2234224221
21
125.0744828469
0
LINE
5
270
100
AcDbEntity
8
0
100
AcDbLine
62
7
6
CONTINUOUS
10
104.9321552374
20
273.4981002099
11
105.5988217451
21
273.9236296899
0
LINE
5
271
100
AcDbEntity
8
0
100
AcDbLine
62
7
6
CONTINUOUS
10
82.7729226210
20
261.1344832666
11
83.6389485457
21
261.6344832666
0
LINE
5
272
100
AcDbEntity
8
0
100
AcDbLine
62
7
6
CONTINUOUS
10
111.7654884913
20
270.0938414819
11
111.0988218196
21
269.8810805566
0
LINE
5
273
100
AcDbEntity
8
0
100
AcDbLine
62
7
6
CONTINUOUS
10
119.7654887297
20
270.0938414819
11
119.0988217451
21
269.8810805566
0
LINE
5
274
100
AcDbEntity
8
0
100
AcDbLine
62
7
6
CONTINUOUS
10
171.1061901776
20
139.2643997483
11
169.7499809593
21
139.2643997483
0
LINE
5
275
100
AcDbEntity
8
0
100
AcDbLine
62
7
6
CONTINUOUS
10
52.2876626835
20
139.2643997483
11
50.9314534652
21
139.2643997483
0
LINE
5
276
100
AcDbEntity
8
0
100
AcDbLine
62
7
6
CONTINUOUS
10
142.7049465120
20
131.9255465753
11
141.9805543879
21
132.0744818933
0
LINE
5
277
100
AcDbEntity
8
0
100
AcDbLine
62
7
6
CONTINUOUS
10
147.2582686762
20
129.3936318643
11
146.7408451262
21
129.5425681359
0
LINE
5
278
100
AcDbEntity
8
0
100
AcDbLine
62
7
6
CONTINUOUS
10
142.0734392275
20
131.2929791293
11
142.4629372180
21
131.1808652169
0
LINE
5
279
100
AcDbEntity
8
0
100
AcDbLine
62
7
6
CONTINUOUS
10
142.0840382520
20
131.3298014886
11
142.6014618020
21
131.1808652169
0
LINE
5
27A
100
AcDbEntity
8
0
100
AcDbLine
62
7
6
CONTINUOUS
10
147.1547839662
20
131.9255465753
11
146.6373604162
21
132.0744818933
0
LINE
5
27B
100
AcDbEntity
8
0
100
AcDbLine
62
7
6
CONTINUOUS
10
140.9106682599
20
125.2234191186
11
141.3246062540
21
125.0744828469
0
LINE
5
27C
100
AcDbEntity
8
0
100
AcDbLine
62
7
6
CONTINUOUS
10
141.0491928439
20
125.2234191186
11
141.4631308380
21
125.0744828469
0
LINE
5
27D
100
AcDbEntity
8
0
100
AcDbLine
62
7
6
CONTINUOUS
10
121.1451097992
20
131.3298014886
11
121.4555639292
21
131.1808652169
0
LINE
5
27E
100
AcDbEntity
8
0
100
AcDbLine
62
7
6
CONTINUOUS
10
121.2836343832
20
131.3298014886
11
121.5940885131
21
131.1808652169
0
LINE
5
27F
100
AcDbEntity
8
0
100
AcDbLine
62
7
6
CONTINUOUS
10
61.0188218214
20
117.0244826562
11
61.0188218214
21
127.2643997483
0
LINE
5
280
100
AcDbEntity
8
0
100
AcDbLine
62
7
6
CONTINUOUS
10
105.0988217451
20
274.9874648339
11
104.7654882528
21
274.5619277246
0
LINE
5
281
100
AcDbEntity
8
0
100
AcDbLine
62
7
6
CONTINUOUS
10
112.2654884913
20
270.5193785913
11
111.7654884913
21
270.0938414819
0
LINE
5
282
100
AcDbEntity
8
0
100
AcDbLine
62
7
6
CONTINUOUS
10
111.9321551778
20
268.8172454126
11
112.5988218643
21
269.2427825219
0
LINE
5
283
100
AcDbEntity
8
0
100
AcDbLine
62
7
6
CONTINUOUS
10
119.9321547606
20
268.8172454126
11
120.5988217451
21
269.2427825219
0
LINE
5
284
100
AcDbEntity
8
0
100
AcDbLine
62
7
6
CONTINUOUS
10
146.1199377122
20
125.8191632516
11
145.8094844281
21
125.9680995233
0
LINE
5
285
100
AcDbEntity
8
0
100
AcDbLine
62
7
6
CONTINUOUS
10
146.7058052522
20
128.7978867776
11
147.0162593822
21
128.6489505059
0
LINE
5
286
100
AcDbEntity
8
0
100
AcDbLine
62
7
6
CONTINUOUS
10
146.8443298362
20
128.7978867776
11
147.1547839662
21
128.6489505059
0
LINE
5
287
100
AcDbEntity
8
0
100
AcDbLine
62
7
6
CONTINUOUS
10
146.6023205422
20
131.3298014886
11
146.9127746722
21
131.1808652169
0
LINE
5
288
100
AcDbEntity
8
0
100
AcDbLine
62
7
6
CONTINUOUS
10
146.7408451262
20
131.3298014886
11
147.0512992562
21
131.1808652169
0
LINE
5
289
100
AcDbEntity
8
0
100
AcDbLine
62
7
6
CONTINUOUS
10
143.4293386360
20
128.3510779626
11
142.9119150860
21
128.6489505059
0
LINE
5
28A
100
AcDbEntity
8
0
100
AcDbLine
62
7
6
CONTINUOUS
10
105.5988217451
20
273.9236296899
11
106.0988217451
21
274.7746962793
0
LINE
5
28B
100
AcDbEntity
8
0
100
AcDbLine
62
7
6
CONTINUOUS
10
120.2654887297
20
270.5193785913
11
119.7654887297
21
270.0938414819
0
LINE
5
28C
100
AcDbEntity
8
0
100
AcDbLine
62
7
6
CONTINUOUS
10
140.4967294200
20
125.5212907083
11
140.9106682599
21
125.2234191186
0
LINE
5
28D
100
AcDbEntity
8
0
100
AcDbLine
62
7
6
CONTINUOUS
10
140.6352540039
20
125.5212907083
11
141.0491928439
21
125.2234191186
0
LINE
5
28E
100
AcDbEntity
8
0
100
AcDbLine
62
7
6
CONTINUOUS
10
141.0491928439
20
125.9680995233
11
140.8422234239
21
126.1170357949
0
LINE
5
28F
100
AcDbEntity
8
DEFAULT_2
100
AcDbLine
62
8
6
HIDDEN
10
129.0188218214
20
120.0244826562
11
133.0188218214
21
116.0244826562
0
LINE
5
290
100
AcDbEntity
8
0
100
AcDbLine
62
7
6
CONTINUOUS
10
122.1115112172
20
131.4787377603
11
121.6975732231
21
131.9255465753
0
LINE
5
291
100
AcDbEntity
8
0
100
AcDbLine
62
7
6
CONTINUOUS
10
72.4868000561
20
121.0244826562
11
72.4868000561
21
136.0244826562
0
LINE
5
292
100
AcDbEntity
8
0
100
AcDbLine
62
7
6
CONTINUOUS
10
77.7729226210
20
269.7947386987
11
77.1811638929
21
262.8196982629
0
LINE
5
293
100
AcDbEntity
8
0
100
AcDbLine
62
7
6
CONTINUOUS
10
78.1915246107
20
263.4030303247
11
78.6239853956
21
268.3206481225
0
LINE
5
294
100
AcDbEntity
8
0
100
AcDbLine
62
7
6
CONTINUOUS
10
112.5988218643
20
269.2427825219
11
113.2654884913
21
270.0938414819
0
LINE
5
295
100
AcDbEntity
8
0
100
AcDbLine
62
7
6
CONTINUOUS
10
120.5988217451
20
269.2427825219
11
121.2654887297
21
270.0938414819
0
LINE
5
296
100
AcDbEntity
8
0
100
AcDbLine
62
7
6
CONTINUOUS
10
143.1188845060
20
131.6276740319
11
142.7049465120
21
131.9255465753
0
LINE
5
297
100
AcDbEntity
8
0
100
AcDbLine
62
7
6
CONTINUOUS
10
145.0500515842
20
125.6702269799
11
145.5674751341
21
125.2234191186
0
LINE
5
298
100
AcDbEntity
8
0
100
AcDbLine
62
7
6
CONTINUOUS
10
145.1885761681
20
125.6702269799
11
145.7059997181
21
125.2234191186
0
LINE
5
299
100
AcDbEntity
8
0
100
AcDbLine
62
7
6
CONTINUOUS
10
147.7756922261
20
128.9468230493
11
147.2582686762
21
129.3936318643
0
LINE
5
29A
100
AcDbEntity
8
0
100
AcDbLine
62
7
6
CONTINUOUS
10
140.1862761359
20
125.8191632516
11
140.4967294200
21
125.5212907083
0
LINE
5
29B
100
AcDbEntity
8
0
100
AcDbLine
62
7
6
CONTINUOUS
10
140.3248007199
20
125.8191632516
11
140.6352540039
21
125.5212907083
0
LINE
5
29C
100
AcDbEntity
8
0
100
AcDbLine
62
7
6
CONTINUOUS
10
142.5664219280
20
128.2021426446
11
142.8768752121
21
127.9042701013
0
LINE
5
29D
100
AcDbEntity
8
0
100
AcDbLine
62
7
6
CONTINUOUS
10
142.7049465120
20
128.2021426446
11
143.0153997960
21
127.9042701013
0
LINE
5
29E
100
AcDbEntity
8
0
100
AcDbLine
62
7
6
CONTINUOUS
10
121.4555639292
20
131.1808652169
11
121.6625333492
21
130.8829936273
0
LINE
5
29F
100
AcDbEntity
8
0
100
AcDbLine
62
7
6
CONTINUOUS
10
121.5940885131
20
131.1808652169
11
121.8010579331
21
130.8829936273
0
LINE
5
2A0
100
AcDbEntity
8
0
100
AcDbLine
62
7
6
CONTINUOUS
10
105.2654882528
20
275.6257628686
11
105.0988217451
21
274.9874648339
0
LINE
5
2A1
100
AcDbEntity
8
0
100
AcDbLine
62
7
6
CONTINUOUS
10
112.5988218643
20
271.1576766259
11
112.2654884913
21
270.5193785913
0
LINE
5
2A2
100
AcDbEntity
8
0
100
AcDbLine
62
7
6
CONTINUOUS
10
147.6722075161
20
131.4787377603
11
147.1547839662
21
131.9255465753
0
LINE
5
2A3
100
AcDbEntity
8
0
100
AcDbLine
62
7
6
CONTINUOUS
10
145.8094844281
20
125.9680995233
11
145.4990302981
21
126.2659720666
0
LINE
5
2A4
100
AcDbEntity
8
0
100
AcDbLine
62
7
6
CONTINUOUS
10
142.4629372180
20
131.1808652169
11
142.7733905021
21
130.8829936273
0
LINE
5
2A5
100
AcDbEntity
8
0
100
AcDbLine
62
7
6
CONTINUOUS
10
142.6014618020
20
131.1808652169
11
142.9119150860
21
130.8829936273
0
LINE
5
2A6
100
AcDbEntity
8
0
100
AcDbLine
62
7
6
CONTINUOUS
10
147.0162593822
20
128.6489505059
11
147.3267135122
21
128.3510779626
0
LINE
5
2A7
100
AcDbEntity
8
0
100
AcDbLine
62
7
6
CONTINUOUS
10
147.1547839662
20
128.6489505059
11
147.4652380961
21
128.3510779626
0
LINE
5
2A8
100
AcDbEntity
8
0
100
AcDbLine
62
7
6
CONTINUOUS
10
146.9127746722
20
131.1808652169
11
147.2232288022
21
130.8829936273
0
LINE
5
2A9
100
AcDbEntity
8
0
100
AcDbLine
62
7
6
CONTINUOUS
10
147.0512992562
20
131.1808652169
11
147.3617533862
21
130.8829936273
0
LINE
5
2AA
100
AcDbEntity
8
DEFAULT_2
100
AcDbLine
62
8
6
HIDDEN
10
93.0188218214
20
160.7813014016
11
93.0188218214
21
120.0244826562
0
LINE
5
2AB
100
AcDbEntity
8
0
100
AcDbLine
62
7
6
CONTINUOUS
10
106.0988217451
20
274.7746962793
11
106.2654882528
21
275.4129943139
0
LINE
5
2AC
100
AcDbEntity
8
0
100
AcDbLine
62
7
6
CONTINUOUS
10
113.2654884913
20
270.0938414819
11
113.5988217451
21
270.9449080712
0
LINE
5
2AD
100
AcDbEntity
8
0
100
AcDbLine
62
7
6
CONTINUOUS
10
120.5988217451
20
271.1576766259
11
120.2654887297
21
270.5193785913
0
LINE
5
2AE
100
AcDbEntity
8
0
100
AcDbLine
62
7
6
CONTINUOUS
10
140.8422234239
20
126.1170357949
11
140.6352540039
21
126.4149083383
0
LINE
5
2AF
100
AcDbEntity
8
0
100
AcDbLine
62
7
6
CONTINUOUS
10
122.4219653472
20
130.8829936273
11
122.1115112172
21
131.4787377603
0
LINE
5
2B0
100
AcDbEntity
8
0
100
AcDbLine
62
7
6
CONTINUOUS
10
100.0988217451
20
278.6044844873
11
100.0988217451
21
268.6044844873
0
LINE
5
2B1
100
AcDbEntity
8
0
100
AcDbLine
62
7
6
CONTINUOUS
10
101.0988217451
20
268.6044844873
11
101.0988217451
21
273.0725707299
0
LINE
5
2B2
100
AcDbEntity
8
0
100
AcDbLine
62
7
6
CONTINUOUS
10
101.0988217451
20
274.3491667993
11
101.0988217451
21
277.5406493432
0
LINE
5
2B3
100
AcDbEntity
8
0
100
AcDbLine
62
7
6
CONTINUOUS
10
113.5988217451
20
270.9449080712
11
113.7654884913
21
272.0087355859
0
LINE
5
2B4
100
AcDbEntity
8
0
100
AcDbLine
62
7
6
CONTINUOUS
10
112.7654884913
20
272.0087355859
11
112.5988218643
21
271.1576766259
0
LINE
5
2B5
100
AcDbEntity
8
0
100
AcDbLine
62
7
6
CONTINUOUS
10
121.2654887297
20
270.0938414819
11
121.5988217451
21
270.9449080712
0
LINE
5
2B6
100
AcDbEntity
8
0
100
AcDbLine
62
7
6
CONTINUOUS
10
143.5328233460
20
131.0319298989
11
143.1188845060
21
131.6276740319
0
LINE
5
2B7
100
AcDbEntity
8
0
100
AcDbLine
62
7
6
CONTINUOUS
10
147.3267135122
20
128.3510779626
11
147.5336829322
21
128.0532063729
0
LINE
5
2B8
100
AcDbEntity
8
0
100
AcDbLine
62
7
6
CONTINUOUS
10
147.4652380961
20
128.3510779626
11
147.6722075161
21
128.0532063729
0
LINE
5
2B9
100
AcDbEntity
8
0
100
AcDbLine
62
7
6
CONTINUOUS
10
148.0861446643
20
128.5000142343
11
147.7756922261
21
128.9468230493
0
LINE
5
2BA
100
AcDbEntity
8
0
100
AcDbLine
62
7
6
CONTINUOUS
10
122.6289339212
20
125.0744828469
11
121.6975732231
21
128.5000142343
0
LINE
5
2BB
100
AcDbEntity
8
0
100
AcDbLine
62
7
6
CONTINUOUS
10
120.9472104298
20
128.1678766387
11
121.7660172132
21
125.0744828469
0
LINE
5
2BC
100
AcDbEntity
8
0
100
AcDbLine
62
7
6
CONTINUOUS
10
121.0766649632
20
128.2021426446
11
121.9045417972
21
125.0744828469
0
LINE
5
2BD
100
AcDbEntity
8
0
100
AcDbLine
62
7
6
CONTINUOUS
10
105.2654882528
20
276.2640609033
11
105.2654882528
21
275.6257628686
0
LINE
5
2BE
100
AcDbEntity
8
0
100
AcDbLine
62
7
6
CONTINUOUS
10
106.2654882528
20
275.4129943139
11
106.2654882528
21
276.2640609033
0
LINE
5
2BF
100
AcDbEntity
8
0
100
AcDbLine
62
7
6
CONTINUOUS
10
107.0188218214
20
121.0244826562
11
107.0188218214
21
136.0244826562
0
LINE
5
2C0
100
AcDbEntity
8
0
100
AcDbLine
62
7
6
CONTINUOUS
10
107.7654884913
20
278.6044844873
11
107.7654884913
21
272.0087355859
0
LINE
5
2C1
100
AcDbEntity
8
0
100
AcDbLine
62
7
6
CONTINUOUS
10
108.7654884913
20
272.0087355859
11
108.7654884913
21
278.6044844873
0
LINE
5
2C2
100
AcDbEntity
8
DEFAULT_1
100
AcDbLine
62
2
6
CENTER
10
111.0188218214
20
202.0244826562
11
111.0188218214
21
114.3317962543
0
LINE
5
2C3
100
AcDbEntity
8
DEFAULT_1
100
AcDbLine
62
2
6
CENTER
10
111.0188218214
20
202.0244826562
11
111.0188218214
21
250.0244826562
0
LINE
5
2C4
100
AcDbEntity
8
0
100
AcDbLine
62
7
6
CONTINUOUS
10
121.5988217451
20
270.9449080712
11
121.7654887297
21
272.0087355859
0
LINE
5
2C5
100
AcDbEntity
8
0
100
AcDbLine
62
7
6
CONTINUOUS
10
120.7654887297
20
272.0087355859
11
120.5988217451
21
271.1576766259
0
LINE
5
2C6
100
AcDbEntity
8
DEFAULT_1
100
AcDbLine
62
2
6
CENTER
10
111.0188218214
20
202.0244826562
11
63.0188218214
21
202.0244826562
0
LINE
5
2C7
100
AcDbEntity
8
DEFAULT_1
100
AcDbLine
62
2
6
CENTER
10
111.0188218214
20
202.0244826562
11
159.0188218214
21
202.0244826562
0
LINE
5
2C8
100
AcDbEntity
8
0
100
AcDbLine
62
7
6
CONTINUOUS
10
77.1811638929
20
262.8196982629
11
77.8194619276
21
261.7141341455
0
LINE
5
2C9
100
AcDbEntity
8
0
100
AcDbLine
62
7
6
CONTINUOUS
10
144.7395983001
20
126.2659720666
11
145.0500515842
21
125.6702269799
0
LINE
5
2CA
100
AcDbEntity
8
0
100
AcDbLine
62
7
6
CONTINUOUS
10
144.8781228841
20
126.2659720666
11
145.1885761681
21
125.6702269799
0
LINE
5
2CB
100
AcDbEntity
8
0
100
AcDbLine
62
7
6
CONTINUOUS
10
147.9826599543
20
130.8829936273
11
147.6722075161
21
131.4787377603
0
LINE
5
2CC
100
AcDbEntity
8
0
100
AcDbLine
62
7
6
CONTINUOUS
10
139.9793067159
20
126.2659720666
11
140.1862761359
21
125.8191632516
0
LINE
5
2CD
100
AcDbEntity
8
0
100
AcDbLine
62
7
6
CONTINUOUS
10
140.1178312999
20
126.2659720666
11
140.3248007199
21
125.8191632516
0
LINE
5
2CE
100
AcDbEntity
8
0
100
AcDbLine
62
7
6
CONTINUOUS
10
143.6363072101
20
127.9042701013
11
143.4293386360
21
128.3510779626
0
LINE
5
2CF
100
AcDbEntity
8
0
100
AcDbLine
62
7
6
CONTINUOUS
10
142.7733905021
20
130.8829936273
11
142.9803599221
21
130.4361848123
0
LINE
5
2D0
100
AcDbEntity
8
0
100
AcDbLine
62
7
6
CONTINUOUS
10
142.9119150860
20
130.8829936273
11
143.1188845060
21
130.4361848123
0
LINE
5
2D1
100
AcDbEntity
8
0
100
AcDbLine
62
7
6
CONTINUOUS
10
145.4990302981
20
126.2659720666
11
145.2920608781
21
126.7127808816
0
LINE
5
2D2
100
AcDbEntity
8
0
100
AcDbLine
62
7
6
CONTINUOUS
10
124.0777190152
20
130.0582247617
11
125.3879782564
21
125.0744828469
0
LINE
5
2D3
100
AcDbEntity
8
0
100
AcDbLine
62
7
6
CONTINUOUS
10
124.0777190152
20
130.5851210839
11
125.5265028403
21
125.0744828469
0
LINE
5
2D4
100
AcDbEntity
8
0
100
AcDbLine
62
7
6
CONTINUOUS
10
125.9404412573
20
125.8191632516
11
124.3881722993
21
132.0744818933
0
LINE
5
2D5
100
AcDbEntity
8
0
100
AcDbLine
62
7
6
CONTINUOUS
10
121.6625333492
20
130.8829936273
11
121.7660172132
21
130.4361848123
0
LINE
5
2D6
100
AcDbEntity
8
0
100
AcDbLine
62
7
6
CONTINUOUS
10
121.8010579331
20
130.8829936273
11
121.9045417972
21
130.4361848123
0
LINE
5
2D7
100
AcDbEntity
8
0
100
AcDbLine
62
7
6
CONTINUOUS
10
122.5254500572
20
130.4361848123
11
122.4219653472
21
130.8829936273
0
LINE
5
2D8
100
AcDbEntity
8
0
100
AcDbLine
62
7
6
CONTINUOUS
10
112.7654884913
20
278.6044844873
11
112.7654884913
21
272.0087355859
0
LINE
5
2D9
100
AcDbEntity
8
0
100
AcDbLine
62
7
6
CONTINUOUS
10
113.7654884913
20
272.0087355859
11
113.7654884913
21
278.6044844873
0
LINE
5
2DA
100
AcDbEntity
8
0
100
AcDbLine
62
7
6
CONTINUOUS
10
115.0188218214
20
121.0244826562
11
115.0188218214
21
136.0244826562
0
LINE
5
2DB
100
AcDbEntity
8
0
100
AcDbLine
62
7
6
CONTINUOUS
10
115.0988217451
20
278.6044844873
11
115.0988217451
21
268.6044844873
0
LINE
5
2DC
100
AcDbEntity
8
0
100
AcDbLine
62
7
6
CONTINUOUS
10
116.0988217451
20
269.8810805566
11
116.0988217451
21
277.3278884179
0
LINE
5
2DD
100
AcDbEntity
8
0
100
AcDbLine
62
7
6
CONTINUOUS
10
118.5579954330
20
132.0744818933
11
118.5579954330
21
125.0744828469
0
LINE
5
2DE
100
AcDbEntity
8
0
100
AcDbLine
62
7
6
CONTINUOUS
10
118.6965200170
20
132.0744818933
11
118.6965200170
21
125.0744828469
0
LINE
5
2DF
100
AcDbEntity
8
0
100
AcDbLine
62
7
6
CONTINUOUS
10
119.3174274310
20
125.0744828469
11
119.3174274310
21
128.2021426446
0
LINE
5
2E0
100
AcDbEntity
8
0
100
AcDbLine
62
7
6
CONTINUOUS
10
119.3174274310
20
129.0957593209
11
119.3174274310
21
131.3298014886
0
LINE
5
2E1
100
AcDbEntity
8
0
100
AcDbLine
62
7
6
CONTINUOUS
10
81.2835618116
20
263.7141341455
11
82.7729226210
21
261.1344832666
0
LINE
5
2E2
100
AcDbEntity
8
0
100
AcDbLine
62
7
6
CONTINUOUS
10
78.6239853956
20
268.3206481225
11
80.6452637770
21
264.8196982629
0
LINE
5
2E3
100
AcDbEntity
8
0
100
AcDbLine
62
7
6
CONTINUOUS
10
83.6389485457
20
261.6344832666
11
82.1495877363
21
264.2141341455
0
LINE
5
2E4
100
AcDbEntity
8
0
100
AcDbLine
62
7
6
CONTINUOUS
10
81.5112897017
20
265.3196982629
11
78.6389504530
21
270.2947386987
0
LINE
5
2E5
100
AcDbEntity
8
0
100
AcDbLine
62
7
6
CONTINUOUS
10
83.5929623701
20
265.0474662072
11
82.9546643354
21
266.1530303247
0
LINE
5
2E6
100
AcDbEntity
8
0
100
AcDbLine
62
7
6
CONTINUOUS
10
82.8327694990
20
269.0308226831
11
83.2583008863
21
268.2937850244
0
LINE
5
2E7
100
AcDbEntity
8
0
100
AcDbLine
62
7
6
CONTINUOUS
10
147.2232288022
20
130.8829936273
11
147.4301982222
21
130.4361848123
0
LINE
5
2E8
100
AcDbEntity
8
0
100
AcDbLine
62
7
6
CONTINUOUS
10
147.3617533862
20
130.8829936273
11
147.5687228061
21
130.4361848123
0
LINE
5
2E9
100
AcDbEntity
8
0
100
AcDbLine
62
7
6
CONTINUOUS
10
140.6352540039
20
126.4149083383
11
140.5317692939
21
126.7127808816
0
LINE
5
2EA
100
AcDbEntity
8
0
100
AcDbLine
62
7
6
CONTINUOUS
10
142.8768752121
20
127.9042701013
11
143.0838446320
21
127.3085250146
0
LINE
5
2EB
100
AcDbEntity
8
0
100
AcDbLine
62
7
6
CONTINUOUS
10
143.0153997960
20
127.9042701013
11
143.2223692160
21
127.3085250146
0
LINE
5
2EC
100
AcDbEntity
8
0
100
AcDbLine
62
7
6
CONTINUOUS
10
134.8401168002
20
130.0582249924
11
136.1503766758
21
125.0744828469
0
LINE
5
2ED
100
AcDbEntity
8
0
100
AcDbLine
62
7
6
CONTINUOUS
10
134.8401168002
20
130.5851210839
11
136.2889012597
21
125.0744828469
0
LINE
5
2EE
100
AcDbEntity
8
0
100
AcDbLine
62
7
6
CONTINUOUS
10
136.7028396767
20
125.8191632516
11
135.1505705072
21
132.0744818933
0
LINE
5
2EF
100
AcDbEntity
8
0
100
AcDbLine
62
7
6
CONTINUOUS
10
107.7654884913
20
272.0087355859
11
107.9321552374
21
270.9449080712
0
LINE
5
2F0
100
AcDbEntity
8
0
100
AcDbLine
62
7
6
CONTINUOUS
10
120.7654887297
20
275.2002257592
11
120.7654887297
21
272.0087355859
0
LINE
5
2F1
100
AcDbEntity
8
0
100
AcDbLine
62
7
6
CONTINUOUS
10
121.7654887297
20
272.0087355859
11
121.7654887297
21
275.2002257592
0
LINE
5
2F2
100
AcDbEntity
8
0
100
AcDbLine
62
7
6
CONTINUOUS
10
121.7660172132
20
130.4361848123
11
121.7660172132
21
129.9893759973
0
LINE
5
2F3
100
AcDbEntity
8
0
100
AcDbLine
62
7
6
CONTINUOUS
10
121.9045417972
20
130.4361848123
11
121.9045417972
21
129.9893759973
0
LINE
5
2F4
100
AcDbEntity
8
0
100
AcDbLine
62
7
6
CONTINUOUS
10
122.5254500572
20
129.8404397256
11
122.5254500572
21
130.4361848123
0
LINE
5
2F5
100
AcDbEntity
8
0
100
AcDbLine
62
7
6
CONTINUOUS
10
123.3182861713
20
132.0744818933
11
123.3182861713
21
125.0744828469
0
LINE
5
2F6
100
AcDbEntity
8
0
100
AcDbLine
62
7
6
CONTINUOUS
10
123.4568107553
20
132.0744818933
11
123.4568107553
21
125.0744828469
0
LINE
5
2F7
100
AcDbEntity
8
0
100
AcDbLine
62
7
6
CONTINUOUS
10
124.0777190152
20
125.0744828469
11
124.0777190152
21
130.5851210839
0
LINE
5
2F8
100
AcDbEntity
8
0
100
AcDbLine
62
7
6
CONTINUOUS
10
127.6646397614
20
130.0582250693
11
127.6646397614
21
125.0744828469
0
LINE
5
2F9
100
AcDbEntity
8
0
100
AcDbLine
62
7
6
CONTINUOUS
10
127.8031643454
20
130.5851210839
11
127.8031643454
21
125.0744828469
0
LINE
5
2FA
100
AcDbEntity
8
0
100
AcDbLine
62
7
6
CONTINUOUS
10
128.4240717594
20
125.0744828469
11
128.4240717594
21
132.0744818933
0
LINE
5
2FB
100
AcDbEntity
8
0
100
AcDbLine
62
7
6
CONTINUOUS
10
84.4130021193
20
268.9604491479
11
86.5406609633
21
265.2752341516
0
LINE
5
2FC
100
AcDbEntity
8
0
100
AcDbLine
62
7
6
CONTINUOUS
10
83.1364060499
20
271.1715773828
11
83.9874707319
21
269.6974944360
0
LINE
5
2FD
100
AcDbEntity
8
0
100
AcDbLine
62
7
6
CONTINUOUS
10
87.0495835402
20
266.0604247338
11
85.1346894362
21
269.3771132714
0
LINE
5
2FE
100
AcDbEntity
8
0
100
AcDbLine
62
7
6
CONTINUOUS
10
84.7091580488
20
270.1141585595
11
83.8580933668
21
271.5882415063
0
LINE
5
2FF
100
AcDbEntity
8
0
100
AcDbLine
62
7
6
CONTINUOUS
10
89.4124508955
20
264.9678153283
11
88.9869195082
21
265.7048606164
0
LINE
5
300
100
AcDbEntity
8
0
100
AcDbLine
62
7
6
CONTINUOUS
10
86.7224026777
20
270.2937850244
11
86.2968712904
21
271.0308226831
0
LINE
5
301
100
AcDbEntity
8
0
100
AcDbLine
62
7
6
CONTINUOUS
10
106.4321552374
20
268.6044844873
11
104.9321552374
21
273.4981002099
0
LINE
5
302
100
AcDbEntity
8
0
100
AcDbLine
62
7
6
CONTINUOUS
10
103.9321552374
20
273.0725707299
11
105.2654882528
21
268.6044844873
0
LINE
5
303
100
AcDbEntity
8
0
100
AcDbLine
62
7
6
CONTINUOUS
10
144.5326288801
20
127.0106524713
11
144.7395983001
21
126.2659720666
0
LINE
5
304
100
AcDbEntity
8
0
100
AcDbLine
62
7
6
CONTINUOUS
10
144.6711534641
20
127.0106524713
11
144.8781228841
21
126.2659720666
0
LINE
5
305
100
AcDbEntity
8
0
100
AcDbLine
62
7
6
CONTINUOUS
10
148.2931140843
20
127.7553338296
11
148.0861446643
21
128.5000142343
0
LINE
5
306
100
AcDbEntity
8
0
100
AcDbLine
62
7
6
CONTINUOUS
10
105.0988217451
20
276.9023513086
11
105.2654882528
21
276.2640609033
0
LINE
5
307
100
AcDbEntity
8
0
100
AcDbLine
62
7
6
CONTINUOUS
10
106.2654882528
20
276.2640609033
11
106.0988217451
21
276.9023513086
0
LINE
5
308
100
AcDbEntity
8
0
100
AcDbLine
62
7
6
CONTINUOUS
10
139.8758220059
20
126.7127808816
11
139.9793067159
21
126.2659720666
0
LINE
5
309
100
AcDbEntity
8
0
100
AcDbLine
62
7
6
CONTINUOUS
10
140.0143465899
20
126.7127808816
11
140.1178312999
21
126.2659720666
0
LINE
5
30A
100
AcDbEntity
8
0
100
AcDbLine
62
7
6
CONTINUOUS
10
145.2920608781
20
126.7127808816
11
145.1885761681
21
127.1595887429
0
LINE
5
30B
100
AcDbEntity
8
0
100
AcDbLine
62
7
6
CONTINUOUS
10
108.9321552374
20
271.1576766259
11
108.7654884913
21
272.0087355859
0
LINE
5
30C
100
AcDbEntity
8
DEFAULT_2
100
AcDbLine
62
8
6
HIDDEN
10
129.0188218214
20
160.7813014016
11
129.0188218214
21
120.0244826562
0
LINE
5
30D
100
AcDbEntity
8
0
100
AcDbLine
62
7
6
CONTINUOUS
10
134.0806845907
20
132.0744818933
11
134.0806845907
21
125.0744828469
0
LINE
5
30E
100
AcDbEntity
8
0
100
AcDbLine
62
7
6
CONTINUOUS
10
134.2192091747
20
132.0744818933
11
134.2192091747
21
125.0744828469
0
LINE
5
30F
100
AcDbEntity
8
0
100
AcDbLine
62
7
6
CONTINUOUS
10
134.8401168002
20
125.0744828469
11
134.8401168002
21
130.5851210839
0
LINE
5
310
100
AcDbEntity
8
0
100
AcDbLine
62
7
6
CONTINUOUS
10
107.9321552374
20
270.9449080712
11
108.2654884913
21
270.0938414819
0
LINE
5
311
100
AcDbEntity
8
0
100
AcDbLine
62
7
6
CONTINUOUS
10
147.5336829322
20
128.0532063729
11
147.6371676422
21
127.6063975579
0
LINE
5
312
100
AcDbEntity
8
0
100
AcDbLine
62
7
6
CONTINUOUS
10
147.6722075161
20
128.0532063729
11
147.7756922261
21
127.6063975579
0
LINE
5
313
100
AcDbEntity
8
0
100
AcDbLine
62
7
6
CONTINUOUS
10
148.0861446643
20
130.4361848123
11
147.9826599543
21
130.8829936273
0
LINE
5
314
100
AcDbEntity
8
0
100
AcDbLine
62
7
6
CONTINUOUS
10
120.5988217451
20
276.0512923486
11
120.7654887297
21
275.2002257592
0
LINE
5
315
100
AcDbEntity
8
0
100
AcDbLine
62
7
6
CONTINUOUS
10
143.7397919201
20
127.3085250146
11
143.6363072101
21
127.9042701013
0
LINE
5
316
100
AcDbEntity
8
0
100
AcDbLine
62
7
6
CONTINUOUS
10
143.6363072101
20
130.4361848123
11
143.5328233460
21
131.0319298989
0
LINE
5
317
100
AcDbEntity
8
0
100
AcDbLine
62
7
6
CONTINUOUS
10
121.7654887297
20
275.2002257592
11
121.5988217451
21
276.2640609033
0
LINE
5
318
100
AcDbEntity
8
0
100
AcDbLine
62
7
6
CONTINUOUS
10
144.4291441701
20
128.0532063729
11
144.5326288801
21
127.0106524713
0
LINE
5
319
100
AcDbEntity
8
0
100
AcDbLine
62
7
6
CONTINUOUS
10
144.5676687541
20
128.0532063729
11
144.6711534641
21
127.0106524713
0
LINE
5
31A
100
AcDbEntity
8
0
100
AcDbLine
62
7
6
CONTINUOUS
10
138.4270377579
20
130.0582249155
11
138.4270377579
21
125.0744828469
0
LINE
5
31B
100
AcDbEntity
8
0
100
AcDbLine
62
7
6
CONTINUOUS
10
138.5655623418
20
130.5851210839
11
138.5655623418
21
125.0744828469
0
LINE
5
31C
100
AcDbEntity
8
0
100
AcDbLine
62
7
6
CONTINUOUS
10
139.1864697559
20
125.0744828469
11
139.1864697559
21
132.0744818933
0
LINE
5
31D
100
AcDbEntity
8
0
100
AcDbLine
62
7
6
CONTINUOUS
10
141.5315756740
20
128.9468230493
11
141.5315756740
21
128.3510779626
0
LINE
5
31E
100
AcDbEntity
8
0
100
AcDbLine
62
7
6
CONTINUOUS
10
141.6701002580
20
128.9468230493
11
141.6701002580
21
128.3510779626
0
LINE
5
31F
100
AcDbEntity
8
0
100
AcDbLine
62
7
6
CONTINUOUS
10
142.9803599221
20
130.4361848123
11
142.9803599221
21
130.1383122689
0
LINE
5
320
100
AcDbEntity
8
0
100
AcDbLine
62
7
6
CONTINUOUS
10
143.0838446320
20
127.3085250146
11
143.0838446320
21
126.7127808816
0
LINE
5
321
100
AcDbEntity
8
0
100
AcDbLine
62
7
6
CONTINUOUS
10
143.1188845060
20
130.4361848123
11
143.1188845060
21
130.1383122689
0
LINE
5
322
100
AcDbEntity
8
0
100
AcDbLine
62
7
6
CONTINUOUS
10
143.2223692160
20
127.3085250146
11
143.2223692160
21
126.7127808816
0
LINE
5
323
100
AcDbEntity
8
0
100
AcDbLine
62
7
6
CONTINUOUS
10
143.6363072101
20
130.1383122689
11
143.6363072101
21
130.4361848123
0
LINE
5
324
100
AcDbEntity
8
0
100
AcDbLine
62
7
6
CONTINUOUS
10
143.7397919201
20
126.7127808816
11
143.7397919201
21
127.3085250146
0
LINE
5
325
100
AcDbEntity
8
0
100
AcDbLine
62
7
6
CONTINUOUS
10
144.4291441701
20
129.0957593209
11
144.4291441701
21
128.0532063729
0
LINE
5
326
100
AcDbEntity
8
0
100
AcDbLine
62
7
6
CONTINUOUS
10
144.5676687541
20
129.0957593209
11
144.5676687541
21
128.0532063729
0
LINE
5
327
100
AcDbEntity
8
0
100
AcDbLine
62
7
6
CONTINUOUS
10
145.0850923041
20
128.7978867776
11
145.0850923041
21
129.0957593209
0
LINE
5
328
100
AcDbEntity
8
0
100
AcDbLine
62
7
6
CONTINUOUS
10
121.7660172132
20
129.9893759973
11
121.6625333492
21
129.5425681359
0
LINE
5
329
100
AcDbEntity
8
0
100
AcDbLine
62
7
6
CONTINUOUS
10
121.9045417972
20
129.9893759973
11
121.8010579331
21
129.5425681359
0
LINE
5
32A
100
AcDbEntity
8
0
100
AcDbLine
62
7
6
CONTINUOUS
10
122.4219653472
20
129.3936318643
11
122.5254500572
21
129.8404397256
0
LINE
5
32B
100
AcDbEntity
8
0
100
AcDbLine
62
7
6
CONTINUOUS
10
127.3541856314
20
132.0744818933
11
125.8711789654
21
126.0982757752
0
LINE
5
32C
100
AcDbEntity
8
0
100
AcDbLine
62
7
6
CONTINUOUS
10
127.4927102154
20
132.0744818933
11
125.9404412573
21
125.8191632516
0
LINE
5
32D
100
AcDbEntity
8
0
100
AcDbLine
62
7
6
CONTINUOUS
10
86.5406609633
20
265.2752341516
11
87.2548695662
21
264.7048606164
0
LINE
5
32E
100
AcDbEntity
8
0
100
AcDbLine
62
7
6
CONTINUOUS
10
87.5130692579
20
265.5909728295
11
87.0495835402
21
266.0604247338
0
LINE
5
32F
100
AcDbEntity
8
0
100
AcDbLine
62
7
6
CONTINUOUS
10
106.0988217451
20
276.9023513086
11
105.5988217451
21
277.7534178979
0
LINE
5
330
100
AcDbEntity
8
0
100
AcDbLine
62
7
6
CONTINUOUS
10
109.2654884913
20
270.5193785913
11
108.9321552374
21
271.1576766259
0
LINE
5
331
100
AcDbEntity
8
0
100
AcDbLine
62
7
6
CONTINUOUS
10
145.1885761681
20
127.1595887429
11
145.1885761681
21
127.6063975579
0
LINE
5
332
100
AcDbEntity
8
0
100
AcDbLine
62
7
6
CONTINUOUS
10
147.6371676422
20
127.6063975579
11
147.6371676422
21
127.1595887429
0
LINE
5
333
100
AcDbEntity
8
0
100
AcDbLine
62
7
6
CONTINUOUS
10
147.7756922261
20
127.6063975579
11
147.7756922261
21
127.1595887429
0
LINE
5
334
100
AcDbEntity
8
0
100
AcDbLine
62
7
6
CONTINUOUS
10
148.2931140843
20
127.0106524713
11
148.2931140843
21
127.7553338296
0
LINE
5
335
100
AcDbEntity
8
0
100
AcDbLine
62
7
6
CONTINUOUS
10
149.5508435867
20
121.0244826562
11
149.5508435867
21
136.0244826562
0
LINE
5
336
100
AcDbEntity
8
0
100
AcDbLine
62
7
6
CONTINUOUS
10
144.5326288801
20
130.1383122689
11
144.4291441701
21
129.0957593209
0
LINE
5
337
100
AcDbEntity
8
0
100
AcDbLine
62
7
6
CONTINUOUS
10
144.6711534641
20
130.1383122689
11
144.5676687541
21
129.0957593209
0
LINE
5
338
100
AcDbEntity
8
0
100
AcDbLine
62
7
6
CONTINUOUS
10
140.0827914259
20
131.0319298989
11
139.9793067159
21
130.4361848123
0
LINE
5
339
100
AcDbEntity
8
0
100
AcDbLine
62
7
6
CONTINUOUS
10
140.2213160099
20
131.0319298989
11
140.1178312999
21
130.4361848123
0
LINE
5
33A
100
AcDbEntity
8
0
100
AcDbLine
62
7
6
CONTINUOUS
10
126.3543796744
20
125.0744828469
11
127.8031643454
21
130.5851210839
0
LINE
5
33B
100
AcDbEntity
8
0
100
AcDbLine
62
7
6
CONTINUOUS
10
108.2654884913
20
270.0938414819
11
108.9321552374
21
269.2427825219
0
LINE
5
33C
100
AcDbEntity
8
0
100
AcDbLine
62
7
6
CONTINUOUS
10
104.7654882528
20
277.3278884179
11
105.0988217451
21
276.9023513086
0
LINE
5
33D
100
AcDbEntity
8
0
100
AcDbLine
62
7
6
CONTINUOUS
10
120.2654887297
20
276.6895903833
11
120.5988217451
21
276.0512923486
0
LINE
5
33E
100
AcDbEntity
8
0
100
AcDbLine
62
7
6
CONTINUOUS
10
121.5988217451
20
276.2640609033
11
121.2654887297
21
277.1151198632
0
LINE
5
33F
100
AcDbEntity
8
0
100
AcDbLine
62
7
6
CONTINUOUS
10
161.0188218214
20
117.0244826562
11
161.0188218214
21
127.2643997483
0
LINE
5
340
100
AcDbEntity
8
0
100
AcDbLine
62
7
6
CONTINUOUS
10
145.0850923041
20
129.0957593209
11
145.1885761681
21
129.9893759973
0
LINE
5
341
100
AcDbEntity
8
0
100
AcDbLine
62
7
6
CONTINUOUS
10
143.5328233460
20
129.5425681359
11
143.6363072101
21
130.1383122689
0
LINE
5
342
100
AcDbEntity
8
0
100
AcDbLine
62
7
6
CONTINUOUS
10
143.6363072101
20
126.2659720666
11
143.7397919201
21
126.7127808816
0
LINE
5
343
100
AcDbEntity
8
0
100
AcDbLine
62
7
6
CONTINUOUS
10
145.1885761681
20
129.9893759973
11
145.2920608781
21
130.4361848123
0
LINE
5
344
100
AcDbEntity
8
0
100
AcDbLine
62
7
6
CONTINUOUS
10
145.1885761681
20
127.6063975579
11
145.2920608781
21
128.0532063729
0
LINE
5
345
100
AcDbEntity
8
0
100
AcDbLine
62
7
6
CONTINUOUS
10
138.1165840508
20
132.0744818933
11
136.6335773800
21
126.0982757562
0
LINE
5
346
100
AcDbEntity
8
0
100
AcDbLine
62
7
6
CONTINUOUS
10
138.2551086348
20
132.0744818933
11
136.7028396767
21
125.8191632516
0
LINE
5
347
100
AcDbEntity
8
0
100
AcDbLine
62
7
6
CONTINUOUS
10
137.1167780938
20
125.0744828469
11
138.5655623418
21
130.5851210839
0
LINE
5
348
100
AcDbEntity
8
0
100
AcDbLine
62
7
6
CONTINUOUS
10
122.1115112172
20
128.7978867776
11
122.4219653472
21
129.3936318643
0
LINE
5
349
100
AcDbEntity
8
DEFAULT_2
100
AcDbLine
62
8
6
HIDDEN
10
93.0188218214
20
120.0244826562
11
89.0188218214
21
116.0244826562
0
LINE
5
34A
100
AcDbEntity
8
0
100
AcDbLine
62
7
6
CONTINUOUS
10
109.7654884913
20
270.0938414819
11
109.2654884913
21
270.5193785913
0
LINE
5
34B
100
AcDbEntity
8
0
100
AcDbLine
62
7
6
CONTINUOUS
10
105.5988217451
20
277.7534178979
11
104.9321552374
21
278.3917159326
0
LINE
5
34C
100
AcDbEntity
8
0
100
AcDbLine
62
7
6
CONTINUOUS
10
147.6371676422
20
127.1595887429
11
147.5336829322
21
126.7127808816
0
LINE
5
34D
100
AcDbEntity
8
0
100
AcDbLine
62
7
6
CONTINUOUS
10
147.7756922261
20
127.1595887429
11
147.6722075161
21
126.7127808816
0
LINE
5
34E
100
AcDbEntity
8
0
100
AcDbLine
62
7
6
CONTINUOUS
10
144.7395983001
20
130.8829936273
11
144.5326288801
21
130.1383122689
0
LINE
5
34F
100
AcDbEntity
8
0
100
AcDbLine
62
7
6
CONTINUOUS
10
144.8781228841
20
130.8829936273
11
144.6711534641
21
130.1383122689
0
LINE
5
350
100
AcDbEntity
8
0
100
AcDbLine
62
7
6
CONTINUOUS
10
148.0861446643
20
126.2659720666
11
148.2931140843
21
127.0106524713
0
LINE
5
351
100
AcDbEntity
8
0
100
AcDbLine
62
7
6
CONTINUOUS
10
142.9803599221
20
130.1383122689
11
142.7733905021
21
129.5425681359
0
LINE
5
352
100
AcDbEntity
8
0
100
AcDbLine
62
7
6
CONTINUOUS
10
143.1188845060
20
130.1383122689
11
142.9119150860
21
129.5425681359
0
LINE
5
353
100
AcDbEntity
8
0
100
AcDbLine
62
7
6
CONTINUOUS
10
143.0838446320
20
126.7127808816
11
142.9803599221
21
126.4149083383
0
LINE
5
354
100
AcDbEntity
8
0
100
AcDbLine
62
7
6
CONTINUOUS
10
143.2223692160
20
126.7127808816
11
143.1188845060
21
126.4149083383
0
LINE
5
355
100
AcDbEntity
8
0
100
AcDbLine
62
7
6
CONTINUOUS
10
140.6352540039
20
130.4361848123
11
140.8422234239
21
130.8829936273
0
LINE
5
356
100
AcDbEntity
8
0
100
AcDbLine
62
7
6
CONTINUOUS
10
121.6625333492
20
129.5425681359
11
121.4555639292
21
129.2446955926
0
LINE
5
357
100
AcDbEntity
8
0
100
AcDbLine
62
7
6
CONTINUOUS
10
121.8010579331
20
129.5425681359
11
121.5940885131
21
129.2446955926
0
LINE
5
358
100
AcDbEntity
8
0
100
AcDbLine
62
7
6
CONTINUOUS
10
87.2548695662
20
264.7048606164
11
87.9006482222
21
264.5863379724
0
LINE
5
359
100
AcDbEntity
8
0
100
AcDbLine
62
7
6
CONTINUOUS
10
88.1588479139
20
265.4724540002
11
87.5130692579
21
265.5909728295
0
LINE
5
35A
100
AcDbEntity
8
0
100
AcDbLine
62
7
6
CONTINUOUS
10
108.9321552374
20
269.2427825219
11
109.5988218643
21
268.8172454126
0
LINE
5
35B
100
AcDbEntity
8
0
100
AcDbLine
62
7
6
CONTINUOUS
10
121.2654887297
20
277.1151198632
11
120.5988217451
21
277.9661864526
0
LINE
5
35C
100
AcDbEntity
8
0
100
AcDbLine
62
7
6
CONTINUOUS
10
143.3258539260
20
129.0957593209
11
143.5328233460
21
129.5425681359
0
LINE
5
35D
100
AcDbEntity
8
0
100
AcDbLine
62
7
6
CONTINUOUS
10
145.2920608781
20
130.4361848123
11
145.4990302981
21
130.8829936273
0
LINE
5
35E
100
AcDbEntity
8
0
100
AcDbLine
62
7
6
CONTINUOUS
10
143.4293386360
20
125.8191632516
11
143.6363072101
21
126.2659720666
0
LINE
5
35F
100
AcDbEntity
8
0
100
AcDbLine
62
7
6
CONTINUOUS
10
147.5336829322
20
126.7127808816
11
147.3267135122
21
126.2659720666
0
LINE
5
360
100
AcDbEntity
8
0
100
AcDbLine
62
7
6
CONTINUOUS
10
147.6722075161
20
126.7127808816
11
147.4652380961
21
126.2659720666
0
LINE
5
361
100
AcDbEntity
8
0
100
AcDbLine
62
7
6
CONTINUOUS
10
145.0500515842
20
131.4787377603
11
144.7395983001
21
130.8829936273
0
LINE
5
362
100
AcDbEntity
8
0
100
AcDbLine
62
7
6
CONTINUOUS
10
145.1885761681
20
131.4787377603
11
144.8781228841
21
130.8829936273
0
LINE
5
363
100
AcDbEntity
8
0
100
AcDbLine
62
7
6
CONTINUOUS
10
140.4967294200
20
131.6276740319
11
140.0827914259
21
131.0319298989
0
LINE
5
364
100
AcDbEntity
8
0
100
AcDbLine
62
7
6
CONTINUOUS
10
140.6352540039
20
131.6276740319
11
140.2213160099
21
131.0319298989
0
LINE
5
365
100
AcDbEntity
8
0
100
AcDbLine
62
7
6
CONTINUOUS
10
121.6975732231
20
128.5000142343
11
122.1115112172
21
128.7978867776
0
LINE
5
366
100
AcDbEntity
8
0
100
AcDbLine
62
7
6
CONTINUOUS
10
88.9869195082
20
265.7048606164
11
88.1588479139
21
265.4724540002
0
LINE
5
367
100
AcDbEntity
8
0
100
AcDbLine
62
7
6
CONTINUOUS
10
119.0988217451
20
268.6044844873
11
119.9321547606
21
268.8172454126
0
LINE
5
368
100
AcDbEntity
8
0
100
AcDbLine
62
7
6
CONTINUOUS
10
111.0988218196
20
268.6044844873
11
111.9321551778
21
268.8172454126
0
LINE
5
369
100
AcDbEntity
8
0
100
AcDbLine
62
7
6
CONTINUOUS
10
87.9006482222
20
264.5863379724
11
88.4400426008
21
264.6520766503
0
LINE
5
36A
100
AcDbEntity
8
0
100
AcDbLine
62
7
6
CONTINUOUS
10
100.0988217451
20
268.6044844873
11
101.0988217451
21
268.6044844873
0
LINE
5
36B
100
AcDbEntity
8
0
100
AcDbLine
62
7
6
CONTINUOUS
10
105.2654882528
20
268.6044844873
11
106.4321552374
21
268.6044844873
0
LINE
5
36C
100
AcDbEntity
8
0
100
AcDbLine
62
7
6
CONTINUOUS
10
110.4321551778
20
268.6044844873
11
111.0988218196
21
268.6044844873
0
LINE
5
36D
100
AcDbEntity
8
0
100
AcDbLine
62
7
6
CONTINUOUS
10
115.0988217451
20
268.6044844873
11
119.0988217451
21
268.6044844873
0
LINE
5
36E
100
AcDbEntity
8
0
100
AcDbLine
62
7
6
CONTINUOUS
10
119.0988217451
20
269.8810805566
11
116.0988217451
21
269.8810805566
0
LINE
5
36F
100
AcDbEntity
8
0
100
AcDbLine
62
7
6
CONTINUOUS
10
111.0988218196
20
269.8810805566
11
110.4321551778
21
269.8810805566
0
LINE
5
370
100
AcDbEntity
8
0
100
AcDbLine
62
7
6
CONTINUOUS
10
109.5988218643
20
268.8172454126
11
110.4321551778
21
268.6044844873
0
LINE
5
371
100
AcDbEntity
8
0
100
AcDbLine
62
7
6
CONTINUOUS
10
110.4321551778
20
269.8810805566
11
109.7654884913
21
270.0938414819
0
LINE
5
372
100
AcDbEntity
8
0
100
AcDbLine
62
7
6
CONTINUOUS
10
104.2654882528
20
277.5406493432
11
104.7654882528
21
277.3278884179
0
LINE
5
373
100
AcDbEntity
8
0
100
AcDbLine
62
7
6
CONTINUOUS
10
119.7654887297
20
277.1151198632
11
120.2654887297
21
276.6895903833
0
LINE
5
374
100
AcDbEntity
8
0
100
AcDbLine
62
7
6
CONTINUOUS
10
147.7756922261
20
125.6702269799
11
148.0861446643
21
126.2659720666
0
LINE
5
375
100
AcDbEntity
8
0
100
AcDbLine
62
7
6
CONTINUOUS
10
142.7733905021
20
129.5425681359
11
142.5664219280
21
129.2446955926
0
LINE
5
376
100
AcDbEntity
8
0
100
AcDbLine
62
7
6
CONTINUOUS
10
142.9119150860
20
129.5425681359
11
142.7049465120
21
129.2446955926
0
LINE
5
377
100
AcDbEntity
8
0
100
AcDbLine
62
7
6
CONTINUOUS
10
142.9803599221
20
126.4149083383
11
142.7733905021
21
126.1170357949
0
LINE
5
378
100
AcDbEntity
8
0
100
AcDbLine
62
7
6
CONTINUOUS
10
143.1188845060
20
126.4149083383
11
142.9119150860
21
126.1170357949
0
LINE
5
379
100
AcDbEntity
8
0
100
AcDbLine
62
7
6
CONTINUOUS
10
145.2920608781
20
128.0532063729
11
145.4990302981
21
128.3510779626
0
LINE
5
37A
100
AcDbEntity
8
0
100
AcDbLine
62
7
6
CONTINUOUS
10
142.9119150860
20
128.6489505059
11
143.3258539260
21
129.0957593209
0
LINE
5
37B
100
AcDbEntity
8
0
100
AcDbLine
62
7
6
CONTINUOUS
10
140.8422234239
20
130.8829936273
11
141.1526775539
21
131.1808652169
0
LINE
5
37C
100
AcDbEntity
8
0
100
AcDbLine
62
7
6
CONTINUOUS
10
140.9106682599
20
131.9255465753
11
140.4967294200
21
131.6276740319
0
LINE
5
37D
100
AcDbEntity
8
0
100
AcDbLine
62
7
6
CONTINUOUS
10
141.0491928439
20
131.9255465753
11
140.6352540039
21
131.6276740319
0
LINE
5
37E
100
AcDbEntity
8
0
100
AcDbLine
62
7
6
CONTINUOUS
10
121.4555639292
20
129.2446955926
11
121.2577179175
21
129.1497815796
0
LINE
5
37F
100
AcDbEntity
8
0
100
AcDbLine
62
7
6
CONTINUOUS
10
121.5940885131
20
129.2446955926
11
121.2836343832
21
129.0957593209
0
LINE
5
380
100
AcDbEntity
8
0
100
AcDbLine
62
7
6
CONTINUOUS
10
101.0988217451
20
273.0725707299
11
103.9321552374
21
273.0725707299
0
LINE
5
381
100
AcDbEntity
8
0
100
AcDbLine
62
7
6
CONTINUOUS
10
104.2654882528
20
274.3491667993
11
101.0988217451
21
274.3491667993
0
LINE
5
382
100
AcDbEntity
8
0
100
AcDbLine
62
7
6
CONTINUOUS
10
116.0988217451
20
277.3278884179
11
119.0988217451
21
277.3278884179
0
LINE
5
383
100
AcDbEntity
8
0
100
AcDbLine
62
7
6
CONTINUOUS
10
101.0988217451
20
277.5406493432
11
104.2654882528
21
277.5406493432
0
LINE
5
384
100
AcDbEntity
8
0
100
AcDbLine
62
7
6
CONTINUOUS
10
104.9321552374
20
278.3917159326
11
104.0988217451
21
278.6044844873
0
LINE
5
385
100
AcDbEntity
8
0
100
AcDbLine
62
7
6
CONTINUOUS
10
119.9321547606
20
278.3917159326
11
119.0988217451
21
278.6044844873
0
LINE
5
386
100
AcDbEntity
8
0
100
AcDbLine
62
7
6
CONTINUOUS
10
119.0988217451
20
277.3278884179
11
119.7654887297
21
277.1151198632
0
LINE
5
387
100
AcDbEntity
8
0
100
AcDbLine
62
7
6
CONTINUOUS
10
120.5988217451
20
277.9661864526
11
119.9321547606
21
278.3917159326
0
LINE
5
388
100
AcDbEntity
8
0
100
AcDbLine
62
7
6
CONTINUOUS
10
174.7516567304
20
141.6128308224
11
198.1898555676
21
198.1976483326
0
LINE
5
389
100
AcDbEntity
8
0
100
AcDbLine
62
7
6
CONTINUOUS
10
145.4990302981
20
130.8829936273
11
145.8094844281
21
131.1808652169
0
LINE
5
38A
100
AcDbEntity
8
0
100
AcDbLine
62
7
6
CONTINUOUS
10
145.5674751341
20
129.3936318643
11
145.0850923041
21
128.9307976407
0
LINE
5
38B
100
AcDbEntity
8
0
100
AcDbLine
62
7
6
CONTINUOUS
10
145.7059997181
20
129.3936318643
11
145.0850923041
21
128.7978867776
0
LINE
5
38C
100
AcDbEntity
8
0
100
AcDbLine
62
7
6
CONTINUOUS
10
145.4990302981
20
128.3510779626
11
145.8094844281
21
128.6489505059
0
LINE
5
38D
100
AcDbEntity
8
0
100
AcDbLine
62
7
6
CONTINUOUS
10
143.1188845060
20
125.5212907083
11
143.4293386360
21
125.8191632516
0
LINE
5
38E
100
AcDbEntity
8
0
100
AcDbLine
62
7
6
CONTINUOUS
10
147.3267135122
20
126.2659720666
11
147.0162593822
21
125.9680995233
0
LINE
5
38F
100
AcDbEntity
8
0
100
AcDbLine
62
7
6
CONTINUOUS
10
147.4652380961
20
126.2659720666
11
147.1547839662
21
125.9680995233
0
LINE
5
390
100
AcDbEntity
8
0
100
AcDbLine
62
7
6
CONTINUOUS
10
145.5674751341
20
131.9255465753
11
145.0500515842
21
131.4787377603
0
LINE
5
391
100
AcDbEntity
8
0
100
AcDbLine
62
7
6
CONTINUOUS
10
145.7059997181
20
131.9255465753
11
145.1885761681
21
131.4787377603
0
LINE
5
392
100
AcDbEntity
8
0
100
AcDbLine
62
7
6
CONTINUOUS
10
147.2582686762
20
125.2234191186
11
147.7756922261
21
125.6702269799
0
LINE
5
393
100
AcDbEntity
8
0
100
AcDbLine
62
7
6
CONTINUOUS
10
142.7733905021
20
126.1170357949
11
142.5664219280
21
125.9680995233
0
LINE
5
394
100
AcDbEntity
8
0
100
AcDbLine
62
7
6
CONTINUOUS
10
142.9119150860
20
126.1170357949
11
142.7049465120
21
125.9680995233
0
LINE
5
395
100
AcDbEntity
8
0
100
AcDbLine
62
7
6
CONTINUOUS
10
142.7049465120
20
125.2234191186
11
143.1188845060
21
125.5212907083
0
LINE
5
396
100
AcDbEntity
8
0
100
AcDbLine
62
7
6
CONTINUOUS
10
145.8094844281
20
131.1808652169
11
146.1199377122
21
131.3298014886
0
LINE
5
397
100
AcDbEntity
8
0
100
AcDbLine
62
7
6
CONTINUOUS
10
142.5664219280
20
129.2446955926
11
142.0581217864
21
129.0008453079
0
LINE
5
398
100
AcDbEntity
8
0
100
AcDbLine
62
7
6
CONTINUOUS
10
142.7049465120
20
129.2446955926
11
142.0840382520
21
128.9468230493
0
LINE
5
399
100
AcDbEntity
8
0
100
AcDbLine
62
7
6
CONTINUOUS
10
145.8094844281
20
128.6489505059
11
146.1199377122
21
128.7978867776
0
LINE
5
39A
100
AcDbEntity
8
0
100
AcDbLine
62
7
6
CONTINUOUS
10
141.1526775539
20
131.1808652169
11
141.6701002580
21
131.3298014886
0
LINE
5
39B
100
AcDbEntity
8
0
100
AcDbLine
62
7
6
CONTINUOUS
10
146.0848978382
20
132.0744818933
11
145.5674751341
21
131.9255465753
0
LINE
5
39C
100
AcDbEntity
8
0
100
AcDbLine
62
7
6
CONTINUOUS
10
146.2234224221
20
132.0744818933
11
145.7059997181
21
131.9255465753
0
LINE
5
39D
100
AcDbEntity
8
0
100
AcDbLine
62
7
6
CONTINUOUS
10
146.0848978382
20
129.5425681359
11
145.5674751341
21
129.3936318643
0
LINE
5
39E
100
AcDbEntity
8
0
100
AcDbLine
62
7
6
CONTINUOUS
10
146.2234224221
20
129.5425681359
11
145.7059997181
21
129.3936318643
0
LINE
5
39F
100
AcDbEntity
8
0
100
AcDbLine
62
7
6
CONTINUOUS
10
142.5664219280
20
125.9680995233
11
142.1769239375
21
125.8559856109
0
LINE
5
3A0
100
AcDbEntity
8
0
100
AcDbLine
62
7
6
CONTINUOUS
10
142.7049465120
20
125.9680995233
11
142.1875229620
21
125.8191632516
0
LINE
5
3A1
100
AcDbEntity
8
0
100
AcDbLine
62
7
6
CONTINUOUS
10
119.0988217451
20
278.6044844873
11
115.0988217451
21
278.6044844873
0
LINE
5
3A2
100
AcDbEntity
8
0
100
AcDbLine
62
7
6
CONTINUOUS
10
113.7654884913
20
278.6044844873
11
112.7654884913
21
278.6044844873
0
LINE
5
3A3
100
AcDbEntity
8
0
100
AcDbLine
62
7
6
CONTINUOUS
10
108.7654884913
20
278.6044844873
11
107.7654884913
21
278.6044844873
0
LINE
5
3A4
100
AcDbEntity
8
0
100
AcDbLine
62
7
6
CONTINUOUS
10
104.0988217451
20
278.6044844873
11
100.0988217451
21
278.6044844873
0
LINE
5
3A5
100
AcDbEntity
8
0
100
AcDbLine
62
7
6
CONTINUOUS
10
114.8456561451
20
289.1955164024
11
169.9520704056
21
266.3696922419
0
LINE
5
3A6
100
AcDbEntity
8
0
100
AcDbLine
62
7
6
CONTINUOUS
10
175.3640314071
20
260.9577312404
11
198.1898555676
21
205.8513169799
0
LINE
5
3A7
100
AcDbEntity
8
0
100
AcDbLine
62
7
6
CONTINUOUS
10
147.0162593822
20
125.9680995233
11
146.8184133706
21
125.8731855102
0
LINE
5
3A8
100
AcDbEntity
8
0
100
AcDbLine
62
7
6
CONTINUOUS
10
147.1547839662
20
125.9680995233
11
146.8443298362
21
125.8191632516
0
LINE
5
3A9
100
AcDbEntity
8
0
100
AcDbLine
62
7
6
CONTINUOUS
10
142.2910076720
20
125.0744828469
11
142.7049465120
21
125.2234191186
0
LINE
5
3AA
100
AcDbEntity
8
0
100
AcDbLine
62
7
6
CONTINUOUS
10
146.7408451262
20
125.0744828469
11
147.2582686762
21
125.2234191186
0
LINE
5
3AB
100
AcDbEntity
8
0
100
AcDbLine
62
7
6
CONTINUOUS
10
160.0188218214
20
116.0244826562
11
161.0188218214
21
117.0244826562
0
LINE
5
3AC
100
AcDbEntity
8
0
100
AcDbLine
62
7
6
CONTINUOUS
10
246.3771295736
20
116.0244826562
11
245.3771295736
21
117.0244826562
0
LINE
5
3AD
100
AcDbEntity
8
0
100
AcDbLine
62
7
6
CONTINUOUS
10
246.3779860255
20
116.0244826562
11
344.3762731217
21
116.0244826562
0
LINE
5
3AE
100
AcDbEntity
8
0
100
AcDbLine
62
7
6
CONTINUOUS
10
245.3771295736
20
117.0244826562
11
345.3771295736
21
117.0244826562
0
LINE
5
3AF
100
AcDbEntity
8
DEFAULT_2
100
AcDbLine
62
8
6
HIDDEN
10
313.3771295736
20
120.0244826562
11
277.3771295736
21
120.0244826562
0
LINE
5
3B0
100
AcDbEntity
8
0
100
AcDbLine
62
7
6
CONTINUOUS
10
315.2429531488
20
139.2643997483
11
310.6581034963
21
139.2643997483
0
LINE
5
3B1
100
AcDbEntity
8
0
100
AcDbLine
62
7
6
CONTINUOUS
10
280.0961556509
20
139.2643997483
11
275.5113059984
21
139.2643997483
0
LINE
5
3B2
100
AcDbEntity
8
0
100
AcDbLine
62
7
6
CONTINUOUS
10
245.3771295736
20
117.0244826562
11
245.3771295736
21
139.1475992503
0
LINE
5
3B3
100
AcDbEntity
8
0
100
AcDbLine
62
7
6
CONTINUOUS
10
253.8127849232
20
149.0244826562
11
269.4518576984
21
151.5014684449
0
LINE
5
3B4
100
AcDbEntity
8
0
100
AcDbLine
62
7
6
CONTINUOUS
10
336.9414742240
20
149.0244826562
11
321.3024001096
21
151.5014686570
0
LINE
5
3B5
100
AcDbEntity
8
DEFAULT_2
100
AcDbLine
62
8
6
HIDDEN
10
313.3771295736
20
120.0244826562
11
317.3771295736
21
116.0244826562
0
LINE
5
3B6
100
AcDbEntity
8
0
100
AcDbLine
62
7
6
CONTINUOUS
10
276.2222948611
20
286.0886482858
11
271.3268710595
21
137.7414034984
0
LINE
5
3B7
100
AcDbEntity
8
DEFAULT_2
100
AcDbLine
62
8
6
HIDDEN
10
277.3771295736
20
157.0249203238
11
277.3771295736
21
120.0244826562
0
LINE
5
3B8
100
AcDbEntity
8
DEFAULT_1
100
AcDbLine
62
2
6
CENTER
10
295.3771295736
20
293.1059165721
11
295.3771295736
21
113.0244826562
0
LINE
5
3B9
100
AcDbEntity
8
DEFAULT_2
100
AcDbLine
62
8
6
HIDDEN
10
313.3771295736
20
157.0250197897
11
313.3771295736
21
120.0244826562
0
LINE
5
3BA
100
AcDbEntity
8
0
100
AcDbLine
62
7
6
CONTINUOUS
10
315.3771295736
20
278.6044844873
11
315.3771295736
21
261.1344832666
0
LINE
5
3BB
100
AcDbEntity
8
0
100
AcDbLine
62
7
6
CONTINUOUS
10
319.4273880256
20
137.7414053808
11
314.5319642861
21
286.0886482859
0
LINE
5
3BC
100
AcDbEntity
8
DEFAULT_2
100
AcDbLine
62
8
6
HIDDEN
10
277.3771295736
20
120.0244826562
11
273.3771295736
21
116.0244826562
0
LINE
5
3BD
100
AcDbEntity
8
0
100
AcDbLine
62
7
6
CONTINUOUS
10
345.3771295736
20
117.0244826562
11
345.3771295736
21
139.1475992503
0
LINE
5
3BE
100
AcDbEntity
8
0
100
AcDbLine
62
7
6
CONTINUOUS
10
315.3771295736
20
261.7141341455
11
315.3363174565
21
261.7141341455
0
LINE
5
3BF
100
AcDbEntity
8
0
100
AcDbLine
62
7
6
CONTINUOUS
10
315.3771295736
20
262.8196982629
11
315.2998341036
21
262.8196982629
0
LINE
5
3C0
100
AcDbEntity
8
0
100
AcDbLine
62
7
6
CONTINUOUS
10
315.3771295736
20
269.7947386987
11
315.0696594278
21
269.7947386987
0
LINE
5
3C1
100
AcDbEntity
8
0
100
AcDbLine
62
7
6
CONTINUOUS
10
315.3771295736
20
270.2947386987
11
315.0531595467
21
270.2947386987
0
LINE
5
3C2
100
AcDbEntity
8
0
100
AcDbLine
62
7
6
CONTINUOUS
10
315.3771295736
20
271.1715773828
11
315.0242240787
21
271.1715773828
0
LINE
5
3C3
100
AcDbEntity
8
0
100
AcDbLine
62
7
6
CONTINUOUS
10
315.3771295736
20
271.5882415063
11
315.0104742617
21
271.5882415063
0
LINE
5
3C4
100
AcDbEntity
8
0
100
AcDbLine
62
7
6
CONTINUOUS
10
315.3771295736
20
278.6044844873
11
314.7789399117
21
278.6044844873
0
LINE
5
3C5
100
AcDbEntity
8
0
100
AcDbLine
62
7
6
CONTINUOUS
10
310.5341404850
20
289.9567210773
11
280.2201186622
21
289.9567210773
0
LINE
5
3C6
100
AcDbEntity
8
0
100
AcDbLine
62
7
6
CONTINUOUS
10
344.3771295736
20
116.0244826562
11
345.3771295736
21
117.0244826562
0
LINE
5
3C7
100
AcDbEntity
8
0
100
AcDbLine
62
7
6
CONTINUOUS
10
23.0865834004
20
37.7671301369
11
23.0865834004
21
73.6206402819
0
LINE
5
3C8
100
AcDbEntity
8
0
100
AcDbLine
62
7
6
CONTINUOUS
10
77.1811638929
20
35.6938852093
11
77.1811638929
21
35.7711806793
0
LINE
5
3C9
100
AcDbEntity
8
0
100
AcDbLine
62
7
6
CONTINUOUS
10
77.7729226210
20
35.6938852093
11
77.7729226210
21
36.0013553551
0
LINE
5
3CA
100
AcDbEntity
8
0
100
AcDbLine
62
7
6
CONTINUOUS
10
78.6389504530
20
35.6938852093
11
78.6389504530
21
36.0178552362
0
LINE
5
3CB
100
AcDbEntity
8
0
100
AcDbLine
62
7
6
CONTINUOUS
10
81.5112897017
20
35.6938852093
11
81.5112897017
21
35.8536800849
0
LINE
5
3CC
100
AcDbEntity
8
0
100
AcDbLine
62
7
6
CONTINUOUS
10
82.8327694990
20
35.6938852093
11
82.8327694990
21
35.9761463082
0
LINE
5
3CD
100
AcDbEntity
8
0
100
AcDbLine
62
7
6
CONTINUOUS
10
83.1364060499
20
35.6938852093
11
83.1364060499
21
36.0467907043
0
LINE
5
3CE
100
AcDbEntity
8
0
100
AcDbLine
62
7
6
CONTINUOUS
10
83.8580933668
20
35.6938852093
11
83.8580933668
21
36.0605405213
0
LINE
5
3CF
100
AcDbEntity
8
0
100
AcDbLine
62
7
6
CONTINUOUS
10
84.7091580488
20
35.6938852093
11
84.7091580488
21
36.0118961345
0
LINE
5
3D0
100
AcDbEntity
8
0
100
AcDbLine
62
7
6
CONTINUOUS
10
194.8120047981
20
33.7039936449
11
171.4238575383
21
31.8406956554
0
LINE
5
3D1
100
AcDbEntity
8
0
100
AcDbLine
62
7
6
CONTINUOUS
10
171.1061901776
20
31.8280616341
11
171.4303947125
21
31.8412227870
0
LINE
5
3D2
100
AcDbEntity
8
0
100
AcDbLine
62
7
6
CONTINUOUS
10
50.6228609726
20
31.8399848587
11
50.9314534652
21
31.8280625716
0
LINE
5
3D3
100
AcDbEntity
8
0
100
AcDbLine
62
7
6
CONTINUOUS
10
50.6137861045
20
31.8406956554
11
27.2256388457
21
33.7039936448
0
LINE
5
3D4
100
AcDbEntity
8
0
100
AcDbLine
62
7
6
CONTINUOUS
10
86.2968712904
20
35.6938852093
11
86.2968712904
21
36.0421458326
0
LINE
5
3D5
100
AcDbEntity
8
0
100
AcDbLine
62
7
6
CONTINUOUS
10
86.7224026777
20
35.6938852093
11
86.7224026777
21
36.0178237652
0
LINE
5
3D6
100
AcDbEntity
8
0
100
AcDbLine
62
7
6
CONTINUOUS
10
87.0495835402
20
35.6938852093
11
87.0495835402
21
35.8781238823
0
LINE
5
3D7
100
AcDbEntity
8
0
100
AcDbLine
62
7
6
CONTINUOUS
10
87.5130692579
20
35.6938852093
11
87.5130692579
21
35.8626320811
0
LINE
5
3D8
100
AcDbEntity
8
0
100
AcDbLine
62
7
6
CONTINUOUS
10
88.1588479139
20
35.6938852093
11
88.1588479139
21
35.8587209879
0
LINE
5
3D9
100
AcDbEntity
8
0
100
AcDbLine
62
7
6
CONTINUOUS
10
88.9869195082
20
35.6938852093
11
88.9869195082
21
35.8663903509
0
LINE
5
3DA
100
AcDbEntity
8
0
100
AcDbLine
62
7
6
CONTINUOUS
10
89.4124508955
20
35.6938852093
11
89.4124508955
21
35.8420680317
0
LINE
5
3DB
100
AcDbEntity
8
0
100
AcDbLine
62
7
6
CONTINUOUS
10
112.7654884913
20
36.0744167259
11
112.5988218643
21
36.0463319826
0
LINE
5
3DC
100
AcDbEntity
8
0
100
AcDbLine
62
7
6
CONTINUOUS
10
112.5988218643
20
36.0463319826
11
112.2654884913
21
36.0252682992
0
LINE
5
3DD
100
AcDbEntity
8
0
100
AcDbLine
62
7
6
CONTINUOUS
10
156.4817356320
20
31.6347631072
11
156.4822905340
21
31.6347836234
0
LINE
5
3DE
100
AcDbEntity
8
0
100
AcDbLine
62
7
6
CONTINUOUS
10
112.2654884913
20
36.0252682992
11
111.7654884913
21
36.0112256758
0
LINE
5
3DF
100
AcDbEntity
8
0
100
AcDbLine
62
7
6
CONTINUOUS
10
111.7654884913
20
36.0112256758
11
111.0988218196
21
36.0042046159
0
LINE
5
3E0
100
AcDbEntity
8
0
100
AcDbLine
62
7
6
CONTINUOUS
10
88.9869195082
20
35.8663903509
11
88.1588479139
21
35.8587209879
0
LINE
5
3E1
100
AcDbEntity
8
0
100
AcDbLine
62
7
6
CONTINUOUS
10
171.1061901776
20
31.8280616341
11
169.7499809593
21
31.8280616341
0
LINE
5
3E2
100
AcDbEntity
8
0
100
AcDbLine
62
7
6
CONTINUOUS
10
52.2876626835
20
31.8280616341
11
50.9314534652
21
31.8280616341
0
LINE
5
3E3
100
AcDbEntity
8
0
100
AcDbLine
62
7
6
CONTINUOUS
10
121.7654887297
20
35.6938852093
11
115.0988217451
21
35.6938852093
0
LINE
5
3E4
100
AcDbEntity
8
0
100
AcDbLine
62
7
6
CONTINUOUS
10
113.7654884913
20
35.6938852093
11
107.7654884913
21
35.6938852093
0
LINE
5
3E5
100
AcDbEntity
8
0
100
AcDbLine
62
7
6
CONTINUOUS
10
106.4321552374
20
35.6938852093
11
100.0988217451
21
35.6938852093
0
LINE
5
3E6
100
AcDbEntity
8
0
100
AcDbLine
62
7
6
CONTINUOUS
10
89.4124508955
20
35.6938852093
11
77.1811638929
21
35.6938852093
0
LINE
5
3E7
100
AcDbEntity
8
0
100
AcDbLine
62
7
6
CONTINUOUS
10
111.0988218196
20
36.0042046159
11
110.4321551778
21
36.0042046159
0
LINE
5
3E8
100
AcDbEntity
8
0
100
AcDbLine
62
7
6
CONTINUOUS
10
119.0988217451
20
36.2920748712
11
115.0988217451
21
36.2920748712
0
LINE
5
3E9
100
AcDbEntity
8
0
100
AcDbLine
62
7
6
CONTINUOUS
10
113.7654884913
20
36.2920748712
11
112.7654884913
21
36.2920748712
0
LINE
5
3EA
100
AcDbEntity
8
0
100
AcDbLine
62
7
6
CONTINUOUS
10
108.7654884913
20
36.2920748712
11
107.7654884913
21
36.2920748712
0
LINE
5
3EB
100
AcDbEntity
8
0
100
AcDbLine
62
7
6
CONTINUOUS
10
104.0988217451
20
36.2920748712
11
100.0988217451
21
36.2920748712
0
LINE
5
3EC
100
AcDbEntity
8
0
100
AcDbLine
62
7
6
CONTINUOUS
10
88.1588479139
20
35.8587209879
11
87.5130692579
21
35.8626320811
0
LINE
5
3ED
100
AcDbEntity
8
0
100
AcDbLine
62
7
6
CONTINUOUS
10
104.9321552374
20
36.2850535595
11
104.0988217451
21
36.2920748712
0
LINE
5
3EE
100
AcDbEntity
8
0
100
AcDbLine
62
7
6
CONTINUOUS
10
119.9321547606
20
36.2850535595
11
119.0988217451
21
36.2920748712
0
LINE
5
3EF
100
AcDbEntity
8
0
100
AcDbLine
62
7
6
CONTINUOUS
10
110.4321551778
20
36.0042046159
11
109.7654884913
21
36.0112256758
0
LINE
5
3F0
100
AcDbEntity
8
0
100
AcDbLine
62
7
6
CONTINUOUS
10
109.7654884913
20
36.0112256758
11
109.2654884913
21
36.0252682992
0
LINE
5
3F1
100
AcDbEntity
8
0
100
AcDbLine
62
7
6
CONTINUOUS
10
105.5988217451
20
36.2639898761
11
104.9321552374
21
36.2850535595
0
LINE
5
3F2
100
AcDbEntity
8
0
100
AcDbLine
62
7
6
CONTINUOUS
10
87.5130692579
20
35.8626320811
11
87.0495835402
21
35.8781238823
0
LINE
5
3F3
100
AcDbEntity
8
0
100
AcDbLine
62
7
6
CONTINUOUS
10
65.5553435658
20
31.6347849060
11
65.5559128383
21
31.6347638542
0
LINE
5
3F4
100
AcDbEntity
8
0
100
AcDbLine
62
7
6
CONTINUOUS
10
106.0988217451
20
36.2359048811
11
105.5988217451
21
36.2639898761
0
LINE
5
3F5
100
AcDbEntity
8
0
100
AcDbLine
62
7
6
CONTINUOUS
10
81.5112897017
20
35.8536800849
11
78.6389504530
21
36.0178552362
0
LINE
5
3F6
100
AcDbEntity
8
0
100
AcDbLine
62
7
6
CONTINUOUS
10
87.0495835402
20
35.8781238823
11
86.7339643491
21
35.8961637829
0
LINE
5
3F7
100
AcDbEntity
8
0
100
AcDbLine
62
7
6
CONTINUOUS
10
84.7091580488
20
36.0118961345
11
83.8580933668
21
36.0605405213
0
LINE
5
3F8
100
AcDbEntity
8
0
100
AcDbLine
62
7
6
CONTINUOUS
10
89.4124508955
20
35.8420680317
11
88.9869195082
21
35.8663903509
0
LINE
5
3F9
100
AcDbEntity
8
0
100
AcDbLine
62
7
6
CONTINUOUS
10
86.7224026777
20
36.0178237652
11
86.2968712904
21
36.0421458326
0
LINE
5
3FA
100
AcDbEntity
8
0
100
AcDbLine
62
7
6
CONTINUOUS
10
109.2654884913
20
36.0252682992
11
108.9321552374
21
36.0463319826
0
LINE
5
3FB
100
AcDbEntity
8
0
100
AcDbLine
62
7
6
CONTINUOUS
10
106.4321552374
20
35.9620772492
11
106.2654882528
21
35.9800204117
0
LINE
5
3FC
100
AcDbEntity
8
0
100
AcDbLine
62
7
6
CONTINUOUS
10
106.2654882528
20
36.2148414495
11
106.0988217451
21
36.2359048811
0
LINE
5
3FD
100
AcDbEntity
8
0
100
AcDbLine
62
7
6
CONTINUOUS
10
108.9321552374
20
36.0463319826
11
108.7654884913
21
36.0744167259
0
LINE
5
3FE
100
AcDbEntity
8
0
100
AcDbLine
62
7
6
CONTINUOUS
10
82.8292466114
20
35.8787903353
11
81.5112897017
21
35.8536800849
0
LINE
5
3FF
100
AcDbEntity
8
0
100
AcDbLine
62
7
6
CONTINUOUS
10
86.2968712904
20
36.0421458326
11
84.7091580488
21
36.0118961345
0
LINE
5
400
100
AcDbEntity
8
0
100
AcDbLine
62
7
6
CONTINUOUS
10
83.1376413378
20
35.9819548959
11
82.8327694990
21
35.9761463082
0
LINE
5
401
100
AcDbEntity
8
0
100
AcDbLine
62
7
6
CONTINUOUS
10
83.8580933668
20
36.0605405213
11
83.1364060499
21
36.0467907043
0
LINE
5
402
100
AcDbEntity
8
0
100
AcDbLine
62
7
6
CONTINUOUS
10
78.6389504530
20
36.0178552362
11
77.7729226210
21
36.0013553551
0
LINE
5
403
100
AcDbEntity
8
0
100
AcDbLine
62
7
6
CONTINUOUS
10
120.5988217451
20
36.2710111878
11
119.9321547606
21
36.2850535595
0
LINE
5
404
100
AcDbEntity
8
0
100
AcDbLine
62
7
6
CONTINUOUS
10
121.2654887297
20
36.2429261928
11
120.5988217451
21
36.2710111878
0
LINE
5
405
100
AcDbEntity
8
0
100
AcDbLine
62
7
6
CONTINUOUS
10
121.5988217451
20
36.2148414495
11
121.2654887297
21
36.2429261928
0
LINE
5
406
100
AcDbEntity
8
0
100
AcDbLine
62
7
6
CONTINUOUS
10
121.7654887297
20
36.1797351427
11
121.5988217451
21
36.2148414495
0
LINE
5
407
100
AcDbEntity
8
0
100
AcDbLine
62
7
6
CONTINUOUS
10
100.0988217451
20
35.6938852093
11
100.0988217451
21
36.2920748712
0
LINE
5
408
100
AcDbEntity
8
0
100
AcDbLine
62
7
6
CONTINUOUS
10
104.0988217451
20
35.6938852093
11
104.0988217451
21
36.2920748712
0
LINE
5
409
100
AcDbEntity
8
0
100
AcDbLine
62
7
6
CONTINUOUS
10
104.9321552374
20
35.6938852093
11
104.9321552374
21
36.2850535595
0
LINE
5
40A
100
AcDbEntity
8
0
100
AcDbLine
62
7
6
CONTINUOUS
10
105.5988217451
20
35.6938852093
11
105.5988217451
21
36.2639898761
0
LINE
5
40B
100
AcDbEntity
8
0
100
AcDbLine
62
7
6
CONTINUOUS
10
106.0988217451
20
35.6938852093
11
106.0988217451
21
36.2359048811
0
LINE
5
40C
100
AcDbEntity
8
0
100
AcDbLine
62
7
6
CONTINUOUS
10
106.2654882528
20
35.6938852093
11
106.2654882528
21
36.2148414495
0
LINE
5
40D
100
AcDbEntity
8
0
100
AcDbLine
62
7
6
CONTINUOUS
10
106.4321552374
20
35.6938852093
11
106.4321552374
21
35.9620772492
0
LINE
5
40E
100
AcDbEntity
8
0
100
AcDbLine
62
7
6
CONTINUOUS
10
107.7654884913
20
35.6938852093
11
107.7654884913
21
36.2920748712
0
LINE
5
40F
100
AcDbEntity
8
0
100
AcDbLine
62
7
6
CONTINUOUS
10
108.7654884913
20
35.6938852093
11
108.7654884913
21
36.2920748712
0
LINE
5
410
100
AcDbEntity
8
0
100
AcDbLine
62
7
6
CONTINUOUS
10
108.9321552374
20
35.6938852093
11
108.9321552374
21
36.0463319826
0
LINE
5
411
100
AcDbEntity
8
0
100
AcDbLine
62
7
6
CONTINUOUS
10
109.2654884913
20
35.6938852093
11
109.2654884913
21
36.0252682992
0
LINE
5
412
100
AcDbEntity
8
0
100
AcDbLine
62
7
6
CONTINUOUS
10
109.7654884913
20
35.6938852093
11
109.7654884913
21
36.0112256758
0
LINE
5
413
100
AcDbEntity
8
0
100
AcDbLine
62
7
6
CONTINUOUS
10
110.4321551778
20
35.6938852093
11
110.4321551778
21
36.0042046159
0
LINE
5
414
100
AcDbEntity
8
DEFAULT_1
100
AcDbLine
62
2
6
CENTER
10
111.0188218214
20
55.6938852093
11
111.0188218214
21
2.6938852093
0
LINE
5
415
100
AcDbEntity
8
DEFAULT_1
100
AcDbLine
62
2
6
CENTER
10
111.0188218214
20
55.6938852093
11
111.0188218214
21
108.6938852093
0
LINE
5
416
100
AcDbEntity
8
0
100
AcDbLine
62
7
6
CONTINUOUS
10
111.0988218196
20
35.6938852093
11
111.0988218196
21
36.0042046159
0
LINE
5
417
100
AcDbEntity
8
0
100
AcDbLine
62
7
6
CONTINUOUS
10
111.7654884913
20
35.6938852093
11
111.7654884913
21
36.0112256758
0
LINE
5
418
100
AcDbEntity
8
DEFAULT_1
100
AcDbLine
62
2
6
CENTER
10
111.0188218214
20
55.6938852093
11
58.0188218214
21
55.6938852093
0
LINE
5
419
100
AcDbEntity
8
DEFAULT_1
100
AcDbLine
62
2
6
CENTER
10
111.0188218214
20
55.6938852093
11
164.0188218214
21
55.6938852093
0
LINE
5
41A
100
AcDbEntity
8
0
100
AcDbLine
62
7
6
CONTINUOUS
10
112.2654884913
20
35.6938852093
11
112.2654884913
21
36.0252682992
0
LINE
5
41B
100
AcDbEntity
8
0
100
AcDbLine
62
7
6
CONTINUOUS
10
112.5988218643
20
35.6938852093
11
112.5988218643
21
36.0463319826
0
LINE
5
41C
100
AcDbEntity
8
0
100
AcDbLine
62
7
6
CONTINUOUS
10
112.7654884913
20
35.6938852093
11
112.7654884913
21
36.2920748712
0
LINE
5
41D
100
AcDbEntity
8
0
100
AcDbLine
62
7
6
CONTINUOUS
10
113.7654884913
20
35.6938852093
11
113.7654884913
21
36.2920748712
0
LINE
5
41E
100
AcDbEntity
8
0
100
AcDbLine
62
7
6
CONTINUOUS
10
115.0988217451
20
35.6938852093
11
115.0988217451
21
36.2920748712
0
LINE
5
41F
100
AcDbEntity
8
0
100
AcDbLine
62
7
6
CONTINUOUS
10
77.7729226210
20
36.0013553551
11
77.1811638929
21
35.7711806793
0
LINE
5
420
100
AcDbEntity
8
0
100
AcDbLine
62
7
6
CONTINUOUS
10
119.0988217451
20
35.6938852093
11
119.0988217451
21
36.2920748712
0
LINE
5
421
100
AcDbEntity
8
0
100
AcDbLine
62
7
6
CONTINUOUS
10
119.9321547606
20
35.6938852093
11
119.9321547606
21
36.2850535595
0
LINE
5
422
100
AcDbEntity
8
0
100
AcDbLine
62
7
6
CONTINUOUS
10
120.5988217451
20
35.6938852093
11
120.5988217451
21
36.2710111878
0
LINE
5
423
100
AcDbEntity
8
0
100
AcDbLine
62
7
6
CONTINUOUS
10
121.2654887297
20
35.6938852093
11
121.2654887297
21
36.2429261928
0
LINE
5
424
100
AcDbEntity
8
0
100
AcDbLine
62
7
6
CONTINUOUS
10
121.5988217451
20
35.6938852093
11
121.5988217451
21
36.2148414495
0
LINE
5
425
100
AcDbEntity
8
0
100
AcDbLine
62
7
6
CONTINUOUS
10
121.7654887297
20
35.6938852093
11
121.7654887297
21
36.1797351427
0
LINE
5
426
100
AcDbEntity
8
0
100
AcDbLine
62
7
6
CONTINUOUS
10
50.9314534652
20
79.5597087845
11
50.6072489304
21
79.5465476316
0
LINE
5
427
100
AcDbEntity
8
0
100
AcDbLine
62
7
6
CONTINUOUS
10
65.5559080108
20
79.7530073114
11
65.5553531088
21
79.7529867952
0
LINE
5
428
100
AcDbEntity
8
0
100
AcDbLine
62
7
6
CONTINUOUS
10
50.9314534652
20
79.5597087845
11
52.2876626836
21
79.5597087845
0
LINE
5
429
100
AcDbEntity
8
0
100
AcDbLine
62
7
6
CONTINUOUS
10
169.7499809593
20
79.5597087845
11
171.1061901776
21
79.5597087845
0
LINE
5
42A
100
AcDbEntity
8
0
100
AcDbLine
62
7
6
CONTINUOUS
10
156.4823000771
20
79.7529855127
11
156.4817308045
21
79.7530065645
0
LINE
5
42B
100
AcDbEntity
8
0
100
AcDbLine
62
7
6
CONTINUOUS
10
171.4147826702
20
79.5477855600
11
171.1061901776
21
79.5597078470
0
LINE
5
42C
100
AcDbEntity
8
0
100
AcDbLine
62
7
6
CONTINUOUS
10
27.2256388447
20
77.6837767738
11
50.6137861045
21
79.5470747632
0
LINE
5
42D
100
AcDbEntity
8
0
100
AcDbLine
62
7
6
CONTINUOUS
10
171.4238575383
20
79.5470747632
11
194.8120047980
21
77.6837767738
0
LINE
5
42E
100
AcDbEntity
8
0
100
AcDbLine
62
7
6
CONTINUOUS
10
154.0171185380
20
81.2114571838
11
154.0158995941
21
81.2135110492
0
LINE
5
42F
100
AcDbEntity
8
0
100
AcDbLine
62
7
6
CONTINUOUS
10
198.9510602425
20
37.7671306575
11
198.9510602425
21
73.6206397610
0
ARC
5
430
100
AcDbEntity
8
0
100
AcDbCircle
62
7
6
CONTINUOUS
10
50.9815050456
20
143.1435645441
40
4.0000000000
100
AcDbArc
50
202.5000000000
51
262.9539116534
0
ARC
5
431
100
AcDbEntity
8
0
100
AcDbCircle
62
7
6
CONTINUOUS
10
171.0561385972
20
143.1435645441
40
4.0000000000
100
AcDbArc
50
277.0460883466
51
337.5000000000
0
ARC
5
432
100
AcDbEntity
8
0
100
AcDbCircle
62
7
6
CONTINUOUS
10
49.0188218214
20
127.2643997483
40
12.0000000000
100
AcDbArc
50
0.0000000000
51
82.9544863088
0
ARC
5
433
100
AcDbEntity
8
0
100
AcDbCircle
62
7
6
CONTINUOUS
10
173.0188218214
20
127.2643997483
40
12.0000000000
100
AcDbArc
50
97.0455136912
51
180.0000000000
0
CIRCLE
5
434
100
AcDbEntity
8
0
100
AcDbCircle
62
7
6
CONTINUOUS
10
111.0188218214
20
202.0244826562
40
45.0000000000
0
ARC
5
435
100
AcDbEntity
8
0
100
AcDbCircle
62
7
6
CONTINUOUS
10
33.0865834004
20
202.0244826562
40
10.0000000000
100
AcDbArc
50
157.5000000000
51
202.5000000000
0
ARC
5
436
100
AcDbEntity
8
0
100
AcDbCircle
62
7
6
CONTINUOUS
10
55.9124075608
20
257.1308969168
40
10.0000000000
100
AcDbArc
50
112.5000000000
51
157.5000000000
0
ARC
5
437
100
AcDbEntity
8
0
100
AcDbCircle
62
7
6
CONTINUOUS
10
111.0188218214
20
279.9567210773
40
10.0000000000
100
AcDbArc
50
67.5000000000
51
112.5000000000
0
ARC
5
438
100
AcDbEntity
8
0
100
AcDbCircle
62
7
6
CONTINUOUS
10
166.1252360820
20
257.1308969168
40
10.0000000000
100
AcDbArc
50
22.5000000000
51
67.5000000000
0
ARC
5
439
100
AcDbEntity
8
0
100
AcDbCircle
62
7
6
CONTINUOUS
10
188.9510602425
20
202.0244826562
40
10.0000000000
100
AcDbArc
50
337.5000000000
51
22.5000000000
0
ARC
5
43A
100
AcDbEntity
8
0
100
AcDbCircle
62
7
6
CONTINUOUS
10
171.1061901776
20
143.2643997483
40
4.0000000000
100
AcDbArc
50
270.0000000000
51
337.5000000000
0
ARC
5
43B
100
AcDbEntity
8
0
100
AcDbCircle
62
7
6
CONTINUOUS
10
50.9314534652
20
143.2643997483
40
4.0000000000
100
AcDbArc
50
202.5000000000
51
270.0000000000
0
ARC
5
43C
100
AcDbEntity
8
0
100
AcDbCircle
62
7
6
CONTINUOUS
10
268.9831178720
20
154.4645836764
40
2.9999980143
100
AcDbArc
50
279.0000000221
51
336.8288853822
0
ARC
5
43D
100
AcDbEntity
8
0
100
AcDbCircle
62
7
6
CONTINUOUS
10
321.7711412762
20
154.4645836763
40
2.9999980143
100
AcDbArc
50
203.1711130048
51
260.9999999773
0
ARC
5
43E
100
AcDbEntity
8
0
100
AcDbCircle
62
7
6
CONTINUOUS
10
280.2201186697
20
285.9567210512
40
4.0000000000
100
AcDbArc
50
90.0000000180
51
178.1099387840
0
ARC
5
43F
100
AcDbEntity
8
0
100
AcDbCircle
62
7
6
CONTINUOUS
10
310.5341404775
20
285.9567210512
40
4.0000000000
100
AcDbArc
50
1.8900612160
51
89.9999999820
0
ARC
5
440
100
AcDbEntity
8
0
100
AcDbCircle
62
7
6
CONTINUOUS
10
255.3771295736
20
139.1475992503
40
10.0000000000
100
AcDbArc
50
99.0000000000
51
180.0000000000
0
ARC
5
441
100
AcDbEntity
8
0
100
AcDbCircle
62
7
6
CONTINUOUS
10
335.3771295736
20
139.1475992503
40
10.0000000000
100
AcDbArc
50
0.0000000000
51
81.0000000000
0
ARC
5
442
100
AcDbEntity
8
0
100
AcDbCircle
62
7
6
CONTINUOUS
10
275.5113059949
20
143.2643996428
40
3.9999999736
100
AcDbArc
50
178.1099372710
51
270.0000000499
0
ARC
5
443
100
AcDbEntity
8
0
100
AcDbCircle
62
7
6
CONTINUOUS
10
315.2429531488
20
143.2643997483
40
4.0000000000
100
AcDbArc
50
270.0000000000
51
1.8900612160
0
CIRCLE
5
444
100
AcDbEntity
8
DEFAULT_2
100
AcDbCircle
62
8
6
HIDDEN
10
111.0188218214
20
55.6938852093
40
18.0000000000
0
ARC
5
445
100
AcDbEntity
8
0
100
AcDbCircle
62
7
6
CONTINUOUS
10
111.0188218214
20
55.6938852093
40
50.0000000000
100
AcDbArc
50
210.6330276603
51
329.3669723397
0
ARC
5
446
100
AcDbEntity
8
0
100
AcDbCircle
62
7
6
CONTINUOUS
10
111.0188218214
20
55.6938852093
40
50.0000000000
100
AcDbArc
50
30.6330276603
51
149.3669723397
0
SPLINE
5
447
100
AcDbEntity
8
0
100
AcDbSpline
62
7
6
CONTINUOUS
70
0
71
3
72
8
73
4
74
2
42
0.0000001000
43
0.0000001000
44
0.0000000001
40
0.0000000000
40
0.0000000000
40
0.0000000000
40
0.0000000000
40
1.0000000000
40
1.0000000000
40
1.0000000000
40
1.0000000000
10
271.8589686574
20
153.8647962335
30
0.0000000000
10
271.8566494732
20
153.7936671448
30
0.0000000000
10
271.8503354605
20
153.7224787541
30
0.0000000000
10
271.8397791678
20
153.6519471458
30
0.0000000000
11
271.8589686574
21
153.8647962335
31
0.0000000000
11
271.8397791678
21
153.6519471458
31
0.0000000000
0
SPLINE
5
448
100
AcDbEntity
8
0
100
AcDbSpline
62
7
6
CONTINUOUS
70
0
71
3
72
9
73
5
74
3
42
0.0000001000
43
0.0000001000
44
0.0000000001
40
0.0000000000
40
0.0000000000
40
0.0000000000
40
0.0000000000
40
0.5097336108
40
1.0000000000
40
1.0000000000
40
1.0000000000
40
1.0000000000
10
271.8397791678
20
153.6519471458
30
0.0000000000
10
271.8301620336
20
153.5876905016
30
0.0000000000
10
271.8043874946
20
153.4627006530
30
0.0000000000
10
271.7643415235
20
153.3418927107
30
0.0000000000
10
271.7411115533
20
153.2841515677
30
0.0000000000
11
271.8397791678
21
153.6519471458
31
0.0000000000
11
271.8001776132
21
153.4613540257
31
0.0000000000
11
271.7411115533
21
153.2841515677
31
0.0000000000
0
SPLINE
5
449
100
AcDbEntity
8
0
100
AcDbSpline
62
7
6
CONTINUOUS
70
0
71
3
72
8
73
4
74
2
42
0.0000001000
43
0.0000001000
44
0.0000000001
40
0.0000000000
40
0.0000000000
40
0.0000000000
40
0.0000000000
40
1.0000000000
40
1.0000000000
40
1.0000000000
40
1.0000000000
10
319.0174136778
20
153.2736629424
30
0.0000000000
10
319.0163799120
20
153.2761771063
30
0.0000000000
10
319.0153530280
20
153.2786941630
30
0.0000000000
10
319.0143330117
20
153.2812140722
30
0.0000000000
11
319.0174136778
21
153.2736629424
31
0.0000000000
11
319.0143330117
21
153.2812140722
31
0.0000000000
0
SPLINE
5
44A
100
AcDbEntity
8
0
100
AcDbSpline
62
7
6
CONTINUOUS
70
0
71
3
72
9
73
5
74
3
42
0.0000001000
43
0.0000001000
44
0.0000000001
40
0.0000000000
40
0.0000000000
40
0.0000000000
40
0.0000000000
40
0.4056835100
40
1.0000000000
40
1.0000000000
40
1.0000000000
40
1.0000000000
10
319.0143330117
20
153.2812140722
30
0.0000000000
10
319.0139368258
20
153.2821928336
30
0.0000000000
10
319.0129627912
20
153.2846065175
30
0.0000000000
10
319.0119950470
20
153.2870228020
30
0.0000000000
10
319.0114221201
20
153.2884597509
30
0.0000000000
11
319.0143330117
21
153.2812140722
31
0.0000000000
11
319.0131475615
21
153.2841516451
31
0.0000000000
11
319.0114221201
21
153.2884597509
31
0.0000000000
0
SPLINE
5
44B
100
AcDbEntity
8
0
100
AcDbSpline
62
7
6
CONTINUOUS
70
0
71
3
72
8
73
4
74
2
42
0.0000001000
43
0.0000001000
44
0.0000000001
40
0.0000000000
40
0.0000000000
40
0.0000000000
40
0.0000000000
40
1.0000000000
40
1.0000000000
40
1.0000000000
40
1.0000000000
10
318.9714017680
20
153.4015770292
30
0.0000000000
10
318.9653241318
20
153.4211231204
30
0.0000000000
10
318.9596225229
20
153.4407949399
30
0.0000000000
10
318.9542910421
20
153.4605754181
30
0.0000000000
11
318.9714017680
21
153.4015770292
31
0.0000000000
11
318.9542910421
21
153.4605754181
31
0.0000000000
0
SPLINE
5
44C
100
AcDbEntity
8
0
100
AcDbSpline
62
7
6
CONTINUOUS
70
0
71
3
72
8
73
4
74
2
42
0.0000001000
43
0.0000001000
44
0.0000000001
40
0.0000000000
40
0.0000000000
40
0.0000000000
40
0.0000000000
40
1.0000000000
40
1.0000000000
40
1.0000000000
40
1.0000000000
10
318.9542910421
20
153.4605754181
30
0.0000000000
10
318.9483899812
20
153.4824691117
30
0.0000000000
10
318.9429423570
20
153.5044959208
30
0.0000000000
10
318.9379401705
20
153.5266326994
30
0.0000000000
11
318.9542910421
21
153.4605754181
31
0.0000000000
11
318.9379401705
21
153.5266326994
31
0.0000000000
0
SPLINE
5
44D
100
AcDbEntity
8
0
100
AcDbSpline
62
7
6
CONTINUOUS
70
0
71
3
72
9
73
5
74
3
42
0.0000001000
43
0.0000001000
44
0.0000000001
40
0.0000000000
40
0.0000000000
40
0.0000000000
40
0.0000000000
40
0.3183569037
40
1.0000000000
40
1.0000000000
40
1.0000000000
40
1.0000000000
10
319.0131475615
20
153.2841516451
30
0.0000000000
10
318.9900860293
20
153.3414606323
30
0.0000000000
10
318.9287890973
20
153.5260809965
30
0.0000000000
10
318.9008646011
20
153.7205058502
30
0.0000000000
10
318.8957175335
20
153.8529519009
30
0.0000000000
11
319.0131475615
21
153.2841516451
31
0.0000000000
11
318.9544397600
21
153.4600046633
31
0.0000000000
11
318.8957175335
21
153.8529519009
31
0.0000000000
0
SPLINE
5
44E
100
AcDbEntity
8
0
100
AcDbSpline
62
7
6
CONTINUOUS
70
0
71
3
72
8
73
4
74
2
42
0.0000001000
43
0.0000001000
44
0.0000000001
40
0.0000000000
40
0.0000000000
40
0.0000000000
40
0.0000000000
40
1.0000000000
40
1.0000000000
40
1.0000000000
40
1.0000000000
10
156.4815702712
20
79.7531336763
30
0.0000000000
10
156.3683891114
20
79.7572824115
30
0.0000000000
10
156.2553858477
20
79.7678006122
30
0.0000000000
10
156.1434150125
20
79.7847079173
30
0.0000000000
11
156.4815702712
21
79.7531336763
31
0.0000000000
11
156.1434150125
21
79.7847079173
31
0.0000000000
0
SPLINE
5
44F
100
AcDbEntity
8
0
100
AcDbSpline
62
7
6
CONTINUOUS
70
0
71
3
72
10
73
6
74
4
42
0.0000001000
43
0.0000001000
44
0.0000000001
40
0.0000000000
40
0.0000000000
40
0.0000000000
40
0.0000000000
40
0.3403510164
40
0.6806851539
40
1.0000000000
40
1.0000000000
40
1.0000000000
40
1.0000000000
10
156.1434150125
20
79.7847079173
30
0.0000000000
10
155.8516816011
20
79.8287589042
30
0.0000000000
10
155.2822458148
20
80.0035991530
30
0.0000000000
10
154.5559703550
20
80.4917955795
30
0.0000000000
10
154.1868785132
20
80.9368653783
30
0.0000000000
10
154.0416227316
20
81.1712616329
30
0.0000000000
11
156.1434150125
21
79.7847079173
31
0.0000000000
11
155.3010003411
21
80.0429723936
31
0.0000000000
11
154.5699836973
21
80.5348063928
31
0.0000000000
11
154.0416227316
21
81.1712616329
31
0.0000000000
0
SPLINE
5
450
100
AcDbEntity
8
0
100
AcDbSpline
62
7
6
CONTINUOUS
70
0
71
3
72
8
73
4
74
2
42
0.0000001000
43
0.0000001000
44
0.0000000001
40
0.0000000000
40
0.0000000000
40
0.0000000000
40
0.0000000000
40
1.0000000000
40
1.0000000000
40
1.0000000000
40
1.0000000000
10
68.0242114994
20
81.2176952376
30
0.0000000000
10
68.0149603443
20
81.2021373280
30
0.0000000000
10
68.0055628613
20
81.1866583979
30
0.0000000000
10
67.9960212147
20
81.1712612467
30
0.0000000000
11
68.0242114994
21
81.2176952376
31
0.0000000000
11
67.9960212147
21
81.1712612467
31
0.0000000000
0
SPLINE
5
451
100
AcDbEntity
8
0
100
AcDbSpline
62
7
6
CONTINUOUS
70
0
71
3
72
10
73
6
74
4
42
0.0000001000
43
0.0000001000
44
0.0000000001
40
0.0000000000
40
0.0000000000
40
0.0000000000
40
0.0000000000
40
0.3193354969
40
0.6596594923
40
1.0000000000
40
1.0000000000
40
1.0000000000
40
1.0000000000
10
67.9960212147
20
81.1712612467
30
0.0000000000
10
67.8507549368
20
80.9368481578
30
0.0000000000
10
67.4816489280
20
80.4917709359
30
0.0000000000
10
66.7553593891
20
80.0035833670
30
0.0000000000
10
66.1859345987
20
79.8287532951
30
0.0000000000
10
65.8942074993
20
79.7847055053
30
0.0000000000
11
67.9960212147
21
81.1712612467
31
0.0000000000
11
67.4676154624
21
80.5347657007
31
0.0000000000
11
66.7366059717
21
80.0429549875
31
0.0000000000
11
65.8942074993
21
79.7847055053
31
0.0000000000
0
SPLINE
5
452
100
AcDbEntity
8
0
100
AcDbSpline
62
7
6
CONTINUOUS
70
0
71
3
72
8
73
4
74
2
42
0.0000001000
43
0.0000001000
44
0.0000000001
40
0.0000000000
40
0.0000000000
40
0.0000000000
40
0.0000000000
40
1.0000000000
40
1.0000000000
40
1.0000000000
40
1.0000000000
10
65.8942074993
20
79.7847055053
30
0.0000000000
10
65.7822429370
20
79.7678000087
30
0.0000000000
10
65.6692461145
20
79.7572828915
30
0.0000000000
10
65.5560714176
20
79.7531345149
30
0.0000000000
11
65.8942074993
21
79.7847055053
31
0.0000000000
11
65.5560714176
21
79.7531345149
31
0.0000000000
0
SPLINE
5
453
100
AcDbEntity
8
0
100
AcDbSpline
62
7
6
CONTINUOUS
70
0
71
3
72
8
73
4
74
2
42
0.0000001000
43
0.0000001000
44
0.0000000001
40
0.0000000000
40
0.0000000000
40
0.0000000000
40
0.0000000000
40
1.0000000000
40
1.0000000000
40
1.0000000000
40
1.0000000000
10
65.5560733717
20
31.6346367423
30
0.0000000000
10
65.6692545314
20
31.6304880071
30
0.0000000000
10
65.7822577951
20
31.6199698065
30
0.0000000000
10
65.8942286303
20
31.6030625014
30
0.0000000000
11
65.5560733717
21
31.6346367423
31
0.0000000000
11
65.8942286303
21
31.6030625014
31
0.0000000000
0
SPLINE
5
454
100
AcDbEntity
8
0
100
AcDbSpline
62
7
6
CONTINUOUS
70
0
71
3
72
10
73
6
74
4
42
0.0000001000
43
0.0000001000
44
0.0000000001
40
0.0000000000
40
0.0000000000
40
0.0000000000
40
0.0000000000
40
0.3403510164
40
0.6806851539
40
1.0000000000
40
1.0000000000
40
1.0000000000
40
1.0000000000
10
65.8942286303
20
31.6030625014
30
0.0000000000
10
66.1859620417
20
31.5590115145
30
0.0000000000
10
66.7553978280
20
31.3841712656
30
0.0000000000
10
67.4816732878
20
30.8959748392
30
0.0000000000
10
67.8507651296
20
30.4509050403
30
0.0000000000
10
67.9960209112
20
30.2165087858
30
0.0000000000
11
65.8942286303
21
31.6030625014
31
0.0000000000
11
66.7366433017
21
31.3447980250
31
0.0000000000
11
67.4676599455
21
30.8529640258
31
0.0000000000
11
67.9960209112
21
30.2165087858
31
0.0000000000
0
SPLINE
5
455
100
AcDbEntity
8
0
100
AcDbSpline
62
7
6
CONTINUOUS
70
0
71
3
72
8
73
4
74
2
42
0.0000001000
43
0.0000001000
44
0.0000000001
40
0.0000000000
40
0.0000000000
40
0.0000000000
40
0.0000000000
40
1.0000000000
40
1.0000000000
40
1.0000000000
40
1.0000000000
10
154.0134321434
20
30.1700751810
30
0.0000000000
10
154.0226832985
20
30.1856330906
30
0.0000000000
10
154.0320807815
20
30.2011120208
30
0.0000000000
10
154.0416224281
20
30.2165091720
30
0.0000000000
11
154.0134321434
21
30.1700751810
31
0.0000000000
11
154.0416224281
21
30.2165091720
31
0.0000000000
0
SPLINE
5
456
100
AcDbEntity
8
0
100
AcDbSpline
62
7
6
CONTINUOUS
70
0
71
3
72
10
73
6
74
4
42
0.0000001000
43
0.0000001000
44
0.0000000001
40
0.0000000000
40
0.0000000000
40
0.0000000000
40
0.0000000000
40
0.3193354969
40
0.6596594923
40
1.0000000000
40
1.0000000000
40
1.0000000000
40
1.0000000000
10
154.0416224281
20
30.2165091720
30
0.0000000000
10
154.1868887060
20
30.4509222609
30
0.0000000000
10
154.5559947148
20
30.8959994827
30
0.0000000000
10
155.2822842537
20
31.3841870516
30
0.0000000000
10
155.8517090441
20
31.5590171235
30
0.0000000000
10
156.1434361435
20
31.6030649133
30
0.0000000000
11
154.0416224281
21
30.2165091720
31
0.0000000000
11
154.5700281804
21
30.8530047179
31
0.0000000000
11
155.3010376712
21
31.3448154312
31
0.0000000000
11
156.1434361435
21
31.6030649133
31
0.0000000000
0
SPLINE
5
457
100
AcDbEntity
8
0
100
AcDbSpline
62
7
6
CONTINUOUS
70
0
71
3
72
8
73
4
74
2
42
0.0000001000
43
0.0000001000
44
0.0000000001
40
0.0000000000
40
0.0000000000
40
0.0000000000
40
0.0000000000
40
1.0000000000
40
1.0000000000
40
1.0000000000
40
1.0000000000
10
156.1434361435
20
31.6030649133
30
0.0000000000
10
156.2554007058
20
31.6199704100
30
0.0000000000
10
156.3683975283
20
31.6304875272
30
0.0000000000
10
156.4815722252
20
31.6346359037
30
0.0000000000
11
156.1434361435
21
31.6030649133
31
0.0000000000
11
156.4815722252
21
31.6346359037
31
0.0000000000
0
SPLINE
5
458
100
AcDbEntity
8
0
100
AcDbSpline
62
7
6
CONTINUOUS
70
0
71
3
72
17
73
13
74
11
42
0.0000001000
43
0.0000001000
44
0.0000000001
40
0.0000000000
40
0.0000000000
40
0.0000000000
40
0.0000000000
40
0.1080566546
40
0.2442396280
40
0.3726020140
40
0.4927203884
40
0.6043934400
40
0.7075887191
40
0.8023846703
40
0.8885475730
40
0.9653410941
40
1.0000000000
40
1.0000000000
40
1.0000000000
40
1.0000000000
10
52.2876626835
20
31.8280620141
30
0.0000000000
10
52.7395834766
20
31.8280624423
30
0.0000000000
10
53.7610570135
20
31.8267717010
30
0.0000000000
10
55.3193635335
20
31.8203646840
30
0.0000000000
10
56.9280859770
20
31.8086517283
30
0.0000000000
10
58.4342622084
20
31.7929494021
30
0.0000000000
10
59.8351353245
20
31.7738902230
30
0.0000000000
10
61.1300485086
20
31.7520259000
30
0.0000000000
10
62.3182114412
20
31.7278794377
30
0.0000000000
10
63.3958895404
20
31.7020301113
30
0.0000000000
10
64.2220500565
20
31.6789357506
30
0.0000000000
10
64.6879418795
20
31.6643756341
30
0.0000000000
10
64.8328179329
20
31.6596790522
30
0.0000000000
11
52.2876626835
21
31.8280620141
31
0.0000000000
11
53.6434239264
21
31.8263509369
31
0.0000000000
11
55.3520657382
21
31.8193010057
31
0.0000000000
11
56.9625559626
21
31.8075287758
31
0.0000000000
11
58.4695709362
21
31.7917535290
31
0.0000000000
11
59.8705762022
21
31.7726120844
31
0.0000000000
11
61.1651574584
21
31.7506599345
31
0.0000000000
11
62.3542926557
21
31.7263855078
31
0.0000000000
11
63.4350448118
21
31.7003352213
31
0.0000000000
11
64.3981755598
21
31.6732828329
31
0.0000000000
11
64.8328179329
21
31.6596790522
31
0.0000000000
0
SPLINE
5
459
100
AcDbEntity
8
0
100
AcDbSpline
62
7
6
CONTINUOUS
70
0
71
3
72
9
73
5
74
3
42
0.0000001000
43
0.0000001000
44
0.0000000001
40
0.0000000000
40
0.0000000000
40
0.0000000000
40
0.0000000000
40
0.6982742921
40
1.0000000000
40
1.0000000000
40
1.0000000000
40
1.0000000000
10
64.8328179329
20
31.6596790522
30
0.0000000000
10
64.9679543566
20
31.6552982089
30
0.0000000000
10
65.1614777609
20
31.6488141267
30
0.0000000000
10
65.3549936188
20
31.6419951494
30
0.0000000000
10
65.4133810953
20
31.6399053268
30
0.0000000000
11
64.8328179329
21
31.6596790522
31
0.0000000000
11
65.2382155134
21
31.6460795826
31
0.0000000000
11
65.4133810953
21
31.6399053268
31
0.0000000000
0
SPLINE
5
45A
100
AcDbEntity
8
0
100
AcDbSpline
62
7
6
CONTINUOUS
70
0
71
3
72
8
73
4
74
2
42
0.0000001000
43
0.0000001000
44
0.0000000001
40
0.0000000000
40
0.0000000000
40
0.0000000000
40
0.0000000000
40
1.0000000000
40
1.0000000000
40
1.0000000000
40
1.0000000000
10
65.4133810953
20
31.6399053268
30
0.0000000000
10
65.4224080209
20
31.6395822323
30
0.0000000000
10
65.4314349170
20
31.6392583643
30
0.0000000000
10
65.4404617817
20
31.6389337159
30
0.0000000000
11
65.4133810953
21
31.6399053268
31
0.0000000000
11
65.4404617817
21
31.6389337159
31
0.0000000000
0
SPLINE
5
45B
100
AcDbEntity
8
0
100
AcDbSpline
62
7
6
CONTINUOUS
70
0
71
3
72
8
73
4
74
2
42
0.0000001000
43
0.0000001000
44
0.0000000001
40
0.0000000000
40
0.0000000000
40
0.0000000000
40
0.0000000000
40
1.0000000000
40
1.0000000000
40
1.0000000000
40
1.0000000000
10
65.4404617817
20
31.6389337159
30
0.0000000000
10
65.4786957568
20
31.6375586425
30
0.0000000000
10
65.5169291672
20
31.6361695679
30
0.0000000000
10
65.5551618595
20
31.6347659659
30
0.0000000000
11
65.4404617817
21
31.6389337159
31
0.0000000000
11
65.5551618595
21
31.6347659659
31
0.0000000000
0
SPLINE
5
45C
100
AcDbEntity
8
0
100
AcDbSpline
62
7
6
CONTINUOUS
70
0
71
3
72
8
73
4
74
2
42
0.0000001000
43
0.0000001000
44
0.0000000001
40
0.0000000000
40
0.0000000000
40
0.0000000000
40
0.0000000000
40
1.0000000000
40
1.0000000000
40
1.0000000000
40
1.0000000000
10
65.5551773698
20
79.7530033747
30
0.0000000000
10
65.5169413216
20
79.7516006131
30
0.0000000000
10
65.4787045571
20
79.7502122948
30
0.0000000000
10
65.4404665886
20
79.7488376787
30
0.0000000000
11
65.5551773698
21
79.7530033747
31
0.0000000000
11
65.4404665886
21
79.7488376787
31
0.0000000000
0
SPLINE
5
45D
100
AcDbEntity
8
0
100
AcDbSpline
62
7
6
CONTINUOUS
70
0
71
3
72
8
73
4
74
2
42
0.0000001000
43
0.0000001000
44
0.0000000001
40
0.0000000000
40
0.0000000000
40
0.0000000000
40
0.0000000000
40
1.0000000000
40
1.0000000000
40
1.0000000000
40
1.0000000000
10
65.4404665886
20
79.7488376787
30
0.0000000000
10
65.4314533428
20
79.7485136617
30
0.0000000000
10
65.4224400315
20
79.7481904068
30
0.0000000000
10
65.4134266563
20
79.7478679089
30
0.0000000000
11
65.4404665886
21
79.7488376787
31
0.0000000000
11
65.4134266563
21
79.7478679089
31
0.0000000000
0
SPLINE
5
45E
100
AcDbEntity
8
0
100
AcDbSpline
62
7
6
CONTINUOUS
70
0
71
3
72
8
73
4
74
2
42
0.0000001000
43
0.0000001000
44
0.0000000001
40
0.0000000000
40
0.0000000000
40
0.0000000000
40
0.0000000000
40
1.0000000000
40
1.0000000000
40
1.0000000000
40
1.0000000000
10
65.4134266563
20
79.7478679089
30
0.0000000000
10
65.2855268366
20
79.7432916635
30
0.0000000000
10
65.1576141738
20
79.7388678633
30
0.0000000000
10
65.0296937860
20
79.7345822526
30
0.0000000000
11
65.4134266563
21
79.7478679089
31
0.0000000000
11
65.0296937860
21
79.7345822526
31
0.0000000000
0
SPLINE
5
45F
100
AcDbEntity
8
0
100
AcDbSpline
62
7
6
CONTINUOUS
70
0
71
3
72
17
73
13
74
11
42
0.0000001000
43
0.0000001000
44
0.0000000001
40
0.0000000000
40
0.0000000000
40
0.0000000000
40
0.0000000000
40
0.0348592735
40
0.1117651291
40
0.1986840883
40
0.2954096919
40
0.4014664602
40
0.5161316115
40
0.6384298860
40
0.7671441624
40
0.9008259001
40
1.0000000000
40
1.0000000000
40
1.0000000000
40
1.0000000000
10
65.0296937860
20
79.7345822526
30
0.0000000000
10
64.8816956830
20
79.7296239949
30
0.0000000000
10
64.4071538726
20
79.7143199806
30
0.0000000000
10
63.5635201064
20
79.6900908954
30
0.0000000000
10
62.4570497500
20
79.6629364104
30
0.0000000000
10
61.2266857751
20
79.6374845275
30
0.0000000000
10
59.8783894846
20
79.6144728908
30
0.0000000000
10
58.4214024682
20
79.5946079165
30
0.0000000000
10
56.8681157206
20
79.5785520119
30
0.0000000000
10
55.2340065769
20
79.5669170258
30
0.0000000000
10
53.6980977160
20
79.5608735278
30
0.0000000000
10
52.7089457474
20
79.5597080869
30
0.0000000000
10
52.2876626836
20
79.5597084239
30
0.0000000000
11
65.0296937860
21
79.7345822526
31
0.0000000000
11
64.5856763831
21
79.7202403207
31
0.0000000000
11
63.6060166377
21
79.6919520025
31
0.0000000000
11
62.4986811609
21
79.6646316543
31
0.0000000000
11
61.2663016470
21
79.6390132700
31
0.0000000000
11
59.9149406463
21
79.6158397871
31
0.0000000000
11
58.4538150388
21
79.5958270278
31
0.0000000000
11
56.8953618402
21
79.5796478164
31
0.0000000000
11
55.2551027282
21
79.5679215436
31
0.0000000000
11
53.5515109524
21
79.5611954147
31
0.0000000000
11
52.2876626836
21
79.5597084239
31
0.0000000000
0
SPLINE
5
460
100
AcDbEntity
8
0
100
AcDbSpline
62
7
6
CONTINUOUS
70
0
71
3
72
17
73
13
74
11
42
0.0000001000
43
0.0000001000
44
0.0000000001
40
0.0000000000
40
0.0000000000
40
0.0000000000
40
0.0000000000
40
0.1080566546
40
0.2442396280
40
0.3726020140
40
0.4927203884
40
0.6043934400
40
0.7075887191
40
0.8023846703
40
0.8885475730
40
0.9653410941
40
1.0000000000
40
1.0000000000
40
1.0000000000
40
1.0000000000
10
169.7499809593
20
79.5597084045
30
0.0000000000
10
169.2980601662
20
79.5597079763
30
0.0000000000
10
168.2765866293
20
79.5609987176
30
0.0000000000
10
166.7182801093
20
79.5674057346
30
0.0000000000
10
165.1095576659
20
79.5791186903
30
0.0000000000
10
163.6033814344
20
79.5948210165
30
0.0000000000
10
162.2025083183
20
79.6138801956
30
0.0000000000
10
160.9075951342
20
79.6357445187
30
0.0000000000
10
159.7194322016
20
79.6598909810
30
0.0000000000
10
158.6417541024
20
79.6857403074
30
0.0000000000
10
157.8155935863
20
79.7088346681
30
0.0000000000
10
157.3497017633
20
79.7233947845
30
0.0000000000
10
157.2048257099
20
79.7280913665
30
0.0000000000
11
169.7499809593
21
79.5597084045
31
0.0000000000
11
168.3942197164
21
79.5614194817
31
0.0000000000
11
166.6855779046
21
79.5684694129
31
0.0000000000
11
165.0750876802
21
79.5802416429
31
0.0000000000
11
163.5680727066
21
79.5960168897
31
0.0000000000
11
162.1670674406
21
79.6151583343
31
0.0000000000
11
160.8724861844
21
79.6371104841
31
0.0000000000
11
159.6833509871
21
79.6613849108
31
0.0000000000
11
158.6025988310
21
79.6874351973
31
0.0000000000
11
157.6394680830
21
79.7144875858
31
0.0000000000
11
157.2048257099
21
79.7280913665
31
0.0000000000
0
SPLINE
5
461
100
AcDbEntity
8
0
100
AcDbSpline
62
7
6
CONTINUOUS
70
0
71
3
72
9
73
5
74
3
42
0.0000001000
43
0.0000001000
44
0.0000000001
40
0.0000000000
40
0.0000000000
40
0.0000000000
40
0.0000000000
40
0.6982742921
40
1.0000000000
40
1.0000000000
40
1.0000000000
40
1.0000000000
10
157.2048257099
20
79.7280913665
30
0.0000000000
10
157.0696892862
20
79.7324722097
30
0.0000000000
10
156.8761658819
20
79.7389562919
30
0.0000000000
10
156.6826500240
20
79.7457752693
30
0.0000000000
10
156.6242625475
20
79.7478650918
30
0.0000000000
11
157.2048257099
21
79.7280913665
31
0.0000000000
11
156.7994281294
21
79.7416908360
31
0.0000000000
11
156.6242625475
21
79.7478650918
31
0.0000000000
0
SPLINE
5
462
100
AcDbEntity
8
0
100
AcDbSpline
62
7
6
CONTINUOUS
70
0
71
3
72
8
73
4
74
2
42
0.0000001000
43
0.0000001000
44
0.0000000001
40
0.0000000000
40
0.0000000000
40
0.0000000000
40
0.0000000000
40
1.0000000000
40
1.0000000000
40
1.0000000000
40
1.0000000000
10
156.6242625475
20
79.7478650918
30
0.0000000000
10
156.6152356219
20
79.7481881863
30
0.0000000000
10
156.6062087258
20
79.7485120543
30
0.0000000000
10
156.5971818611
20
79.7488367028
30
0.0000000000
11
156.6242625475
21
79.7478650918
31
0.0000000000
11
156.5971818611
21
79.7488367028
31
0.0000000000
0
SPLINE
5
463
100
AcDbEntity
8
0
100
AcDbSpline
62
7
6
CONTINUOUS
70
0
71
3
72
8
73
4
74
2
42
0.0000001000
43
0.0000001000
44
0.0000000001
40
0.0000000000
40
0.0000000000
40
0.0000000000
40
0.0000000000
40
1.0000000000
40
1.0000000000
40
1.0000000000
40
1.0000000000
10
156.5971818611
20
79.7488367028
30
0.0000000000
10
156.5589478860
20
79.7502117761
30
0.0000000000
10
156.5207144756
20
79.7516008508
30
0.0000000000
10
156.4824817833
20
79.7530044527
30
0.0000000000
11
156.5971818611
21
79.7488367028
31
0.0000000000
11
156.4824817833
21
79.7530044527
31
0.0000000000
0
SPLINE
5
464
100
AcDbEntity
8
0
100
AcDbSpline
62
7
6
CONTINUOUS
70
0
71
3
72
8
73
4
74
2
42
0.0000001000
43
0.0000001000
44
0.0000000001
40
0.0000000000
40
0.0000000000
40
0.0000000000
40
0.0000000000
40
1.0000000000
40
1.0000000000
40
1.0000000000
40
1.0000000000
10
156.4824662731
20
31.6347670440
30
0.0000000000
10
156.5207023212
20
31.6361698055
30
0.0000000000
10
156.5589390857
20
31.6375581239
30
0.0000000000
10
156.5971770543
20
31.6389327399
30
0.0000000000
11
156.4824662731
21
31.6347670440
31
0.0000000000
11
156.5971770543
21
31.6389327399
31
0.0000000000
0
SPLINE
5
465
100
AcDbEntity
8
0
100
AcDbSpline
62
7
6
CONTINUOUS
70
0
71
3
72
8
73
4
74
2
42
0.0000001000
43
0.0000001000
44
0.0000000001
40
0.0000000000
40
0.0000000000
40
0.0000000000
40
0.0000000000
40
1.0000000000
40
1.0000000000
40
1.0000000000
40
1.0000000000
10
156.5971770543
20
31.6389327399
30
0.0000000000
10
156.6061903000
20
31.6392567570
30
0.0000000000
10
156.6152036114
20
31.6395800119
30
0.0000000000
10
156.6242169865
20
31.6399025097
30
0.0000000000
11
156.5971770543
21
31.6389327399
31
0.0000000000
11
156.6242169865
21
31.6399025097
31
0.0000000000
0
SPLINE
5
466
100
AcDbEntity
8
0
100
AcDbSpline
62
7
6
CONTINUOUS
70
0
71
3
72
8
73
4
74
2
42
0.0000001000
43
0.0000001000
44
0.0000000001
40
0.0000000000
40
0.0000000000
40
0.0000000000
40
0.0000000000
40
1.0000000000
40
1.0000000000
40
1.0000000000
40
1.0000000000
10
156.6242169865
20
31.6399025097
30
0.0000000000
10
156.7521168062
20
31.6444787551
30
0.0000000000
10
156.8800294691
20
31.6489025553
30
0.0000000000
10
157.0079498569
20
31.6531881660
30
0.0000000000
11
156.6242169865
21
31.6399025097
31
0.0000000000
11
157.0079498569
21
31.6531881660
31
0.0000000000
0
SPLINE
5
467
100
AcDbEntity
8
0
100
AcDbSpline
62
7
6
CONTINUOUS
70
0
71
3
72
17
73
13
74
11
42
0.0000001000
43
0.0000001000
44
0.0000000001
40
0.0000000000
40
0.0000000000
40
0.0000000000
40
0.0000000000
40
0.0348592735
40
0.1117651291
40
0.1986840883
40
0.2954096919
40
0.4014664602
40
0.5161316115
40
0.6384298860
40
0.7671441624
40
0.9008259001
40
1.0000000000
40
1.0000000000
40
1.0000000000
40
1.0000000000
10
157.0079498569
20
31.6531881660
30
0.0000000000
10
157.1559479598
20
31.6581464238
30
0.0000000000
10
157.6304897702
20
31.6734504380
30
0.0000000000
10
158.4741235364
20
31.6976795232
30
0.0000000000
10
159.5805938928
20
31.7248340082
30
0.0000000000
10
160.8109578677
20
31.7502858912
30
0.0000000000
10
162.1592541582
20
31.7732975278
30
0.0000000000
10
163.6162411746
20
31.7931625021
30
0.0000000000
10
165.1695279223
20
31.8092184067
30
0.0000000000
10
166.8036370659
20
31.8208533929
30
0.0000000000
10
168.3395459268
20
31.8268968909
30
0.0000000000
10
169.3286978954
20
31.8280623317
30
0.0000000000
10
169.7499809593
20
31.8280619947
30
0.0000000000
11
157.0079498569
21
31.6531881660
31
0.0000000000
11
157.4519672597
21
31.6675300979
31
0.0000000000
11
158.4316270051
21
31.6958184161
31
0.0000000000
11
159.5389624819
21
31.7231387644
31
0.0000000000
11
160.7713419958
21
31.7487571487
31
0.0000000000
11
162.1227029965
21
31.7719306316
31
0.0000000000
11
163.5838286040
21
31.7919433908
31
0.0000000000
11
165.1422818026
21
31.8081226023
31
0.0000000000
11
166.7825409146
21
31.8198488751
31
0.0000000000
11
168.4861326904
21
31.8265750040
31
0.0000000000
11
169.7499809593
21
31.8280619947
31
0.0000000000
0
SPLINE
5
468
100
AcDbEntity
8
0
100
AcDbSpline
62
7
6
CONTINUOUS
70
0
71
3
72
18
73
14
74
12
42
0.0000001000
43
0.0000001000
44
0.0000000001
40
0.0000000000
40
0.0000000000
40
0.0000000000
40
0.0000000000
40
0.0746597759
40
0.2085352275
40
0.3333159201
40
0.4527348838
40
0.5658683984
40
0.6716320425
40
0.7687498160
40
0.8516248176
40
0.9140286893
40
0.9672658636
40
1.0000000000
40
1.0000000000
40
1.0000000000
40
1.0000000000
10
198.9509718967
20
73.6206280583
30
0.0000000000
10
198.9509649693
20
73.7810601303
30
0.0000000000
10
198.9241717372
20
74.2294751142
30
0.0000000000
10
198.7615961949
20
74.9301725928
30
0.0000000000
10
198.4175412297
20
75.6696116444
30
0.0000000000
10
197.9627220117
20
76.2912966183
30
0.0000000000
10
197.4308248050
20
76.7895942746
30
0.0000000000
10
196.8609815661
20
77.1611833060
30
0.0000000000
10
196.2989764598
20
77.4100891402
30
0.0000000000
10
195.7981644910
20
77.5526447885
30
0.0000000000
10
195.3788741950
20
77.6265124544
30
0.0000000000
10
195.0629166651
20
77.6624622193
30
0.0000000000
10
194.8794001210
20
77.6784279766
30
0.0000000000
10
194.8094838345
20
77.6839850692
30
0.0000000000
11
198.9509718967
21
73.6206280583
31
0.0000000000
11
198.9221767929
21
74.1008573147
31
0.0000000000
11
198.7279008626
21
74.9391471595
31
0.0000000000
11
198.3895298828
21
75.6663253614
31
0.0000000000
11
197.9363631642
21
76.2858638753
31
0.0000000000
11
197.4057295743
21
76.7830822342
31
0.0000000000
11
196.8363759111
21
77.1545434171
31
0.0000000000
11
196.2657583790
21
77.4076691264
31
0.0000000000
11
195.7536928761
21
77.5544718739
31
0.0000000000
11
195.3589295098
21
77.6255520020
31
0.0000000000
11
195.0190858544
21
77.6655646548
31
0.0000000000
11
194.8094838345
21
77.6839850692
31
0.0000000000
0
SPLINE
5
469
100
AcDbEntity
8
0
100
AcDbSpline
62
7
6
CONTINUOUS
70
0
71
3
72
18
73
14
74
12
42
0.0000001000
43
0.0000001000
44
0.0000000001
40
0.0000000000
40
0.0000000000
40
0.0000000000
40
0.0000000000
40
0.0386389419
40
0.0948740865
40
0.1622535545
40
0.2478995423
40
0.3455854250
40
0.4510018794
40
0.5638985733
40
0.6834907581
40
0.8088993158
40
0.9396440681
40
1.0000000000
40
1.0000000000
40
1.0000000000
40
1.0000000000
10
27.2284232205
20
77.6840089397
30
0.0000000000
10
27.1458846255
20
77.6774545689
30
0.0000000000
10
26.9433593365
20
77.6595771128
30
0.0000000000
10
26.5980204696
20
77.6182043018
30
0.0000000000
10
26.1570406337
20
77.5338431880
30
0.0000000000
10
25.6424182210
20
77.3743420221
30
0.0000000000
10
25.0813490078
20
77.1077107211
30
0.0000000000
10
24.5217980924
20
76.7207487645
30
0.0000000000
10
24.0040482978
20
76.2089272965
30
0.0000000000
10
23.5653429041
20
75.5741630076
30
0.0000000000
10
23.2437126481
20
74.8300086291
30
0.0000000000
10
23.1064717169
20
74.1609650715
30
0.0000000000
10
23.0866361445
20
73.7502859764
30
0.0000000000
10
23.0866388121
20
73.6206347713
30
0.0000000000
11
27.2284232205
21
77.6840089397
31
0.0000000000
11
26.9810203927
21
77.6618454949
31
0.0000000000
11
26.6222788721
21
77.6172558952
31
0.0000000000
11
26.1971562037
21
77.5342927950
31
0.0000000000
11
25.6715147133
21
77.3705102920
31
0.0000000000
11
25.1044690433
21
77.1006993552
31
0.0000000000
11
24.5471839556
21
76.7151409566
31
0.0000000000
11
24.0311076546
21
76.2048750828
31
0.0000000000
11
23.5940605287
21
75.5724018450
31
0.0000000000
11
23.2742130643
21
74.8323896793
31
0.0000000000
11
23.1054526080
21
74.0090271373
31
0.0000000000
11
23.0866388121
21
73.6206347713
31
0.0000000000
0
SPLINE
5
46A
100
AcDbEntity
8
0
100
AcDbSpline
62
7
6
CONTINUOUS
70
0
71
3
72
18
73
14
74
12
42
0.0000001000
43
0.0000001000
44
0.0000000001
40
0.0000000000
40
0.0000000000
40
0.0000000000
40
0.0000000000
40
0.0746384197
40
0.2084981340
40
0.3332680725
40
0.4526819458
40
0.5658136236
40
0.6715755277
40
0.7686930135
40
0.8515748431
40
0.9139902698
40
0.9672471186
40
1.0000000000
40
1.0000000000
40
1.0000000000
40
1.0000000000
10
23.0866716995
20
37.7671373045
30
0.0000000000
10
23.0866786814
20
37.6067510149
30
0.0000000000
10
23.1134597160
20
37.1584157262
30
0.0000000000
10
23.2759794053
20
36.4578115339
30
0.0000000000
10
23.6199560970
20
35.7184110638
30
0.0000000000
10
24.0747039018
20
35.0967202719
30
0.0000000000
10
24.6065461656
20
34.5983900002
30
0.0000000000
10
25.1763511076
20
34.2267559988
30
0.0000000000
10
25.7383449148
20
33.9777969942
30
0.0000000000
10
26.2391842831
20
33.8351919438
30
0.0000000000
10
26.6585515652
20
33.7612856665
30
0.0000000000
10
26.9746154596
20
33.7253181622
30
0.0000000000
10
27.1582142354
20
33.7093449929
30
0.0000000000
10
27.2281706554
20
33.7037847799
30
0.0000000000
11
23.0866716995
21
37.7671373045
31
0.0000000000
11
23.1154506091
21
37.2870445436
31
0.0000000000
11
23.3096652196
21
36.4488431661
31
0.0000000000
11
23.6479587287
21
35.7217039984
31
0.0000000000
11
24.1010576345
21
35.1021551764
31
0.0000000000
11
24.6316414704
21
34.6048995964
31
0.0000000000
11
25.2009545446
21
34.2333950427
31
0.0000000000
11
25.7715493920
21
33.9802207439
31
0.0000000000
11
26.2836465109
21
33.8333664941
31
0.0000000000
11
26.6784795665
21
33.7622513203
31
0.0000000000
11
27.0184483885
21
33.7222164135
31
0.0000000000
11
27.2281706554
21
33.7037847799
31
0.0000000000
0
SPLINE
5
46B
100
AcDbEntity
8
0
100
AcDbSpline
62
7
6
CONTINUOUS
70
0
71
3
72
18
73
14
74
12
42
0.0000001000
43
0.0000001000
44
0.0000000001
40
0.0000000000
40
0.0000000000
40
0.0000000000
40
0.0000000000
40
0.0386189615
40
0.0948310532
40
0.1622011426
40
0.2478444389
40
0.3455360118
40
0.4509591550
40
0.5638621326
40
0.6834609473
40
0.8088771915
40
0.9396314556
40
1.0000000000
40
1.0000000000
40
1.0000000000
40
1.0000000000
10
194.8092316049
20
33.7037620960
30
0.0000000000
10
194.8917274030
20
33.7103131777
30
0.0000000000
10
195.0941605792
20
33.7281823240
30
0.0000000000
10
195.4393881732
20
33.7695335978
30
0.0000000000
10
195.8802984750
20
33.8538520665
30
0.0000000000
10
196.3949194739
20
34.0133084765
30
0.0000000000
10
196.9560282684
20
34.2799037029
30
0.0000000000
10
197.5156392657
20
34.6668485442
30
0.0000000000
10
198.0334500907
20
35.1786675846
30
0.0000000000
10
198.4722131369
20
35.8134454021
30
0.0000000000
10
198.7938937583
20
36.5576335868
30
0.0000000000
10
198.9311657467
20
37.2267362059
30
0.0000000000
10
198.9510075323
20
37.6374625608
30
0.0000000000
10
198.9510048087
20
37.7671407365
30
0.0000000000
11
194.8092316049
21
33.7037620960
31
0.0000000000
11
195.0565062543
21
33.7259131909
31
0.0000000000
11
195.4151014512
21
33.7704747740
31
0.0000000000
11
195.8401694924
21
33.8534000955
31
0.0000000000
11
196.3658065744
21
34.0171361767
31
0.0000000000
11
196.9329059289
21
34.2869175210
31
0.0000000000
11
197.4902529748
21
34.6724603906
31
0.0000000000
11
198.0063885869
21
35.1827223890
31
0.0000000000
11
198.4434919295
21
35.8152073713
31
0.0000000000
11
198.7633885361
21
36.5552509857
31
0.0000000000
11
198.9321833750
21
37.3786677841
31
0.0000000000
11
198.9510048087
21
37.7671407365
31
0.0000000000
0
SPLINE
5
46C
100
AcDbEntity
8
0
100
AcDbSpline
62
7
6
CONTINUOUS
70
0
71
3
72
60
73
56
74
54
42
0.0000001000
43
0.0000001000
44
0.0000000001
40
0.0000000000
40
0.0000000000
40
0.0000000000
40
0.0000000000
40
0.0004418261
40
0.0031560639
40
0.0076446127
40
0.0137366342
40
0.0213317002
40
0.0303674825
40
0.0408016204
40
0.0526020570
40
0.0657545730
40
0.0802570408
40
0.0961108547
40
0.1133184885
40
0.1318817054
40
0.1518001388
40
0.1730701041
40
0.1956835374
40
0.2196270209
40
0.2448795616
40
0.2713818973
40
0.2990325675
40
0.3277144620
40
0.3572970565
40
0.3876379106
40
0.4185843952
40
0.4499756588
40
0.4816447401
40
0.5134206460
40
0.5451286385
40
0.5765941000
40
0.6076459410
40
0.6381188467
40
0.6678555162
40
0.6967087672
40
0.7245434074
40
0.7512378465
40
0.7766858122
40
0.8008212600
40
0.8236260817
40
0.8450910755
40
0.8652117673
40
0.8839873426
40
0.9014195344
40
0.9175113726
40
0.9322657228
40
0.9456834679
40
0.9577610766
40
0.9684825068
40
0.9778089213
40
0.9856907252
40
0.9920598918
40
0.9968096991
40
0.9997589903
40
1.0000000000
40
1.0000000000
40
1.0000000000
40
1.0000000000
10
169.8586168349
20
76.9645933308
30
0.0000000000
10
169.8433655184
20
76.9624985567
30
0.0000000000
10
169.6875043348
20
76.9401616443
30
0.0000000000
10
169.4319959808
20
76.9118410601
30
0.0000000000
10
168.8880217535
20
76.8539074022
30
0.0000000000
10
168.1886004635
20
76.7917626101
30
0.0000000000
10
167.2959578247
20
76.7206459380
30
0.0000000000
10
166.2382157192
20
76.6464809144
30
0.0000000000
10
165.0134306623
20
76.5696836987
30
0.0000000000
10
163.6275495428
20
76.4918535956
30
0.0000000000
10
162.0816635694
20
76.4137107134
30
0.0000000000
10
160.3766282846
20
76.3359588717
30
0.0000000000
10
158.5123057537
20
76.2591341348
30
0.0000000000
10
156.4885116109
20
76.1837340058
30
0.0000000000
10
154.3050975274
20
76.1102189215
30
0.0000000000
10
151.9621661381
20
76.0390354506
30
0.0000000000
10
149.4602021040
20
75.9706242811
30
0.0000000000
10
146.8002025844
20
75.9054274603
30
0.0000000000
10
143.9838432238
20
75.8438935785
30
0.0000000000
10
141.0148079220
20
75.7865032600
30
0.0000000000
10
137.9002343894
20
75.7337764541
30
0.0000000000
10
134.6510314888
20
75.6862448117
30
0.0000000000
10
131.2809045465
20
75.6444110651
30
0.0000000000
10
127.8051674779
20
75.6087220728
30
0.0000000000
10
124.2405284271
20
75.5795622763
30
0.0000000000
10
120.6048859721
20
75.5572482116
30
0.0000000000
10
116.9171011898
20
75.5420242359
30
0.0000000000
10
113.1967559917
20
75.5340591844
30
0.0000000000
10
109.4639772961
20
75.5334435830
30
0.0000000000
10
105.7391924953
20
75.5401873460
30
0.0000000000
10
102.0428326905
20
75.5542185395
30
0.0000000000
10
98.3949591053
20
75.5753836993
30
0.0000000000
10
94.8149532382
20
75.6034502330
30
0.0000000000
10
91.3212581716
20
75.6381100102
30
0.0000000000
10
87.9311345800
20
75.6789836056
30
0.0000000000
10
84.6604413622
20
75.7256256229
30
0.0000000000
10
81.5234315354
20
75.7775312163
30
0.0000000000
10
78.5316445058
20
75.8341609212
30
0.0000000000
10
75.6925595590
20
75.8949870021
30
0.0000000000
10
73.0098479865
20
75.9595259666
30
0.0000000000
10
70.4847660389
20
76.0273384964
30
0.0000000000
10
68.1178922027
20
76.0979975574
30
0.0000000000
10
65.9093754402
20
76.1710814361
30
0.0000000000
10
63.8590745542
20
76.2461660654
30
0.0000000000
10
61.9666928968
20
76.3228172963
30
0.0000000000
10
60.2320068962
20
76.4005662457
30
0.0000000000
10
58.6549233386
20
76.4789128872
30
0.0000000000
10
57.2364998686
20
76.5571827790
30
0.0000000000
10
55.9780500134
20
76.6347229016
30
0.0000000000
10
54.8866915635
20
76.7098712270
30
0.0000000000
10
53.9595919094
20
76.7825325249
30
0.0000000000
10
53.2304899650
20
76.8459730665
30
0.0000000000
10
52.6494314222
20
76.9072750108
30
0.0000000000
10
52.3934105599
20
76.9344745966
30
0.0000000000
10
52.2330988974
20
76.9571449685
30
0.0000000000
10
52.2215587175
20
76.9587775472
30
0.0000000000
11
169.8586168349
21
76.9645933308
31
0.0000000000
11
169.8007138887
21
76.9564531609
31
0.0000000000
11
169.4836354626
21
76.9177463906
31
0.0000000000
11
168.9582665966
21
76.8626817500
31
0.0000000000
11
168.2442631578
21
76.7976863837
31
0.0000000000
11
167.3532565129
21
76.7265059478
31
0.0000000000
11
166.2925048538
21
76.6515051485
31
0.0000000000
11
165.0669655863
21
76.5742952453
31
0.0000000000
11
163.6804061972
21
76.4960486809
31
0.0000000000
11
162.1345071945
21
76.4175947238
31
0.0000000000
11
160.4295307273
21
76.3395644136
31
0.0000000000
11
158.5653252436
21
76.2624964686
31
0.0000000000
11
156.5416119015
21
76.1868765138
31
0.0000000000
11
154.3581948634
21
76.1131610444
31
0.0000000000
11
152.0151282596
21
76.0417925745
31
0.0000000000
11
149.5128560825
21
75.9732093638
31
0.0000000000
11
146.8523372980
21
75.9078517445
31
0.0000000000
11
144.0351606678
21
75.8461661869
31
0.0000000000
11
141.0638063017
21
75.7886105420
31
0.0000000000
11
137.9452578090
21
75.7357089756
31
0.0000000000
11
134.6914653948
21
75.6880158672
31
0.0000000000
11
131.3162221547
21
75.6460375321
31
0.0000000000
11
127.8349008490
21
75.6102234218
31
0.0000000000
11
124.2642774574
21
75.5809601806
31
0.0000000000
11
120.6223277753
21
75.5585662428
31
0.0000000000
11
116.9279958663
21
75.5432874367
31
0.0000000000
11
113.2009452138
21
75.5352935486
31
0.0000000000
11
109.4613141216
21
75.5346756887
31
0.0000000000
11
105.7296816716
21
75.5414441210
31
0.0000000000
11
102.0266127644
21
75.5555264142
31
0.0000000000
11
98.3722568234
21
75.5767681901
31
0.0000000000
11
94.7860832973
21
75.6049354765
31
0.0000000000
11
91.2866179088
21
75.6397182323
31
0.0000000000
11
87.8911948262
21
75.6807347296
31
0.0000000000
11
84.6157362643
21
75.7275369277
31
0.0000000000
11
81.4745626108
21
75.7796167166
31
0.0000000000
11
78.4801903724
21
75.8364135121
31
0.0000000000
11
75.6404011279
21
75.8973858337
31
0.0000000000
11
72.9573354422
21
75.9620783607
31
0.0000000000
11
70.4320859038
21
76.0300556092
31
0.0000000000
11
68.0651890824
21
76.1008925085
31
0.0000000000
11
65.8567514345
21
76.1741699902
31
0.0000000000
11
63.8065803497
21
76.2494684439
31
0.0000000000
11
61.9143315180
21
76.3263577948
31
0.0000000000
11
60.1796808544
21
76.4043823642
31
0.0000000000
11
58.6025382961
21
76.4830371309
31
0.0000000000
11
57.1833330968
21
76.5617292892
31
0.0000000000
11
55.9239633782
21
76.6396780357
31
0.0000000000
11
54.8289980589
21
76.7157354916
31
0.0000000000
11
53.9042510427
21
76.7883145940
31
0.0000000000
11
53.1576597175
21
76.8550961771
31
0.0000000000
11
52.6016100486
21
76.9123900368
31
0.0000000000
11
52.2569924019
21
76.9537867335
31
0.0000000000
11
52.2215587175
21
76.9587775472
31
0.0000000000
0
SPLINE
5
46D
100
AcDbEntity
8
0
100
AcDbSpline
62
7
6
CONTINUOUS
70
0
71
3
72
24
73
20
74
18
42
0.0000001000
43
0.0000001000
44
0.0000000001
40
0.0000000000
40
0.0000000000
40
0.0000000000
40
0.0000000000
40
0.0020833302
40
0.0148510871
40
0.0359615631
40
0.0646117366
40
0.1003294634
40
0.1428217046
40
0.1918892680
40
0.2473814048
40
0.3092313143
40
0.3774290399
40
0.4519811902
40
0.5328994538
40
0.6201921799
40
0.7138577128
40
0.8138787784
40
0.9202175167
40
1.0000000000
40
1.0000000000
40
1.0000000000
40
1.0000000000
10
52.1789725332
20
34.4231686144
30
0.0000000000
10
52.1942518955
20
34.4252670176
30
0.0000000000
10
52.3503046308
20
34.4476330503
30
0.0000000000
10
52.6058633693
20
34.4759512483
30
0.0000000000
10
53.1500246444
20
34.5339031812
30
0.0000000000
10
53.8495720271
20
34.5960521228
30
0.0000000000
10
54.7423740534
20
34.6671761267
30
0.0000000000
10
55.8002743927
20
34.7413456936
30
0.0000000000
10
57.0252288188
20
34.8181471008
30
0.0000000000
10
58.4112864846
20
34.8959804402
30
0.0000000000
10
59.9573582423
20
34.9741259667
30
0.0000000000
10
61.6625894302
20
35.0518798809
30
0.0000000000
10
63.5271194236
20
35.1287061983
30
0.0000000000
10
65.5511339516
20
35.2041074369
30
0.0000000000
10
67.7347828868
20
35.2776231681
30
0.0000000000
10
70.0779650678
20
35.3488068008
30
0.0000000000
10
72.5801972921
20
35.4172176294
30
0.0000000000
10
74.9668185905
20
35.4757068073
30
0.0000000000
10
76.5192773543
20
35.5102406735
30
0.0000000000
10
77.1847650894
20
35.5244464477
30
0.0000000000
11
52.1789725332
21
34.4231686144
31
0.0000000000
11
52.2370404001
21
34.4313320894
31
0.0000000000
11
52.5542568583
21
34.4700522495
31
0.0000000000
11
53.0797639210
21
34.5251264834
31
0.0000000000
11
53.7939118452
21
34.5901293462
31
0.0000000000
11
54.6850707867
21
34.6613158398
31
0.0000000000
11
55.7459831586
21
34.7363216097
31
0.0000000000
11
56.9716911734
21
34.8135355674
31
0.0000000000
11
58.3584268845
21
34.8917853828
31
0.0000000000
11
59.9045111983
21
34.9702419489
31
0.0000000000
11
61.6096831548
21
35.0482743157
31
0.0000000000
11
63.4740956217
21
35.1253438211
31
0.0000000000
11
65.4980288597
21
35.2009648686
31
0.0000000000
11
67.6816801832
21
35.2746809669
31
0.0000000000
11
70.0249971609
21
35.3460495909
31
0.0000000000
11
72.5275370559
21
35.4146324490
31
0.0000000000
11
75.1883423202
21
35.4799891557
31
0.0000000000
11
77.1847650894
21
35.5244464477
31
0.0000000000
0
SPLINE
5
46E
100
AcDbEntity
8
0
100
AcDbSpline
62
7
6
CONTINUOUS
70
0
71
3
72
8
73
4
74
2
42
0.0000001000
43
0.0000001000
44
0.0000000001
40
0.0000000000
40
0.0000000000
40
0.0000000000
40
0.0000000000
40
1.0000000000
40
1.0000000000
40
1.0000000000
40
1.0000000000
10
77.1847650894
20
35.5244464477
30
0.0000000000
10
77.3819285764
20
35.5286551804
30
0.0000000000
10
77.5790931833
20
35.5328114701
30
0.0000000000
10
77.7762588541
20
35.5369165536
30
0.0000000000
11
77.1847650894
21
35.5244464477
31
0.0000000000
11
77.7762588541
21
35.5369165536
31
0.0000000000
0
SPLINE
5
46F
100
AcDbEntity
8
0
100
AcDbSpline
62
7
6
CONTINUOUS
70
0
71
3
72
8
73
4
74
2
42
0.0000001000
43
0.0000001000
44
0.0000000001
40
0.0000000000
40
0.0000000000
40
0.0000000000
40
0.0000000000
40
1.0000000000
40
1.0000000000
40
1.0000000000
40
1.0000000000
10
77.7762588541
20
35.5369165536
30
0.0000000000
10
77.8527810741
20
35.5385097828
30
0.0000000000
10
77.9293034543
20
35.5400952988
30
0.0000000000
10
78.0058259915
20
35.5416731739
30
0.0000000000
11
77.7762588541
21
35.5369165536
31
0.0000000000
11
78.0058259915
21
35.5416731739
31
0.0000000000
0
SPLINE
5
470
100
AcDbEntity
8
0
100
AcDbSpline
62
7
6
CONTINUOUS
70
0
71
3
72
8
73
4
74
2
42
0.0000001000
43
0.0000001000
44
0.0000000001
40
0.0000000000
40
0.0000000000
40
0.0000000000
40
0.0000000000
40
1.0000000000
40
1.0000000000
40
1.0000000000
40
1.0000000000
10
78.0058259915
20
35.5416731739
30
0.0000000000
10
78.0687138784
20
35.5429699061
30
0.0000000000
10
78.1316018713
20
35.5442614776
30
0.0000000000
10
78.1944899689
20
35.5455479194
30
0.0000000000
11
78.0058259915
21
35.5416731739
31
0.0000000000
11
78.1944899689
21
35.5455479194
31
0.0000000000
0
SPLINE
5
471
100
AcDbEntity
8
0
100
AcDbSpline
62
7
6
CONTINUOUS
70
0
71
3
72
8
73
4
74
2
42
0.0000001000
43
0.0000001000
44
0.0000000001
40
0.0000000000
40
0.0000000000
40
0.0000000000
40
0.0000000000
40
1.0000000000
40
1.0000000000
40
1.0000000000
40
1.0000000000
10
78.1944899689
20
35.5455479194
30
0.0000000000
10
78.3435709531
20
35.5485975267
30
0.0000000000
10
78.4926525255
20
35.5516183066
30
0.0000000000
10
78.6417346678
20
35.5546106696
30
0.0000000000
11
78.1944899689
21
35.5455479194
31
0.0000000000
11
78.6417346678
21
35.5546106696
31
0.0000000000
0
SPLINE
5
472
100
AcDbEntity
8
0
100
AcDbSpline
62
7
6
CONTINUOUS
70
0
71
3
72
8
73
4
74
2
42
0.0000001000
43
0.0000001000
44
0.0000000001
40
0.0000000000
40
0.0000000000
40
0.0000000000
40
0.0000000000
40
1.0000000000
40
1.0000000000
40
1.0000000000
40
1.0000000000
10
78.6417346678
20
35.5546106696
30
0.0000000000
10
79.3101964889
20
35.5680279734
30
0.0000000000
10
79.9786697693
20
35.5808739568
30
0.0000000000
10
80.6471528748
20
35.5931856213
30
0.0000000000
11
78.6417346678
21
35.5546106696
31
0.0000000000
11
80.6471528748
21
35.5931856213
31
0.0000000000
0
SPLINE
5
473
100
AcDbEntity
8
0
100
AcDbSpline
62
7
6
CONTINUOUS
70
0
71
3
72
8
73
4
74
2
42
0.0000001000
43
0.0000001000
44
0.0000000001
40
0.0000000000
40
0.0000000000
40
0.0000000000
40
0.0000000000
40
1.0000000000
40
1.0000000000
40
1.0000000000
40
1.0000000000
10
80.6471528748
20
35.5931856213
30
0.0000000000
10
80.7572710682
20
35.5952137029
30
0.0000000000
10
80.8673895282
20
35.5972272855
30
0.0000000000
10
80.9775082475
20
35.5992265345
30
0.0000000000
11
80.6471528748
21
35.5931856213
31
0.0000000000
11
80.9775082475
21
35.5992265345
31
0.0000000000
0
SPLINE
5
474
100
AcDbEntity
8
0
100
AcDbSpline
62
7
6
CONTINUOUS
70
0
71
3
72
8
73
4
74
2
42
0.0000001000
43
0.0000001000
44
0.0000000001
40
0.0000000000
40
0.0000000000
40
0.0000000000
40
0.0000000000
40
1.0000000000
40
1.0000000000
40
1.0000000000
40
1.0000000000
10
80.9775082475
20
35.5992265345
30
0.0000000000
10
81.1559324395
20
35.6024658963
30
0.0000000000
10
81.3343573123
20
35.6056676277
30
0.0000000000
10
81.5127828421
20
35.6088322715
30
0.0000000000
11
80.9775082475
21
35.5992265345
31
0.0000000000
11
81.5127828421
21
35.6088322715
31
0.0000000000
0
SPLINE
5
475
100
AcDbEntity
8
0
100
AcDbSpline
62
7
6
CONTINUOUS
70
0
71
3
72
8
73
4
74
2
42
0.0000001000
43
0.0000001000
44
0.0000000001
40
0.0000000000
40
0.0000000000
40
0.0000000000
40
0.0000000000
40
1.0000000000
40
1.0000000000
40
1.0000000000
40
1.0000000000
10
81.5127828421
20
35.6088322715
30
0.0000000000
10
81.7254826526
20
35.6126048209
30
0.0000000000
10
81.9381833969
20
35.6163246657
30
0.0000000000
10
82.1508850347
20
35.6199927257
30
0.0000000000
11
81.5127828421
21
35.6088322715
31
0.0000000000
11
82.1508850347
21
35.6199927257
31
0.0000000000
0
SPLINE
5
476
100
AcDbEntity
8
0
100
AcDbSpline
62
7
6
CONTINUOUS
70
0
71
3
72
8
73
4
74
2
42
0.0000001000
43
0.0000001000
44
0.0000000001
40
0.0000000000
40
0.0000000000
40
0.0000000000
40
0.0000000000
40
1.0000000000
40
1.0000000000
40
1.0000000000
40
1.0000000000
10
82.1508850347
20
35.6199927257
30
0.0000000000
10
82.2736753029
20
35.6221102555
30
0.0000000000
10
82.3964658688
20
35.6242105274
30
0.0000000000
10
82.5192567248
20
35.6262937182
30
0.0000000000
11
82.1508850347
21
35.6199927257
31
0.0000000000
11
82.5192567248
21
35.6262937182
31
0.0000000000
0
SPLINE
5
477
100
AcDbEntity
8
0
100
AcDbSpline
62
7
6
CONTINUOUS
70
0
71
3
72
8
73
4
74
2
42
0.0000001000
43
0.0000001000
44
0.0000000001
40
0.0000000000
40
0.0000000000
40
0.0000000000
40
0.0000000000
40
1.0000000000
40
1.0000000000
40
1.0000000000
40
1.0000000000
10
82.5192567248
20
35.6262937182
30
0.0000000000
10
82.6241008469
20
35.6280724364
30
0.0000000000
10
82.7289451805
20
35.6298387016
30
0.0000000000
10
82.8337897208
20
35.6315926241
30
0.0000000000
11
82.5192567248
21
35.6262937182
31
0.0000000000
11
82.8337897208
21
35.6315926241
31
0.0000000000
0
SPLINE
5
478
100
AcDbEntity
8
0
100
AcDbSpline
62
7
6
CONTINUOUS
70
0
71
3
72
8
73
4
74
2
42
0.0000001000
43
0.0000001000
44
0.0000000001
40
0.0000000000
40
0.0000000000
40
0.0000000000
40
0.0000000000
40
1.0000000000
40
1.0000000000
40
1.0000000000
40
1.0000000000
10
82.8337897208
20
35.6315926241
30
0.0000000000
10
82.8744102037
20
35.6322721558
30
0.0000000000
10
82.9150307177
20
35.6329498347
30
0.0000000000
10
82.9556512624
20
35.6336256673
30
0.0000000000
11
82.8337897208
21
35.6315926241
31
0.0000000000
11
82.9556512624
21
35.6336256673
31
0.0000000000
0
SPLINE
5
479
100
AcDbEntity
8
0
100
AcDbSpline
62
7
6
CONTINUOUS
70
0
71
3
72
8
73
4
74
2
42
0.0000001000
43
0.0000001000
44
0.0000000001
40
0.0000000000
40
0.0000000000
40
0.0000000000
40
0.0000000000
40
1.0000000000
40
1.0000000000
40
1.0000000000
40
1.0000000000
10
82.9556512624
20
35.6336256673
30
0.0000000000
10
83.0162153359
20
35.6346333144
30
0.0000000000
10
83.0767794777
20
35.6356368571
30
0.0000000000
10
83.1373436869
20
35.6366363168
30
0.0000000000
11
82.9556512624
21
35.6336256673
31
0.0000000000
11
83.1373436869
21
35.6366363168
31
0.0000000000
0
SPLINE
5
47A
100
AcDbEntity
8
0
100
AcDbSpline
62
7
6
CONTINUOUS
70
0
71
3
72
8
73
4
74
2
42
0.0000001000
43
0.0000001000
44
0.0000000001
40
0.0000000000
40
0.0000000000
40
0.0000000000
40
0.0000000000
40
1.0000000000
40
1.0000000000
40
1.0000000000
40
1.0000000000
10
83.1373436869
20
35.6366363168
30
0.0000000000
10
83.2894880268
20
35.6391470758
30
0.0000000000
10
83.4416327921
20
35.6416320673
30
0.0000000000
10
83.5937779681
20
35.6440916281
30
0.0000000000
11
83.1373436869
21
35.6366363168
31
0.0000000000
11
83.5937779681
21
35.6440916281
31
0.0000000000
0
SPLINE
5
47B
100
AcDbEntity
8
0
100
AcDbSpline
62
7
6
CONTINUOUS
70
0
71
3
72
8
73
4
74
2
42
0.0000001000
43
0.0000001000
44
0.0000000001
40
0.0000000000
40
0.0000000000
40
0.0000000000
40
0.0000000000
40
1.0000000000
40
1.0000000000
40
1.0000000000
40
1.0000000000
10
83.5937779681
20
35.6440916281
30
0.0000000000
10
83.6091026371
20
35.6443393649
30
0.0000000000
10
83.6244273103
20
35.6445868436
30
0.0000000000
10
83.6397519876
20
35.6448340647
30
0.0000000000
11
83.5937779681
21
35.6440916281
31
0.0000000000
11
83.6397519876
21
35.6448340647
31
0.0000000000
0
SPLINE
5
47C
100
AcDbEntity
8
0
100
AcDbSpline
62
7
6
CONTINUOUS
70
0
71
3
72
8
73
4
74
2
42
0.0000001000
43
0.0000001000
44
0.0000000001
40
0.0000000000
40
0.0000000000
40
0.0000000000
40
0.0000000000
40
1.0000000000
40
1.0000000000
40
1.0000000000
40
1.0000000000
10
83.6397519876
20
35.6448340647
30
0.0000000000
10
83.7127809674
20
35.6460121845
30
0.0000000000
10
83.7858100416
20
35.6471844529
30
0.0000000000
10
83.8588392084
20
35.6483509073
30
0.0000000000
11
83.6397519876
21
35.6448340647
31
0.0000000000
11
83.8588392084
21
35.6483509073
31
0.0000000000
0
SPLINE
5
47D
100
AcDbEntity
8
0
100
AcDbSpline
62
7
6
CONTINUOUS
70
0
71
3
72
8
73
4
74
2
42
0.0000001000
43
0.0000001000
44
0.0000000001
40
0.0000000000
40
0.0000000000
40
0.0000000000
40
0.0000000000
40
1.0000000000
40
1.0000000000
40
1.0000000000
40
1.0000000000
10
83.8588392084
20
35.6483509073
30
0.0000000000
10
83.9019537125
20
35.6490395513
30
0.0000000000
10
83.9450682489
20
35.6497261689
30
0.0000000000
10
83.9881828173
20
35.6504107677
30
0.0000000000
11
83.8588392084
21
35.6483509073
31
0.0000000000
11
83.9881828173
21
35.6504107677
31
0.0000000000
0
SPLINE
5
47E
100
AcDbEntity
8
0
100
AcDbSpline
62
7
6
CONTINUOUS
70
0
71
3
72
8
73
4
74
2
42
0.0000001000
43
0.0000001000
44
0.0000000001
40
0.0000000000
40
0.0000000000
40
0.0000000000
40
0.0000000000
40
1.0000000000
40
1.0000000000
40
1.0000000000
40
1.0000000000
10
83.9881828173
20
35.6504107677
30
0.0000000000
10
84.0242537144
20
35.6509835229
30
0.0000000000
10
84.0603246339
20
35.6515548650
30
0.0000000000
10
84.0963955755
20
35.6521247986
30
0.0000000000
11
83.9881828173
21
35.6504107677
31
0.0000000000
11
84.0963955755
21
35.6521247986
31
0.0000000000
0
SPLINE
5
47F
100
AcDbEntity
8
0
100
AcDbSpline
62
7
6
CONTINUOUS
70
0
71
3
72
8
73
4
74
2
42
0.0000001000
43
0.0000001000
44
0.0000000001
40
0.0000000000
40
0.0000000000
40
0.0000000000
40
0.0000000000
40
1.0000000000
40
1.0000000000
40
1.0000000000
40
1.0000000000
10
84.0963955755
20
35.6521247986
30
0.0000000000
10
84.3008124736
20
35.6553546575
30
0.0000000000
10
84.5052300839
20
35.6585392792
30
0.0000000000
10
84.7096483787
20
35.6616792946
30
0.0000000000
11
84.0963955755
21
35.6521247986
31
0.0000000000
11
84.7096483787
21
35.6616792946
31
0.0000000000
0
SPLINE
5
480
100
AcDbEntity
8
0
100
AcDbSpline
62
7
6
CONTINUOUS
70
0
71
3
72
8
73
4
74
2
42
0.0000001000
43
0.0000001000
44
0.0000000001
40
0.0000000000
40
0.0000000000
40
0.0000000000
40
0.0000000000
40
1.0000000000
40
1.0000000000
40
1.0000000000
40
1.0000000000
10
84.7096483787
20
35.6616792946
30
0.0000000000
10
84.8514590289
20
35.6638576106
30
0.0000000000
10
84.9932700085
20
35.6660144594
30
0.0000000000
10
85.1350813083
20
35.6681500517
30
0.0000000000
11
84.7096483787
21
35.6616792946
31
0.0000000000
11
85.1350813083
21
35.6681500517
31
0.0000000000
0
SPLINE
5
481
100
AcDbEntity
8
0
100
AcDbSpline
62
7
6
CONTINUOUS
70
0
71
3
72
11
73
7
74
5
42
0.0000001000
43
0.0000001000
44
0.0000000001
40
0.0000000000
40
0.0000000000
40
0.0000000000
40
0.0000000000
40
0.1229704972
40
0.4487849061
40
0.7829465314
40
1.0000000000
40
1.0000000000
40
1.0000000000
40
1.0000000000
10
89.4120650874
20
35.7263212575
30
0.0000000000
10
89.8500731474
20
35.7316593764
30
0.0000000000
10
91.4486063095
20
35.7504665593
30
0.0000000000
10
94.2374417237
20
35.7790942334
30
0.0000000000
10
97.3614582891
20
35.8046403639
30
0.0000000000
10
99.3249334019
20
35.8174209852
30
0.0000000000
10
100.0980992631
20
35.8219564264
30
0.0000000000
11
89.4120650874
21
35.7263212575
31
0.0000000000
11
90.7260958131
21
35.7417859729
31
0.0000000000
11
94.2077201623
21
35.7775929681
31
0.0000000000
11
97.7786111451
21
35.8068478254
31
0.0000000000
11
100.0980992631
21
35.8219564264
31
0.0000000000
0
SPLINE
5
482
100
AcDbEntity
8
0
100
AcDbSpline
62
7
6
CONTINUOUS
70
0
71
3
72
8
73
4
74
2
42
0.0000001000
43
0.0000001000
44
0.0000000001
40
0.0000000000
40
0.0000000000
40
0.0000000000
40
0.0000000000
40
1.0000000000
40
1.0000000000
40
1.0000000000
40
1.0000000000
10
106.4317482025
20
35.8481655816
30
0.0000000000
10
106.8762417472
20
35.8492467528
30
0.0000000000
10
107.3207356764
20
35.8501698665
30
0.0000000000
10
107.7652298770
20
35.8509355853
30
0.0000000000
11
106.4317482025
21
35.8481655816
31
0.0000000000
11
107.7652298770
21
35.8509355853
31
0.0000000000
0
SPLINE
5
483
100
AcDbEntity
8
0
100
AcDbSpline
62
7
6
CONTINUOUS
70
0
71
3
72
8
73
4
74
2
42
0.0000001000
43
0.0000001000
44
0.0000000001
40
0.0000000000
40
0.0000000000
40
0.0000000000
40
0.0000000000
40
1.0000000000
40
1.0000000000
40
1.0000000000
40
1.0000000000
10
113.7656971651
20
35.8517404516
30
0.0000000000
10
114.2101921341
20
35.8510942455
30
0.0000000000
10
114.6546868742
20
35.8502908209
30
0.0000000000
10
115.0991812732
20
35.8493296170
30
0.0000000000
11
113.7656971651
21
35.8517404516
31
0.0000000000
11
115.0991812732
21
35.8493296170
31
0.0000000000
0
SPLINE
5
484
100
AcDbEntity
8
0
100
AcDbSpline
62
7
6
CONTINUOUS
70
0
71
3
72
8
73
4
74
2
42
0.0000001000
43
0.0000001000
44
0.0000000001
40
0.0000000000
40
0.0000000000
40
0.0000000000
40
0.0000000000
40
1.0000000000
40
1.0000000000
40
1.0000000000
40
1.0000000000
10
121.7661743742
20
35.8229651502
30
0.0000000000
10
121.7944263801
20
35.8228021319
30
0.0000000000
10
121.8226783823
20
35.8226384507
30
0.0000000000
10
121.8509303806
20
35.8224741060
30
0.0000000000
11
121.7661743742
21
35.8229651502
31
0.0000000000
11
121.8509303806
21
35.8224741060
31
0.0000000000
0
SPLINE
5
485
100
AcDbEntity
8
0
100
AcDbSpline
62
7
6
CONTINUOUS
70
0
71
3
72
31
73
27
74
25
42
0.0000001000
43
0.0000001000
44
0.0000000001
40
0.0000000000
40
0.0000000000
40
0.0000000000
40
0.0000000000
40
0.0379200300
40
0.1126446527
40
0.1855629707
40
0.2563143119
40
0.3245673906
40
0.3900242533
40
0.4524245239
40
0.5116064835
40
0.5675257372
40
0.6201596831
40
0.6694973119
40
0.7155366066
40
0.7582817761
40
0.7977402096
40
0.8339189015
40
0.8668199893
40
0.8964347864
40
0.9227239137
40
0.9455921348
40
0.9649178400
40
0.9805341931
40
0.9921794245
40
0.9994091851
40
1.0000000000
40
1.0000000000
40
1.0000000000
40
1.0000000000
10
121.8509303806
20
35.8224741060
30
0.0000000000
10
122.4575122131
20
35.8189455587
30
0.0000000000
10
124.2594095021
20
35.8075551979
30
0.0000000000
10
127.2276990829
20
35.7842756241
30
0.0000000000
10
130.7210981675
20
35.7496084994
30
0.0000000000
10
134.1109000688
20
35.7087289233
30
0.0000000000
10
137.3812578842
20
35.6620822345
30
0.0000000000
10
140.5179301268
20
35.6101731515
30
0.0000000000
10
143.5093887979
20
35.5535409990
30
0.0000000000
10
146.3481625832
20
35.4927133292
30
0.0000000000
10
149.0305837333
20
35.4281734252
30
0.0000000000
10
151.5553950327
20
35.3603605079
30
0.0000000000
10
153.9220165107
20
35.2897015385
30
0.0000000000
10
156.1302976382
20
35.2166181992
30
0.0000000000
10
158.1803779912
20
35.1415345570
30
0.0000000000
10
160.0725523606
20
35.0648847635
30
0.0000000000
10
161.8070427290
20
34.9871377233
30
0.0000000000
10
163.3839407846
20
34.9087935339
30
0.0000000000
10
164.8021878227
20
34.8305266673
30
0.0000000000
10
166.0604680624
20
34.7529904797
30
0.0000000000
10
167.1516675090
20
34.6778464935
30
0.0000000000
10
168.0786066610
20
34.6051921132
30
0.0000000000
10
168.8075810978
20
34.5417557411
30
0.0000000000
10
169.3884489962
20
34.4804711997
30
0.0000000000
10
169.6444605829
20
34.4532654840
30
0.0000000000
10
169.8046604069
20
34.4306102221
30
0.0000000000
10
169.8161916485
20
34.4289788816
30
0.0000000000
11
121.8509303806
21
35.8224741060
31
0.0000000000
11
123.6706702009
21
35.8109661363
31
0.0000000000
11
127.2565818081
21
35.7827902863
31
0.0000000000
11
130.7557469006
21
35.7480002144
31
0.0000000000
11
134.1508442570
21
35.7069777568
31
0.0000000000
11
137.4259637733
21
35.6601709165
31
0.0000000000
11
140.5667959941
21
35.6080876964
31
0.0000000000
11
143.5608359611
21
35.5512885275
31
0.0000000000
11
146.4003138361
21
35.4903146184
31
0.0000000000
11
149.0830896775
21
35.4256211391
31
0.0000000000
11
151.6080691615
21
35.3576434874
31
0.0000000000
11
153.9747139353
21
35.2868066745
31
0.0000000000
11
156.1829166084
21
35.2135297163
31
0.0000000000
11
158.2328678111
21
35.1382322262
31
0.0000000000
11
160.1249098914
21
35.0613442901
31
0.0000000000
11
161.8593653425
21
34.9833216126
31
0.0000000000
11
163.4363228961
21
34.9046692622
31
0.0000000000
11
164.8553520280
21
34.8259801286
31
0.0000000000
11
166.1145528023
21
34.7480351902
31
0.0000000000
11
167.2093565581
21
34.6719824519
31
0.0000000000
11
168.1339501105
21
34.5994091246
31
0.0000000000
11
168.8803955651
21
34.5326347102
31
0.0000000000
11
169.4363046016
21
34.4753501479
31
0.0000000000
11
169.7807827033
21
34.4339663432
31
0.0000000000
11
169.8161916485
21
34.4289788816
31
0.0000000000
0
ENDSEC
0
SECTION
2
OBJECTS
0
DICTIONARY
5
486
100
AcDbDictionary
3
ACAD_GROUP
350
487
3
ACAD_MLINESTYLE
350
488
0
DICTIONARY
5
487
102
{ACAD_REACTORS
330
486
102
}
100
AcDbDictionary
0
DICTIONARY
5
488
102
{ACAD_REACTORS
330
486
102
}
100
AcDbDictionary
3
STANDARD
350
489
0
MLINESTYLE
5
489
102
{ACAD_REACTORS
330
488
102
}
100
AcDbMlineStyle
2
STANDARD
70
0
3

62
256
51
90.0
52
90.0
71
2
49
0.5
62
256
6
BYLAYER
49
-0.5
62
256
6
BYLAYER
0
ENDSEC
0
EOF
