999
DXF file: C:\Aktuell-Internet\CAD-Daten\2rm-m30.dxf
999
Pro/ENGINEER 2001400 by Parametric Technology Corporation
0
SECTION
2
HEADER
9
$ACADVER
1
AC1014
9
$EXTMAX
10
420.0000000000
20
297.0000000000
9
$EXTMIN
10
0.0000000000
20
0.0000000000
9
$LIMMIN
10
0.0000000000
20
0.0000000000
9
$LIMMAX
10
420.0000000000
20
297.0000000000
9
$VIEWCTR
10
210.0000000000
20
148.5000000000
9
$VIEWSIZE
40
297.0000000000
9
$CLAYER
8
0
9
$LTSCALE
40
23.1000000000
9
$CELTYPE
6
BYLAYER
9
$DIMSCALE
40
1
9
$DIMASZ
40
3.5000000000
9
$DIMEXO
40
2.6250000000
9
$DIMDLI
40
15.9600000000
9
$DIMEXE
40
7.5600000000
9
$DIMCEN
40
3.7800000000
9
$DIMLFAC
40
1.0000000000
9
$DIMTXT
40
3.5000000000
9
$DIMTOL
70
1
9
$DIMTFAC
40
0.6000000000
9
$DIMTP
40
0.0050000000
9
$DIMTM
40
0.0050000000
9
$HANDSEED
5
402
0
ENDSEC
0
SECTION
2
CLASSES
0
ENDSEC
0
SECTION
2
TABLES
0
TABLE
2
VPORT
5
8
100
AcDbSymbolTable
70
2
0
VPORT
5
1F4
100
AcDbSymbolTableRecord
100
AcDbViewportTableRecord
2
*ACTIVE
70
0
10
0.0
20
0.0
11
1.0
21
1.0
12
210.0000000000
22
148.5000000000
13
0.0
23
0.0
14
1.0
24
1.0
15
0.0
25
0.0
16
0.0
26
0.0
36
1.0
17
0.0
27
0.0
37
0.0
40
297.0000000000
41
1.4141414141
42
50.0
43
0.0
44
0.0
50
0.0
51
0.0
71
0
72
100
73
1
74
1
75
0
76
0
77
0
78
0
0
ENDTAB
0
TABLE
2
LTYPE
5
5
100
AcDbSymbolTable
70
6
0
LTYPE
5
14
100
AcDbSymbolTableRecord
100
AcDbLinetypeTableRecord
2
BYBLOCK
70
0
3

72
65
73
0
40
0.0
0
LTYPE
5
15
100
AcDbSymbolTableRecord
100
AcDbLinetypeTableRecord
2
BYLAYER
70
0
3

72
65
73
0
40
0.0
0
LTYPE
5
16
100
AcDbSymbolTableRecord
100
AcDbLinetypeTableRecord
2
CONTINUOUS
70
64
3
Solid line
72
65
73
0
40
0
0
LTYPE
5
1F5
100
AcDbSymbolTableRecord
100
AcDbLinetypeTableRecord
2
CENTER
70
64
3
____ _ ____ _ ____ _ ____ _ ____ _ ____ _ ____
72
65
73
4
40
0.6
49
0.375
74
0
49
-0.075
74
0
49
0.075
74
0
49
-0.075
74
0
0
LTYPE
5
1F6
100
AcDbSymbolTableRecord
100
AcDbLinetypeTableRecord
2
HIDDEN
70
64
3
- - - - - - - - - - - - - - - - - - - -
72
65
73
2
40
0.2
49
0.1
74
0
49
-0.1
74
0
0
LTYPE
5
1F7
100
AcDbSymbolTableRecord
100
AcDbLinetypeTableRecord
2
PHANTOM
70
64
3
_____ _ _ _____ _ _ _____ _ _ _____
72
65
73
6
40
0.8
49
0.45
74
0
49
-0.05
74
0
49
0.1
74
0
49
-0.05
74
0
49
0.1
74
0
49
-0.05
74
0
0
LTYPE
5
1F8
100
AcDbSymbolTableRecord
100
AcDbLinetypeTableRecord
2
DOT
70
64
3
. . . . . . . . . . . . . . . . . . . .
72
65
73
2
40
0.2
49
0.1
74
0
49
-0.1
74
0
0
LTYPE
5
1F9
100
AcDbSymbolTableRecord
100
AcDbLinetypeTableRecord
2
DASHED
70
64
3
- - - - - - - - - - - - - - - - - - - -
72
65
73
2
40
0.2
49
0.1
74
0
49
-0.1
74
0
0
ENDTAB
0
TABLE
2
LAYER
5
2
100
AcDbSymbolTable
70
36
0
LAYER
5
10
100
AcDbSymbolTableRecord
100
AcDbLayerTableRecord
2
0
70
0
62
7
6
CONTINUOUS
0
LAYER
5
1FA
100
AcDbSymbolTableRecord
100
AcDbLayerTableRecord
2
DEFAULT_1
70
0
62
7
6
CENTER
0
LAYER
5
1FB
100
AcDbSymbolTableRecord
100
AcDbLayerTableRecord
2
DEFAULT_2
70
0
62
8
6
HIDDEN
0
LAYER
5
1FC
100
AcDbSymbolTableRecord
100
AcDbLayerTableRecord
2
DEFAULT_3
70
0
62
7
6
PHANTOM
0
ENDTAB
0
TABLE
2
STYLE
5
3
100
AcDbSymbolTable
70
1
0
STYLE
5
11
100
AcDbSymbolTableRecord
100
AcDbTextStyleTableRecord
2
STANDARD
70
0
40
0.0
41
1.0
50
0.0
71
0
42
0.0
3
txt
4

0
STYLE
5
1FD
100
AcDbSymbolTableRecord
100
AcDbTextStyleTableRecord
2
TEXTSTYLE_0
70
0
40
0.0
41
0.80
50
0.0
71
0
42
0.2
3
txt
4

0
ENDTAB
0
TABLE
2
VIEW
5
6
100
AcDbSymbolTable
70
0
0
ENDTAB
0
TABLE
2
UCS
5
7
100
AcDbSymbolTable
70
0
0
ENDTAB
0
TABLE
2
APPID
5
9
100
AcDbSymbolTable
70
1
0
APPID
5
1FE
100
AcDbSymbolTableRecord
100
AcDbRegAppTableRecord
2
ACAD
70
0
0
ENDTAB
0
TABLE
2
DIMSTYLE
5
A
100
AcDbSymbolTable
70
1
0
DIMSTYLE
105
1FF
100
AcDbSymbolTableRecord
100
AcDbDimStyleTableRecord
2
STANDARD
70
0
3

4

5

6

7

40
1.0
41
0.18
42
0.0625
43
0.38
44
0.18
45
0.0
46
0.0
47
0.0050000000
48
0.0050000000
140
3.5000000000
141
0.09
142
0.0
143
25.4
144
1.0000000000
145
0.0
146
0.6000000000
147
0.09
71
1
72
0
73
1
74
1
75
0
76
0
77
0
78
0
170
0
171
2
172
0
173
0
174
0
175
0
176
0
177
0
178
0
270
2
271
3
272
4
273
2
274
2
340
11
275
0
280
0
281
0
282
0
283
1
284
0
285
0
286
0
287
3
288
0
0
ENDTAB
0
TABLE
2
BLOCK_RECORD
5
1
100
AcDbSymbolTable
70
0
0
BLOCK_RECORD
5
1B
100
AcDbSymbolTableRecord
100
AcDbBlockTableRecord
2
*MODEL_SPACE
0
BLOCK_RECORD
5
1C
100
AcDbSymbolTableRecord
100
AcDbBlockTableRecord
2
*PAPER_SPACE
0
ENDTAB
0
ENDSEC
0
SECTION
2
BLOCKS
0
BLOCK
5
1E
100
AcDbEntity
8
0
100
AcDbBlockBegin
2
*MODEL_SPACE
70
0
10
0.0
20
0.0
30
0.0
3
*MODEL_SPACE
1

0
ENDBLK
5
1F
100
AcDbEntity
8
0
100
AcDbBlockEnd
0
BLOCK
5
20
100
AcDbEntity
8
0
100
AcDbBlockBegin
2
*PAPER_SPACE
70
0
10
0.0
20
0.0
30
0.0
3
*PAPER_SPACE
1

0
ENDBLK
5
21
100
AcDbEntity
8
0
100
AcDbBlockEnd
0
ENDSEC
0
SECTION
2
ENTITIES
0
TEXT
5
200
100
AcDbEntity
8
0
100
AcDbText
62
2
6
CONTINUOUS
10
69.1453671797
20
81.5349957734
7
TEXTSTYLE_0
40
6.0000000000
1
RUD
72
5
11
84.0025100368
21
81.5349957734
100
AcDbText
0
TEXT
5
201
100
AcDbEntity
8
0
100
AcDbText
62
2
6
CONTINUOUS
10
59.9584597731
20
70.6711132053
7
TEXTSTYLE_0
40
6.0000000000
1
RM M30
72
5
11
88.6727454874
21
70.6711132053
100
AcDbText
0
TEXT
5
202
100
AcDbEntity
8
0
100
AcDbText
62
2
6
CONTINUOUS
10
292.1556242437
20
185.1396661679
7
TEXTSTYLE_0
40
6.0000000000
1
RUD
50
90.0000000000
72
5
11
292.1556242437
21
199.9968090250
100
AcDbText
0
TEXT
5
203
100
AcDbEntity
8
0
100
AcDbText
62
2
6
CONTINUOUS
10
304.9741274238
20
185.5974698529
7
TEXTSTYLE_0
40
6.0000000000
1
RM M30
50
90.0000000000
72
5
11
304.9741274238
21
214.3117555672
100
AcDbText
0
LINE
5
204
100
AcDbEntity
8
0
100
AcDbLine
62
7
6
CONTINUOUS
10
0.0000000000
20
0.0000000000
11
0.0000000000
21
297.0000000000
0
LINE
5
205
100
AcDbEntity
8
0
100
AcDbLine
62
7
6
CONTINUOUS
10
0.0000000000
20
0.0000000000
11
420.0000000000
21
0.0000000000
0
LINE
5
206
100
AcDbEntity
8
0
100
AcDbLine
62
7
6
CONTINUOUS
10
0.0000000000
20
297.0000000000
11
420.0000000000
21
297.0000000000
0
LINE
5
207
100
AcDbEntity
8
0
100
AcDbLine
62
7
6
CONTINUOUS
10
420.0000000000
20
0.0000000000
11
420.0000000000
21
297.0000000000
0
LINE
5
208
100
AcDbEntity
8
0
100
AcDbLine
62
7
6
CONTINUOUS
10
81.5188218154
20
157.0657358977
11
81.0188218154
21
157.5657358977
0
LINE
5
209
100
AcDbEntity
8
0
100
AcDbLine
62
7
6
CONTINUOUS
10
55.5269907391
20
214.9791530595
11
70.4271815105
21
250.9513957018
0
LINE
5
20A
100
AcDbEntity
8
0
100
AcDbLine
62
7
6
CONTINUOUS
10
73.1331620112
20
253.6573762025
11
109.1054046536
21
268.5575669740
0
LINE
5
20B
100
AcDbEntity
8
0
100
AcDbLine
62
7
6
CONTINUOUS
10
81.5188218154
20
157.0657358977
11
140.5188218154
21
157.0657358977
0
LINE
5
20C
100
AcDbEntity
8
0
100
AcDbLine
62
7
6
CONTINUOUS
10
81.0188218154
20
157.5657358977
11
141.0188218154
21
157.5657358977
0
LINE
5
20D
100
AcDbEntity
8
DEFAULT_2
100
AcDbLine
62
8
6
HIDDEN
10
96.0188218154
20
159.0657358977
11
126.0188218154
21
159.0657358977
0
LINE
5
20E
100
AcDbEntity
8
0
100
AcDbLine
62
7
6
CONTINUOUS
10
68.2589074172
20
235.5035239073
11
67.9951630629
21
234.8821822020
0
LINE
5
20F
100
AcDbEntity
8
0
100
AcDbLine
62
7
6
CONTINUOUS
10
67.1160203017
20
232.8110457274
11
66.8522759475
21
232.1897059294
0
LINE
5
210
100
AcDbEntity
8
0
100
AcDbLine
62
7
6
CONTINUOUS
10
63.1598664321
20
223.4909344527
11
62.4565506972
21
221.8340264174
0
LINE
5
211
100
AcDbEntity
8
0
100
AcDbLine
62
7
6
CONTINUOUS
10
65.2112046279
20
228.3235855910
11
64.9474602736
21
227.7022448393
0
LINE
5
212
100
AcDbEntity
8
0
100
AcDbLine
62
7
6
CONTINUOUS
10
69.0501366652
20
237.3675452086
11
68.9915276565
21
237.2294703337
0
LINE
5
213
100
AcDbEntity
8
0
100
AcDbLine
62
7
6
CONTINUOUS
10
64.0683175124
20
225.6311083647
11
63.8045731582
21
225.0097676131
0
LINE
5
214
100
AcDbEntity
8
0
100
AcDbLine
62
7
6
CONTINUOUS
10
69.4028893508
20
236.9733801695
11
69.5201111831
21
237.2495318266
0
LINE
5
215
100
AcDbEntity
8
0
100
AcDbLine
62
7
6
CONTINUOUS
10
63.0730477370
20
222.0612011763
11
63.6298371352
21
223.3729201170
0
LINE
5
216
100
AcDbEntity
8
0
100
AcDbLine
62
7
6
CONTINUOUS
10
69.4921189345
20
235.7133494231
11
69.6386414565
21
236.0585375639
0
LINE
5
217
100
AcDbEntity
8
0
100
AcDbLine
62
7
6
CONTINUOUS
10
69.3434067763
20
237.8133993956
11
69.0501366652
21
237.3675452086
0
LINE
5
218
100
AcDbEntity
8
0
100
AcDbLine
62
7
6
CONTINUOUS
10
70.5742074050
20
240.7129908415
11
70.3102456130
21
240.3361731383
0
LINE
5
219
100
AcDbEntity
8
0
100
AcDbLine
62
7
6
CONTINUOUS
10
70.7509118117
20
240.1491213652
11
70.9855690993
21
240.4569006773
0
LINE
5
21A
100
AcDbEntity
8
0
100
AcDbLine
62
7
6
CONTINUOUS
10
69.5201111831
20
237.2495318266
11
69.7547684707
21
237.5573092314
0
LINE
5
21B
100
AcDbEntity
8
0
100
AcDbLine
62
7
6
CONTINUOUS
10
87.5456906356
20
255.5541964384
11
87.0937005080
21
255.1703997465
0
LINE
5
21C
100
AcDbEntity
8
0
100
AcDbLine
62
7
6
CONTINUOUS
10
87.6900292434
20
255.6375285002
11
87.5456906356
21
255.5541964384
0
LINE
5
21D
100
AcDbEntity
8
0
100
AcDbLine
62
7
6
CONTINUOUS
10
87.7394791640
20
255.0518771025
11
88.0281544722
21
255.2185450407
0
LINE
5
21E
100
AcDbEntity
8
0
100
AcDbLine
62
7
6
CONTINUOUS
10
90.8047829665
20
256.5759516569
11
90.4439393081
21
256.3676157805
0
LINE
5
21F
100
AcDbEntity
8
0
100
AcDbLine
62
7
6
CONTINUOUS
10
86.9760972060
20
253.8740969511
11
87.3369408645
21
254.0824290129
0
LINE
5
220
100
AcDbEntity
8
0
100
AcDbLine
62
7
6
CONTINUOUS
10
90.8694706954
20
255.6305743071
11
90.2921200789
21
255.2972422453
0
LINE
5
221
100
AcDbEntity
8
0
100
AcDbLine
62
7
6
CONTINUOUS
10
92.0241719283
20
256.2972422453
11
91.2303143538
21
255.8389063689
0
LINE
5
222
100
AcDbEntity
8
0
100
AcDbLine
62
7
6
CONTINUOUS
10
88.2484017409
20
255.8370676848
11
87.6900292434
21
255.6375285002
0
LINE
5
223
100
AcDbEntity
8
0
100
AcDbLine
62
7
6
CONTINUOUS
10
70.5804926129
20
174.8099503508
11
55.5269907391
21
211.1523187358
0
LINE
5
224
100
AcDbEntity
8
0
100
AcDbLine
62
7
6
CONTINUOUS
10
64.9516221084
20
223.0562878462
11
64.9518395461
21
222.8117638441
0
LINE
5
225
100
AcDbEntity
8
0
100
AcDbLine
62
7
6
CONTINUOUS
10
69.3445015944
20
236.5907793852
11
69.4028893508
21
236.9733801695
0
LINE
5
226
100
AcDbEntity
8
0
100
AcDbLine
62
7
6
CONTINUOUS
10
70.6925202407
20
239.7665224882
11
70.7509118117
21
240.1491213652
0
LINE
5
227
100
AcDbEntity
8
0
100
AcDbLine
62
7
6
CONTINUOUS
10
70.3102456130
20
240.3361731383
11
70.2225495376
21
239.8845358702
0
LINE
5
228
100
AcDbEntity
8
0
100
AcDbLine
62
7
6
CONTINUOUS
10
68.9915276565
20
237.2294703337
11
68.8745270766
21
236.7087946745
0
LINE
5
229
100
AcDbEntity
8
0
100
AcDbLine
62
7
6
CONTINUOUS
10
64.9518395461
20
222.8117638441
11
64.3950463332
21
221.5000449034
0
LINE
5
22A
100
AcDbEntity
8
0
100
AcDbLine
62
7
6
CONTINUOUS
10
70.9302445449
20
236.6509638640
11
70.8130265273
21
236.3748122069
0
LINE
5
22B
100
AcDbEntity
8
0
100
AcDbLine
62
7
6
CONTINUOUS
10
71.1655579604
20
236.2251711699
11
71.2827797927
21
236.5013228270
0
LINE
5
22C
100
AcDbEntity
8
0
100
AcDbLine
62
7
6
CONTINUOUS
10
64.9238472976
20
221.2755823942
11
65.4220315017
21
222.4492255064
0
LINE
5
22D
100
AcDbEntity
8
0
100
AcDbLine
62
7
6
CONTINUOUS
10
71.8126755752
20
235.0542403075
11
71.6661492385
21
234.7090502592
0
LINE
5
22E
100
AcDbEntity
8
0
100
AcDbLine
62
7
6
CONTINUOUS
10
72.8103524245
20
235.9343825194
11
72.6345215835
21
235.5201559874
0
LINE
5
22F
100
AcDbEntity
8
0
100
AcDbLine
62
7
6
CONTINUOUS
10
66.5988236464
20
220.0757361265
11
66.7746506728
21
220.4899631354
0
LINE
5
230
100
AcDbEntity
8
0
100
AcDbLine
62
7
6
CONTINUOUS
10
67.9468461074
20
223.2514773222
11
68.1226731337
21
223.6657048079
0
LINE
5
231
100
AcDbEntity
8
0
100
AcDbLine
62
7
6
CONTINUOUS
10
72.2253495253
20
233.3310061308
11
72.4011803664
21
233.7452326628
0
LINE
5
232
100
AcDbEntity
8
0
100
AcDbLine
62
7
6
CONTINUOUS
10
71.5806427993
20
231.8121729704
11
71.8150826491
21
232.3644762846
0
LINE
5
233
100
AcDbEntity
8
0
100
AcDbLine
62
7
6
CONTINUOUS
10
70.9945488967
20
230.4314146849
11
71.1703759231
21
230.8456431242
0
LINE
5
234
100
AcDbEntity
8
0
100
AcDbLine
62
7
6
CONTINUOUS
10
68.5329400100
20
224.6322346541
11
68.7673798598
21
225.1845379683
0
LINE
5
235
100
AcDbEntity
8
0
100
AcDbLine
62
7
6
CONTINUOUS
10
69.1776467360
20
226.1510678145
11
69.3534775771
21
226.5652953001
0
LINE
5
236
100
AcDbEntity
8
0
100
AcDbLine
62
7
6
CONTINUOUS
10
67.5072709121
20
222.2159100386
11
67.7124062575
21
222.6991749617
0
LINE
5
237
100
AcDbEntity
8
0
100
AcDbLine
62
7
6
CONTINUOUS
10
73.0458870925
20
235.2640658232
11
73.2803231276
21
235.8163691374
0
LINE
5
238
100
AcDbEntity
8
0
100
AcDbLine
62
7
6
CONTINUOUS
10
71.2827797927
20
236.5013228270
11
71.5467415847
21
236.8781386229
0
LINE
5
239
100
AcDbEntity
8
0
100
AcDbLine
62
7
6
CONTINUOUS
10
74.1885567702
20
238.2010660979
11
74.4525185622
21
238.5778838011
0
LINE
5
23A
100
AcDbEntity
8
0
100
AcDbLine
62
7
6
CONTINUOUS
10
89.2058487929
20
254.1787196013
11
88.8792191543
21
253.7444582793
0
LINE
5
23B
100
AcDbEntity
8
0
100
AcDbLine
62
7
6
CONTINUOUS
10
74.0118485488
20
238.7649355742
11
73.7771912612
21
238.4571562620
0
LINE
5
23C
100
AcDbEntity
8
0
100
AcDbLine
62
7
6
CONTINUOUS
10
63.3945237197
20
223.7987137648
11
63.1598664321
21
223.4909344527
0
LINE
5
23D
100
AcDbEntity
8
0
100
AcDbLine
62
7
6
CONTINUOUS
10
72.6345215835
20
235.5201559874
11
72.3998642959
21
235.2123766752
0
LINE
5
23E
100
AcDbEntity
8
0
100
AcDbLine
62
7
6
CONTINUOUS
10
72.8405343093
20
235.0253249022
11
73.0458870925
21
235.2640658232
0
LINE
5
23F
100
AcDbEntity
8
0
100
AcDbLine
62
7
6
CONTINUOUS
10
87.4318276442
20
254.7514124724
11
87.7394791640
21
255.0518771025
0
LINE
5
240
100
AcDbEntity
8
0
100
AcDbLine
62
7
6
CONTINUOUS
10
90.3760605849
20
252.1518526884
11
90.0684090651
21
251.8513880583
0
LINE
5
241
100
AcDbEntity
8
0
100
AcDbLine
62
7
6
CONTINUOUS
10
71.6637421645
20
237.3988142821
11
71.3409501113
21
237.1284457060
0
LINE
5
242
100
AcDbEntity
8
0
100
AcDbLine
62
7
6
CONTINUOUS
10
69.6368905105
20
238.0147314879
11
69.3434067763
21
237.8133993956
0
LINE
5
243
100
AcDbEntity
8
0
100
AcDbLine
62
7
6
CONTINUOUS
10
90.5048867263
20
254.9287196013
11
91.0822373427
21
255.2620516630
0
LINE
5
244
100
AcDbEntity
8
0
100
AcDbLine
62
7
6
CONTINUOUS
10
91.4430810012
20
255.4703875395
11
92.2369366683
21
255.9287196013
0
LINE
5
245
100
AcDbEntity
8
0
100
AcDbLine
62
7
6
CONTINUOUS
10
88.8792191543
20
253.7444582793
11
88.5905438460
21
253.5777903410
0
LINE
5
246
100
AcDbEntity
8
0
100
AcDbLine
62
7
6
CONTINUOUS
10
88.8033104934
20
253.2092715117
11
89.0919838942
21
253.3759356352
0
LINE
5
247
100
AcDbEntity
8
0
100
AcDbLine
62
7
6
CONTINUOUS
10
88.5945588149
20
251.7375040861
11
88.2337151565
21
251.5291682097
0
LINE
5
248
100
AcDbEntity
8
0
100
AcDbLine
62
7
6
CONTINUOUS
10
90.0684090651
20
251.8513880583
11
89.6353970565
21
251.6013880583
0
LINE
5
249
100
AcDbEntity
8
0
100
AcDbLine
62
7
6
CONTINUOUS
10
89.8291855849
20
251.0990687224
11
90.4065342940
21
251.4324007841
0
LINE
5
24A
100
AcDbEntity
8
0
100
AcDbLine
62
7
6
CONTINUOUS
10
70.9851342238
20
240.9459486815
11
70.5742074050
21
240.7129908415
0
LINE
5
24B
100
AcDbEntity
8
0
100
AcDbLine
62
7
6
CONTINUOUS
10
70.9855690993
20
240.4569006773
11
71.2497521438
21
240.5891924711
0
LINE
5
24C
100
AcDbEntity
8
0
100
AcDbLine
62
7
6
CONTINUOUS
10
107.5688217677
20
260.2902041289
11
107.2688218154
21
260.1625452849
0
LINE
5
24D
100
AcDbEntity
8
0
100
AcDbLine
62
7
6
CONTINUOUS
10
89.0919838942
20
253.3759356352
11
89.5781880416
21
253.5338068815
0
LINE
5
24E
100
AcDbEntity
8
0
100
AcDbLine
62
7
6
CONTINUOUS
10
93.0957566298
20
253.1078654143
11
93.5819607772
21
253.2657366606
0
LINE
5
24F
100
AcDbEntity
8
0
100
AcDbLine
62
7
6
CONTINUOUS
10
111.7688218154
20
257.6093531462
11
111.3688218094
21
257.4816943022
0
LINE
5
250
100
AcDbEntity
8
0
100
AcDbLine
62
7
6
CONTINUOUS
10
65.4215928115
20
222.9382735106
11
65.3625451125
21
223.2892456862
0
LINE
5
251
100
AcDbEntity
8
0
100
AcDbLine
62
7
6
CONTINUOUS
10
70.9298058547
20
237.1400118681
11
70.9302445449
21
236.6509638640
0
LINE
5
252
100
AcDbEntity
8
0
100
AcDbLine
62
7
6
CONTINUOUS
10
73.2803231276
20
235.8163691374
11
73.3094101943
21
236.1299315306
0
LINE
5
253
100
AcDbEntity
8
0
100
AcDbLine
62
7
6
CONTINUOUS
10
72.8687439956
20
236.3169833037
11
72.8103524245
21
235.9343825194
0
LINE
5
254
100
AcDbEntity
8
0
100
AcDbLine
62
7
6
CONTINUOUS
10
74.0702401198
20
239.1475344511
11
74.0118485488
21
238.7649355742
0
LINE
5
255
100
AcDbEntity
8
0
100
AcDbLine
62
7
6
CONTINUOUS
10
74.4525185622
20
238.5778838011
11
74.5402146377
21
239.0295210692
0
LINE
5
256
100
AcDbEntity
8
0
100
AcDbLine
62
7
6
CONTINUOUS
10
87.3217030562
20
254.4421549650
11
87.4318276442
21
254.7514124724
0
LINE
5
257
100
AcDbEntity
8
0
100
AcDbLine
62
7
6
CONTINUOUS
10
87.0937005080
20
255.1703997465
11
86.9114094771
21
254.8194704863
0
LINE
5
258
100
AcDbEntity
8
0
100
AcDbLine
62
7
6
CONTINUOUS
10
90.4672070540
20
252.3273135039
11
90.3760605849
21
252.1518526884
0
LINE
5
259
100
AcDbEntity
8
0
100
AcDbLine
62
7
6
CONTINUOUS
10
90.4065342940
20
251.4324007841
11
90.6420193709
21
251.6912012907
0
LINE
5
25A
100
AcDbEntity
8
0
100
AcDbLine
62
7
6
CONTINUOUS
10
63.6298371352
20
223.3729201170
11
63.8058854140
21
223.5426236006
0
LINE
5
25B
100
AcDbEntity
8
0
100
AcDbLine
62
7
6
CONTINUOUS
10
72.3998642959
20
235.2123766752
11
72.2531205214
21
235.1117125365
0
LINE
5
25C
100
AcDbEntity
8
0
100
AcDbLine
62
7
6
CONTINUOUS
10
72.5470467605
20
234.8239947172
11
72.8405343093
21
235.0253249022
0
LINE
5
25D
100
AcDbEntity
8
0
100
AcDbLine
62
7
6
CONTINUOUS
10
107.6688219108
20
259.6519060942
11
108.0688217677
21
259.9072237822
0
LINE
5
25E
100
AcDbEntity
8
0
100
AcDbLine
62
7
6
CONTINUOUS
10
111.8688218392
20
256.8433962675
11
112.2688218154
21
257.0987139555
0
LINE
5
25F
100
AcDbEntity
8
0
100
AcDbLine
62
7
6
CONTINUOUS
10
73.7776299514
20
237.9681082579
11
74.1885567702
21
238.2010660979
0
LINE
5
260
100
AcDbEntity
8
0
100
AcDbLine
62
7
6
CONTINUOUS
10
69.7547684707
20
237.5573092314
11
70.0189477004
21
237.6896029326
0
LINE
5
261
100
AcDbEntity
8
0
100
AcDbLine
62
7
6
CONTINUOUS
10
73.7771912612
20
238.4571562620
11
73.5130120315
21
238.3248644682
0
LINE
5
262
100
AcDbEntity
8
0
100
AcDbLine
62
7
6
CONTINUOUS
10
71.5467415847
20
236.8781386229
11
71.8109208144
21
237.0104323241
0
LINE
5
263
100
AcDbEntity
8
0
100
AcDbLine
62
7
6
CONTINUOUS
10
72.2828637160
20
234.6917010161
11
72.5470467605
21
234.8239947172
0
LINE
5
264
100
AcDbEntity
8
0
100
AcDbLine
62
7
6
CONTINUOUS
10
116.5688220061
20
257.6093531462
11
116.1688219108
21
257.4816943022
0
LINE
5
265
100
AcDbEntity
8
0
100
AcDbLine
62
7
6
CONTINUOUS
10
149.1474521866
20
173.2666589317
11
146.6391041860
21
173.2666589317
0
LINE
5
266
100
AcDbEntity
8
0
100
AcDbLine
62
7
6
CONTINUOUS
10
75.3985394448
20
173.2666589317
11
72.8901914442
21
173.2666589317
0
LINE
5
267
100
AcDbEntity
8
0
100
AcDbLine
62
7
6
CONTINUOUS
10
68.8745270766
20
236.7087946745
11
68.9335747756
21
236.3578215452
0
LINE
5
268
100
AcDbEntity
8
0
100
AcDbLine
62
7
6
CONTINUOUS
10
89.5629521407
20
253.8935328337
11
89.6920529403
21
254.3365908476
0
LINE
5
269
100
AcDbEntity
8
0
100
AcDbLine
62
7
6
CONTINUOUS
10
90.8243104018
20
252.0421267363
11
90.9344349898
21
252.3513880583
0
LINE
5
26A
100
AcDbEntity
8
0
100
AcDbLine
62
7
6
CONTINUOUS
10
90.6420193709
20
251.6912012907
11
90.8243104018
21
252.0421267363
0
LINE
5
26B
100
AcDbEntity
8
0
100
AcDbLine
62
7
6
CONTINUOUS
10
107.7688218154
20
260.5455218169
11
107.5688217677
21
260.2902041289
0
LINE
5
26C
100
AcDbEntity
8
0
100
AcDbLine
62
7
6
CONTINUOUS
10
112.0688217677
20
257.8646708342
11
111.7688218154
21
257.6093531462
0
LINE
5
26D
100
AcDbEntity
8
0
100
AcDbLine
62
7
6
CONTINUOUS
10
116.6688219108
20
256.8433962675
11
117.0688220061
21
257.0987139555
0
LINE
5
26E
100
AcDbEntity
8
0
100
AcDbLine
62
7
6
CONTINUOUS
10
64.8339654006
20
223.2691841933
11
64.9516221084
21
223.0562878462
0
LINE
5
26F
100
AcDbEntity
8
0
100
AcDbLine
62
7
6
CONTINUOUS
10
69.4328537978
20
236.3088446471
11
69.3445015944
21
236.5907793852
0
LINE
5
270
100
AcDbEntity
8
0
100
AcDbLine
62
7
6
CONTINUOUS
10
70.2225495376
20
239.8845358702
11
70.3404274978
21
239.4271155211
0
LINE
5
271
100
AcDbEntity
8
0
100
AcDbLine
62
7
6
CONTINUOUS
10
72.8392182387
20
236.4924689146
11
72.8687439956
21
236.3169833037
0
LINE
5
272
100
AcDbEntity
8
0
100
AcDbLine
62
7
6
CONTINUOUS
10
73.3094101943
20
236.1299315306
11
73.2503624953
21
236.4809027525
0
LINE
5
273
100
AcDbEntity
8
0
100
AcDbLine
62
7
6
CONTINUOUS
10
81.0188218154
20
157.5657358977
11
81.0188218154
21
165.2666589317
0
LINE
5
274
100
AcDbEntity
8
0
100
AcDbLine
62
7
6
CONTINUOUS
10
90.5051613845
20
252.5949107023
11
90.4672070540
21
252.3273135039
0
LINE
5
275
100
AcDbEntity
8
0
100
AcDbLine
62
7
6
CONTINUOUS
10
86.9114094771
20
254.8194704863
11
86.8354989089
21
254.2842837187
0
LINE
5
276
100
AcDbEntity
8
0
100
AcDbLine
62
7
6
CONTINUOUS
10
89.2438031234
20
254.4463129851
11
89.2058487929
21
254.1787196013
0
LINE
5
277
100
AcDbEntity
8
0
100
AcDbLine
62
7
6
CONTINUOUS
10
108.0688217677
20
259.9072237822
11
108.3688217200
21
260.4178629729
0
LINE
5
278
100
AcDbEntity
8
0
100
AcDbLine
62
7
6
CONTINUOUS
10
112.2688218154
20
257.0987139555
11
112.6688217915
21
257.6093531462
0
LINE
5
279
100
AcDbEntity
8
0
100
AcDbLine
62
7
6
CONTINUOUS
10
116.8688217200
20
257.8646708342
11
116.5688220061
21
257.6093531462
0
LINE
5
27A
100
AcDbEntity
8
0
100
AcDbLine
62
7
6
CONTINUOUS
10
63.7761422194
20
223.9626341673
11
63.3945237197
21
223.7987137648
0
LINE
5
27B
100
AcDbEntity
8
DEFAULT_2
100
AcDbLine
62
8
6
HIDDEN
10
126.0188218154
20
159.0657358977
11
128.0188218154
21
157.0657358977
0
LINE
5
27C
100
AcDbEntity
8
0
100
AcDbLine
62
7
6
CONTINUOUS
10
65.3625451125
20
223.2892456862
11
65.0979271926
21
223.6460009428
0
LINE
5
27D
100
AcDbEntity
8
0
100
AcDbLine
62
7
6
CONTINUOUS
10
71.3409501113
20
237.1284457060
11
71.1937676467
21
237.5168295714
0
LINE
5
27E
100
AcDbEntity
8
0
100
AcDbLine
62
7
6
CONTINUOUS
10
70.7808762587
20
239.4845877501
11
70.6925202407
21
239.7665224882
0
LINE
5
27F
100
AcDbEntity
8
0
100
AcDbLine
62
7
6
CONTINUOUS
10
73.2503624953
20
236.4809027525
11
73.1620102919
21
236.7628374907
0
LINE
5
280
100
AcDbEntity
8
0
100
AcDbLine
62
7
6
CONTINUOUS
10
73.9818879165
20
239.4294691893
11
74.0702401198
21
239.1475344511
0
LINE
5
281
100
AcDbEntity
8
0
100
AcDbLine
62
7
6
CONTINUOUS
10
74.5402146377
20
239.0295210692
11
74.4223366774
21
239.4869414183
0
LINE
5
282
100
AcDbEntity
8
0
100
AcDbLine
62
7
6
CONTINUOUS
10
87.3369408645
20
254.0824290129
11
87.3217030562
21
254.4421549650
0
LINE
5
283
100
AcDbEntity
8
0
100
AcDbLine
62
7
6
CONTINUOUS
10
117.0688220061
20
257.0987139555
11
117.4688216247
21
257.6093531462
0
LINE
5
284
100
AcDbEntity
8
0
100
AcDbLine
62
7
6
CONTINUOUS
10
68.9335747756
20
236.3578215452
11
69.1688881911
21
235.9320288512
0
LINE
5
285
100
AcDbEntity
8
0
100
AcDbLine
62
7
6
CONTINUOUS
10
70.8121491469
20
237.3529082152
11
70.9298058547
21
237.1400118681
0
LINE
5
286
100
AcDbEntity
8
0
100
AcDbLine
62
7
6
CONTINUOUS
10
70.3404274978
20
239.4271155211
11
70.5169106521
21
239.1077700468
0
LINE
5
287
100
AcDbEntity
8
0
100
AcDbLine
62
7
6
CONTINUOUS
10
72.7215615310
20
236.7053652617
11
72.8392182387
21
236.4924689146
0
LINE
5
288
100
AcDbEntity
8
0
100
AcDbLine
62
7
6
CONTINUOUS
10
89.6920529403
20
254.3365908476
11
89.6768151320
21
254.6963129851
0
LINE
5
289
100
AcDbEntity
8
0
100
AcDbLine
62
7
6
CONTINUOUS
10
90.9344349898
20
252.3513880583
11
90.9191971816
21
252.7111140105
0
LINE
5
28A
100
AcDbEntity
8
0
100
AcDbLine
62
7
6
CONTINUOUS
10
107.8688217200
20
260.9285021635
11
107.7688218154
21
260.5455218169
0
LINE
5
28B
100
AcDbEntity
8
0
100
AcDbLine
62
7
6
CONTINUOUS
10
112.2688218154
20
258.2476511809
11
112.0688217677
21
257.8646708342
0
LINE
5
28C
100
AcDbEntity
8
0
100
AcDbLine
62
7
6
CONTINUOUS
10
117.0688220061
20
258.2476511809
11
116.8688217200
21
257.8646708342
0
LINE
5
28D
100
AcDbEntity
8
0
100
AcDbLine
62
7
6
CONTINUOUS
10
64.5988694228
20
223.4504538389
11
64.8339654006
21
223.2691841933
0
LINE
5
28E
100
AcDbEntity
8
0
100
AcDbLine
62
7
6
CONTINUOUS
10
65.0979271926
20
223.6460009428
11
64.8628312148
21
223.8272705885
0
LINE
5
28F
100
AcDbEntity
8
0
100
AcDbLine
62
7
6
CONTINUOUS
10
64.9474602736
20
227.7022448393
11
68.2094918288
21
225.0954380842
0
LINE
5
290
100
AcDbEntity
8
0
100
AcDbLine
62
7
6
CONTINUOUS
10
68.7673798598
20
225.1845379683
11
65.9167099990
21
227.5352536055
0
LINE
5
291
100
AcDbEntity
8
0
100
AcDbLine
62
7
6
CONTINUOUS
10
69.6386414565
20
236.0585375639
11
69.4328537978
21
236.3088446471
0
LINE
5
292
100
AcDbEntity
8
0
100
AcDbLine
62
7
6
CONTINUOUS
10
71.1937676467
20
237.5168295714
11
70.9879799880
21
237.7671366545
0
LINE
5
293
100
AcDbEntity
8
0
100
AcDbLine
62
7
6
CONTINUOUS
10
74.4223366774
20
239.4869414183
11
74.2458497085
21
239.8062868925
0
LINE
5
294
100
AcDbEntity
8
0
100
AcDbLine
62
7
6
CONTINUOUS
10
89.1753750838
20
254.8981676909
11
89.2438031234
21
254.4463129851
0
LINE
5
295
100
AcDbEntity
8
DEFAULT_2
100
AcDbLine
62
8
6
HIDDEN
10
96.0188218154
20
187.0849737841
11
96.0188218154
21
159.0657358977
0
LINE
5
296
100
AcDbEntity
8
0
100
AcDbLine
62
7
6
CONTINUOUS
10
108.3688217200
20
260.4178629729
11
108.4688218631
21
260.8008433195
0
LINE
5
297
100
AcDbEntity
8
0
100
AcDbLine
62
7
6
CONTINUOUS
10
112.6688217915
20
257.6093531462
11
112.8688218392
21
258.1199923369
0
LINE
5
298
100
AcDbEntity
8
0
100
AcDbLine
62
7
6
CONTINUOUS
10
117.4688216247
20
257.6093531462
11
117.6688219108
21
258.1199923369
0
LINE
5
299
100
AcDbEntity
8
0
100
AcDbLine
62
7
6
CONTINUOUS
10
62.4565506972
20
221.8340264174
11
66.5988236464
21
220.0757361265
0
LINE
5
29A
100
AcDbEntity
8
0
100
AcDbLine
62
7
6
CONTINUOUS
10
64.3950463332
20
221.5000449034
11
63.0730477370
21
222.0612011763
0
LINE
5
29B
100
AcDbEntity
8
0
100
AcDbLine
62
7
6
CONTINUOUS
10
66.7746506728
20
220.4899631354
11
64.9238472976
21
221.2755823942
0
LINE
5
29C
100
AcDbEntity
8
0
100
AcDbLine
62
7
6
CONTINUOUS
10
71.8150826491
20
232.3644762846
11
68.9644127883
21
234.7151919218
0
LINE
5
29D
100
AcDbEntity
8
0
100
AcDbLine
62
7
6
CONTINUOUS
10
70.5182267226
20
237.6406260344
11
70.8121491469
21
237.3529082152
0
LINE
5
29E
100
AcDbEntity
8
0
100
AcDbLine
62
7
6
CONTINUOUS
10
72.5746003188
20
236.8492251250
11
72.7215615310
21
236.7053652617
0
LINE
5
29F
100
AcDbEntity
8
0
100
AcDbLine
62
7
6
CONTINUOUS
10
71.1924553908
20
238.9839735838
11
70.7808762587
21
239.4845877501
0
LINE
5
2A0
100
AcDbEntity
8
0
100
AcDbLine
62
7
6
CONTINUOUS
10
73.1620102919
20
236.7628374907
11
72.9562188186
21
237.0131445738
0
LINE
5
2A1
100
AcDbEntity
8
0
100
AcDbLine
62
7
6
CONTINUOUS
10
73.5703087844
20
239.9300833555
11
73.9818879165
21
239.4294691893
0
LINE
5
2A2
100
AcDbEntity
8
0
100
AcDbLine
62
7
6
CONTINUOUS
10
90.4709473647
20
252.8208361479
11
90.5051613845
21
252.5949107023
0
LINE
5
2A3
100
AcDbEntity
8
0
100
AcDbLine
62
7
6
CONTINUOUS
10
104.7688218154
20
262.7157374235
11
104.7688218154
21
256.7157374235
0
LINE
5
2A4
100
AcDbEntity
8
0
100
AcDbLine
62
7
6
CONTINUOUS
10
105.3688217200
20
256.7157374235
11
105.3688217200
21
259.3965884062
0
LINE
5
2A5
100
AcDbEntity
8
0
100
AcDbLine
62
7
6
CONTINUOUS
10
105.3688217200
20
260.1625452849
11
105.3688217200
21
262.0774393889
0
LINE
5
2A6
100
AcDbEntity
8
0
100
AcDbLine
62
7
6
CONTINUOUS
10
112.8688218392
20
258.1199923369
11
112.9688218631
21
258.7582903715
0
LINE
5
2A7
100
AcDbEntity
8
0
100
AcDbLine
62
7
6
CONTINUOUS
10
112.3688218392
20
258.7582903715
11
112.2688218154
21
258.2476511809
0
LINE
5
2A8
100
AcDbEntity
8
0
100
AcDbLine
62
7
6
CONTINUOUS
10
64.3344689406
20
223.5626850935
11
64.5988694228
21
223.4504538389
0
LINE
5
2A9
100
AcDbEntity
8
0
100
AcDbLine
62
7
6
CONTINUOUS
10
64.8628312148
20
223.8272705885
11
64.5102959670
21
223.9769125792
0
LINE
5
2AA
100
AcDbEntity
8
0
100
AcDbLine
62
7
6
CONTINUOUS
10
63.8045731582
20
225.0097676131
11
67.9468461074
21
223.2514773222
0
LINE
5
2AB
100
AcDbEntity
8
0
100
AcDbLine
62
7
6
CONTINUOUS
10
68.1226731337
20
223.6657048079
11
64.8617363967
21
225.0498905989
0
LINE
5
2AC
100
AcDbEntity
8
0
100
AcDbLine
62
7
6
CONTINUOUS
10
67.9951630629
20
234.8821822020
11
71.2571946181
21
232.2753764006
0
LINE
5
2AD
100
AcDbEntity
8
0
100
AcDbLine
62
7
6
CONTINUOUS
10
70.5169106521
20
239.1077700468
11
70.8108368911
21
238.8200522276
0
LINE
5
2AE
100
AcDbEntity
8
0
100
AcDbLine
62
7
6
CONTINUOUS
10
74.2458497085
20
239.8062868925
11
73.9519272841
21
240.0940047117
0
LINE
5
2AF
100
AcDbEntity
8
0
100
AcDbLine
62
7
6
CONTINUOUS
10
86.8354989089
20
254.2842837187
11
86.9760972060
21
253.8740969511
0
LINE
5
2B0
100
AcDbEntity
8
0
100
AcDbLine
62
7
6
CONTINUOUS
10
89.6768151320
20
254.6963129851
11
89.5362187423
21
255.1064997526
0
LINE
5
2B1
100
AcDbEntity
8
0
100
AcDbLine
62
7
6
CONTINUOUS
10
90.9191971816
20
252.7111140105
11
90.8317910232
21
253.0291682097
0
LINE
5
2B2
100
AcDbEntity
8
0
100
AcDbLine
62
7
6
CONTINUOUS
10
107.8688217200
20
261.3114786955
11
107.8688217200
21
260.9285021635
0
LINE
5
2B3
100
AcDbEntity
8
0
100
AcDbLine
62
7
6
CONTINUOUS
10
108.4688218631
20
260.8008433195
11
108.4688218631
21
261.3114786955
0
LINE
5
2B4
100
AcDbEntity
8
0
100
AcDbLine
62
7
6
CONTINUOUS
10
109.3688218392
20
262.7157374235
11
109.3688218392
21
258.7582903715
0
LINE
5
2B5
100
AcDbEntity
8
0
100
AcDbLine
62
7
6
CONTINUOUS
10
109.9688218631
20
258.7582903715
11
109.9688218631
21
262.7157374235
0
LINE
5
2B6
100
AcDbEntity
8
DEFAULT_1
100
AcDbLine
62
2
6
CENTER
10
111.0188218154
20
213.0657358977
11
111.0188218154
21
154.3771992054
0
LINE
5
2B7
100
AcDbEntity
8
DEFAULT_1
100
AcDbLine
62
2
6
CENTER
10
111.0188218154
20
213.0657358977
11
111.0188218154
21
246.0657358977
0
LINE
5
2B8
100
AcDbEntity
8
0
100
AcDbLine
62
7
6
CONTINUOUS
10
117.6688219108
20
258.1199923369
11
117.7688218154
21
258.7582903715
0
LINE
5
2B9
100
AcDbEntity
8
0
100
AcDbLine
62
7
6
CONTINUOUS
10
117.1688219108
20
258.7582903715
11
117.0688220061
21
258.2476511809
0
LINE
5
2BA
100
AcDbEntity
8
DEFAULT_1
100
AcDbLine
62
2
6
CENTER
10
111.0188218154
20
213.0657358977
11
78.0188218154
21
213.0657358977
0
LINE
5
2BB
100
AcDbEntity
8
DEFAULT_1
100
AcDbLine
62
2
6
CENTER
10
111.0188218154
20
213.0657358977
11
144.0188218154
21
213.0657358977
0
LINE
5
2BC
100
AcDbEntity
8
0
100
AcDbLine
62
7
6
CONTINUOUS
10
65.9167099990
20
227.5352536055
11
69.1776467360
21
226.1510678145
0
LINE
5
2BD
100
AcDbEntity
8
0
100
AcDbLine
62
7
6
CONTINUOUS
10
69.3534775771
20
226.5652953001
11
65.2112046279
21
228.3235855910
0
LINE
5
2BE
100
AcDbEntity
8
0
100
AcDbLine
62
7
6
CONTINUOUS
10
66.8522759475
20
232.1897059294
11
70.9945488967
21
230.4314146849
0
LINE
5
2BF
100
AcDbEntity
8
0
100
AcDbLine
62
7
6
CONTINUOUS
10
71.0459328689
20
238.6387835356
11
71.4572945632
21
238.3826933714
0
LINE
5
2C0
100
AcDbEntity
8
0
100
AcDbLine
62
7
6
CONTINUOUS
10
69.1688881911
20
235.9320288512
11
69.4921189345
21
235.7133494231
0
LINE
5
2C1
100
AcDbEntity
8
0
100
AcDbLine
62
7
6
CONTINUOUS
10
70.9879799880
20
237.7671366545
11
70.6647492446
21
237.9858160826
0
LINE
5
2C2
100
AcDbEntity
8
0
100
AcDbLine
62
7
6
CONTINUOUS
10
72.9562188186
20
237.0131445738
11
72.7211228408
21
237.1944132658
0
LINE
5
2C3
100
AcDbEntity
8
0
100
AcDbLine
62
7
6
CONTINUOUS
10
70.8108368911
20
238.8200522276
11
71.0459328689
21
238.6387835356
0
LINE
5
2C4
100
AcDbEntity
8
0
100
AcDbLine
62
7
6
CONTINUOUS
10
73.9519272841
20
240.0940047117
11
73.7168313064
21
240.2752734038
0
LINE
5
2C5
100
AcDbEntity
8
0
100
AcDbLine
62
7
6
CONTINUOUS
10
112.3688218392
20
262.7157374235
11
112.3688218392
21
258.7582903715
0
LINE
5
2C6
100
AcDbEntity
8
0
100
AcDbLine
62
7
6
CONTINUOUS
10
112.9688218631
20
258.7582903715
11
112.9688218631
21
262.7157374235
0
LINE
5
2C7
100
AcDbEntity
8
0
100
AcDbLine
62
7
6
CONTINUOUS
10
113.7688218154
20
262.7157374235
11
113.7688218154
21
256.7157374235
0
LINE
5
2C8
100
AcDbEntity
8
0
100
AcDbLine
62
7
6
CONTINUOUS
10
114.3688217200
20
257.4816943022
11
114.3688217200
21
261.9497767302
0
LINE
5
2C9
100
AcDbEntity
8
0
100
AcDbLine
62
7
6
CONTINUOUS
10
67.7124062575
20
222.6991749617
11
65.4215928115
21
222.9382735106
0
LINE
5
2CA
100
AcDbEntity
8
0
100
AcDbLine
62
7
6
CONTINUOUS
10
65.4220315017
20
222.4492255064
11
67.5072709121
21
222.2159100386
0
LINE
5
2CB
100
AcDbEntity
8
0
100
AcDbLine
62
7
6
CONTINUOUS
10
64.0407639541
20
223.6058789107
11
64.3344689406
21
223.5626850935
0
LINE
5
2CC
100
AcDbEntity
8
0
100
AcDbLine
62
7
6
CONTINUOUS
10
64.5102959670
20
223.9769125792
11
64.2165909804
21
224.0201054426
0
LINE
5
2CD
100
AcDbEntity
8
0
100
AcDbLine
62
7
6
CONTINUOUS
10
71.1703759231
20
230.8456431242
11
67.9094391860
21
232.2298289152
0
LINE
5
2CE
100
AcDbEntity
8
0
100
AcDbLine
62
7
6
CONTINUOUS
10
68.9644127883
20
234.7151919218
11
72.2253495253
21
233.3310061308
0
LINE
5
2CF
100
AcDbEntity
8
0
100
AcDbLine
62
7
6
CONTINUOUS
10
72.4011803664
20
233.7452326628
11
68.2589074172
21
235.5035239073
0
LINE
5
2D0
100
AcDbEntity
8
0
100
AcDbLine
62
7
6
CONTINUOUS
10
70.8130265273
20
236.3748122069
11
71.1655579604
21
236.2251711699
0
LINE
5
2D1
100
AcDbEntity
8
0
100
AcDbLine
62
7
6
CONTINUOUS
10
71.6919518508
20
238.6904726836
11
71.1924553908
21
238.9839735838
0
LINE
5
2D2
100
AcDbEntity
8
0
100
AcDbLine
62
7
6
CONTINUOUS
10
73.0708123244
20
240.2235842558
11
73.5703087844
21
239.9300833555
0
LINE
5
2D3
100
AcDbEntity
8
0
100
AcDbLine
62
7
6
CONTINUOUS
10
73.7168313064
20
240.2752734038
11
73.3054696120
21
240.5313635679
0
LINE
5
2D4
100
AcDbEntity
8
0
100
AcDbLine
62
7
6
CONTINUOUS
10
88.5905438460
20
253.5777903410
11
88.8033104934
21
253.2092715117
0
LINE
5
2D5
100
AcDbEntity
8
0
100
AcDbLine
62
7
6
CONTINUOUS
10
89.0689908065
20
255.0824290129
11
89.1753750838
21
254.8981676909
0
LINE
5
2D6
100
AcDbEntity
8
0
100
AcDbLine
62
7
6
CONTINUOUS
10
90.2581826247
20
253.1893587919
11
90.4709473647
21
252.8208361479
0
LINE
5
2D7
100
AcDbEntity
8
0
100
AcDbLine
62
7
6
CONTINUOUS
10
89.5362187423
20
255.1064997526
11
89.4298363723
21
255.2907610747
0
LINE
5
2D8
100
AcDbEntity
8
0
100
AcDbLine
62
7
6
CONTINUOUS
10
90.8317910232
20
253.0291682097
11
90.6190262832
21
253.3976908537
0
LINE
5
2D9
100
AcDbEntity
8
0
100
AcDbLine
62
7
6
CONTINUOUS
10
90.2921200789
20
255.2972422453
11
90.5048867263
21
254.9287196013
0
LINE
5
2DA
100
AcDbEntity
8
0
100
AcDbLine
62
7
6
CONTINUOUS
10
91.0822373427
20
255.2620516630
11
92.1460667647
21
253.4194460722
0
LINE
5
2DB
100
AcDbEntity
8
0
100
AcDbLine
62
7
6
CONTINUOUS
10
90.4439393081
20
256.3676157805
11
90.8694706954
21
255.6305743071
0
LINE
5
2DC
100
AcDbEntity
8
0
100
AcDbLine
62
7
6
CONTINUOUS
10
91.2303143538
20
255.8389063689
11
90.8047829665
21
256.5759516569
0
LINE
5
2DD
100
AcDbEntity
8
0
100
AcDbLine
62
7
6
CONTINUOUS
10
92.4005280532
20
253.8120394560
11
91.4430810012
21
255.4703875395
0
LINE
5
2DE
100
AcDbEntity
8
0
100
AcDbLine
62
7
6
CONTINUOUS
10
93.5819607772
20
253.2657366606
11
93.3691960372
21
253.6342554899
0
LINE
5
2DF
100
AcDbEntity
8
0
100
AcDbLine
62
7
6
CONTINUOUS
10
92.2369366683
20
255.9287196013
11
92.0241719283
21
256.2972422453
0
LINE
5
2E0
100
AcDbEntity
8
0
100
AcDbLine
62
7
6
CONTINUOUS
10
109.3688218392
20
258.7582903715
11
109.4688218631
21
258.1199923369
0
LINE
5
2E1
100
AcDbEntity
8
0
100
AcDbLine
62
7
6
CONTINUOUS
10
117.1688219108
20
260.6731844755
11
117.1688219108
21
258.7582903715
0
LINE
5
2E2
100
AcDbEntity
8
0
100
AcDbLine
62
7
6
CONTINUOUS
10
117.7688218154
20
258.7582903715
11
117.7688218154
21
260.6731844755
0
LINE
5
2E3
100
AcDbEntity
8
0
100
AcDbLine
62
7
6
CONTINUOUS
10
64.8617363967
20
225.0498905989
11
68.5329400100
21
224.6322346541
0
LINE
5
2E4
100
AcDbEntity
8
0
100
AcDbLine
62
7
6
CONTINUOUS
10
68.2094918288
20
225.0954380842
11
64.0683175124
21
225.6311083647
0
LINE
5
2E5
100
AcDbEntity
8
0
100
AcDbLine
62
7
6
CONTINUOUS
10
70.3419571914
20
237.7154475065
11
70.5182267226
21
237.6406260344
0
LINE
5
2E6
100
AcDbEntity
8
0
100
AcDbLine
62
7
6
CONTINUOUS
10
72.2220650710
20
236.9988661619
11
72.5746003188
21
236.8492251250
0
LINE
5
2E7
100
AcDbEntity
8
0
100
AcDbLine
62
7
6
CONTINUOUS
10
70.6647492446
20
237.9858160826
11
70.4884835280
21
238.0606356474
0
LINE
5
2E8
100
AcDbEntity
8
0
100
AcDbLine
62
7
6
CONTINUOUS
10
72.7211228408
20
237.1944132658
11
72.3685914077
21
237.3440562102
0
LINE
5
2E9
100
AcDbEntity
8
0
100
AcDbLine
62
7
6
CONTINUOUS
10
71.4572945632
20
238.3826933714
11
72.2504960097
21
238.0460005614
0
LINE
5
2EA
100
AcDbEntity
8
0
100
AcDbLine
62
7
6
CONTINUOUS
10
72.3088875808
20
238.4285994383
11
71.6919518508
21
238.6904726836
0
LINE
5
2EB
100
AcDbEntity
8
0
100
AcDbLine
62
7
6
CONTINUOUS
10
72.4538765944
20
240.4854575011
11
73.0708123244
21
240.2235842558
0
LINE
5
2EC
100
AcDbEntity
8
0
100
AcDbLine
62
7
6
CONTINUOUS
10
73.3054696120
20
240.5313635679
11
72.5122681655
21
240.8680563780
0
LINE
5
2ED
100
AcDbEntity
8
0
100
AcDbLine
62
7
6
CONTINUOUS
10
88.2337151565
20
251.5291682097
11
88.4654580153
21
251.2944460722
0
LINE
5
2EE
100
AcDbEntity
8
0
100
AcDbLine
62
7
6
CONTINUOUS
10
90.6190262832
20
253.3976908537
11
90.3340912856
21
253.7245455595
0
LINE
5
2EF
100
AcDbEntity
8
0
100
AcDbLine
62
7
6
CONTINUOUS
10
108.5688217677
20
256.7157374235
11
107.6688219108
21
259.6519060942
0
LINE
5
2F0
100
AcDbEntity
8
0
100
AcDbLine
62
7
6
CONTINUOUS
10
107.0688217677
20
259.3965884062
11
107.8688217200
21
256.7157374235
0
LINE
5
2F1
100
AcDbEntity
8
0
100
AcDbLine
62
7
6
CONTINUOUS
10
107.7688218154
20
261.6944590422
11
107.8688217200
21
261.3114786955
0
LINE
5
2F2
100
AcDbEntity
8
0
100
AcDbLine
62
7
6
CONTINUOUS
10
108.4688218631
20
261.3114786955
11
108.3688217200
21
261.6944590422
0
LINE
5
2F3
100
AcDbEntity
8
0
100
AcDbLine
62
7
6
CONTINUOUS
10
110.0688218273
20
258.2476511809
11
109.9688218631
21
258.7582903715
0
LINE
5
2F4
100
AcDbEntity
8
DEFAULT_2
100
AcDbLine
62
8
6
HIDDEN
10
126.0188218154
20
187.0849737841
11
126.0188218154
21
159.0657358977
0
LINE
5
2F5
100
AcDbEntity
8
0
100
AcDbLine
62
7
6
CONTINUOUS
10
67.9094391860
20
232.2298289152
11
71.5806427993
21
231.8121729704
0
LINE
5
2F6
100
AcDbEntity
8
0
100
AcDbLine
62
7
6
CONTINUOUS
10
71.2571946181
20
232.2753764006
11
67.1160203017
21
232.8110457274
0
LINE
5
2F7
100
AcDbEntity
8
0
100
AcDbLine
62
7
6
CONTINUOUS
10
71.6661492385
20
234.7090502592
11
71.9598542251
21
234.6658564421
0
LINE
5
2F8
100
AcDbEntity
8
0
100
AcDbLine
62
7
6
CONTINUOUS
10
72.3685914077
20
237.3440562102
11
71.9867516555
21
237.4246588560
0
LINE
5
2F9
100
AcDbEntity
8
0
100
AcDbLine
62
7
6
CONTINUOUS
10
70.4884835280
20
238.0606356474
11
70.1066437758
21
238.1412402006
0
LINE
5
2FA
100
AcDbEntity
8
0
100
AcDbLine
62
7
6
CONTINUOUS
10
72.2504960097
20
238.0460005614
11
72.7204667128
21
237.9279852721
0
LINE
5
2FB
100
AcDbEntity
8
0
100
AcDbLine
62
7
6
CONTINUOUS
10
72.8669930495
20
238.2731753203
11
72.3088875808
21
238.4285994383
0
LINE
5
2FC
100
AcDbEntity
8
0
100
AcDbLine
62
7
6
CONTINUOUS
10
71.8957711257
20
240.6408816191
11
72.4538765944
21
240.4854575011
0
LINE
5
2FD
100
AcDbEntity
8
0
100
AcDbLine
62
7
6
CONTINUOUS
10
88.7731114425
20
251.5949107023
11
88.5945588149
21
251.7375040861
0
LINE
5
2FE
100
AcDbEntity
8
0
100
AcDbLine
62
7
6
CONTINUOUS
10
92.6322709121
20
253.5773135039
11
92.4005280532
21
253.8120394560
0
LINE
5
2FF
100
AcDbEntity
8
0
100
AcDbLine
62
7
6
CONTINUOUS
10
89.4298363723
20
255.2907610747
11
89.1449013747
21
255.6176157805
0
LINE
5
300
100
AcDbEntity
8
0
100
AcDbLine
62
7
6
CONTINUOUS
10
109.4688218631
20
258.1199923369
11
109.6688217915
21
257.6093531462
0
LINE
5
301
100
AcDbEntity
8
0
100
AcDbLine
62
7
6
CONTINUOUS
10
117.0688220061
20
261.1838198515
11
117.1688219108
21
260.6731844755
0
LINE
5
302
100
AcDbEntity
8
0
100
AcDbLine
62
7
6
CONTINUOUS
10
117.7688218154
20
260.6731844755
11
117.6688219108
21
261.3114786955
0
LINE
5
303
100
AcDbEntity
8
0
100
AcDbLine
62
7
6
CONTINUOUS
10
64.2165909804
20
224.0201054426
11
63.7761422194
21
223.9626341673
0
LINE
5
304
100
AcDbEntity
8
0
100
AcDbLine
62
7
6
CONTINUOUS
10
72.0182457961
20
235.0484572264
11
71.8126755752
21
235.0542403075
0
LINE
5
305
100
AcDbEntity
8
0
100
AcDbLine
62
7
6
CONTINUOUS
10
72.7204667128
20
237.9279852721
11
73.0141716994
21
237.8847914549
0
LINE
5
306
100
AcDbEntity
8
0
100
AcDbLine
62
7
6
CONTINUOUS
10
72.5122681655
20
240.8680563780
11
72.0422974624
21
240.9860716673
0
LINE
5
307
100
AcDbEntity
8
0
100
AcDbLine
62
7
6
CONTINUOUS
10
88.4654580153
20
251.2944460722
11
88.7693711318
21
251.1013880583
0
LINE
5
308
100
AcDbEntity
8
0
100
AcDbLine
62
7
6
CONTINUOUS
10
89.9010773696
20
253.4745455595
11
90.2581826247
21
253.1893587919
0
LINE
5
309
100
AcDbEntity
8
0
100
AcDbLine
62
7
6
CONTINUOUS
10
92.1460667647
20
253.4194460722
11
92.5031701125
21
253.1342554899
0
LINE
5
30A
100
AcDbEntity
8
0
100
AcDbLine
62
7
6
CONTINUOUS
10
110.2688218154
20
257.8646708342
11
110.0688218273
21
258.2476511809
0
LINE
5
30B
100
AcDbEntity
8
0
100
AcDbLine
62
7
6
CONTINUOUS
10
63.8058854140
20
223.5426236006
11
64.0407639541
21
223.6058789107
0
LINE
5
30C
100
AcDbEntity
8
0
100
AcDbLine
62
7
6
CONTINUOUS
10
71.9598542251
20
234.6658564421
11
72.2828637160
21
234.6917010161
0
LINE
5
30D
100
AcDbEntity
8
0
100
AcDbLine
62
7
6
CONTINUOUS
10
71.8109208144
20
237.0104323241
11
72.2220650710
21
236.9988661619
0
LINE
5
30E
100
AcDbEntity
8
0
100
AcDbLine
62
7
6
CONTINUOUS
10
73.0141716994
20
237.8847914549
11
73.4253159560
21
237.8732272002
0
LINE
5
30F
100
AcDbEntity
8
0
100
AcDbLine
62
7
6
CONTINUOUS
10
71.7485924758
20
241.0292654845
11
71.3374482192
21
241.0408297392
0
LINE
5
310
100
AcDbEntity
8
0
100
AcDbLine
62
7
6
CONTINUOUS
10
72.0422974624
20
240.9860716673
11
71.7485924758
21
241.0292654845
0
LINE
5
311
100
AcDbEntity
8
0
100
AcDbLine
62
7
6
CONTINUOUS
10
90.3340912856
20
253.7245455595
11
90.0301781691
21
253.9176035734
0
LINE
5
312
100
AcDbEntity
8
0
100
AcDbLine
62
7
6
CONTINUOUS
10
88.7650795974
20
255.2754870268
11
89.0689908065
21
255.0824290129
0
LINE
5
313
100
AcDbEntity
8
0
100
AcDbLine
62
7
6
CONTINUOUS
10
109.6688217915
20
257.6093531462
11
110.0688218273
21
257.0987139555
0
LINE
5
314
100
AcDbEntity
8
0
100
AcDbLine
62
7
6
CONTINUOUS
10
108.3688217200
20
261.6944590422
11
108.0688217677
21
262.2050982329
0
LINE
5
315
100
AcDbEntity
8
0
100
AcDbLine
62
7
6
CONTINUOUS
10
117.6688219108
20
261.3114786955
11
117.4688216247
21
261.8221178862
0
LINE
5
316
100
AcDbEntity
8
0
100
AcDbLine
62
7
6
CONTINUOUS
10
141.0188218154
20
157.5657358977
11
141.0188218154
21
165.2666589317
0
LINE
5
317
100
AcDbEntity
8
DEFAULT_2
100
AcDbLine
62
8
6
HIDDEN
10
96.0188218154
20
159.0657358977
11
94.0188218154
21
157.0657358977
0
LINE
5
318
100
AcDbEntity
8
0
100
AcDbLine
62
7
6
CONTINUOUS
10
72.2531205214
20
235.1117125365
11
72.0182457961
21
235.0484572264
0
LINE
5
319
100
AcDbEntity
8
0
100
AcDbLine
62
7
6
CONTINUOUS
10
71.9867516555
20
237.4246588560
11
71.6637421645
21
237.3988142821
0
LINE
5
31A
100
AcDbEntity
8
0
100
AcDbLine
62
7
6
CONTINUOUS
10
70.0189477004
20
237.6896029326
11
70.3419571914
21
237.7154475065
0
LINE
5
31B
100
AcDbEntity
8
0
100
AcDbLine
62
7
6
CONTINUOUS
10
73.5130120315
20
238.3248644682
11
72.8669930495
21
238.2731753203
0
LINE
5
31C
100
AcDbEntity
8
0
100
AcDbLine
62
7
6
CONTINUOUS
10
71.2497521438
20
240.5891924711
11
71.8957711257
21
240.6408816191
0
LINE
5
31D
100
AcDbEntity
8
0
100
AcDbLine
62
7
6
CONTINUOUS
10
89.0238324202
20
251.4939814421
11
88.7731114425
21
251.5949107023
0
LINE
5
31E
100
AcDbEntity
8
0
100
AcDbLine
62
7
6
CONTINUOUS
10
89.1449013747
20
255.6176157805
11
88.6434594191
21
255.8194704863
0
LINE
5
31F
100
AcDbEntity
8
0
100
AcDbLine
62
7
6
CONTINUOUS
10
107.5688217677
20
261.9497767302
11
107.7688218154
21
261.6944590422
0
LINE
5
320
100
AcDbEntity
8
0
100
AcDbLine
62
7
6
CONTINUOUS
10
116.8688217200
20
261.5668001982
11
117.0688220061
21
261.1838198515
0
LINE
5
321
100
AcDbEntity
8
0
100
AcDbLine
62
7
6
CONTINUOUS
10
73.4253159560
20
237.8732272002
11
73.7776299514
21
237.9681082579
0
LINE
5
322
100
AcDbEntity
8
0
100
AcDbLine
62
7
6
CONTINUOUS
10
70.1066437758
20
238.1412402006
11
69.6368905105
21
238.0147314879
0
LINE
5
323
100
AcDbEntity
8
0
100
AcDbLine
62
7
6
CONTINUOUS
10
71.3374482192
20
241.0408297392
11
70.9851342238
21
240.9459486815
0
LINE
5
324
100
AcDbEntity
8
0
100
AcDbLine
62
7
6
CONTINUOUS
10
89.0922604598
20
251.0421267363
11
89.4873181380
21
251.0245333525
0
LINE
5
325
100
AcDbEntity
8
0
100
AcDbLine
62
7
6
CONTINUOUS
10
89.2213612594
20
251.4851847502
11
89.0238324202
21
251.4939814421
0
LINE
5
326
100
AcDbEntity
8
0
100
AcDbLine
62
7
6
CONTINUOUS
10
88.7693711318
20
251.1013880583
11
89.0922604598
21
251.0421267363
0
LINE
5
327
100
AcDbEntity
8
0
100
AcDbLine
62
7
6
CONTINUOUS
10
89.5781880416
20
253.5338068815
11
89.9010773696
21
253.4745455595
0
LINE
5
328
100
AcDbEntity
8
0
100
AcDbLine
62
7
6
CONTINUOUS
10
92.5031701125
20
253.1342554899
11
92.8260594405
21
253.0749979826
0
LINE
5
329
100
AcDbEntity
8
0
100
AcDbLine
62
7
6
CONTINUOUS
10
92.9551602401
20
253.5180559965
11
92.6322709121
21
253.5773135039
0
LINE
5
32A
100
AcDbEntity
8
0
100
AcDbLine
62
7
6
CONTINUOUS
10
88.4421902694
20
255.3347483488
11
88.7650795974
21
255.2754870268
0
LINE
5
32B
100
AcDbEntity
8
0
100
AcDbLine
62
7
6
CONTINUOUS
10
110.0688218273
20
257.0987139555
11
110.4688218035
21
256.8433962675
0
LINE
5
32C
100
AcDbEntity
8
0
100
AcDbLine
62
7
6
CONTINUOUS
10
110.5688218273
20
257.6093531462
11
110.2688218154
21
257.8646708342
0
LINE
5
32D
100
AcDbEntity
8
0
100
AcDbLine
62
7
6
CONTINUOUS
10
108.0688217677
20
262.2050982329
11
107.6688219108
21
262.5880747648
0
LINE
5
32E
100
AcDbEntity
8
0
100
AcDbLine
62
7
6
CONTINUOUS
10
117.4688216247
20
261.8221178862
11
117.0688220061
21
262.3327570769
0
LINE
5
32F
100
AcDbEntity
8
0
100
AcDbLine
62
7
6
CONTINUOUS
10
116.1688219108
20
256.7157374235
11
116.6688219108
21
256.8433962675
0
LINE
5
330
100
AcDbEntity
8
0
100
AcDbLine
62
7
6
CONTINUOUS
10
111.3688218094
20
256.7157374235
11
111.8688218392
21
256.8433962675
0
LINE
5
331
100
AcDbEntity
8
0
100
AcDbLine
62
7
6
CONTINUOUS
10
89.4873181380
20
251.0245333525
11
89.8291855849
21
251.0990687224
0
LINE
5
332
100
AcDbEntity
8
0
100
AcDbLine
62
7
6
CONTINUOUS
10
92.8260594405
20
253.0749979826
11
93.0957566298
21
253.1078654143
0
LINE
5
333
100
AcDbEntity
8
0
100
AcDbLine
62
7
6
CONTINUOUS
10
90.0301781691
20
253.9176035734
11
89.5629521407
21
253.8935328337
0
LINE
5
334
100
AcDbEntity
8
0
100
AcDbLine
62
7
6
CONTINUOUS
10
88.6434594191
20
255.8194704863
11
88.2484017409
21
255.8370676848
0
LINE
5
335
100
AcDbEntity
8
0
100
AcDbLine
62
7
6
CONTINUOUS
10
110.4688218035
20
256.8433962675
11
110.9688218146
21
256.7157374235
0
LINE
5
336
100
AcDbEntity
8
0
100
AcDbLine
62
7
6
CONTINUOUS
10
110.9688218146
20
257.4816943022
11
110.5688218273
21
257.6093531462
0
LINE
5
337
100
AcDbEntity
8
0
100
AcDbLine
62
7
6
CONTINUOUS
10
116.5688220061
20
261.8221178862
11
116.8688217200
21
261.5668001982
0
LINE
5
338
100
AcDbEntity
8
0
100
AcDbLine
62
7
6
CONTINUOUS
10
89.6353970565
20
251.6013880583
11
89.2213612594
21
251.4851847502
0
LINE
5
339
100
AcDbEntity
8
0
100
AcDbLine
62
7
6
CONTINUOUS
10
93.3691960372
20
253.6342554899
11
92.9551602401
21
253.5180559965
0
LINE
5
33A
100
AcDbEntity
8
0
100
AcDbLine
62
7
6
CONTINUOUS
10
88.0281544722
20
255.2185450407
11
88.4421902694
21
255.3347483488
0
LINE
5
33B
100
AcDbEntity
8
0
100
AcDbLine
62
7
6
CONTINUOUS
10
104.7688218154
20
256.7157374235
11
105.3688217200
21
256.7157374235
0
LINE
5
33C
100
AcDbEntity
8
0
100
AcDbLine
62
7
6
CONTINUOUS
10
107.8688217200
20
256.7157374235
11
108.5688217677
21
256.7157374235
0
LINE
5
33D
100
AcDbEntity
8
0
100
AcDbLine
62
7
6
CONTINUOUS
10
110.9688218146
20
256.7157374235
11
111.3688218094
21
256.7157374235
0
LINE
5
33E
100
AcDbEntity
8
0
100
AcDbLine
62
7
6
CONTINUOUS
10
113.7688218154
20
256.7157374235
11
116.1688219108
21
256.7157374235
0
LINE
5
33F
100
AcDbEntity
8
0
100
AcDbLine
62
7
6
CONTINUOUS
10
116.1688219108
20
257.4816943022
11
114.3688217200
21
257.4816943022
0
LINE
5
340
100
AcDbEntity
8
0
100
AcDbLine
62
7
6
CONTINUOUS
10
111.3688218094
20
257.4816943022
11
110.9688218146
21
257.4816943022
0
LINE
5
341
100
AcDbEntity
8
0
100
AcDbLine
62
7
6
CONTINUOUS
10
105.3688217200
20
259.3965884062
11
107.0688217677
21
259.3965884062
0
LINE
5
342
100
AcDbEntity
8
0
100
AcDbLine
62
7
6
CONTINUOUS
10
107.2688218154
20
260.1625452849
11
105.3688217200
21
260.1625452849
0
LINE
5
343
100
AcDbEntity
8
0
100
AcDbLine
62
7
6
CONTINUOUS
10
107.6688219108
20
262.5880747648
11
107.1688219108
21
262.7157374235
0
LINE
5
344
100
AcDbEntity
8
0
100
AcDbLine
62
7
6
CONTINUOUS
10
107.2688218154
20
262.0774393889
11
107.5688217677
21
261.9497767302
0
LINE
5
345
100
AcDbEntity
8
0
100
AcDbLine
62
7
6
CONTINUOUS
10
117.0688220061
20
262.3327570769
11
116.6688219108
21
262.5880747648
0
LINE
5
346
100
AcDbEntity
8
0
100
AcDbLine
62
7
6
CONTINUOUS
10
166.5106528917
20
211.1523187358
11
151.4571510178
21
174.8099503508
0
LINE
5
347
100
AcDbEntity
8
0
100
AcDbLine
62
7
6
CONTINUOUS
10
114.3688217200
20
261.9497767302
11
116.1688219108
21
261.9497767302
0
LINE
5
348
100
AcDbEntity
8
0
100
AcDbLine
62
7
6
CONTINUOUS
10
105.3688217200
20
262.0774393889
11
107.2688218154
21
262.0774393889
0
LINE
5
349
100
AcDbEntity
8
0
100
AcDbLine
62
7
6
CONTINUOUS
10
116.1688219108
20
262.7157374235
11
113.7688218154
21
262.7157374235
0
LINE
5
34A
100
AcDbEntity
8
0
100
AcDbLine
62
7
6
CONTINUOUS
10
112.9688218631
20
262.7157374235
11
112.3688218392
21
262.7157374235
0
LINE
5
34B
100
AcDbEntity
8
0
100
AcDbLine
62
7
6
CONTINUOUS
10
109.9688218631
20
262.7157374235
11
109.3688218392
21
262.7157374235
0
LINE
5
34C
100
AcDbEntity
8
0
100
AcDbLine
62
7
6
CONTINUOUS
10
107.1688219108
20
262.7157374235
11
104.7688218154
21
262.7157374235
0
LINE
5
34D
100
AcDbEntity
8
0
100
AcDbLine
62
7
6
CONTINUOUS
10
116.6688219108
20
262.5880747648
11
116.1688219108
21
262.7157374235
0
LINE
5
34E
100
AcDbEntity
8
0
100
AcDbLine
62
7
6
CONTINUOUS
10
116.1688219108
20
261.9497767302
11
116.5688220061
21
261.8221178862
0
LINE
5
34F
100
AcDbEntity
8
0
100
AcDbLine
62
7
6
CONTINUOUS
10
112.9322389772
20
268.5575669740
11
148.9044816195
21
253.6573762025
0
LINE
5
350
100
AcDbEntity
8
0
100
AcDbLine
62
7
6
CONTINUOUS
10
151.6104621203
20
250.9513957018
11
166.5106528917
21
214.9791530595
0
LINE
5
351
100
AcDbEntity
8
0
100
AcDbLine
62
7
6
CONTINUOUS
10
140.5188218154
20
157.0657358977
11
141.0188218154
21
157.5657358977
0
LINE
5
352
100
AcDbEntity
8
0
100
AcDbLine
62
7
6
CONTINUOUS
10
265.8771289406
20
157.0657358977
11
265.3771289406
21
157.5657358977
0
LINE
5
353
100
AcDbEntity
8
0
100
AcDbLine
62
7
6
CONTINUOUS
10
265.8776445596
20
157.0657358977
11
324.8766133216
21
157.0657358977
0
LINE
5
354
100
AcDbEntity
8
0
100
AcDbLine
62
7
6
CONTINUOUS
10
265.3771289406
20
157.5657358977
11
325.3771289406
21
157.5657358977
0
LINE
5
355
100
AcDbEntity
8
DEFAULT_2
100
AcDbLine
62
8
6
HIDDEN
10
310.3771289406
20
159.0657358977
11
280.3771289406
21
159.0657358977
0
LINE
5
356
100
AcDbEntity
8
0
100
AcDbLine
62
7
6
CONTINUOUS
10
308.6132720283
20
173.2666589317
11
282.1409858528
21
173.2666589317
0
LINE
5
357
100
AcDbEntity
8
0
100
AcDbLine
62
7
6
CONTINUOUS
10
265.3771289406
20
157.5657358977
11
265.3771289406
21
171.1396058541
0
LINE
5
358
100
AcDbEntity
8
0
100
AcDbLine
62
7
6
CONTINUOUS
10
270.4385221503
20
177.0657358977
11
277.5967426965
21
178.1994866526
0
LINE
5
359
100
AcDbEntity
8
0
100
AcDbLine
62
7
6
CONTINUOUS
10
320.3157357308
20
177.0657358977
11
313.1225462087
21
178.2050251943
0
LINE
5
35A
100
AcDbEntity
8
DEFAULT_2
100
AcDbLine
62
8
6
HIDDEN
10
310.3771289406
20
159.0657358977
11
312.3771289406
21
157.0657358977
0
LINE
5
35B
100
AcDbEntity
8
DEFAULT_2
100
AcDbLine
62
8
6
HIDDEN
10
280.3771289406
20
181.4105777349
11
280.3771289406
21
159.0657358977
0
LINE
5
35C
100
AcDbEntity
8
0
100
AcDbLine
62
7
6
CONTINUOUS
10
283.3771289406
20
266.4381692927
11
283.3771289406
21
214.0682590158
0
LINE
5
35D
100
AcDbEntity
8
0
100
AcDbLine
62
7
6
CONTINUOUS
10
283.2768755801
20
212.0682380951
11
279.2851189774
21
172.3511810297
0
LINE
5
35E
100
AcDbEntity
8
DEFAULT_1
100
AcDbLine
62
2
6
CENTER
10
295.3771289406
20
272.6064841090
11
295.3771289406
21
154.0657358977
0
LINE
5
35F
100
AcDbEntity
8
0
100
AcDbLine
62
7
6
CONTINUOUS
10
307.3771289406
20
220.0757361265
11
307.6771289406
21
220.0757361265
0
LINE
5
360
100
AcDbEntity
8
0
100
AcDbLine
62
7
6
CONTINUOUS
10
311.4691388971
20
172.3511810966
11
307.4773823011
21
212.0682380951
0
LINE
5
361
100
AcDbEntity
8
0
100
AcDbLine
62
7
6
CONTINUOUS
10
307.3771289406
20
214.0682590158
11
307.3771289406
21
266.4381692928
0
LINE
5
362
100
AcDbEntity
8
0
100
AcDbLine
62
7
6
CONTINUOUS
10
307.6771289406
20
262.7157374235
11
307.6771289406
21
256.7157374235
0
LINE
5
363
100
AcDbEntity
8
0
100
AcDbLine
62
7
6
CONTINUOUS
10
307.6771289406
20
256.5759516569
11
307.6771289406
21
253.2092715117
0
LINE
5
364
100
AcDbEntity
8
0
100
AcDbLine
62
7
6
CONTINUOUS
10
307.6771289406
20
253.1893587919
11
307.6771289406
21
251.0245333525
0
LINE
5
365
100
AcDbEntity
8
0
100
AcDbLine
62
7
6
CONTINUOUS
10
307.6771289406
20
241.0408297392
11
307.6771289406
21
235.5201559874
0
LINE
5
366
100
AcDbEntity
8
0
100
AcDbLine
62
7
6
CONTINUOUS
10
307.6771289406
20
235.5035239073
11
307.6771289406
21
230.4314146849
0
LINE
5
367
100
AcDbEntity
8
0
100
AcDbLine
62
7
6
CONTINUOUS
10
307.6771289406
20
228.3235855910
11
307.6771289406
21
220.0757361265
0
LINE
5
368
100
AcDbEntity
8
DEFAULT_2
100
AcDbLine
62
8
6
HIDDEN
10
310.3771289406
20
181.4106409386
11
310.3771289406
21
159.0657358977
0
LINE
5
369
100
AcDbEntity
8
0
100
AcDbLine
62
7
6
CONTINUOUS
10
307.3771289406
20
228.3235855910
11
307.6771289406
21
228.3235855910
0
LINE
5
36A
100
AcDbEntity
8
0
100
AcDbLine
62
7
6
CONTINUOUS
10
307.3771289406
20
230.4314146849
11
307.6771289406
21
230.4314146849
0
LINE
5
36B
100
AcDbEntity
8
0
100
AcDbLine
62
7
6
CONTINUOUS
10
307.3771289406
20
235.5035239073
11
307.6771289406
21
235.5035239073
0
LINE
5
36C
100
AcDbEntity
8
0
100
AcDbLine
62
7
6
CONTINUOUS
10
307.3771289406
20
235.5201559874
11
307.6771289406
21
235.5201559874
0
LINE
5
36D
100
AcDbEntity
8
0
100
AcDbLine
62
7
6
CONTINUOUS
10
325.3771289406
20
157.5657358977
11
325.3771289406
21
171.1396058541
0
LINE
5
36E
100
AcDbEntity
8
DEFAULT_2
100
AcDbLine
62
8
6
HIDDEN
10
280.3771289406
20
159.0657358977
11
278.3771289406
21
157.0657358977
0
LINE
5
36F
100
AcDbEntity
8
0
100
AcDbLine
62
7
6
CONTINUOUS
10
307.3771289406
20
241.0408297392
11
307.6771289406
21
241.0408297392
0
LINE
5
370
100
AcDbEntity
8
0
100
AcDbLine
62
7
6
CONTINUOUS
10
307.3771289406
20
251.0245333525
11
307.6771289406
21
251.0245333525
0
LINE
5
371
100
AcDbEntity
8
0
100
AcDbLine
62
7
6
CONTINUOUS
10
307.3771289406
20
251.0421267363
11
307.6771289406
21
251.0421267363
0
LINE
5
372
100
AcDbEntity
8
0
100
AcDbLine
62
7
6
CONTINUOUS
10
307.3771289406
20
253.1893587919
11
307.6771289406
21
253.1893587919
0
LINE
5
373
100
AcDbEntity
8
0
100
AcDbLine
62
7
6
CONTINUOUS
10
307.3771289406
20
253.2092715117
11
307.6771289406
21
253.2092715117
0
LINE
5
374
100
AcDbEntity
8
0
100
AcDbLine
62
7
6
CONTINUOUS
10
307.3771289406
20
256.5759516569
11
307.6771289406
21
256.5759516569
0
LINE
5
375
100
AcDbEntity
8
0
100
AcDbLine
62
7
6
CONTINUOUS
10
307.3771289406
20
256.7157374235
11
307.6771289406
21
256.7157374235
0
LINE
5
376
100
AcDbEntity
8
0
100
AcDbLine
62
7
6
CONTINUOUS
10
307.3771289406
20
262.7157374235
11
307.6771289406
21
262.7157374235
0
LINE
5
377
100
AcDbEntity
8
0
100
AcDbLine
62
7
6
CONTINUOUS
10
324.8771289406
20
157.0657358977
11
325.3771289406
21
157.5657358977
0
LINE
5
378
100
AcDbEntity
8
0
100
AcDbLine
62
7
6
CONTINUOUS
10
304.8771289406
20
268.9381693114
11
285.8771289406
21
268.9381693114
0
LINE
5
379
100
AcDbEntity
8
0
100
AcDbLine
62
7
6
CONTINUOUS
10
55.1463884016
20
70.1966727452
11
55.1463884016
21
89.2413712789
0
LINE
5
37A
100
AcDbEntity
8
0
100
AcDbLine
62
7
6
CONTINUOUS
10
62.4565506972
20
67.7190220102
11
62.4565506972
21
67.4190220102
0
LINE
5
37B
100
AcDbEntity
8
0
100
AcDbLine
62
7
6
CONTINUOUS
10
74.5402146377
20
67.7190220102
11
74.5402146377
21
67.4190220102
0
LINE
5
37C
100
AcDbEntity
8
0
100
AcDbLine
62
7
6
CONTINUOUS
10
86.5360883334
20
97.0572252101
11
86.5629137059
21
97.0943743144
0
LINE
5
37D
100
AcDbEntity
8
0
100
AcDbLine
62
7
6
CONTINUOUS
10
86.5358924380
20
62.3809025609
11
86.5628237818
21
62.3436057460
0
LINE
5
37E
100
AcDbEntity
8
0
100
AcDbLine
62
7
6
CONTINUOUS
10
86.8354989089
20
67.7190220102
11
86.8354989089
21
67.4190220102
0
LINE
5
37F
100
AcDbEntity
8
0
100
AcDbLine
62
7
6
CONTINUOUS
10
164.6699996360
20
67.6767318742
11
149.7369476847
21
64.0533738170
0
LINE
5
380
100
AcDbEntity
8
0
100
AcDbLine
62
7
6
CONTINUOUS
10
164.7171454922
20
67.6874288579
11
164.7131032002
21
67.6865799504
0
LINE
5
381
100
AcDbEntity
8
0
100
AcDbLine
62
7
6
CONTINUOUS
10
57.3204987738
20
67.6874309515
11
57.3244505388
21
67.6866009111
0
LINE
5
382
100
AcDbEntity
8
0
100
AcDbLine
62
7
6
CONTINUOUS
10
72.3006959461
20
64.0533738170
11
57.3676439948
21
67.6767318742
0
LINE
5
383
100
AcDbEntity
8
0
100
AcDbLine
62
7
6
CONTINUOUS
10
93.5819607772
20
67.7190220102
11
93.5819607772
21
67.4190220102
0
LINE
5
384
100
AcDbEntity
8
0
100
AcDbLine
62
7
6
CONTINUOUS
10
137.5674055709
20
63.5775275510
11
137.5676414956
21
63.5775539524
0
LINE
5
385
100
AcDbEntity
8
0
100
AcDbLine
62
7
6
CONTINUOUS
10
84.4700136503
20
63.5775533029
11
84.4701897421
21
63.5775335950
0
LINE
5
386
100
AcDbEntity
8
0
100
AcDbLine
62
7
6
CONTINUOUS
10
149.1474521866
20
63.9828789225
11
146.6391041028
21
63.9828789225
0
LINE
5
387
100
AcDbEntity
8
0
100
AcDbLine
62
7
6
CONTINUOUS
10
75.3985394448
20
63.9828789225
11
72.8901914442
21
63.9828789225
0
LINE
5
388
100
AcDbEntity
8
0
100
AcDbLine
62
7
6
CONTINUOUS
10
117.7688218154
20
67.4190220102
11
113.7688218154
21
67.4190220102
0
LINE
5
389
100
AcDbEntity
8
0
100
AcDbLine
62
7
6
CONTINUOUS
10
112.9688218631
20
67.4190220102
11
109.3688218392
21
67.4190220102
0
LINE
5
38A
100
AcDbEntity
8
0
100
AcDbLine
62
7
6
CONTINUOUS
10
108.5688217677
20
67.4190220102
11
104.7688218154
21
67.4190220102
0
LINE
5
38B
100
AcDbEntity
8
0
100
AcDbLine
62
7
6
CONTINUOUS
10
93.5819607772
20
67.4190220102
11
86.8354989089
21
67.4190220102
0
LINE
5
38C
100
AcDbEntity
8
0
100
AcDbLine
62
7
6
CONTINUOUS
10
74.5402146377
20
67.4190220102
11
62.4565506972
21
67.4190220102
0
LINE
5
38D
100
AcDbEntity
8
0
100
AcDbLine
62
7
6
CONTINUOUS
10
57.8556665730
20
67.7190220102
11
164.1819770577
21
67.7190220102
0
LINE
5
38E
100
AcDbEntity
8
0
100
AcDbLine
62
7
6
CONTINUOUS
10
104.7688218154
20
67.7190220102
11
104.7688218154
21
67.4190220102
0
LINE
5
38F
100
AcDbEntity
8
0
100
AcDbLine
62
7
6
CONTINUOUS
10
108.5688217677
20
67.7190220102
11
108.5688217677
21
67.4190220102
0
LINE
5
390
100
AcDbEntity
8
0
100
AcDbLine
62
7
6
CONTINUOUS
10
109.3688218392
20
67.7190220102
11
109.3688218392
21
67.4190220102
0
LINE
5
391
100
AcDbEntity
8
DEFAULT_1
100
AcDbLine
62
2
6
CENTER
10
111.0188218154
20
79.7190220102
11
111.0188218154
21
46.7190220102
0
LINE
5
392
100
AcDbEntity
8
DEFAULT_1
100
AcDbLine
62
2
6
CENTER
10
111.0188218154
20
79.7190220102
11
111.0188218154
21
112.7190220102
0
LINE
5
393
100
AcDbEntity
8
DEFAULT_1
100
AcDbLine
62
2
6
CENTER
10
111.0188218154
20
79.7190220102
11
78.0188218154
21
79.7190220102
0
LINE
5
394
100
AcDbEntity
8
DEFAULT_1
100
AcDbLine
62
2
6
CENTER
10
111.0188218154
20
79.7190220102
11
144.0188218154
21
79.7190220102
0
LINE
5
395
100
AcDbEntity
8
0
100
AcDbLine
62
7
6
CONTINUOUS
10
112.9688218631
20
67.7190220102
11
112.9688218631
21
67.4190220102
0
LINE
5
396
100
AcDbEntity
8
0
100
AcDbLine
62
7
6
CONTINUOUS
10
113.7688218154
20
67.7190220102
11
113.7688218154
21
67.4190220102
0
LINE
5
397
100
AcDbEntity
8
0
100
AcDbLine
62
7
6
CONTINUOUS
10
117.7688218154
20
67.7190220102
11
117.7688218154
21
67.4190220102
0
LINE
5
398
100
AcDbEntity
8
0
100
AcDbLine
62
7
6
CONTINUOUS
10
164.1819770577
20
91.7190220102
11
57.8556665730
21
91.7190220102
0
LINE
5
399
100
AcDbEntity
8
0
100
AcDbLine
62
7
6
CONTINUOUS
10
72.8901914442
20
95.4551650980
11
75.3985395280
21
95.4551650980
0
LINE
5
39A
100
AcDbEntity
8
0
100
AcDbLine
62
7
6
CONTINUOUS
10
146.6391041860
20
95.4551650980
11
149.1474521866
21
95.4551650980
0
LINE
5
39B
100
AcDbEntity
8
0
100
AcDbLine
62
7
6
CONTINUOUS
10
84.4702380598
20
95.8605164695
11
84.4700021352
21
95.8604900681
0
LINE
5
39C
100
AcDbEntity
8
0
100
AcDbLine
62
7
6
CONTINUOUS
10
137.5676299804
20
95.8604907175
11
137.5674538887
21
95.8605104254
0
LINE
5
39D
100
AcDbEntity
8
0
100
AcDbLine
62
7
6
CONTINUOUS
10
57.3676439948
20
91.7613121463
11
72.3006959461
21
95.3846702035
0
LINE
5
39E
100
AcDbEntity
8
0
100
AcDbLine
62
7
6
CONTINUOUS
10
57.3204981636
20
91.7506151677
11
57.3245500217
21
91.7514660743
0
LINE
5
39F
100
AcDbEntity
8
0
100
AcDbLine
62
7
6
CONTINUOUS
10
164.7171449563
20
91.7506132533
11
164.7132031548
21
91.7514412059
0
LINE
5
3A0
100
AcDbEntity
8
0
100
AcDbLine
62
7
6
CONTINUOUS
10
149.7369476847
20
95.3846702035
11
164.6699996360
21
91.7613121463
0
LINE
5
3A1
100
AcDbEntity
8
0
100
AcDbLine
62
7
6
CONTINUOUS
10
135.5015552973
20
62.3808188103
11
135.4747299249
21
62.3436697061
0
LINE
5
3A2
100
AcDbEntity
8
0
100
AcDbLine
62
7
6
CONTINUOUS
10
135.5017511928
20
97.0571414596
11
135.4748198490
21
97.0944382745
0
LINE
5
3A3
100
AcDbEntity
8
0
100
AcDbLine
62
7
6
CONTINUOUS
10
166.8912552291
20
70.1966738877
11
166.8912552291
21
89.2413701292
0
ARC
5
3A4
100
AcDbEntity
8
0
100
AcDbCircle
62
7
6
CONTINUOUS
10
73.0188218154
20
165.2666589317
40
8.0000000000
100
AcDbArc
50
0.0000000000
51
90.0000000000
0
ARC
5
3A5
100
AcDbEntity
8
0
100
AcDbCircle
62
7
6
CONTINUOUS
10
149.0188218154
20
165.2666589317
40
8.0000000000
100
AcDbArc
50
90.0000000000
51
180.0000000000
0
ARC
5
3A6
100
AcDbEntity
8
0
100
AcDbCircle
62
7
6
CONTINUOUS
10
111.0188218154
20
213.0657358977
40
30.0000000000
100
AcDbArc
50
289.8347378530
51
250.1652637849
0
ARC
5
3A7
100
AcDbEntity
8
0
100
AcDbCircle
62
7
6
CONTINUOUS
10
146.9910644577
20
249.0379785400
40
5.0000000000
100
AcDbArc
50
22.5000000000
51
67.5000000000
0
ARC
5
3A8
100
AcDbEntity
8
0
100
AcDbCircle
62
7
6
CONTINUOUS
10
111.0188218154
20
263.9381693114
40
5.0000000000
100
AcDbArc
50
67.5000000000
51
112.5000000000
0
ARC
5
3A9
100
AcDbEntity
8
0
100
AcDbCircle
62
7
6
CONTINUOUS
10
75.0465791731
20
249.0379785400
40
5.0000000000
100
AcDbArc
50
112.5000000000
51
157.5000000000
0
ARC
5
3AA
100
AcDbEntity
8
0
100
AcDbCircle
62
7
6
CONTINUOUS
10
60.1463884016
20
213.0657358977
40
5.0000000000
100
AcDbArc
50
157.5000000000
51
202.5000000000
0
ARC
5
3AB
100
AcDbEntity
8
0
100
AcDbCircle
62
7
6
CONTINUOUS
10
161.8912552291
20
213.0657358977
40
5.0000000000
100
AcDbArc
50
337.5000000000
51
22.5000000000
0
ARC
5
3AC
100
AcDbEntity
8
0
100
AcDbCircle
62
7
6
CONTINUOUS
10
72.8901914442
20
175.7666589317
40
2.5000000000
100
AcDbArc
50
202.5000000000
51
270.0000000000
0
ARC
5
3AD
100
AcDbEntity
8
0
100
AcDbCircle
62
7
6
CONTINUOUS
10
149.1474521866
20
175.7666589317
40
2.5000000000
100
AcDbArc
50
270.0000000000
51
337.5000000000
0
ARC
5
3AE
100
AcDbEntity
8
DEFAULT_2
100
AcDbCircle
62
8
6
HIDDEN
10
295.3771289406
20
255.0657358977
40
12.0000000000
100
AcDbArc
50
180.0000000000
51
360.0000000000
0
ARC
5
3AF
100
AcDbEntity
8
0
100
AcDbCircle
62
7
6
CONTINUOUS
10
277.1781611539
20
181.1705605679
40
2.9999981507
100
AcDbArc
50
279.0000000058
51
343.4748929985
0
ARC
5
3B0
100
AcDbEntity
8
0
100
AcDbCircle
62
7
6
CONTINUOUS
10
285.8771289406
20
266.4381693114
40
2.5000000000
100
AcDbArc
50
90.0000000000
51
180.0000000000
0
ARC
5
3B1
100
AcDbEntity
8
0
100
AcDbCircle
62
7
6
CONTINUOUS
10
304.8771289406
20
266.4381693114
40
2.5000000000
100
AcDbArc
50
0.0000000000
51
90.0000000000
0
ARC
5
3B2
100
AcDbEntity
8
0
100
AcDbCircle
62
7
6
CONTINUOUS
10
271.3771289406
20
171.1396058541
40
6.0000000000
100
AcDbArc
50
99.0000000000
51
180.0000000000
0
ARC
5
3B3
100
AcDbEntity
8
0
100
AcDbCircle
62
7
6
CONTINUOUS
10
319.3771289406
20
171.1396058541
40
6.0000000000
100
AcDbArc
50
0.0000000000
51
81.0000000000
0
ARC
5
3B4
100
AcDbEntity
8
0
100
AcDbCircle
62
7
6
CONTINUOUS
10
327.3771289406
20
214.0682590158
40
20.0000000000
100
AcDbArc
50
180.0000000000
51
185.7392307127
0
ARC
5
3B5
100
AcDbEntity
8
0
100
AcDbCircle
62
7
6
CONTINUOUS
10
263.3771289406
20
214.0682590158
40
20.0000000000
100
AcDbArc
50
354.2607692873
51
360.0000000000
0
ARC
5
3B6
100
AcDbEntity
8
0
100
AcDbCircle
62
7
6
CONTINUOUS
10
308.6132720283
20
175.7666589317
40
2.5000000000
100
AcDbArc
50
270.0000000000
51
5.7392307127
0
ARC
5
3B7
100
AcDbEntity
8
0
100
AcDbCircle
62
7
6
CONTINUOUS
10
282.1409826754
20
175.7666273167
40
2.4999924726
100
AcDbArc
50
174.2600410749
51
270.0000728229
0
ARC
5
3B8
100
AcDbEntity
8
DEFAULT_2
100
AcDbCircle
62
8
6
HIDDEN
10
111.0188218154
20
79.7190220102
40
15.0000000000
100
AcDbArc
50
312.7356061166
51
47.2642901361
0
ARC
5
3B9
100
AcDbEntity
8
DEFAULT_2
100
AcDbCircle
62
8
6
HIDDEN
10
111.0188218154
20
79.7190220102
40
15.0000000000
100
AcDbArc
50
132.7354982079
51
227.2643979052
0
ARC
5
3BA
100
AcDbEntity
8
0
100
AcDbCircle
62
7
6
CONTINUOUS
10
111.0188218154
20
79.7190220102
40
30.0000000000
100
AcDbArc
50
215.3929059225
51
324.6070941779
0
ARC
5
3BB
100
AcDbEntity
8
0
100
AcDbCircle
62
7
6
CONTINUOUS
10
111.0188218154
20
79.7190220102
40
30.0000000000
100
AcDbArc
50
35.3929059225
51
144.6070941779
0
ARC
5
3BC
100
AcDbEntity
8
0
100
AcDbCircle
62
7
6
CONTINUOUS
10
111.0188218154
20
79.7190220102
40
15.0000000000
100
AcDbArc
50
53.1854028154
51
126.8205358937
0
ARC
5
3BD
100
AcDbEntity
8
0
100
AcDbCircle
62
7
6
CONTINUOUS
10
111.0188218154
20
79.7190220102
40
15.0000000000
100
AcDbArc
50
233.1867556263
51
306.8197794489
0
SPLINE
5
3BE
100
AcDbEntity
8
0
100
AcDbSpline
62
7
6
CONTINUOUS
70
0
71
3
72
20
73
16
74
14
42
0.0000001000
43
0.0000001000
44
0.0000000001
40
0.0000000000
40
0.0000000000
40
0.0000000000
40
0.0000000000
40
0.0784095402
40
0.1627937149
40
0.2466330432
40
0.3271408240
40
0.4019774015
40
0.4701943961
40
0.5331436641
40
0.6015274295
40
0.6765745575
40
0.7566776297
40
0.8388813991
40
0.9212159499
40
1.0000000000
40
1.0000000000
40
1.0000000000
40
1.0000000000
10
121.1980655223
20
184.8454772670
30
0.0000000000
10
120.6665785837
20
184.6537661167
30
0.0000000000
10
119.5816752076
20
184.2055882675
30
0.0000000000
10
117.9534283851
20
183.4940236579
30
0.0000000000
10
116.3052636714
20
182.7894753860
30
0.0000000000
10
114.7007170326
20
182.1588261683
30
0.0000000000
10
113.1684495766
20
181.6573237795
30
0.0000000000
10
111.7064128760
20
181.3625077035
30
0.0000000000
10
110.2576790873
20
181.3710367823
30
0.0000000000
10
108.7958155162
20
181.6780563394
30
0.0000000000
10
107.2657226540
20
182.1851887161
30
0.0000000000
10
105.6745614798
20
182.8137453126
30
0.0000000000
10
104.0538201576
20
183.5074385373
30
0.0000000000
10
102.4472734390
20
184.2090952754
30
0.0000000000
10
101.3736043834
20
184.6528501771
30
0.0000000000
10
100.8395788818
20
184.8454769880
30
0.0000000000
11
121.1980655223
21
184.8454772670
31
0.0000000000
11
119.6238477916
21
184.2170488175
31
0.0000000000
11
117.9487991427
21
183.4946759483
31
0.0000000000
11
116.2796747145
21
182.7884168602
31
0.0000000000
11
114.6566025383
21
182.1602883340
31
0.0000000000
11
113.1135557893
21
181.6742686161
31
0.0000000000
11
111.6632498160
21
181.4072592727
31
0.0000000000
11
110.3024634713
21
181.4144003353
31
0.0000000000
11
108.8507851800
21
181.6936089849
31
0.0000000000
11
107.3054586831
21
182.1874936358
31
0.0000000000
11
105.6917584539
21
182.8155895705
31
0.0000000000
11
104.0556074932
21
183.5090431060
31
0.0000000000
11
102.4212519905
21
184.2138876443
31
0.0000000000
11
100.8395788818
21
184.8454769880
31
0.0000000000
0
SPLINE
5
3BF
100
AcDbEntity
8
0
100
AcDbSpline
62
7
6
CONTINUOUS
70
0
71
3
72
9
73
5
74
3
42
0.0000001000
43
0.0000001000
44
0.0000000001
40
0.0000000000
40
0.0000000000
40
0.0000000000
40
0.0000000000
40
0.7344801012
40
1.0000000000
40
1.0000000000
40
1.0000000000
40
1.0000000000
10
280.1208303525
20
180.6665032162
30
0.0000000000
10
280.1131418009
20
180.5900958487
30
0.0000000000
10
280.0969579998
20
180.4865279913
30
0.0000000000
10
280.0725478108
20
180.3848444292
30
0.0000000000
10
280.0654751289
20
180.3580102805
30
0.0000000000
11
280.1208303525
21
180.6665032162
31
0.0000000000
11
280.0849306256
21
180.4389752918
31
0.0000000000
11
280.0654751289
21
180.3580102805
31
0.0000000000
0
SPLINE
5
3C0
100
AcDbEntity
8
0
100
AcDbSpline
62
7
6
CONTINUOUS
70
0
71
3
72
11
73
7
74
5
42
0.0000001000
43
0.0000001000
44
0.0000000001
40
0.0000000000
40
0.0000000000
40
0.0000000000
40
0.0000000000
40
0.0934266260
40
0.3957025871
40
0.6979620988
40
1.0000000000
40
1.0000000000
40
1.0000000000
40
1.0000000000
10
313.1067900691
20
178.2075669630
30
0.0000000000
10
313.0274951454
20
178.2201084235
30
0.0000000000
10
312.6937159441
20
178.2866573490
30
0.0000000000
10
312.1300564299
20
178.5035182861
30
0.0000000000
10
311.4941552602
20
178.9638579000
30
0.0000000000
10
311.1633491992
20
179.3687941474
30
0.0000000000
10
311.0266312348
20
179.5893228420
30
0.0000000000
11
313.1067900691
21
178.2075669630
31
0.0000000000
11
312.8706750903
21
178.2546771454
31
0.0000000000
11
312.1460861554
21
178.5333095544
31
0.0000000000
11
311.5172840198
21
178.9885099803
31
0.0000000000
11
311.0266312348
21
179.5893228420
31
0.0000000000
0
SPLINE
5
3C1
100
AcDbEntity
8
0
100
AcDbSpline
62
7
6
CONTINUOUS
70
0
71
3
72
8
73
4
74
2
42
0.0000001000
43
0.0000001000
44
0.0000000001
40
0.0000000000
40
0.0000000000
40
0.0000000000
40
0.0000000000
40
1.0000000000
40
1.0000000000
40
1.0000000000
40
1.0000000000
10
311.0266312348
20
179.5893228420
30
0.0000000000
10
310.9584037795
20
179.6993750338
30
0.0000000000
10
310.8973049153
20
179.8139435014
30
0.0000000000
10
310.8438415772
20
179.9318514552
30
0.0000000000
11
311.0266312348
21
179.5893228420
31
0.0000000000
11
310.8438415772
21
179.9318514552
31
0.0000000000
0
SPLINE
5
3C2
100
AcDbEntity
8
0
100
AcDbSpline
62
7
6
CONTINUOUS
70
0
71
3
72
8
73
4
74
2
42
0.0000001000
43
0.0000001000
44
0.0000000001
40
0.0000000000
40
0.0000000000
40
0.0000000000
40
0.0000000000
40
1.0000000000
40
1.0000000000
40
1.0000000000
40
1.0000000000
10
310.8438415772
20
179.9318514552
30
0.0000000000
10
310.7903233138
20
180.0498805408
30
0.0000000000
10
310.7444562731
20
180.1712559777
30
0.0000000000
10
310.7067489539
20
180.2947973458
30
0.0000000000
11
310.8438415772
21
179.9318514552
31
0.0000000000
11
310.7067489539
21
180.2947973458
31
0.0000000000
0
SPLINE
5
3C3
100
AcDbEntity
8
0
100
AcDbSpline
62
7
6
CONTINUOUS
70
0
71
3
72
8
73
4
74
2
42
0.0000001000
43
0.0000001000
44
0.0000000001
40
0.0000000000
40
0.0000000000
40
0.0000000000
40
0.0000000000
40
1.0000000000
40
1.0000000000
40
1.0000000000
40
1.0000000000
10
310.6953632623
20
180.3337700458
30
0.0000000000
10
310.6912387199
20
180.3485253874
30
0.0000000000
10
310.6873066997
20
180.3633349441
30
0.0000000000
10
310.6835608650
20
180.3781927750
30
0.0000000000
11
310.6953632623
21
180.3337700458
31
0.0000000000
11
310.6835608650
21
180.3781927750
31
0.0000000000
0
SPLINE
5
3C4
100
AcDbEntity
8
0
100
AcDbSpline
62
7
6
CONTINUOUS
70
0
71
3
72
8
73
4
74
2
42
0.0000001000
43
0.0000001000
44
0.0000000001
40
0.0000000000
40
0.0000000000
40
0.0000000000
40
0.0000000000
40
1.0000000000
40
1.0000000000
40
1.0000000000
40
1.0000000000
10
310.6835608650
20
180.3781927750
30
0.0000000000
10
310.6826659264
20
180.3817425435
30
0.0000000000
10
310.6817816155
20
180.3852950676
30
0.0000000000
10
310.6809078457
20
180.3888502661
30
0.0000000000
11
310.6835608650
21
180.3781927750
31
0.0000000000
11
310.6809078457
21
180.3888502661
31
0.0000000000
0
SPLINE
5
3C5
100
AcDbEntity
8
0
100
AcDbSpline
62
7
6
CONTINUOUS
70
0
71
3
72
8
73
4
74
2
42
0.0000001000
43
0.0000001000
44
0.0000000001
40
0.0000000000
40
0.0000000000
40
0.0000000000
40
0.0000000000
40
1.0000000000
40
1.0000000000
40
1.0000000000
40
1.0000000000
10
310.6564212761
20
180.5035471599
30
0.0000000000
10
310.6521126605
20
180.5271460205
30
0.0000000000
10
310.6482258070
20
180.5508241214
30
0.0000000000
10
310.6447560145
20
180.5745621678
30
0.0000000000
11
310.6564212761
21
180.5035471599
31
0.0000000000
11
310.6447560145
21
180.5745621678
31
0.0000000000
0
SPLINE
5
3C6
100
AcDbEntity
8
0
100
AcDbSpline
62
7
6
CONTINUOUS
70
0
71
3
72
8
73
4
74
2
42
0.0000001000
43
0.0000001000
44
0.0000000001
40
0.0000000000
40
0.0000000000
40
0.0000000000
40
0.0000000000
40
1.0000000000
40
1.0000000000
40
1.0000000000
40
1.0000000000
10
310.6447560145
20
180.5745621678
30
0.0000000000
10
310.6425688892
20
180.5895250453
30
0.0000000000
10
310.6405474706
20
180.6045117402
30
0.0000000000
10
310.6386905812
20
180.6195174204
30
0.0000000000
11
310.6447560145
21
180.5745621678
31
0.0000000000
11
310.6386905812
21
180.6195174204
31
0.0000000000
0
SPLINE
5
3C7
100
AcDbEntity
8
0
100
AcDbSpline
62
7
6
CONTINUOUS
70
0
71
3
72
8
73
4
74
2
42
0.0000001000
43
0.0000001000
44
0.0000000001
40
0.0000000000
40
0.0000000000
40
0.0000000000
40
0.0000000000
40
1.0000000000
40
1.0000000000
40
1.0000000000
40
1.0000000000
10
310.6386905812
20
180.6195174204
30
0.0000000000
10
310.6378570947
20
180.6262528948
30
0.0000000000
10
310.6370567570
20
180.6329921943
30
0.0000000000
10
310.6362894617
20
180.6397348818
30
0.0000000000
11
310.6386905812
21
180.6195174204
31
0.0000000000
11
310.6362894617
21
180.6397348818
31
0.0000000000
0
SPLINE
5
3C8
100
AcDbEntity
8
0
100
AcDbSpline
62
7
6
CONTINUOUS
70
0
71
3
72
10
73
6
74
4
42
0.0000001000
43
0.0000001000
44
0.0000000001
40
0.0000000000
40
0.0000000000
40
0.0000000000
40
0.0000000000
40
0.1330568160
40
0.5411962956
40
1.0000000000
40
1.0000000000
40
1.0000000000
40
1.0000000000
10
310.7067489539
20
180.2947973458
30
0.0000000000
10
310.7024598301
20
180.3088877704
30
0.0000000000
10
310.6857487655
20
180.3664182203
30
0.0000000000
10
310.6602385874
20
180.4742148891
30
0.0000000000
10
310.6449266684
20
180.5690993951
30
0.0000000000
10
310.6386863007
20
180.6195284991
30
0.0000000000
11
310.7067489539
21
180.2947973458
31
0.0000000000
11
310.6944183682
21
180.3372251635
31
0.0000000000
11
310.6630390273
21
180.4690705943
31
0.0000000000
11
310.6386863007
21
180.6195284991
31
0.0000000000
0
SPLINE
5
3C9
100
AcDbEntity
8
0
100
AcDbSpline
62
7
6
CONTINUOUS
70
0
71
3
72
8
73
4
74
2
42
0.0000001000
43
0.0000001000
44
0.0000000001
40
0.0000000000
40
0.0000000000
40
0.0000000000
40
0.0000000000
40
1.0000000000
40
1.0000000000
40
1.0000000000
40
1.0000000000
10
310.6386863007
20
180.6195284991
30
0.0000000000
10
310.6367645170
20
180.6350586464
30
0.0000000000
10
310.6350194197
20
180.6506091198
30
0.0000000000
10
310.6334497644
20
180.6661744741
30
0.0000000000
11
310.6386863007
21
180.6195284991
31
0.0000000000
11
310.6334497644
21
180.6661744741
31
0.0000000000
0
SPLINE
5
3CA
100
AcDbEntity
8
0
100
AcDbSpline
62
7
6
CONTINUOUS
70
0
71
3
72
10
73
6
74
4
42
0.0000001000
43
0.0000001000
44
0.0000000001
40
0.0000000000
40
0.0000000000
40
0.0000000000
40
0.0000000000
40
0.2296361001
40
0.6130991941
40
1.0000000000
40
1.0000000000
40
1.0000000000
40
1.0000000000
10
137.5675576857
20
95.8605547147
30
0.0000000000
10
137.4161512504
20
95.8774695110
30
0.0000000000
10
137.0148120107
20
95.9538724626
30
0.0000000000
10
136.3975027269
20
96.2109978731
30
0.0000000000
10
135.9879050313
20
96.5235294651
30
0.0000000000
10
135.8055400970
20
96.7044672318
30
0.0000000000
11
137.5675576857
21
95.8605547147
31
0.0000000000
11
137.1187163032
21
95.9460999246
31
0.0000000000
11
136.4159667989
21
96.2384720172
31
0.0000000000
11
135.8055400970
21
96.7044672318
31
0.0000000000
0
SPLINE
5
3CB
100
AcDbEntity
8
0
100
AcDbSpline
62
7
6
CONTINUOUS
70
0
71
3
72
8
73
4
74
2
42
0.0000001000
43
0.0000001000
44
0.0000000001
40
0.0000000000
40
0.0000000000
40
0.0000000000
40
0.0000000000
40
1.0000000000
40
1.0000000000
40
1.0000000000
40
1.0000000000
10
135.8055400970
20
96.7044672318
30
0.0000000000
10
135.7140188436
20
96.7952722501
30
0.0000000000
10
135.6283779996
20
96.8921155502
30
0.0000000000
10
135.5493772988
20
96.9939674500
30
0.0000000000
11
135.8055400970
21
96.7044672318
31
0.0000000000
11
135.5493772988
21
96.9939674500
31
0.0000000000
0
SPLINE
5
3CC
100
AcDbEntity
8
0
100
AcDbSpline
62
7
6
CONTINUOUS
70
0
71
3
72
8
73
4
74
2
42
0.0000001000
43
0.0000001000
44
0.0000000001
40
0.0000000000
40
0.0000000000
40
0.0000000000
40
0.0000000000
40
1.0000000000
40
1.0000000000
40
1.0000000000
40
1.0000000000
10
135.5493772988
20
96.9939674500
30
0.0000000000
10
135.5332105376
20
97.0148104972
30
0.0000000000
10
135.5173218512
20
97.0358632937
30
0.0000000000
10
135.5017177505
20
97.0571170153
30
0.0000000000
11
135.5493772988
21
96.9939674500
31
0.0000000000
11
135.5017177505
21
97.0571170153
31
0.0000000000
0
SPLINE
5
3CD
100
AcDbEntity
8
0
100
AcDbSpline
62
7
6
CONTINUOUS
70
0
71
3
72
8
73
4
74
2
42
0.0000001000
43
0.0000001000
44
0.0000000001
40
0.0000000000
40
0.0000000000
40
0.0000000000
40
0.0000000000
40
1.0000000000
40
1.0000000000
40
1.0000000000
40
1.0000000000
10
86.5360280967
20
97.0572694258
30
0.0000000000
10
86.5251927268
20
97.0425079764
30
0.0000000000
10
86.5142203029
20
97.0278435640
30
0.0000000000
10
86.5031129804
20
97.0132791607
30
0.0000000000
11
86.5360280967
21
97.0572694258
31
0.0000000000
11
86.5031129804
21
97.0132791607
31
0.0000000000
0
SPLINE
5
3CE
100
AcDbEntity
8
0
100
AcDbSpline
62
7
6
CONTINUOUS
70
0
71
3
72
8
73
4
74
2
42
0.0000001000
43
0.0000001000
44
0.0000000001
40
0.0000000000
40
0.0000000000
40
0.0000000000
40
0.0000000000
40
1.0000000000
40
1.0000000000
40
1.0000000000
40
1.0000000000
10
86.5031129804
20
97.0132791607
30
0.0000000000
10
86.4242381734
20
96.9098550909
30
0.0000000000
10
86.3385609160
20
96.8114741241
30
0.0000000000
10
86.2468529823
20
96.7192006153
30
0.0000000000
11
86.5031129804
21
97.0132791607
31
0.0000000000
11
86.2468529823
21
96.7192006153
31
0.0000000000
0
SPLINE
5
3CF
100
AcDbEntity
8
0
100
AcDbSpline
62
7
6
CONTINUOUS
70
0
71
3
72
10
73
6
74
4
42
0.0000001000
43
0.0000001000
44
0.0000000001
40
0.0000000000
40
0.0000000000
40
0.0000000000
40
0.0000000000
40
0.3863730893
40
0.7693375119
40
1.0000000000
40
1.0000000000
40
1.0000000000
40
1.0000000000
10
86.2468529823
20
96.7192006153
30
0.0000000000
10
86.0641098156
20
96.5353304471
30
0.0000000000
10
85.6525547716
20
96.2175002296
30
0.0000000000
10
85.0295996121
20
95.9554678579
30
0.0000000000
10
84.6237478623
20
95.8777243168
30
0.0000000000
10
84.4700744330
20
95.8605557128
30
0.0000000000
11
86.2468529823
21
96.7192006153
31
0.0000000000
11
85.6336540554
21
96.2454098332
31
0.0000000000
11
84.9255341353
21
95.9479065061
31
0.0000000000
11
84.4700744330
21
95.8605557128
31
0.0000000000
0
SPLINE
5
3D0
100
AcDbEntity
8
0
100
AcDbSpline
62
7
6
CONTINUOUS
70
0
71
3
72
10
73
6
74
4
42
0.0000001000
43
0.0000001000
44
0.0000000001
40
0.0000000000
40
0.0000000000
40
0.0000000000
40
0.0000000000
40
0.2296361001
40
0.6130991941
40
1.0000000000
40
1.0000000000
40
1.0000000000
40
1.0000000000
10
84.4700859451
20
63.5774893058
30
0.0000000000
10
84.6214923804
20
63.5605745095
30
0.0000000000
10
85.0228316201
20
63.4841715578
30
0.0000000000
10
85.6401409039
20
63.2270461474
30
0.0000000000
10
86.0497385994
20
62.9145145554
30
0.0000000000
10
86.2321035338
20
62.7335767886
30
0.0000000000
11
84.4700859451
21
63.5774893058
31
0.0000000000
11
84.9189273275
21
63.4919440958
31
0.0000000000
11
85.6216768318
21
63.1995720033
31
0.0000000000
11
86.2321035338
21
62.7335767886
31
0.0000000000
0
SPLINE
5
3D1
100
AcDbEntity
8
0
100
AcDbSpline
62
7
6
CONTINUOUS
70
0
71
3
72
8
73
4
74
2
42
0.0000001000
43
0.0000001000
44
0.0000000001
40
0.0000000000
40
0.0000000000
40
0.0000000000
40
0.0000000000
40
1.0000000000
40
1.0000000000
40
1.0000000000
40
1.0000000000
10
86.2321035338
20
62.7335767886
30
0.0000000000
10
86.3236247872
20
62.6427717704
30
0.0000000000
10
86.4092656312
20
62.5459284703
30
0.0000000000
10
86.4882663320
20
62.4440765705
30
0.0000000000
11
86.2321035338
21
62.7335767886
31
0.0000000000
11
86.4882663320
21
62.4440765705
31
0.0000000000
0
SPLINE
5
3D2
100
AcDbEntity
8
0
100
AcDbSpline
62
7
6
CONTINUOUS
70
0
71
3
72
8
73
4
74
2
42
0.0000001000
43
0.0000001000
44
0.0000000001
40
0.0000000000
40
0.0000000000
40
0.0000000000
40
0.0000000000
40
1.0000000000
40
1.0000000000
40
1.0000000000
40
1.0000000000
10
86.4882663320
20
62.4440765705
30
0.0000000000
10
86.5044330932
20
62.4232335232
30
0.0000000000
10
86.5203217796
20
62.4021807267
30
0.0000000000
10
86.5359258803
20
62.3809270052
30
0.0000000000
11
86.4882663320
21
62.4440765705
31
0.0000000000
11
86.5359258803
21
62.3809270052
31
0.0000000000
0
SPLINE
5
3D3
100
AcDbEntity
8
0
100
AcDbSpline
62
7
6
CONTINUOUS
70
0
71
3
72
8
73
4
74
2
42
0.0000001000
43
0.0000001000
44
0.0000000001
40
0.0000000000
40
0.0000000000
40
0.0000000000
40
0.0000000000
40
1.0000000000
40
1.0000000000
40
1.0000000000
40
1.0000000000
10
135.5016155340
20
62.3807745947
30
0.0000000000
10
135.5124509040
20
62.3955360440
30
0.0000000000
10
135.5234233279
20
62.4102004565
30
0.0000000000
10
135.5345306504
20
62.4247648597
30
0.0000000000
11
135.5016155340
21
62.3807745947
31
0.0000000000
11
135.5345306504
21
62.4247648597
31
0.0000000000
0
SPLINE
5
3D4
100
AcDbEntity
8
0
100
AcDbSpline
62
7
6
CONTINUOUS
70
0
71
3
72
8
73
4
74
2
42
0.0000001000
43
0.0000001000
44
0.0000000001
40
0.0000000000
40
0.0000000000
40
0.0000000000
40
0.0000000000
40
1.0000000000
40
1.0000000000
40
1.0000000000
40
1.0000000000
10
135.5345306504
20
62.4247648597
30
0.0000000000
10
135.6134054574
20
62.5281889295
30
0.0000000000
10
135.6990827147
20
62.6265698964
30
0.0000000000
10
135.7907906484
20
62.7188434051
30
0.0000000000
11
135.5345306504
21
62.4247648597
31
0.0000000000
11
135.7907906484
21
62.7188434051
31
0.0000000000
0
SPLINE
5
3D5
100
AcDbEntity
8
0
100
AcDbSpline
62
7
6
CONTINUOUS
70
0
71
3
72
10
73
6
74
4
42
0.0000001000
43
0.0000001000
44
0.0000000001
40
0.0000000000
40
0.0000000000
40
0.0000000000
40
0.0000000000
40
0.3863730893
40
0.7693375119
40
1.0000000000
40
1.0000000000
40
1.0000000000
40
1.0000000000
10
135.7907906484
20
62.7188434051
30
0.0000000000
10
135.9735338151
20
62.9027135733
30
0.0000000000
10
136.3850888592
20
63.2205437909
30
0.0000000000
10
137.0080440187
20
63.4825761626
30
0.0000000000
10
137.4138957685
20
63.5603197037
30
0.0000000000
10
137.5675691978
20
63.5774883077
30
0.0000000000
11
135.7907906484
21
62.7188434051
31
0.0000000000
11
136.4039895754
21
63.1926341873
31
0.0000000000
11
137.1121094955
21
63.4901375144
31
0.0000000000
11
137.5675691978
21
63.5774883077
31
0.0000000000
0
SPLINE
5
3D6
100
AcDbEntity
8
0
100
AcDbSpline
62
7
6
CONTINUOUS
70
0
71
3
72
15
73
11
74
9
42
0.0000001000
43
0.0000001000
44
0.0000000001
40
0.0000000000
40
0.0000000000
40
0.0000000000
40
0.0000000000
40
0.1310083822
40
0.2874620648
40
0.4353814964
40
0.5730643210
40
0.6991137180
40
0.8125996026
40
0.9129526260
40
1.0000000000
40
1.0000000000
40
1.0000000000
40
1.0000000000
10
75.3985394400
20
63.9828840474
30
0.0000000000
10
75.7737539625
20
63.9828937094
30
0.0000000000
10
76.5970649278
20
63.9789519982
30
0.0000000000
10
77.8438935148
20
63.9597727700
30
0.0000000000
10
79.1095346665
20
63.9259775028
30
0.0000000000
10
80.2876909155
20
63.8809447912
30
0.0000000000
10
81.3667254908
20
63.8270040190
30
0.0000000000
10
82.3383532991
20
63.7663877053
30
0.0000000000
10
83.1975657172
20
63.7014635020
30
0.0000000000
10
83.7323890261
20
63.6532387399
30
0.0000000000
10
83.9803349303
20
63.6288106761
30
0.0000000000
11
75.3985394400
21
63.9828840474
31
0.0000000000
11
76.5241695136
21
63.9774894620
31
0.0000000000
11
77.8682787310
21
63.9567913156
31
0.0000000000
11
79.1387619219
21
63.9226709771
31
0.0000000000
11
80.3208770355
21
63.8772569718
31
0.0000000000
11
81.4025415872
21
63.8228629978
31
0.0000000000
11
82.3757113224
21
63.7617909578
31
0.0000000000
11
83.2354701416
21
63.6963591178
31
0.0000000000
11
83.9803349303
21
63.6288106761
31
0.0000000000
0
SPLINE
5
3D7
100
AcDbEntity
8
0
100
AcDbSpline
62
7
6
CONTINUOUS
70
0
71
3
72
8
73
4
74
2
42
0.0000001000
43
0.0000001000
44
0.0000000001
40
0.0000000000
40
0.0000000000
40
0.0000000000
40
0.0000000000
40
1.0000000000
40
1.0000000000
40
1.0000000000
40
1.0000000000
10
83.9803349303
20
63.6288106761
30
0.0000000000
10
84.0904618913
20
63.6179607754
30
0.0000000000
10
84.2004943164
20
63.6067108609
30
0.0000000000
10
84.3105607081
20
63.5949297695
30
0.0000000000
11
83.9803349303
21
63.6288106761
31
0.0000000000
11
84.3105607081
21
63.5949297695
31
0.0000000000
0
SPLINE
5
3D8
100
AcDbEntity
8
0
100
AcDbSpline
62
7
6
CONTINUOUS
70
0
71
3
72
8
73
4
74
2
42
0.0000001000
43
0.0000001000
44
0.0000000001
40
0.0000000000
40
0.0000000000
40
0.0000000000
40
0.0000000000
40
1.0000000000
40
1.0000000000
40
1.0000000000
40
1.0000000000
10
84.3105607081
20
63.5949297695
30
0.0000000000
10
84.3637353514
20
63.5892381562
30
0.0000000000
10
84.4169179225
20
63.5834225666
30
0.0000000000
10
84.4701229111
20
63.5774682109
30
0.0000000000
11
84.3105607081
21
63.5949297695
31
0.0000000000
11
84.4701229111
21
63.5774682109
31
0.0000000000
0
SPLINE
5
3D9
100
AcDbEntity
8
0
100
AcDbSpline
62
7
6
CONTINUOUS
70
0
71
3
72
9
73
5
74
3
42
0.0000001000
43
0.0000001000
44
0.0000000001
40
0.0000000000
40
0.0000000000
40
0.0000000000
40
0.0000000000
40
0.3641147277
40
1.0000000000
40
1.0000000000
40
1.0000000000
40
1.0000000000
10
72.2994434699
20
64.0536326258
30
0.0000000000
10
72.3697086150
20
64.0365494303
30
0.0000000000
10
72.5647728840
20
63.9980083691
30
0.0000000000
10
72.7637845394
20
63.9830317996
30
0.0000000000
10
72.8901914603
20
63.9830168147
30
0.0000000000
11
72.2994434699
21
64.0536326258
31
0.0000000000
11
72.5122835041
21
64.0116068637
31
0.0000000000
11
72.8901914603
21
63.9830168147
31
0.0000000000
0
SPLINE
5
3DA
100
AcDbEntity
8
0
100
AcDbSpline
62
7
6
CONTINUOUS
70
0
71
3
72
8
73
4
74
2
42
0.0000001000
43
0.0000001000
44
0.0000000001
40
0.0000000000
40
0.0000000000
40
0.0000000000
40
0.0000000000
40
1.0000000000
40
1.0000000000
40
1.0000000000
40
1.0000000000
10
72.8901914442
20
95.4551650980
30
0.0000000000
10
72.6921970245
20
95.4551650980
30
0.0000000000
10
72.4933514918
20
95.4313941574
30
0.0000000000
10
72.3003078305
20
95.3845701872
30
0.0000000000
11
72.8901914442
21
95.4551650980
31
0.0000000000
11
72.3003078305
21
95.3845701872
31
0.0000000000
0
SPLINE
5
3DB
100
AcDbEntity
8
0
100
AcDbSpline
62
7
6
CONTINUOUS
70
0
71
3
72
9
73
5
74
3
42
0.0000001000
43
0.0000001000
44
0.0000000001
40
0.0000000000
40
0.0000000000
40
0.0000000000
40
0.0000000000
40
0.4739335075
40
1.0000000000
40
1.0000000000
40
1.0000000000
40
1.0000000000
10
84.4701650433
20
95.8606444583
30
0.0000000000
10
84.4347556503
20
95.8566908280
30
0.0000000000
10
84.3600283167
20
95.8484648537
30
0.0000000000
10
84.2852670422
20
95.8404674262
30
0.0000000000
10
84.2459291814
20
95.8363209049
30
0.0000000000
11
84.4701650433
21
95.8606444583
31
0.0000000000
11
84.3639164521
21
95.8489450329
31
0.0000000000
11
84.2459291814
21
95.8363209049
31
0.0000000000
0
SPLINE
5
3DC
100
AcDbEntity
8
0
100
AcDbSpline
62
7
6
CONTINUOUS
70
0
71
3
72
8
73
4
74
2
42
0.0000001000
43
0.0000001000
44
0.0000000001
40
0.0000000000
40
0.0000000000
40
0.0000000000
40
0.0000000000
40
1.0000000000
40
1.0000000000
40
1.0000000000
40
1.0000000000
10
84.2459291814
20
95.8363209049
30
0.0000000000
10
84.1678130629
20
95.8280868489
30
0.0000000000
10
84.0896635867
20
95.8200919828
30
0.0000000000
10
84.0114880645
20
95.8123160091
30
0.0000000000
11
84.2459291814
21
95.8363209049
31
0.0000000000
11
84.0114880645
21
95.8123160091
31
0.0000000000
0
SPLINE
5
3DD
100
AcDbEntity
8
0
100
AcDbSpline
62
7
6
CONTINUOUS
70
0
71
3
72
15
73
11
74
9
42
0.0000001000
43
0.0000001000
44
0.0000000001
40
0.0000000000
40
0.0000000000
40
0.0000000000
40
0.0000000000
40
0.0446834309
40
0.1453877731
40
0.2613771209
40
0.3921374681
40
0.5366711377
40
0.6933841742
40
0.8602180845
40
1.0000000000
40
1.0000000000
40
1.0000000000
40
1.0000000000
10
84.0114880645
20
95.8123160091
30
0.0000000000
10
83.8836718160
20
95.7996023646
30
0.0000000000
10
83.4675658421
20
95.7601395042
30
0.0000000000
10
82.7187764701
20
95.6986418613
30
0.0000000000
10
81.7222465545
20
95.6314826282
30
0.0000000000
10
80.5991170003
20
95.5710086883
30
0.0000000000
10
79.3583398845
20
95.5200816281
30
0.0000000000
10
78.0133770990
20
95.4815957294
30
0.0000000000
10
76.6817045496
20
95.4596727824
30
0.0000000000
10
75.8003389585
20
95.4551502460
30
0.0000000000
10
75.3985395388
20
95.4551601533
30
0.0000000000
11
84.0114880645
21
95.8123160091
31
0.0000000000
11
83.6278623967
21
95.7758417874
31
0.0000000000
11
82.7624100141
21
95.7042034881
31
0.0000000000
11
81.7644866784
21
95.6364497508
31
0.0000000000
11
80.6385429899
21
95.5754148117
31
0.0000000000
11
79.3932348897
21
95.5239905224
31
0.0000000000
11
78.0423984738
21
95.4850773155
31
0.0000000000
11
76.6039211970
21
95.4613490469
31
0.0000000000
11
75.3985395388
21
95.4551601533
31
0.0000000000
0
SPLINE
5
3DE
100
AcDbEntity
8
0
100
AcDbSpline
62
7
6
CONTINUOUS
70
0
71
3
72
15
73
11
74
9
42
0.0000001000
43
0.0000001000
44
0.0000000001
40
0.0000000000
40
0.0000000000
40
0.0000000000
40
0.0000000000
40
0.1310083822
40
0.2874620648
40
0.4353814964
40
0.5730643210
40
0.6991137180
40
0.8125996026
40
0.9129526260
40
1.0000000000
40
1.0000000000
40
1.0000000000
40
1.0000000000
10
146.6391041908
20
95.4551599731
30
0.0000000000
10
146.2638896683
20
95.4551503111
30
0.0000000000
10
145.4405787030
20
95.4590920222
30
0.0000000000
10
144.1937501160
20
95.4782712505
30
0.0000000000
10
142.9281089643
20
95.5120665177
30
0.0000000000
10
141.7499527153
20
95.5570992292
30
0.0000000000
10
140.6709181399
20
95.6110400015
30
0.0000000000
10
139.6992903317
20
95.6716563152
30
0.0000000000
10
138.8400779136
20
95.7365805185
30
0.0000000000
10
138.3052546047
20
95.7848052806
30
0.0000000000
10
138.0573087005
20
95.8092333444
30
0.0000000000
11
146.6391041908
21
95.4551599731
31
0.0000000000
11
145.5134741171
21
95.4605545585
31
0.0000000000
11
144.1693648997
21
95.4812527049
31
0.0000000000
11
142.8988817088
21
95.5153730433
31
0.0000000000
11
141.7167665953
21
95.5607870487
31
0.0000000000
11
140.6351020436
21
95.6151810226
31
0.0000000000
11
139.6619323083
21
95.6762530626
31
0.0000000000
11
138.8021734892
21
95.7416849027
31
0.0000000000
11
138.0573087005
21
95.8092333444
31
0.0000000000
0
SPLINE
5
3DF
100
AcDbEntity
8
0
100
AcDbSpline
62
7
6
CONTINUOUS
70
0
71
3
72
8
73
4
74
2
42
0.0000001000
43
0.0000001000
44
0.0000000001
40
0.0000000000
40
0.0000000000
40
0.0000000000
40
0.0000000000
40
1.0000000000
40
1.0000000000
40
1.0000000000
40
1.0000000000
10
138.0573087005
20
95.8092333444
30
0.0000000000
10
137.9471817395
20
95.8200832450
30
0.0000000000
10
137.8371493144
20
95.8313331596
30
0.0000000000
10
137.7270829227
20
95.8431142510
30
0.0000000000
11
138.0573087005
21
95.8092333444
31
0.0000000000
11
137.7270829227
21
95.8431142510
31
0.0000000000
0
SPLINE
5
3E0
100
AcDbEntity
8
0
100
AcDbSpline
62
7
6
CONTINUOUS
70
0
71
3
72
8
73
4
74
2
42
0.0000001000
43
0.0000001000
44
0.0000000001
40
0.0000000000
40
0.0000000000
40
0.0000000000
40
0.0000000000
40
1.0000000000
40
1.0000000000
40
1.0000000000
40
1.0000000000
10
137.7270829227
20
95.8431142510
30
0.0000000000
10
137.6739082794
20
95.8488058642
30
0.0000000000
10
137.6207257083
20
95.8546214538
30
0.0000000000
10
137.5675207197
20
95.8605758095
30
0.0000000000
11
137.7270829227
21
95.8431142510
31
0.0000000000
11
137.5675207197
21
95.8605758095
31
0.0000000000
0
SPLINE
5
3E1
100
AcDbEntity
8
0
100
AcDbSpline
62
7
6
CONTINUOUS
70
0
71
3
72
9
73
5
74
3
42
0.0000001000
43
0.0000001000
44
0.0000000001
40
0.0000000000
40
0.0000000000
40
0.0000000000
40
0.0000000000
40
0.3641147277
40
1.0000000000
40
1.0000000000
40
1.0000000000
40
1.0000000000
10
149.7382001608
20
95.3844113946
30
0.0000000000
10
149.6679350157
20
95.4014945901
30
0.0000000000
10
149.4728707467
20
95.4400356513
30
0.0000000000
10
149.2738590914
20
95.4550122209
30
0.0000000000
10
149.1474521705
20
95.4550272057
30
0.0000000000
11
149.7382001608
21
95.3844113946
31
0.0000000000
11
149.5253601267
21
95.4264371568
31
0.0000000000
11
149.1474521705
21
95.4550272057
31
0.0000000000
0
SPLINE
5
3E2
100
AcDbEntity
8
0
100
AcDbSpline
62
7
6
CONTINUOUS
70
0
71
3
72
8
73
4
74
2
42
0.0000001000
43
0.0000001000
44
0.0000000001
40
0.0000000000
40
0.0000000000
40
0.0000000000
40
0.0000000000
40
1.0000000000
40
1.0000000000
40
1.0000000000
40
1.0000000000
10
149.1474521866
20
63.9828789225
30
0.0000000000
10
149.3454466063
20
63.9828789225
30
0.0000000000
10
149.5442921390
20
64.0066498631
30
0.0000000000
10
149.7373358002
20
64.0534738332
30
0.0000000000
11
149.1474521866
21
63.9828789225
31
0.0000000000
11
149.7373358002
21
64.0534738332
31
0.0000000000
0
SPLINE
5
3E3
100
AcDbEntity
8
0
100
AcDbSpline
62
7
6
CONTINUOUS
70
0
71
3
72
9
73
5
74
3
42
0.0000001000
43
0.0000001000
44
0.0000000001
40
0.0000000000
40
0.0000000000
40
0.0000000000
40
0.0000000000
40
0.4739335075
40
1.0000000000
40
1.0000000000
40
1.0000000000
40
1.0000000000
10
137.5674785875
20
63.5773995621
30
0.0000000000
10
137.6028879805
20
63.5813531925
30
0.0000000000
10
137.6776153140
20
63.5895791668
30
0.0000000000
10
137.7523765886
20
63.5975765942
30
0.0000000000
10
137.7917144494
20
63.6017231155
30
0.0000000000
11
137.5674785875
21
63.5773995621
31
0.0000000000
11
137.6737271786
21
63.5890989876
31
0.0000000000
11
137.7917144494
21
63.6017231155
31
0.0000000000
0
SPLINE
5
3E4
100
AcDbEntity
8
0
100
AcDbSpline
62
7
6
CONTINUOUS
70
0
71
3
72
8
73
4
74
2
42
0.0000001000
43
0.0000001000
44
0.0000000001
40
0.0000000000
40
0.0000000000
40
0.0000000000
40
0.0000000000
40
1.0000000000
40
1.0000000000
40
1.0000000000
40
1.0000000000
10
137.7917144494
20
63.6017231155
30
0.0000000000
10
137.8698305679
20
63.6099571715
30
0.0000000000
10
137.9479800441
20
63.6179520376
30
0.0000000000
10
138.0261555662
20
63.6257280114
30
0.0000000000
11
137.7917144494
21
63.6017231155
31
0.0000000000
11
138.0261555662
21
63.6257280114
31
0.0000000000
0
SPLINE
5
3E5
100
AcDbEntity
8
0
100
AcDbSpline
62
7
6
CONTINUOUS
70
0
71
3
72
15
73
11
74
9
42
0.0000001000
43
0.0000001000
44
0.0000000001
40
0.0000000000
40
0.0000000000
40
0.0000000000
40
0.0000000000
40
0.0446834309
40
0.1453877731
40
0.2613771209
40
0.3921374681
40
0.5366711377
40
0.6933841742
40
0.8602180845
40
1.0000000000
40
1.0000000000
40
1.0000000000
40
1.0000000000
10
138.0261555662
20
63.6257280114
30
0.0000000000
10
138.1539718148
20
63.6384416558
30
0.0000000000
10
138.5700777887
20
63.6779045162
30
0.0000000000
10
139.3188671607
20
63.7394021592
30
0.0000000000
10
140.3153970763
20
63.8065613923
30
0.0000000000
10
141.4385266305
20
63.8670353322
30
0.0000000000
10
142.6793037463
20
63.9179623924
30
0.0000000000
10
144.0242665318
20
63.9564482911
30
0.0000000000
10
145.3559390811
20
63.9783712380
30
0.0000000000
10
146.2373046723
20
63.9828937744
30
0.0000000000
10
146.6391040919
20
63.9828838672
30
0.0000000000
11
138.0261555662
21
63.6257280114
31
0.0000000000
11
138.4097812340
21
63.6622022331
31
0.0000000000
11
139.2752336167
21
63.7338405324
31
0.0000000000
11
140.2731569524
21
63.8015942697
31
0.0000000000
11
141.3991006409
21
63.8626292087
31
0.0000000000
11
142.6444087411
21
63.9140534981
31
0.0000000000
11
143.9952451569
21
63.9529667049
31
0.0000000000
11
145.4337224338
21
63.9766949735
31
0.0000000000
11
146.6391040919
21
63.9828838672
31
0.0000000000
0
SPLINE
5
3E6
100
AcDbEntity
8
0
100
AcDbSpline
62
7
6
CONTINUOUS
70
0
71
3
72
9
73
5
74
3
42
0.0000001000
43
0.0000001000
44
0.0000000001
40
0.0000000000
40
0.0000000000
40
0.0000000000
40
0.0000000000
40
0.1215692341
40
1.0000000000
40
1.0000000000
40
1.0000000000
40
1.0000000000
10
164.7171453152
20
91.7506152034
30
0.0000000000
10
164.7152283722
20
91.7510197227
30
0.0000000000
10
164.6994662877
20
91.7543766329
30
0.0000000000
10
164.6837564117
20
91.7579741962
30
0.0000000000
10
164.6699993649
20
91.7613122116
30
0.0000000000
11
164.7171453152
21
91.7506152034
31
0.0000000000
11
164.7113967747
21
91.7518394734
31
0.0000000000
11
164.6699993649
21
91.7613122116
31
0.0000000000
0
SPLINE
5
3E7
100
AcDbEntity
8
0
100
AcDbSpline
62
7
6
CONTINUOUS
70
0
71
3
72
16
73
12
74
10
42
0.0000001000
43
0.0000001000
44
0.0000000001
40
0.0000000000
40
0.0000000000
40
0.0000000000
40
0.0000000000
40
0.0832962632
40
0.2507828501
40
0.4031800605
40
0.5408605639
40
0.6658722963
40
0.7806474444
40
0.8841468144
40
0.9620604143
40
1.0000000000
40
1.0000000000
40
1.0000000000
40
1.0000000000
10
166.8911781394
20
89.2413564515
30
0.0000000000
10
166.8911798521
20
89.3419179474
30
0.0000000000
10
166.8730667968
20
89.6448723124
30
0.0000000000
10
166.7559141848
20
90.1201267582
30
0.0000000000
10
166.5035377740
20
90.6143466008
30
0.0000000000
10
166.1870824520
20
91.0047854873
30
0.0000000000
10
165.8383018514
20
91.2992886575
30
0.0000000000
10
165.4805975891
20
91.5092308860
30
0.0000000000
10
165.1485717202
20
91.6415974749
30
0.0000000000
10
164.8939077070
20
91.7116716083
30
0.0000000000
10
164.7578726237
20
91.7420657625
30
0.0000000000
10
164.7132060916
20
91.7514551767
30
0.0000000000
11
166.8911781394
21
89.2413564515
31
0.0000000000
11
166.8731066930
21
89.5423576939
31
0.0000000000
11
166.7286421906
21
90.1292622067
31
0.0000000000
11
166.4785418723
21
90.6190735736
31
0.0000000000
11
166.1657612821
21
91.0051270105
31
0.0000000000
11
165.8211527939
21
91.2962841958
31
0.0000000000
11
165.4640806137
21
91.5061888428
31
0.0000000000
11
165.1175291859
21
91.6455065693
31
0.0000000000
11
164.8468058496
21
91.7214492759
31
0.0000000000
11
164.7132060916
21
91.7514551767
31
0.0000000000
0
SPLINE
5
3E8
100
AcDbEntity
8
0
100
AcDbSpline
62
7
6
CONTINUOUS
70
0
71
3
72
10
73
6
74
4
42
0.0000001000
43
0.0000001000
44
0.0000000001
40
0.0000000000
40
0.0000000000
40
0.0000000000
40
0.0000000000
40
0.0261180776
40
0.9539196391
40
1.0000000000
40
1.0000000000
40
1.0000000000
40
1.0000000000
10
57.3676437406
20
91.7613120830
30
0.0000000000
10
57.3672347092
20
91.7612128355
30
0.0000000000
10
57.3522941243
20
91.7575937259
30
0.0000000000
10
57.3365787895
20
91.7540199045
30
0.0000000000
10
57.3212247662
20
91.7507684992
30
0.0000000000
10
57.3204981633
20
91.7506151691
30
0.0000000000
11
57.3676437406
21
91.7613120830
31
0.0000000000
11
57.3664165324
21
91.7610148123
31
0.0000000000
11
57.3226776433
21
91.7510767001
31
0.0000000000
11
57.3204981633
21
91.7506151691
31
0.0000000000
0
SPLINE
5
3E9
100
AcDbEntity
8
0
100
AcDbSpline
62
7
6
CONTINUOUS
70
0
71
3
72
8
73
4
74
2
42
0.0000001000
43
0.0000001000
44
0.0000000001
40
0.0000000000
40
0.0000000000
40
0.0000000000
40
0.0000000000
40
1.0000000000
40
1.0000000000
40
1.0000000000
40
1.0000000000
10
57.3245475016
20
91.7514777351
30
0.0000000000
10
57.3184363347
20
91.7501934007
30
0.0000000000
10
57.3123273657
20
91.7488985250
30
0.0000000000
10
57.3062207177
20
91.7475927271
30
0.0000000000
11
57.3245475016
21
91.7514777351
31
0.0000000000
11
57.3062207177
21
91.7475927271
31
0.0000000000
0
SPLINE
5
3EA
100
AcDbEntity
8
0
100
AcDbSpline
62
7
6
CONTINUOUS
70
0
71
3
72
8
73
4
74
2
42
0.0000001000
43
0.0000001000
44
0.0000000001
40
0.0000000000
40
0.0000000000
40
0.0000000000
40
0.0000000000
40
1.0000000000
40
1.0000000000
40
1.0000000000
40
1.0000000000
10
57.3062207177
20
91.7475927271
30
0.0000000000
10
57.2642148958
20
91.7386105305
30
0.0000000000
10
57.2223188937
20
91.7291115356
30
0.0000000000
10
57.1805727544
20
91.7189717987
30
0.0000000000
11
57.3062207177
21
91.7475927271
31
0.0000000000
11
57.1805727544
21
91.7189717987
31
0.0000000000
0
SPLINE
5
3EB
100
AcDbEntity
8
0
100
AcDbSpline
62
7
6
CONTINUOUS
70
0
71
3
72
15
73
11
74
9
42
0.0000001000
43
0.0000001000
44
0.0000000001
40
0.0000000000
40
0.0000000000
40
0.0000000000
40
0.0000000000
40
0.0821435810
40
0.1905062766
40
0.3096870577
40
0.4390337192
40
0.5811648597
40
0.7385102556
40
0.9123763805
40
1.0000000000
40
1.0000000000
40
1.0000000000
40
1.0000000000
10
57.1805727544
20
91.7189717987
30
0.0000000000
10
57.0884556434
20
91.6965974357
30
0.0000000000
10
56.8765111922
20
91.6374716452
30
0.0000000000
10
56.5442385177
20
91.5029113784
30
0.0000000000
10
56.1887514643
20
91.2915597701
30
0.0000000000
10
55.8439382270
20
90.9976068201
30
0.0000000000
10
55.5316009386
20
90.6098127905
30
0.0000000000
10
55.2817341809
20
90.1192547910
30
0.0000000000
10
55.1647446846
20
89.6458262681
30
0.0000000000
10
55.1464662227
20
89.3428302864
30
0.0000000000
10
55.1464674509
20
89.2413629712
30
0.0000000000
11
57.1805727544
21
91.7189717987
31
0.0000000000
11
56.9070834884
21
91.6412120210
31
0.0000000000
11
56.5598120591
21
91.4994737303
31
0.0000000000
11
56.2053598051
21
91.2884212173
31
0.0000000000
11
55.8647307455
21
90.9978673695
31
0.0000000000
11
55.5562059420
21
90.6146640233
31
0.0000000000
11
55.3090342910
21
90.1293518036
31
0.0000000000
11
55.1648652403
21
89.5450610808
31
0.0000000000
11
55.1464674509
21
89.2413629712
31
0.0000000000
0
SPLINE
5
3EC
100
AcDbEntity
8
0
100
AcDbSpline
62
7
6
CONTINUOUS
70
0
71
3
72
9
73
5
74
3
42
0.0000001000
43
0.0000001000
44
0.0000000001
40
0.0000000000
40
0.0000000000
40
0.0000000000
40
0.0000000000
40
0.1217381715
40
1.0000000000
40
1.0000000000
40
1.0000000000
40
1.0000000000
10
57.3204983797
20
67.6874288023
30
0.0000000000
10
57.3224179856
20
67.6870237210
30
0.0000000000
10
57.3381800526
20
67.6836667720
30
0.0000000000
10
57.3538899105
20
67.6800691737
30
0.0000000000
10
57.3676443033
20
67.6767318014
30
0.0000000000
11
57.3204983797
21
67.6874288023
31
0.0000000000
11
57.3262549022
21
67.6862028169
31
0.0000000000
11
57.3676443033
21
67.6767318014
31
0.0000000000
0
SPLINE
5
3ED
100
AcDbEntity
8
0
100
AcDbSpline
62
7
6
CONTINUOUS
70
0
71
3
72
16
73
12
74
10
42
0.0000001000
43
0.0000001000
44
0.0000000001
40
0.0000000000
40
0.0000000000
40
0.0000000000
40
0.0000000000
40
0.0832994076
40
0.2507870733
40
0.4031834216
40
0.5408629664
40
0.6658741307
40
0.7806490182
40
0.8841410134
40
0.9620613152
40
1.0000000000
40
1.0000000000
40
1.0000000000
40
1.0000000000
10
55.1464656215
20
70.1966812125
30
0.0000000000
10
55.1464639935
20
70.0961157775
30
0.0000000000
10
55.1645783434
20
69.7931558838
30
0.0000000000
10
55.2817354787
20
69.3178976083
30
0.0000000000
10
55.5341158719
20
68.8236800266
30
0.0000000000
10
55.8505728755
20
68.4332454342
30
0.0000000000
10
56.1993544938
20
68.1387458874
30
0.0000000000
10
56.5570523038
20
67.9288112922
30
0.0000000000
10
56.8890771416
20
67.7964444844
30
0.0000000000
10
57.1437398597
20
67.7263711474
30
0.0000000000
10
57.2797820381
20
67.6959759655
30
0.0000000000
10
57.3244475871
20
67.6865868692
30
0.0000000000
11
55.1464656215
21
70.1966812125
31
0.0000000000
11
55.1645387528
21
69.8956682539
31
0.0000000000
11
55.3090085192
21
69.3087602334
31
0.0000000000
11
55.5591117902
21
68.8189530797
31
0.0000000000
11
55.8718936613
21
68.4329043171
31
0.0000000000
11
56.2165032333
21
68.1417506994
31
0.0000000000
11
56.5735765408
21
67.9318487835
31
0.0000000000
11
56.9201037096
21
67.7925407873
31
0.0000000000
11
57.1908507263
21
67.7165916229
31
0.0000000000
11
57.3244475871
21
67.6865868692
31
0.0000000000
0
SPLINE
5
3EE
100
AcDbEntity
8
0
100
AcDbSpline
62
7
6
CONTINUOUS
70
0
71
3
72
10
73
6
74
4
42
0.0000001000
43
0.0000001000
44
0.0000000001
40
0.0000000000
40
0.0000000000
40
0.0000000000
40
0.0000000000
40
0.0261613295
40
0.9539615230
40
1.0000000000
40
1.0000000000
40
1.0000000000
40
1.0000000000
10
164.6699998802
20
67.6767319349
30
0.0000000000
10
164.6704095893
20
67.6768313468
30
0.0000000000
10
164.6853508436
20
67.6804506083
30
0.0000000000
10
164.7010661947
20
67.6840244119
30
0.0000000000
10
164.7164195495
20
67.6872756656
30
0.0000000000
10
164.7171454925
20
67.6874288564
30
0.0000000000
11
164.6699998802
21
67.6767319349
31
0.0000000000
11
164.6712291217
21
67.6770296973
31
0.0000000000
11
164.7149679916
21
67.6869677459
31
0.0000000000
11
164.7171454925
21
67.6874288564
31
0.0000000000
0
SPLINE
5
3EF
100
AcDbEntity
8
0
100
AcDbSpline
62
7
6
CONTINUOUS
70
0
71
3
72
8
73
4
74
2
42
0.0000001000
43
0.0000001000
44
0.0000000001
40
0.0000000000
40
0.0000000000
40
0.0000000000
40
0.0000000000
40
1.0000000000
40
1.0000000000
40
1.0000000000
40
1.0000000000
10
164.7131057388
20
67.6865681649
30
0.0000000000
10
164.7192180336
20
67.6878527518
30
0.0000000000
10
164.7253281295
20
67.6891478851
30
0.0000000000
10
164.7314359032
20
67.6904539455
30
0.0000000000
11
164.7131057388
21
67.6865681649
31
0.0000000000
11
164.7314359032
21
67.6904539455
31
0.0000000000
0
SPLINE
5
3F0
100
AcDbEntity
8
0
100
AcDbSpline
62
7
6
CONTINUOUS
70
0
71
3
72
8
73
4
74
2
42
0.0000001000
43
0.0000001000
44
0.0000000001
40
0.0000000000
40
0.0000000000
40
0.0000000000
40
0.0000000000
40
1.0000000000
40
1.0000000000
40
1.0000000000
40
1.0000000000
10
164.7314359032
20
67.6904539455
30
0.0000000000
10
164.7734410936
20
67.6994361574
30
0.0000000000
10
164.8153364552
20
67.7089352005
30
0.0000000000
10
164.8570819544
20
67.7190749557
30
0.0000000000
11
164.7314359032
21
67.6904539455
31
0.0000000000
11
164.8570819544
21
67.7190749557
31
0.0000000000
0
SPLINE
5
3F1
100
AcDbEntity
8
0
100
AcDbSpline
62
7
6
CONTINUOUS
70
0
71
3
72
15
73
11
74
9
42
0.0000001000
43
0.0000001000
44
0.0000000001
40
0.0000000000
40
0.0000000000
40
0.0000000000
40
0.0000000000
40
0.0821367802
40
0.1905065756
40
0.3096877645
40
0.4390354445
40
0.5811681382
40
0.7385152131
40
0.9123806354
40
1.0000000000
40
1.0000000000
40
1.0000000000
40
1.0000000000
10
164.8570819544
20
67.7190749557
30
0.0000000000
10
164.9491911939
20
67.7414477902
30
0.0000000000
10
165.1611355103
20
67.8005736711
30
0.0000000000
10
165.4934088642
20
67.9351333750
30
0.0000000000
10
165.8489024550
20
68.1464920453
30
0.0000000000
10
166.1937158423
20
68.4404489776
30
0.0000000000
10
166.5060528137
20
68.8282485908
30
0.0000000000
10
166.7559162688
20
69.3188106001
30
0.0000000000
10
166.8729007217
20
69.7922355264
30
0.0000000000
10
166.8911776280
20
70.0952252019
30
0.0000000000
10
166.8911763139
20
70.1966874022
30
0.0000000000
11
164.8570819544
21
67.7190749557
31
0.0000000000
11
165.1305481260
21
67.7968281474
31
0.0000000000
11
165.4778418470
21
67.9385751950
31
0.0000000000
11
165.8322935047
21
68.1496301216
31
0.0000000000
11
166.1729227741
21
68.4401880032
31
0.0000000000
11
166.4814475661
21
68.8233972053
31
0.0000000000
11
166.7286172317
21
69.3087159366
31
0.0000000000
11
166.8727806498
21
69.8930045087
31
0.0000000000
11
166.8911763139
21
70.1966874022
31
0.0000000000
0
SPLINE
5
3F2
100
AcDbEntity
8
0
100
AcDbSpline
62
7
6
CONTINUOUS
70
0
71
3
72
9
73
5
74
3
42
0.0000001000
43
0.0000001000
44
0.0000000001
40
0.0000000000
40
0.0000000000
40
0.0000000000
40
0.0000000000
40
0.4999983521
40
1.0000000000
40
1.0000000000
40
1.0000000000
40
1.0000000000
10
57.8556665730
20
91.7190220102
30
0.0000000000
10
57.8525037403
20
91.7190220102
30
0.0000000000
10
57.8461780519
20
91.7190289205
30
0.0000000000
10
57.8398523938
20
91.7190496511
30
0.0000000000
10
57.8366895704
20
91.7190634714
30
0.0000000000
11
57.8556665730
21
91.7190220102
31
0.0000000000
11
57.8461780803
21
91.7190323755
31
0.0000000000
11
57.8366895704
21
91.7190634714
31
0.0000000000
0
SPLINE
5
3F3
100
AcDbEntity
8
0
100
AcDbSpline
62
7
6
CONTINUOUS
70
0
71
3
72
9
73
5
74
3
42
0.0000001000
43
0.0000001000
44
0.0000000001
40
0.0000000000
40
0.0000000000
40
0.0000000000
40
0.0000000000
40
0.4999985786
40
1.0000000000
40
1.0000000000
40
1.0000000000
40
1.0000000000
10
164.1819770577
20
67.7190220102
30
0.0000000000
10
164.1851398920
20
67.7190220102
30
0.0000000000
10
164.1914655803
20
67.7190151000
30
0.0000000000
10
164.1977912384
20
67.7189943694
30
0.0000000000
10
164.2009540604
20
67.7189805490
30
0.0000000000
11
164.1819770577
21
67.7190220102
31
0.0000000000
11
164.1914655547
21
67.7190116449
31
0.0000000000
11
164.2009540604
21
67.7189805490
31
0.0000000000
0
SPLINE
5
3F4
100
AcDbEntity
8
0
100
AcDbSpline
62
7
6
CONTINUOUS
70
0
71
3
72
9
73
5
74
3
42
0.0000001000
43
0.0000001000
44
0.0000000001
40
0.0000000000
40
0.0000000000
40
0.0000000000
40
0.0000000000
40
0.5000016479
40
1.0000000000
40
1.0000000000
40
1.0000000000
40
1.0000000000
10
57.8366895704
20
67.7189805490
30
0.0000000000
10
57.8398523938
20
67.7189943694
30
0.0000000000
10
57.8461780519
20
67.7190151000
30
0.0000000000
10
57.8525037403
20
67.7190220102
30
0.0000000000
10
57.8556665730
20
67.7190220102
30
0.0000000000
11
57.8366895704
21
67.7189805490
31
0.0000000000
11
57.8461780803
21
67.7190116450
31
0.0000000000
11
57.8556665730
21
67.7190220102
31
0.0000000000
0
SPLINE
5
3F5
100
AcDbEntity
8
0
100
AcDbSpline
62
7
6
CONTINUOUS
70
0
71
3
72
9
73
5
74
3
42
0.0000001000
43
0.0000001000
44
0.0000000001
40
0.0000000000
40
0.0000000000
40
0.0000000000
40
0.0000000000
40
0.5000027765
40
1.0000000000
40
1.0000000000
40
1.0000000000
40
1.0000000000
10
164.2009540604
20
91.7190634714
30
0.0000000000
10
164.1977912298
20
91.7190496510
30
0.0000000000
10
164.1914655717
20
91.7190289205
30
0.0000000000
10
164.1851398834
20
91.7190220102
30
0.0000000000
10
164.1819770577
20
91.7190220102
30
0.0000000000
11
164.2009540604
21
91.7190634714
31
0.0000000000
11
164.1914655290
21
91.7190323755
31
0.0000000000
11
164.1819770577
21
91.7190220102
31
0.0000000000
0
SPLINE
5
3F6
100
AcDbEntity
8
0
100
AcDbSpline
62
7
6
CONTINUOUS
70
0
71
3
72
10
73
6
74
4
42
0.0000001000
43
0.0000001000
44
0.0000000001
40
0.0000000000
40
0.0000000000
40
0.0000000000
40
0.0000000000
40
0.4001417141
40
0.8001820762
40
1.0000000000
40
1.0000000000
40
1.0000000000
40
1.0000000000
10
137.4537200456
20
63.5679559343
30
0.0000000000
10
137.1920760860
20
63.5270122065
30
0.0000000000
10
136.6771150525
20
63.3745060939
30
0.0000000000
10
136.1081977723
20
63.0225739059
30
0.0000000000
10
135.8168955706
20
62.7489948719
30
0.0000000000
10
135.7263494452
20
62.6519661621
30
0.0000000000
11
137.4537200456
21
63.5679559343
31
0.0000000000
11
136.6919845152
21
63.3422026715
31
0.0000000000
11
136.0165105424
21
62.9243261947
31
0.0000000000
11
135.7263494452
21
62.6519661621
31
0.0000000000
0
SPLINE
5
3F7
100
AcDbEntity
8
0
100
AcDbSpline
62
7
6
CONTINUOUS
70
0
71
3
72
8
73
4
74
2
42
0.0000001000
43
0.0000001000
44
0.0000000001
40
0.0000000000
40
0.0000000000
40
0.0000000000
40
0.0000000000
40
1.0000000000
40
1.0000000000
40
1.0000000000
40
1.0000000000
10
135.7263494452
20
62.6519661621
30
0.0000000000
10
135.6586313032
20
62.5793997886
30
0.0000000000
10
135.5945427441
20
62.5035349204
30
0.0000000000
10
135.5344789370
20
62.4248043120
30
0.0000000000
11
135.7263494452
21
62.6519661621
31
0.0000000000
11
135.5344789370
21
62.4248043120
31
0.0000000000
0
SPLINE
5
3F8
100
AcDbEntity
8
0
100
AcDbSpline
62
7
6
CONTINUOUS
70
0
71
3
72
10
73
6
74
4
42
0.0000001000
43
0.0000001000
44
0.0000000001
40
0.0000000000
40
0.0000000000
40
0.0000000000
40
0.0000000000
40
0.4001387683
40
0.8001796736
40
1.0000000000
40
1.0000000000
40
1.0000000000
40
1.0000000000
10
84.5839175710
20
63.5679182353
30
0.0000000000
10
84.8455529327
20
63.5269757404
30
0.0000000000
10
85.3604987048
20
63.3744678510
30
0.0000000000
10
85.9293915901
20
63.0225268794
30
0.0000000000
10
86.2206773321
20
62.7489421665
30
0.0000000000
10
86.3112183710
20
62.6519111091
30
0.0000000000
11
84.5839175710
21
63.5679182353
31
0.0000000000
11
85.3456257185
21
63.3421642730
31
0.0000000000
11
86.0210714782
21
62.9242785401
31
0.0000000000
11
86.3112183710
21
62.6519111091
31
0.0000000000
0
SPLINE
5
3F9
100
AcDbEntity
8
0
100
AcDbSpline
62
7
6
CONTINUOUS
70
0
71
3
72
8
73
4
74
2
42
0.0000001000
43
0.0000001000
44
0.0000000001
40
0.0000000000
40
0.0000000000
40
0.0000000000
40
0.0000000000
40
1.0000000000
40
1.0000000000
40
1.0000000000
40
1.0000000000
10
86.3112183710
20
62.6519111091
30
0.0000000000
10
86.3733824302
20
62.5852911048
30
0.0000000000
10
86.4324873883
20
62.5158912652
30
0.0000000000
10
86.4882275565
20
62.4440464868
30
0.0000000000
11
86.3112183710
21
62.6519111091
31
0.0000000000
11
86.4882275565
21
62.4440464868
31
0.0000000000
0
SPLINE
5
3FA
100
AcDbEntity
8
0
100
AcDbSpline
62
7
6
CONTINUOUS
70
0
71
3
72
10
73
6
74
4
42
0.0000001000
43
0.0000001000
44
0.0000000001
40
0.0000000000
40
0.0000000000
40
0.0000000000
40
0.0000000000
40
0.4001417141
40
0.8001820762
40
1.0000000000
40
1.0000000000
40
1.0000000000
40
1.0000000000
10
84.5839235852
20
95.8700880861
30
0.0000000000
10
84.8455675448
20
95.9110318139
30
0.0000000000
10
85.3605285783
20
96.0635379266
30
0.0000000000
10
85.9294458585
20
96.4154701146
30
0.0000000000
10
86.2207480602
20
96.6890491485
30
0.0000000000
10
86.3112941855
20
96.7860778584
30
0.0000000000
11
84.5839235852
21
95.8700880861
31
0.0000000000
11
85.3456591155
21
96.0958413490
31
0.0000000000
11
86.0211330884
21
96.5137178258
31
0.0000000000
11
86.3112941855
21
96.7860778584
31
0.0000000000
0
SPLINE
5
3FB
100
AcDbEntity
8
0
100
AcDbSpline
62
7
6
CONTINUOUS
70
0
71
3
72
8
73
4
74
2
42
0.0000001000
43
0.0000001000
44
0.0000000001
40
0.0000000000
40
0.0000000000
40
0.0000000000
40
0.0000000000
40
1.0000000000
40
1.0000000000
40
1.0000000000
40
1.0000000000
10
86.3112941855
20
96.7860778584
30
0.0000000000
10
86.3790123275
20
96.8586442319
30
0.0000000000
10
86.4431008867
20
96.9345091000
30
0.0000000000
10
86.5031646938
20
97.0132397084
30
0.0000000000
11
86.3112941855
21
96.7860778584
31
0.0000000000
11
86.5031646938
21
97.0132397084
31
0.0000000000
0
SPLINE
5
3FC
100
AcDbEntity
8
0
100
AcDbSpline
62
7
6
CONTINUOUS
70
0
71
3
72
10
73
6
74
4
42
0.0000001000
43
0.0000001000
44
0.0000000001
40
0.0000000000
40
0.0000000000
40
0.0000000000
40
0.0000000000
40
0.4001387683
40
0.8001796736
40
1.0000000000
40
1.0000000000
40
1.0000000000
40
1.0000000000
10
137.4537260597
20
95.8701257852
30
0.0000000000
10
137.1920906980
20
95.9110682801
30
0.0000000000
10
136.6771449259
20
96.0635761695
30
0.0000000000
10
136.1082520406
20
96.4155171411
30
0.0000000000
10
135.8169662987
20
96.6891018539
30
0.0000000000
10
135.7264252598
20
96.7861329113
30
0.0000000000
11
137.4537260597
21
95.8701257852
31
0.0000000000
11
136.6920179123
21
96.0958797475
31
0.0000000000
11
136.0165721526
21
96.5137654804
31
0.0000000000
11
135.7264252598
21
96.7861329113
31
0.0000000000
0
SPLINE
5
3FD
100
AcDbEntity
8
0
100
AcDbSpline
62
7
6
CONTINUOUS
70
0
71
3
72
8
73
4
74
2
42
0.0000001000
43
0.0000001000
44
0.0000000001
40
0.0000000000
40
0.0000000000
40
0.0000000000
40
0.0000000000
40
1.0000000000
40
1.0000000000
40
1.0000000000
40
1.0000000000
10
135.7264252598
20
96.7861329113
30
0.0000000000
10
135.6642612006
20
96.8527529156
30
0.0000000000
10
135.6051562425
20
96.9221527552
30
0.0000000000
10
135.5494160743
20
96.9939975336
30
0.0000000000
11
135.7264252598
21
96.7861329113
31
0.0000000000
11
135.5494160743
21
96.9939975336
31
0.0000000000
0
ENDSEC
0
SECTION
2
OBJECTS
0
DICTIONARY
5
3FE
100
AcDbDictionary
3
ACAD_GROUP
350
3FF
3
ACAD_MLINESTYLE
350
400
0
DICTIONARY
5
3FF
102
{ACAD_REACTORS
330
3FE
102
}
100
AcDbDictionary
0
DICTIONARY
5
400
102
{ACAD_REACTORS
330
3FE
102
}
100
AcDbDictionary
3
STANDARD
350
401
0
MLINESTYLE
5
401
102
{ACAD_REACTORS
330
400
102
}
100
AcDbMlineStyle
2
STANDARD
70
0
3

62
256
51
90.0
52
90.0
71
2
49
0.5
62
256
6
BYLAYER
49
-0.5
62
256
6
BYLAYER
0
ENDSEC
0
EOF
